  0
SECTION
  2
HEADER
  9
$ACADVER
  1
AC1009
  9
$INSBASE
 10
0.0
 20
0.0
 30
0.0
  9
$EXTMIN
 10
-4.7012099999999988
 20
-21.071000000000002
 30
0.0
  9
$EXTMAX
 10
205.30099999999999
 20
275.93099999999998
 30
0.0
  9
$LIMMIN
 10
0.0
 20
0.0
  9
$LIMMAX
 10
12.0
 20
9.0
  9
$ORTHOMODE
 70
     0
  9
$REGENMODE
 70
     1
  9
$FILLMODE
 70
     1
  9
$QTEXTMODE
 70
     0
  9
$MIRRTEXT
 70
     1
  9
$DRAGMODE
 70
     2
  9
$LTSCALE
 40
1.0
  9
$OSMODE
 70
    37
  9
$ATTMODE
 70
     1
  9
$TEXTSIZE
 40
0.0
  9
$TRACEWID
 40
0.05
  9
$TEXTSTYLE
  7
STANDARD
  9
$CLAYER
  8
0
  9
$CELTYPE
  6
CONTINUOUS
  9
$CECOLOR
 62
   256
  9
$DIMSCALE
 40
1.0
  9
$DIMASZ
 40
0.18
  9
$DIMEXO
 40
0.0625
  9
$DIMDLI
 40
0.38
  9
$DIMRND
 40
0.0
  9
$DIMDLE
 40
0.0
  9
$DIMEXE
 40
0.18
  9
$DIMTP
 40
0.0
  9
$DIMTM
 40
0.0
  9
$DIMTXT
 40
0.18
  9
$DIMCEN
 40
0.09
  9
$DIMTSZ
 40
0.0
  9
$DIMTOL
 70
     0
  9
$DIMLIM
 70
     0
  9
$DIMTIH
 70
     1
  9
$DIMTOH
 70
     1
  9
$DIMSE1
 70
     0
  9
$DIMSE2
 70
     0
  9
$DIMTAD
 70
     0
  9
$DIMZIN
 70
     0
  9
$DIMBLK
  1

  9
$DIMASO
 70
     1
  9
$DIMSHO
 70
     1
  9
$DIMPOST
  1

  9
$DIMAPOST
  1

  9
$DIMALT
 70
     0
  9
$DIMALTD
 70
     2
  9
$DIMALTF
 40
25.399999999999999
  9
$DIMLFAC
 40
1.0
  9
$DIMTOFL
 70
     0
  9
$DIMTVP
 40
0.0
  9
$DIMTIX
 70
     0
  9
$DIMSOXD
 70
     0
  9
$DIMSAH
 70
     0
  9
$DIMBLK1
  1

  9
$DIMBLK2
  1

  9
$DIMSTYLE
  2
STANDARD
  9
$DIMCLRD
 70
     0
  9
$DIMCLRE
 70
     0
  9
$DIMCLRT
 70
     0
  9
$DIMTFAC
 40
1.0
  9
$DIMGAP
 40
0.09
  9
$LUNITS
 70
     2
  9
$LUPREC
 70
     4
  9
$SKETCHINC
 40
0.1
  9
$FILLETRAD
 40
0.0
  9
$AUNITS
 70
     0
  9
$AUPREC
 70
     0
  9
$MENU
  1
.
  9
$ELEVATION
 40
0.0
  9
$PELEVATION
 40
0.0
  9
$THICKNESS
 40
0.0
  9
$LIMCHECK
 70
     0
  9
$BLIPMODE
 70
     0
  9
$CHAMFERA
 40
0.0
  9
$CHAMFERB
 40
0.0
  9
$SKPOLY
 70
     0
  9
$TDCREATE
 40
2444972.375
  9
$TDUPDATE
 40
2458180.2670232179
  9
$TDINDWG
 40
0.0000311458
  9
$TDUSRTIMER
 40
0.0000311458
  9
$USRTIMER
 70
     1
  9
$ANGBASE
 50
0.0
  9
$ANGDIR
 70
     0
  9
$PDMODE
 70
     0
  9
$PDSIZE
 40
0.0
  9
$PLINEWID
 40
0.0
  9
$COORDS
 70
     1
  9
$SPLFRAME
 70
     0
  9
$SPLINETYPE
 70
     6
  9
$SPLINESEGS
 70
     8
  9
$ATTDIA
 70
     1
  9
$ATTREQ
 70
     1
  9
$HANDLING
 70
     1
  9
$HANDSEED
  5
31D
  9
$SURFTAB1
 70
     6
  9
$SURFTAB2
 70
     6
  9
$SURFTYPE
 70
     6
  9
$SURFU
 70
     6
  9
$SURFV
 70
     6
  9
$UCSNAME
  2

  9
$UCSORG
 10
0.0
 20
0.0
 30
0.0
  9
$UCSXDIR
 10
1.0
 20
0.0
 30
0.0
  9
$UCSYDIR
 10
0.0
 20
1.0
 30
0.0
  9
$PUCSNAME
  2

  9
$PUCSORG
 10
0.0
 20
0.0
 30
0.0
  9
$PUCSXDIR
 10
1.0
 20
0.0
 30
0.0
  9
$PUCSYDIR
 10
0.0
 20
1.0
 30
0.0
  9
$USERI1
 70
     0
  9
$USERI2
 70
     0
  9
$USERI3
 70
     0
  9
$USERI4
 70
     0
  9
$USERI5
 70
     0
  9
$USERR1
 40
0.0
  9
$USERR2
 40
0.0
  9
$USERR3
 40
0.0
  9
$USERR4
 40
0.0
  9
$USERR5
 40
0.0
  9
$WORLDVIEW
 70
     1
  9
$SHADEDGE
 70
     3
  9
$SHADEDIF
 70
    70
  9
$TILEMODE
 70
     1
  9
$MAXACTVP
 70
    48
  9
$PLIMCHECK
 70
     0
  9
$PEXTMIN
 10
1.0000000000000000E+020
 20
1.0000000000000000E+020
 30
1.0000000000000000E+020
  9
$PEXTMAX
 10
-1.0000000000000000E+020
 20
-1.0000000000000000E+020
 30
-1.0000000000000000E+020
  9
$PLIMMIN
 10
0.0
 20
0.0
  9
$PLIMMAX
 10
12.0
 20
9.0
  9
$UNITMODE
 70
     0
  9
$VISRETAIN
 70
     1
  9
$PLINEGEN
 70
     0
  9
$PSLTSCALE
 70
     1
  0
ENDSEC
  0
SECTION
  2
TABLES
  0
TABLE
  2
VPORT
 70
     1
  0
VPORT
  2
*ACTIVE
 70
     0
 10
0.0
 20
0.0
 11
1.0
 21
1.0
 12
190.8814285634833
 22
127.42999999999989
 13
0.0
 23
0.0
 14
1.0
 24
1.0
 15
0.0
 25
0.0
 16
0.0
 26
0.0
 36
1.0
 17
0.0
 27
0.0
 37
0.0
 40
280.9489091151741
 41
2.298642533936651
 42
50.0
 43
0.0
 44
0.0
 50
0.0
 51
0.0
 71
     0
 72
   100
 73
     1
 74
     1
 75
     0
 76
     0
 77
     0
 78
     0
  0
ENDTAB
  0
TABLE
  2
LTYPE
 70
     4
  0
LTYPE
  2
CONTINUOUS
 70
     0
  3
Solid line
 72
    65
 73
     0
 40
0.0
  0
LTYPE
  2
AIGENLINE001
 70
     0
  3
generate AI->DXF Converter
 72
    65
 73
     4
 40
12.328120999999999
 49
10.0001
 49
-0.776007
 49
0.776007
 49
-0.776007
  0
LTYPE
  2
AIGENLINE002
 70
     0
  3
generate AI->DXF Converter
 72
    65
 73
     2
 40
1.5522299999999991
 49
0.776115
 49
-0.776115
  0
LTYPE
  2
AIGENLINE003
 70
     0
  3
generate AI->DXF Converter
 72
    65
 73
     4
 40
5.8561449999999988
 49
3.5278
 49
-0.776115
 49
0.776115
 49
-0.776115
  0
ENDTAB
  0
TABLE
  2
LAYER
 70
     2
  0
LAYER
  2
0
 70
     0
 62
     7
  6
CONTINUOUS
  0
LAYER
  2
_________2
 70
     0
 62
     7
  6
CONTINUOUS
  0
ENDTAB
  0
TABLE
  2
STYLE
 70
     1
  0
STYLE
  2
STANDARD
 70
     0
 40
0.0
 41
0.0
 50
0.0
 71
     0
 42
0.0
  3
TXT
  4
EXTFONT.SHX
  0
ENDTAB
  0
TABLE
  2
VIEW
 70
     0
  0
ENDTAB
  0
TABLE
  2
UCS
 70
     0
  0
ENDTAB
  0
TABLE
  2
APPID
 70
     3
  0
APPID
  2
ACAD
 70
     0
  0
APPID
  2
ACAD_NAV_VCDISPLAY
 70
     0
  0
APPID
  2
ACAD_MLEADERVER
 70
     0
  0
ENDTAB
  0
TABLE
  2
DIMSTYLE
 70
     1
  0
DIMSTYLE
  2
STANDARD
 70
     0
  3

  4

  5

  6

  7

 40
1.0
 41
0.18
 42
0.0625
 43
0.38
 44
0.18
 45
0.0
 46
0.0
 47
0.0
 48
0.0
140
0.18
141
0.09
142
0.0
143
25.399999999999999
144
1.0
145
0.0
146
1.0
147
0.09
 71
     0
 72
     0
 73
     1
 74
     1
 75
     0
 76
     0
 77
     0
 78
     0
170
     0
171
     2
172
     0
173
     0
174
     0
175
     0
176
     0
177
     0
178
     0
  0
ENDTAB
  0
ENDSEC
  0
SECTION
  2
BLOCKS
  0
BLOCK
  8
0
  2
$MODEL_SPACE
 70
     0
 10
0.0
 20
0.0
 30
0.0
  3
$MODEL_SPACE
  1

  0
ENDBLK
  5
1A
  8
0
  0
BLOCK
 67
     1
  8
0
  2
$PAPER_SPACE
 70
     0
 10
0.0
 20
0.0
 30
0.0
  3
$PAPER_SPACE
  1

  0
ENDBLK
  5
17
 67
     1
  8
0
  0
ENDSEC
  0
SECTION
  2
ENTITIES
  0
TEXT
  5
24
  8
0
 62
     7
 10
85.136979999999994
 20
214.63200000000001
 30
0.0
 40
3.0923400000000001
  1
%%c35
 41
0.5
 72
     2
 11
89.260099999999994
 21
214.63200000000001
 31
0.0
  0
TEXT
  5
25
  8
0
 62
     7
 10
80.005979999999994
 20
189.501
 30
0.0
 40
3.0923400000000001
  1
%%c46
 41
0.5
 72
     2
 11
84.129099999999994
 21
189.501
 31
0.0
  0
TEXT
  5
26
  8
0
 62
     7
 10
168.78640499999989
 20
204.87100000000001
 30
0.0
 40
3.0923400000000001
  1
%%c340
 41
0.5
 72
     2
 11
174.19800000000001
 21
204.87100000000001
 31
0.0
  0
TEXT
  5
27
  8
0
 62
     7
 10
33.894100000000002
 20
218.01400000000001
 30
0.0
 40
3.0923400000000001
  1
メーカーロゴ
 41
0.5
  0
TEXT
  5
28
  8
0
 62
     7
 10
115.384
 20
183.25906749999999
 30
0.0
 40
3.0923400000000001
  1
10
 50
90.0
 41
0.5
 72
     1
 11
115.384
 21
184.161
 31
0.0
  0
TEXT
  5
29
  8
0
 62
     7
 10
34.8718
 20
148.91
 30
0.0
 40
3.0923400000000001
  1
20
 50
90.0
 41
0.5
  0
TEXT
  5
2A
  8
0
 62
     7
 10
26.359300000000001
 20
181.66028750000001
 30
0.0
 40
3.0923400000000001
  1
450
 50
90.0
 41
0.5
 72
     1
 11
26.359300000000001
 21
183.59299999999999
 31
0.0
  0
TEXT
  5
2B
  8
0
 62
     7
 10
144.345
 20
99.910677499999991
 30
0.0
 40
3.0923400000000001
  1
110
 50
90.0
 41
0.5
 72
     1
 11
144.345
 21
101.328
 31
0.0
  0
TEXT
  5
2C
  8
0
 62
     7
 10
26.359300000000001
 20
96.167734999999993
 30
0.0
 40
3.0923400000000001
  1
165
 50
90.0
 41
0.5
 72
     1
 11
26.359300000000001
 21
97.971599999999995
 31
0.0
  0
TEXT
  5
2D
  8
0
 62
     7
 10
34.8718
 20
101.49937250000001
 30
0.0
 40
3.0923400000000001
  1
90
 50
90.0
 41
0.5
 72
     1
 11
34.8718
 21
102.65900000000001
 31
0.0
  0
TEXT
  5
2E
  8
0
 62
     7
 10
34.8718
 20
174.91313500000001
 30
0.0
 40
3.0923400000000001
  1
300
 50
90.0
 41
0.5
 72
     1
 11
34.8718
 21
176.71700000000001
 31
0.0
  0
TEXT
  5
2F
  8
0
 62
     7
 10
34.8718
 20
201.91698249999999
 30
0.0
 40
3.0923400000000001
  1
130
 50
90.0
 41
0.5
 72
     1
 11
34.8718
 21
203.59200000000001
 31
0.0
  0
TEXT
  5
30
  8
0
 62
     7
 10
107.349
 20
198.241525
 30
0.0
 40
3.0923400000000001
  1
65
 50
90.0
 41
0.5
 72
     1
 11
107.349
 21
199.53
 31
0.0
  0
TEXT
  5
31
  8
0
 62
     7
 10
107.349
 20
206.366525
 30
0.0
 40
3.0923400000000001
  1
65
 50
90.0
 41
0.5
 72
     1
 11
107.349
 21
207.655
 31
0.0
  0
TEXT
  5
32
  8
0
 62
     7
 10
138.65176
 20
152.21600000000001
 30
0.0
 40
3.0923400000000001
  1
カウンター切込寸法
 41
0.5
 72
     1
 11
146.898
 21
152.21600000000001
 31
0.0
  0
TEXT
  5
33
  8
0
 62
     7
 10
148.511
 20
175.453
 30
0.0
 40
3.0923400000000001
  1
排水口
 41
0.5
  0
TEXT
  5
34
  8
0
 62
     7
 10
146.85228749999999
 20
71.448999999999984
 30
0.0
 40
3.0923400000000001
  1
420
 41
0.5
 72
     1
 11
148.785
 21
71.448999999999984
 31
0.0
  0
TEXT
  5
35
  8
0
 62
     7
 10
159.32344000000001
 20
79.693799999999996
 30
0.0
 40
3.0923400000000001
  1
225
 41
0.5
 72
     1
 11
161.38499999999999
 21
79.693799999999996
 31
0.0
  0
TEXT
  5
36
  8
0
 62
     7
 10
71.573687500000005
 20
78.084999999999994
 30
0.0
 40
3.0923400000000001
  1
390
 41
0.5
 72
     1
 11
73.506399999999999
 21
78.084999999999994
 31
0.0
  0
TEXT
  5
37
  8
0
 62
     7
 10
71.444540000000003
 20
138.898
 30
0.0
 40
3.0923400000000001
  1
445
 41
0.5
 72
     1
 11
73.506100000000004
 21
138.898
 31
0.0
  0
TEXT
  5
38
  8
0
 62
     7
 10
71.573387499999995
 20
145.78200000000001
 30
0.0
 40
3.0923400000000001
  1
405
 41
0.5
 72
     1
 11
73.506100000000004
 21
145.78200000000001
 31
0.0
  0
LINE
  5
39
  8
0
 62
     7
 10
71.597099999999998
 20
194.435
 30
0.0
 11
71.597099999999998
 21
195.11699999999999
 31
0.0
  0
ARC
  5
3A
  8
0
 62
     7
 10
71.674593999999999
 20
195.11639600000001
 30
0.0
 40
0.077481
 50
135.73168799999999
 51
179.44636
  0
ARC
  5
3B
  8
0
 62
     7
 10
71.772040000000004
 20
195.038377
 30
0.0
 40
0.202085
 50
124.62423099999999
 51
139.17911699999999
  0
ARC
  5
3C
  8
0
 62
     7
 10
71.905115000000009
 20
194.84921900000001
 30
0.0
 40
0.433359
 50
115.1240889999999
 51
124.892353
  0
ARC
  5
3D
  8
0
 62
     7
 10
72.109297999999995
 20
194.42252500000001
 30
0.0
 40
0.9063829999999999
 50
108.83820900000001
 51
115.357967
  0
ARC
  5
3E
  8
0
 62
     7
 10
72.381833
 20
193.62700100000001
 30
0.0
 40
1.747295
 50
103.87782799999999
 51
108.873114
  0
ARC
  5
3F
  8
0
 62
     7
 10
72.69560899999999
 20
192.377229
 30
0.0
 40
3.0358489999999998
 50
100.233514
 51
103.96947299999999
  0
ARC
  5
40
  8
0
 62
     7
 10
73.12424200000001
 20
189.98442299999999
 30
0.0
 40
5.4667430000000001
 50
94.45702
 51
100.198995
  0
ARC
  5
41
  8
0
 62
     7
 10
73.477170999999998
 20
186.2164019999999
 30
0.0
 40
9.2509839999999972
 50
89.821095999999983
 51
94.822709000000003
  0
ARC
  5
42
  8
0
 62
     7
 10
73.509868999999995
 20
185.82037
 30
0.0
 40
9.6469719999999999
 50
84.251547000000002
 51
90.022640000000024
  0
ARC
  5
43
  8
0
 62
     7
 10
73.954581999999988
 20
190.452776
 30
0.0
 40
4.9933639999999988
 50
78.160613999999995
 51
84.004726000000005
  0
ARC
  5
44
  8
0
 62
     7
 10
74.616675999999998
 20
193.631835
 30
0.0
 40
1.7460990000000001
 50
67.889332999999993
 51
78.021665999999996
  0
ARC
  5
45
  8
0
 62
     7
 10
75.120746999999994
 20
194.886664
 30
0.0
 40
0.393857
 50
47.024829999999987
 51
67.116561000000004
  0
ARC
  5
46
  8
0
 62
     7
 10
75.322507999999985
 20
195.110433
 30
0.0
 40
0.09273
 50
4.1504120000000002
 51
43.982750000000003
  0
LINE
  5
47
  8
0
 62
     7
 10
75.415000000000006
 20
195.11699999999999
 30
0.0
 11
75.415000000000006
 21
194.435
 31
0.0
  0
LINE
  5
48
  8
0
 62
     7
 10
71.381100000000004
 20
193.5
 30
0.0
 11
71.381100000000004
 21
194.233
 31
0.0
  0
ARC
  5
49
  8
0
 62
     7
 10
71.493454
 20
194.23225400000001
 30
0.0
 40
0.112348
 50
144.733891
 51
179.73012
  0
ARC
  5
4A
  8
0
 62
     7
 10
71.583770999999999
 20
194.175757
 30
0.0
 40
0.218793
 50
132.651948
 51
146.310023
  0
ARC
  5
4B
  8
0
 62
     7
 10
71.701456000000007
 20
194.04726099999999
 30
0.0
 40
0.393036
 50
122.06990500000001
 51
132.57821200000001
  0
ARC
  5
4C
  8
0
 62
     7
 10
71.884117000000003
 20
193.75879699999999
 30
0.0
 40
0.734467
 50
114.49239900000001
 51
122.196718
  0
ARC
  5
4D
  8
0
 62
     7
 10
72.132232000000002
 20
193.21873400000001
 30
0.0
 40
1.328795999999999
 50
108.88118900000001
 51
114.574055
  0
ARC
  5
4E
  8
0
 62
     7
 10
72.425154000000006
 20
192.367952
 30
0.0
 40
2.228591999999999
 50
104.520274
 51
108.928513
  0
ARC
  5
4F
  8
0
 62
     7
 10
72.854174
 20
190.695179
 30
0.0
 40
3.9555019999999992
 50
97.789762999999994
 51
104.46109199999999
  0
ARC
  5
50
  8
0
 62
     7
 10
73.33708
 20
187.549474
 30
0.0
 40
7.1378209999999997
 50
93.111380000000011
 51
98.207858999999999
  0
ARC
  5
51
  8
0
 62
     7
 10
73.499421999999996
 20
185.201806
 30
0.0
 40
9.4909029999999994
 50
89.95994300000001
 51
93.320723999999984
  0
ARC
  5
52
  8
0
 62
     7
 10
73.504986000000002
 20
185.319999
 30
0.0
 40
9.3727070000000001
 50
84.210923000000008
 51
89.993455000000026
  0
ARC
  5
53
  8
0
 62
     7
 10
73.855452
 20
188.986265
 30
0.0
 40
5.6898289999999996
 50
78.307391999999993
 51
83.998194999999996
  0
ARC
  5
54
  8
0
 62
     7
 10
74.471668000000008
 20
192.012158
 30
0.0
 40
2.6018620000000001
 50
69.987222000000003
 51
78.091555
  0
ARC
  5
55
  8
0
 62
     7
 10
75.060408999999993
 20
193.64876799999999
 30
0.0
 40
0.8626179999999999
 50
55.388630999999997
 51
69.528576000000001
  0
ARC
  5
56
  8
0
 62
     7
 10
75.410972000000001
 20
194.16676799999999
 30
0.0
 40
0.237239
 50
26.876591000000001
 51
54.010401999999999
  0
ARC
  5
57
  8
0
 62
     7
 10
75.521984000000003
 20
194.232
 30
0.0
 40
0.109022
 50
0.4114950000000001
 51
22.668293999999999
  0
LINE
  5
58
  8
0
 62
     7
 10
75.631
 20
194.233
 30
0.0
 11
75.631
 21
193.5
 31
0.0
  0
ARC
  5
59
  8
0
 62
     7
 10
75.51865699999999
 20
193.500708
 30
0.0
 40
0.112348
 50
324.73391099999998
 51
359.73014000000001
  0
ARC
  5
5A
  8
0
 62
     7
 10
75.428340000000006
 20
193.55720500000001
 30
0.0
 40
0.218793
 50
312.65196800000001
 51
326.31004300000001
  0
ARC
  5
5B
  8
0
 62
     7
 10
75.310655000000011
 20
193.68570099999999
 30
0.0
 40
0.393036
 50
302.06992500000001
 51
312.57823100000002
  0
ARC
  5
5C
  8
0
 62
     7
 10
75.127994000000001
 20
193.974165
 30
0.0
 40
0.734467
 50
294.49241899999998
 51
302.19673799999998
  0
ARC
  5
5D
  8
0
 62
     7
 10
74.879879000000003
 20
194.514228
 30
0.0
 40
1.328795999999999
 50
288.88120900000001
 51
294.57407499999999
  0
ARC
  5
5E
  8
0
 62
     7
 10
74.586956999999984
 20
195.36501000000001
 30
0.0
 40
2.228591999999999
 50
284.52029300000009
 51
288.9285319999999
  0
ARC
  5
5F
  8
0
 62
     7
 10
74.157937000000004
 20
197.03778299999999
 30
0.0
 40
3.9555019999999992
 50
277.789783
 51
284.46111200000001
  0
ARC
  5
60
  8
0
 62
     7
 10
73.675031000000004
 20
200.18348800000001
 30
0.0
 40
7.1378209999999997
 50
273.1114
 51
278.20787899999999
  0
ARC
  5
61
  8
0
 62
     7
 10
73.512688999999995
 20
202.53115600000001
 30
0.0
 40
9.4909029999999994
 50
269.95996200000002
 51
273.32074399999999
  0
ARC
  5
62
  8
0
 62
     7
 10
73.507125000000002
 20
202.41296299999999
 30
0.0
 40
9.3727070000000001
 50
264.21094299999999
 51
269.99347400000011
  0
ARC
  5
63
  8
0
 62
     7
 10
73.156658999999991
 20
198.74669700000001
 30
0.0
 40
5.6898289999999996
 50
258.307412
 51
263.99821500000002
  0
ARC
  5
64
  8
0
 62
     7
 10
72.54044300000001
 20
195.72080399999999
 30
0.0
 40
2.6018620000000001
 50
249.98724100000001
 51
258.09157499999998
  0
ARC
  5
65
  8
0
 62
     7
 10
71.951701999999983
 20
194.084194
 30
0.0
 40
0.8626179999999999
 50
235.38865100000001
 51
249.528595
  0
ARC
  5
66
  8
0
 62
     7
 10
71.601139000000003
 20
193.566194
 30
0.0
 40
0.237239
 50
206.876611
 51
234.01042200000001
  0
ARC
  5
67
  8
0
 62
     7
 10
71.490127000000001
 20
193.50096199999999
 30
0.0
 40
0.109022
 50
180.41151500000001
 51
202.66831400000001
  0
ARC
  5
68
  8
0
 62
     7
 10
71.493454
 20
193.49965
 30
0.0
 40
0.112348
 50
144.733891
 51
179.73012
  0
ARC
  5
69
  8
0
 62
     7
 10
71.583770999999999
 20
193.443152
 30
0.0
 40
0.218793
 50
132.651948
 51
146.310023
  0
ARC
  5
6A
  8
0
 62
     7
 10
71.701456000000007
 20
193.31465700000001
 30
0.0
 40
0.393036
 50
122.06990500000001
 51
132.57821200000001
  0
ARC
  5
6B
  8
0
 62
     7
 10
71.884117000000003
 20
193.0261919999999
 30
0.0
 40
0.734467
 50
114.49239900000001
 51
122.196718
  0
ARC
  5
6C
  8
0
 62
     7
 10
72.132232000000002
 20
192.48613
 30
0.0
 40
1.328795999999999
 50
108.88118900000001
 51
114.574055
  0
ARC
  5
6D
  8
0
 62
     7
 10
72.425154000000006
 20
191.635347
 30
0.0
 40
2.228591999999999
 50
104.520274
 51
108.928513
  0
ARC
  5
6E
  8
0
 62
     7
 10
72.854174
 20
189.96257399999999
 30
0.0
 40
3.9555019999999992
 50
97.789762999999994
 51
104.46109199999999
  0
ARC
  5
6F
  8
0
 62
     7
 10
73.33708
 20
186.816869
 30
0.0
 40
7.1378209999999997
 50
93.111380000000011
 51
98.207858999999999
  0
ARC
  5
70
  8
0
 62
     7
 10
73.499421999999996
 20
184.469201
 30
0.0
 40
9.4909029999999994
 50
89.95994300000001
 51
93.320723999999984
  0
ARC
  5
71
  8
0
 62
     7
 10
73.504986000000002
 20
184.58739499999999
 30
0.0
 40
9.3727070000000001
 50
84.210923000000008
 51
89.993455000000026
  0
ARC
  5
72
  8
0
 62
     7
 10
73.855452
 20
188.25366
 30
0.0
 40
5.6898289999999996
 50
78.307391999999993
 51
83.998194999999996
  0
ARC
  5
73
  8
0
 62
     7
 10
74.471668000000008
 20
191.27955299999999
 30
0.0
 40
2.6018620000000001
 50
69.987222000000003
 51
78.091555
  0
ARC
  5
74
  8
0
 62
     7
 10
75.060408999999993
 20
192.91616400000001
 30
0.0
 40
0.8626179999999999
 50
55.388630999999997
 51
69.528576000000001
  0
ARC
  5
75
  8
0
 62
     7
 10
75.410972000000001
 20
193.4341639999999
 30
0.0
 40
0.237239
 50
26.876591000000001
 51
54.010401999999999
  0
ARC
  5
76
  8
0
 62
     7
 10
75.521984000000003
 20
193.49939599999999
 30
0.0
 40
0.109022
 50
0.4114950000000001
 51
22.668293999999999
  0
LINE
  5
77
  8
0
  6
AIGENLINE003
 62
     7
 10
68.943700000000007
 20
195.11699999999999
 30
0.0
 11
78.069100000000006
 21
195.11699999999999
 31
0.0
  0
LINE
  5
78
  8
0
  6
AIGENLINE002
 62
     7
 10
156.30000000000001
 20
102.19799999999999
 30
0.0
 11
156.75999999999999
 21
104.273
 31
0.0
  0
LINE
  5
79
  8
0
  6
AIGENLINE002
 62
     7
 10
157.221
 20
106.34699999999999
 30
0.0
 11
156.75999999999999
 21
104.273
 31
0.0
  0
LINE
  5
7A
  8
0
  6
AIGENLINE001
 62
     7
 10
156.31800000000001
 20
104.371
 30
0.0
 11
160.773
 21
103.384
 31
0.0
  0
LINE
  5
7B
  8
0
  6
AIGENLINE002
 62
     7
 10
160.32499999999999
 20
103.136
 30
0.0
 11
160.398
 21
103.468
 31
0.0
  0
LINE
  5
7C
  8
0
  6
AIGENLINE002
 62
     7
 10
157.4189999999999
 20
103.78
 30
0.0
 11
160.32499999999999
 21
103.136
 31
0.0
  0
LINE
  5
7D
  8
0
  6
AIGENLINE002
 62
     7
 10
159.37700000000001
 20
101.82899999999999
 30
0.0
 11
159.21799999999999
 21
102.13500000000001
 31
0.0
  0
LINE
  5
7E
  8
0
  6
AIGENLINE002
 62
     7
 10
157.97
 20
102.45399999999999
 30
0.0
 11
159.03899999999999
 21
102.265
 31
0.0
  0
ARC
  5
7F
  8
0
  6
AIGENLINE002
 62
     7
 10
159.00062800000001
 20
102.02449900000001
 30
0.0
 40
0.243981
 50
26.925215000000001
 51
81.111448999999993
  0
LINE
  5
80
  8
0
  6
AIGENLINE002
 62
     7
 10
160.12899999999999
 20
102.023
 30
0.0
 11
160.184
 21
102.274
 31
0.0
  0
LINE
  5
81
  8
0
  6
AIGENLINE002
 62
     7
 10
159.37700000000001
 20
101.82899999999999
 30
0.0
 11
160.02600000000001
 21
101.925
 31
0.0
  0
ARC
  5
82
  8
0
  6
AIGENLINE002
 62
     7
 10
160.008702
 20
102.048498
 30
0.0
 40
0.123426
 50
304.57925599999999
 51
347.92049900000001
  0
ARC
  5
83
  8
0
  6
AIGENLINE002
 62
     7
 10
160.010085
 20
102.037249
 30
0.0
 40
0.1135
 50
277.90592500000002
 51
307.22810800000002
  0
LINE
  5
84
  8
0
  6
AIGENLINE002
 62
     7
 10
157.352
 20
103.47499999999999
 30
0.0
 11
158.13499999999999
 21
103.19799999999999
 31
0.0
  0
LINE
  5
85
  8
0
  6
AIGENLINE002
 62
     7
 10
158.13499999999999
 20
103.19799999999999
 30
0.0
 11
160.184
 21
102.274
 31
0.0
  0
LINE
  5
86
  8
0
  6
AIGENLINE002
 62
     7
 10
157.886
 20
102.06999999999999
 30
0.0
 11
158.13499999999999
 21
103.19799999999999
 31
0.0
  0
LINE
  5
87
  8
0
  6
AIGENLINE002
 62
     7
 10
156.30000000000001
 20
102.19799999999999
 30
0.0
 11
157.03299999999999
 21
102.036
 31
0.0
  0
LINE
  5
88
  8
0
  6
AIGENLINE002
 62
     7
 10
157.08000000000001
 20
102.247
 30
0.0
 11
157.886
 21
102.06999999999999
 31
0.0
  0
LINE
  5
89
  8
0
  6
AIGENLINE002
 62
     7
 10
157.03399999999999
 20
102.036
 30
0.0
 11
157.49299999999999
 21
104.111
 31
0.0
  0
LINE
  5
8A
  8
0
  6
AIGENLINE002
 62
     7
 10
160.471
 20
103.79900000000001
 30
0.0
 11
160.39699999999999
 21
103.467
 31
0.0
  0
LINE
  5
8B
  8
0
  6
AIGENLINE002
 62
     7
 10
157.565
 20
104.443
 30
0.0
 11
160.471
 21
103.79900000000001
 31
0.0
  0
LINE
  5
8C
  8
0
  6
AIGENLINE002
 62
     7
 10
160.16499999999999
 20
105.384
 30
0.0
 11
159.892
 21
105.17400000000001
 31
0.0
  0
LINE
  5
8D
  8
0
  6
AIGENLINE002
 62
     7
 10
158.625
 20
105.41200000000001
 30
0.0
 11
159.67400000000001
 21
105.131
 31
0.0
  0
ARC
  5
8E
  8
0
  6
AIGENLINE002
 62
     7
 10
159.739893
 20
105.37022
 30
0.0
 40
0.248414
 50
254.19364300000001
 51
307.66415499999999
  0
LINE
  5
8F
  8
0
  6
AIGENLINE002
 62
     7
 10
160.76400000000001
 20
104.89100000000001
 30
0.0
 11
160.708
 21
104.64
 31
0.0
  0
LINE
  5
90
  8
0
  6
AIGENLINE002
 62
     7
 10
160.16499999999999
 20
105.384
 30
0.0
 11
160.71100000000001
 21
105.02200000000001
 31
0.0
  0
ARC
  5
91
  8
0
  6
AIGENLINE002
 62
     7
 10
160.644701
 20
104.917506
 30
0.0
 40
0.122253
 50
347.348161
 51
30.345140000000001
  0
ARC
  5
92
  8
0
  6
AIGENLINE002
 62
     7
 10
160.65971300000001
 20
104.936181
 30
0.0
 40
0.100227
 50
25.461510000000001
 51
59.268110999999998
  0
LINE
  5
93
  8
0
  6
AIGENLINE002
 62
     7
 10
157.63300000000001
 20
104.748
 30
0.0
 11
158.46000000000001
 21
104.66800000000001
 31
0.0
  0
LINE
  5
94
  8
0
  6
AIGENLINE002
 62
     7
 10
158.46000000000001
 20
104.66800000000001
 30
0.0
 11
160.708
 21
104.64
 31
0.0
  0
LINE
  5
95
  8
0
  6
AIGENLINE002
 62
     7
 10
158.71000000000001
 20
105.79600000000001
 30
0.0
 11
158.46000000000001
 21
104.66800000000001
 31
0.0
  0
LINE
  5
96
  8
0
  6
AIGENLINE002
 62
     7
 10
157.221
 20
106.34699999999999
 30
0.0
 11
157.952
 21
106.18600000000001
 31
0.0
  0
LINE
  5
97
  8
0
  6
AIGENLINE002
 62
     7
 10
157.904
 20
105.97499999999999
 30
0.0
 11
158.71000000000001
 21
105.79600000000001
 31
0.0
  0
LINE
  5
98
  8
0
  6
AIGENLINE002
 62
     7
 10
157.952
 20
106.184
 30
0.0
 11
157.49299999999999
 21
104.111
 31
0.0
  0
LINE
  5
99
  8
0
 62
     7
 10
83.844999999999999
 20
213.93199999999999
 30
0.0
 11
89.260099999999994
 21
213.93199999999999
 31
0.0
  0
LINE
  5
9A
  8
0
 62
     7
 10
70.815399999999997
 20
200.06399999999999
 30
0.0
 11
71.959199999999996
 21
202.04599999999999
 31
0.0
  0
LINE
  5
9B
  8
0
 62
     7
 10
71.959199999999996
 20
202.04599999999999
 30
0.0
 11
69.977599999999995
 21
200.90199999999999
 31
0.0
  0
LINE
  5
9C
  8
0
 62
     7
 10
69.977599999999995
 20
200.90199999999999
 30
0.0
 11
70.815399999999997
 21
200.06399999999999
 31
0.0
  0
LINE
  5
9D
  8
0
 62
     7
 10
76.196700000000007
 20
207.12100000000001
 30
0.0
 11
75.052899999999994
 21
205.13900000000001
 31
0.0
  0
LINE
  5
9E
  8
0
 62
     7
 10
75.052899999999994
 20
205.13900000000001
 30
0.0
 11
77.034499999999994
 21
206.28299999999999
 31
0.0
  0
LINE
  5
9F
  8
0
 62
     7
 10
77.034499999999994
 20
206.28299999999999
 30
0.0
 11
76.196700000000007
 21
207.12100000000001
 31
0.0
  0
LINE
  5
A0
  8
0
 62
     7
 10
83.844999999999999
 20
213.93199999999999
 30
0.0
 11
68.291499999999999
 21
198.37799999999999
 31
0.0
  0
LINE
  5
A1
  8
0
 62
     7
 10
78.713999999999999
 20
188.80099999999999
 30
0.0
 11
84.129099999999994
 21
188.80099999999999
 31
0.0
  0
LINE
  5
A2
  8
0
 62
     7
 10
70.3279
 20
179.577
 30
0.0
 11
71.471699999999998
 21
181.559
 31
0.0
  0
LINE
  5
A3
  8
0
 62
     7
 10
71.471699999999998
 20
181.559
 30
0.0
 11
69.490099999999998
 21
180.41399999999999
 31
0.0
  0
LINE
  5
A4
  8
0
 62
     7
 10
69.490099999999998
 20
180.41399999999999
 30
0.0
 11
70.3279
 21
179.577
 31
0.0
  0
LINE
  5
A5
  8
0
 62
     7
 10
76.682100000000005
 20
187.60599999999999
 30
0.0
 11
75.538300000000007
 21
185.624
 31
0.0
  0
LINE
  5
A6
  8
0
 62
     7
 10
75.538300000000007
 20
185.624
 30
0.0
 11
77.519999999999996
 21
186.76900000000001
 31
0.0
  0
LINE
  5
A7
  8
0
 62
     7
 10
77.519999999999996
 20
186.76900000000001
 30
0.0
 11
76.682100000000005
 21
187.60599999999999
 31
0.0
  0
LINE
  5
A8
  8
0
 62
     7
 10
78.713999999999999
 20
188.80099999999999
 30
0.0
 11
67.804000000000002
 21
177.89099999999999
 31
0.0
  0
LINE
  5
A9
  8
0
 62
     7
 10
36.164099999999998
 20
153.25700000000001
 30
0.0
 11
35.571899999999999
 21
155.46700000000001
 31
0.0
  0
LINE
  5
AA
  8
0
 62
     7
 10
35.571899999999999
 20
155.46700000000001
 30
0.0
 11
34.979700000000001
 21
153.25700000000001
 31
0.0
  0
LINE
  5
AB
  8
0
 62
     7
 10
34.979700000000001
 20
153.25700000000001
 30
0.0
 11
36.164099999999998
 21
153.25700000000001
 31
0.0
  0
LINE
  5
AC
  8
0
 62
     7
 10
34.979700000000001
 20
160.178
 30
0.0
 11
35.571899999999999
 21
157.96700000000001
 31
0.0
  0
LINE
  5
AD
  8
0
 62
     7
 10
35.571899999999999
 20
157.96700000000001
 30
0.0
 11
36.164099999999998
 21
160.178
 31
0.0
  0
LINE
  5
AE
  8
0
 62
     7
 10
36.164099999999998
 20
160.178
 30
0.0
 11
34.979700000000001
 21
160.178
 31
0.0
  0
LINE
  5
AF
  8
0
 62
     7
 10
36.164099999999998
 20
193.25700000000001
 30
0.0
 11
35.571899999999999
 21
195.46700000000001
 31
0.0
  0
LINE
  5
B0
  8
0
 62
     7
 10
35.571899999999999
 20
195.46700000000001
 30
0.0
 11
34.979700000000001
 21
193.25700000000001
 31
0.0
  0
LINE
  5
B1
  8
0
 62
     7
 10
34.979700000000001
 20
193.25700000000001
 30
0.0
 11
36.164099999999998
 21
193.25700000000001
 31
0.0
  0
LINE
  5
B2
  8
0
 62
     7
 10
34.979700000000001
 20
197.678
 30
0.0
 11
35.571899999999999
 21
195.46700000000001
 31
0.0
  0
LINE
  5
B3
  8
0
 62
     7
 10
35.571899999999999
 20
195.46700000000001
 30
0.0
 11
36.164099999999998
 21
197.678
 31
0.0
  0
LINE
  5
B4
  8
0
 62
     7
 10
36.164099999999998
 20
197.678
 30
0.0
 11
34.979700000000001
 21
197.678
 31
0.0
  0
LINE
  5
B5
  8
0
 62
     7
 10
166.226
 20
204.17099999999999
 30
0.0
 11
174.19800000000001
 21
204.17099999999999
 31
0.0
  0
LINE
  5
B6
  8
0
 62
     7
 10
130.72799999999989
 20
167.83500000000001
 30
0.0
 11
131.87200000000001
 21
169.81700000000001
 31
0.0
  0
LINE
  5
B7
  8
0
 62
     7
 10
131.87200000000001
 20
169.81700000000001
 30
0.0
 11
129.88999999999999
 21
168.672
 31
0.0
  0
LINE
  5
B8
  8
0
 62
     7
 10
129.88999999999999
 20
168.672
 30
0.0
 11
130.72799999999989
 21
167.83500000000001
 31
0.0
  0
LINE
  5
B9
  8
0
 62
     7
 10
163.06800000000001
 20
201.84999999999999
 30
0.0
 11
161.92400000000001
 21
199.869
 31
0.0
  0
LINE
  5
BA
  8
0
 62
     7
 10
161.92400000000001
 20
199.869
 30
0.0
 11
163.90599999999989
 21
201.01300000000001
 31
0.0
  0
LINE
  5
BB
  8
0
 62
     7
 10
163.90599999999989
 20
201.01300000000001
 30
0.0
 11
163.06800000000001
 21
201.84999999999999
 31
0.0
  0
LINE
  5
BC
  8
0
 62
     7
 10
166.226
 20
204.17099999999999
 30
0.0
 11
128.816
 21
166.761
 31
0.0
  0
LINE
  5
BD
  8
0
 62
     7
 10
59.418599999999998
 20
206.42699999999999
 30
0.0
 11
60.109400000000001
 21
204.244
 31
0.0
  0
LINE
  5
BE
  8
0
 62
     7
 10
60.109400000000001
 20
204.244
 30
0.0
 11
58.419499999999999
 21
205.78899999999999
 31
0.0
  0
LINE
  5
BF
  8
0
 62
     7
 10
58.419499999999999
 20
205.78899999999999
 30
0.0
 11
59.418599999999998
 21
206.42699999999999
 31
0.0
  0
LINE
  5
C0
  8
0
 62
     7
 10
51.762900000000002
 20
217.31399999999999
 30
0.0
 11
33.894100000000002
 21
217.31399999999999
 31
0.0
  0
LINE
  5
C1
  8
0
 62
     7
 10
60.109400000000001
 20
204.244
 30
0.0
 11
51.762900000000002
 21
217.31399999999999
 31
0.0
  0
LINE
  5
C2
  8
0
  6
AIGENLINE003
 62
     7
 10
141.745
 20
183.59299999999999
 30
0.0
 11
152.36799999999999
 21
183.59299999999999
 31
0.0
  0
ARC
  5
C3
  8
0
 62
     7
 10
146.89781599999989
 20
184.84217200000001
 30
0.0
 40
21.25009
 50
270.00071700000001
 51
0.000687
  0
ARC
  5
C4
  8
0
 62
     7
 10
146.89815999999999
 20
184.84233699999999
 30
0.0
 40
21.250254999999999
 50
179.99973799999989
 51
269.99978800000002
  0
ARC
  5
C5
  8
0
 62
     7
 10
146.89808099999999
 20
184.842423
 30
0.0
 40
21.250176
 50
90.0
 51
179.99996999999999
  0
ARC
  5
C6
  8
0
 62
     7
 10
146.89790199999999
 20
184.84259499999999
 30
0.0
 40
21.250004000000001
 50
359.99954500000001
 51
89.999516000000014
  0
LINE
  5
C7
  8
0
  6
AIGENLINE002
 62
     7
 10
144.05799999999999
 20
92.225800000000007
 30
0.0
 11
149.649
 21
92.225800000000007
 31
0.0
  0
ARC
  5
C8
  8
0
  6
AIGENLINE002
 62
     7
 10
73.421652000000009
 20
103.99324799999999
 30
0.0
 40
2.2729049999999988
 50
272.12816099999998
 51
357.88989800000002
  0
ARC
  5
C9
  8
0
  6
AIGENLINE002
 62
     7
 10
73.590198000000001
 20
103.99334399999999
 30
0.0
 40
2.272991999999999
 50
182.11247399999999
 51
267.87853200000001
  0
ARC
  5
CA
  8
0
  6
AIGENLINE002
 62
     7
 10
73.589448000000004
 20
103.82581
 30
0.0
 40
2.2722410000000002
 50
92.103243000000006
 51
177.88770299999999
  0
ARC
  5
CB
  8
0
  6
AIGENLINE002
 62
     7
 10
73.421961999999994
 20
103.825467
 30
0.0
 40
2.2726099999999989
 50
2.1205949999999998
 51
87.879395000000002
  0
LINE
  5
CC
  8
0
  6
AIGENLINE003
 62
     7
 10
166.85300000000001
 20
103.91
 30
0.0
 11
166.85300000000001
 21
111.416
 31
0.0
  0
LINE
  5
CD
  8
0
 62
     7
 10
34.979700000000001
 20
99.244900000000001
 30
0.0
 11
35.571899999999999
 21
97.034499999999994
 31
0.0
  0
LINE
  5
CE
  8
0
 62
     7
 10
35.571899999999999
 20
97.034499999999994
 30
0.0
 11
36.164099999999998
 21
99.244900000000001
 31
0.0
  0
LINE
  5
CF
  8
0
 62
     7
 10
36.164099999999998
 20
99.244900000000001
 30
0.0
 11
34.979700000000001
 21
99.244900000000001
 31
0.0
  0
LINE
  5
D0
  8
0
 62
     7
 10
36.164099999999998
 20
106.074
 30
0.0
 11
35.571899999999999
 21
108.285
 31
0.0
  0
LINE
  5
D1
  8
0
 62
     7
 10
35.571899999999999
 20
108.285
 30
0.0
 11
34.979700000000001
 21
106.074
 31
0.0
  0
LINE
  5
D2
  8
0
 62
     7
 10
34.979700000000001
 20
106.074
 30
0.0
 11
36.164099999999998
 21
106.074
 31
0.0
  0
LINE
  5
D3
  8
0
 62
     7
 10
35.571899999999999
 20
97.034499999999994
 30
0.0
 11
35.571899999999999
 21
108.28400000000001
 31
0.0
  0
LINE
  5
D4
  8
0
 62
     7
 10
48.261600000000001
 20
97.034499999999994
 30
0.0
 11
34.8718
 21
97.034499999999994
 31
0.0
  0
LINE
  5
D5
  8
0
 62
     7
 10
26.467099999999999
 20
89.870000000000005
 30
0.0
 11
27.0593
 21
87.659599999999983
 31
0.0
  0
LINE
  5
D6
  8
0
 62
     7
 10
27.0593
 20
87.659599999999983
 30
0.0
 11
27.651499999999999
 21
89.870000000000005
 31
0.0
  0
LINE
  5
D7
  8
0
 62
     7
 10
27.651499999999999
 20
89.870000000000005
 30
0.0
 11
26.467099999999999
 21
89.870000000000005
 31
0.0
  0
LINE
  5
D8
  8
0
 62
     7
 10
27.651499999999999
 20
106.074
 30
0.0
 11
27.0593
 21
108.285
 31
0.0
  0
LINE
  5
D9
  8
0
 62
     7
 10
27.0593
 20
108.285
 30
0.0
 11
26.467099999999999
 21
106.074
 31
0.0
  0
LINE
  5
DA
  8
0
 62
     7
 10
26.467099999999999
 20
106.074
 30
0.0
 11
27.651499999999999
 21
106.074
 31
0.0
  0
LINE
  5
DB
  8
0
 62
     7
 10
27.0593
 20
87.659599999999983
 30
0.0
 11
27.0593
 21
108.28400000000001
 31
0.0
  0
LINE
  5
DC
  8
0
 62
     7
 10
44.993600000000001
 20
108.28400000000001
 30
0.0
 11
26.359300000000001
 21
108.28400000000001
 31
0.0
  0
LINE
  5
DD
  8
0
 62
     7
 10
68.5565
 20
87.659599999999983
 30
0.0
 11
26.359300000000001
 21
87.659599999999983
 31
0.0
  0
LINE
  5
DE
  8
0
 62
     7
 10
96.6083
 20
144.49000000000001
 30
0.0
 11
98.819100000000006
 21
145.08199999999999
 31
0.0
  0
LINE
  5
DF
  8
0
 62
     7
 10
98.819100000000006
 20
145.08199999999999
 30
0.0
 11
96.6083
 21
145.67500000000001
 31
0.0
  0
LINE
  5
E0
  8
0
 62
     7
 10
96.6083
 20
145.67500000000001
 30
0.0
 11
96.6083
 21
144.49000000000001
 31
0.0
  0
LINE
  5
E1
  8
0
 62
     7
 10
50.4041
 20
145.67400000000001
 30
0.0
 11
48.193399999999997
 21
145.08199999999999
 31
0.0
  0
LINE
  5
E2
  8
0
 62
     7
 10
48.193399999999997
 20
145.08199999999999
 30
0.0
 11
50.4041
 21
144.49000000000001
 31
0.0
  0
LINE
  5
E3
  8
0
 62
     7
 10
50.4041
 20
144.49000000000001
 30
0.0
 11
50.4041
 21
145.67400000000001
 31
0.0
  0
LINE
  5
E4
  8
0
 62
     7
 10
98.819100000000006
 20
145.08199999999999
 30
0.0
 11
48.193399999999997
 21
145.08199999999999
 31
0.0
  0
LINE
  5
E5
  8
0
 62
     7
 10
48.193399999999997
 20
177.994
 30
0.0
 11
48.193399999999997
 21
144.38200000000001
 31
0.0
  0
LINE
  5
E6
  8
0
 62
     7
 10
98.819100000000006
 20
177.994
 30
0.0
 11
98.819100000000006
 21
144.38200000000001
 31
0.0
  0
LINE
  5
E7
  8
0
 62
     7
 10
36.164099999999998
 20
209.50700000000001
 30
0.0
 11
35.571899999999999
 21
211.71799999999999
 31
0.0
  0
LINE
  5
E8
  8
0
 62
     7
 10
35.571899999999999
 20
211.71799999999999
 30
0.0
 11
34.979700000000001
 21
209.50700000000001
 31
0.0
  0
LINE
  5
E9
  8
0
 62
     7
 10
34.979700000000001
 20
209.50700000000001
 30
0.0
 11
36.164099999999998
 21
209.50700000000001
 31
0.0
  0
LINE
  5
EA
  8
0
 62
     7
 10
35.571899999999999
 20
148.91
 30
0.0
 11
35.571899999999999
 21
211.71799999999999
 31
0.0
  0
LINE
  5
EB
  8
0
 62
     7
 10
68.432100000000005
 20
157.96700000000001
 30
0.0
 11
34.8718
 21
157.96700000000001
 31
0.0
  0
LINE
  5
EC
  8
0
 62
     7
 10
59.816200000000002
 20
195.46700000000001
 30
0.0
 11
34.8718
 21
195.46700000000001
 31
0.0
  0
LINE
  5
ED
  8
0
 62
     7
 10
115.84099999999999
 20
187.053
 30
0.0
 11
116.434
 21
184.84200000000001
 31
0.0
  0
LINE
  5
EE
  8
0
 62
     7
 10
116.434
 20
184.84200000000001
 30
0.0
 11
117.026
 21
187.053
 31
0.0
  0
LINE
  5
EF
  8
0
 62
     7
 10
117.026
 20
187.053
 30
0.0
 11
115.84099999999999
 21
187.053
 31
0.0
  0
LINE
  5
F0
  8
0
 62
     7
 10
117.026
 20
181.38200000000001
 30
0.0
 11
116.434
 21
183.59200000000001
 31
0.0
  0
LINE
  5
F1
  8
0
 62
     7
 10
116.434
 20
183.59200000000001
 30
0.0
 11
115.84099999999999
 21
181.38200000000001
 31
0.0
  0
LINE
  5
F2
  8
0
 62
     7
 10
115.84099999999999
 20
181.38200000000001
 30
0.0
 11
117.026
 21
181.38200000000001
 31
0.0
  0
LINE
  5
F3
  8
0
 62
     7
 10
116.434
 20
179.749
 30
0.0
 11
116.434
 21
188.72900000000001
 31
0.0
  0
LINE
  5
F4
  8
0
 62
     7
 10
120.73699999999999
 20
184.84200000000001
 30
0.0
 11
115.73399999999999
 21
184.84200000000001
 31
0.0
  0
LINE
  5
F5
  8
0
 62
     7
 10
141.04499999999999
 20
183.59200000000001
 30
0.0
 11
115.73399999999999
 21
183.59200000000001
 31
0.0
  0
LINE
  5
F6
  8
0
 62
     7
 10
26.467099999999999
 20
157.678
 30
0.0
 11
27.0593
 21
155.46700000000001
 31
0.0
  0
LINE
  5
F7
  8
0
 62
     7
 10
27.0593
 20
155.46700000000001
 30
0.0
 11
27.651499999999999
 21
157.678
 31
0.0
  0
LINE
  5
F8
  8
0
 62
     7
 10
27.651499999999999
 20
157.678
 30
0.0
 11
26.467099999999999
 21
157.678
 31
0.0
  0
LINE
  5
F9
  8
0
 62
     7
 10
27.651499999999999
 20
209.50700000000001
 30
0.0
 11
27.0593
 21
211.71799999999999
 31
0.0
  0
LINE
  5
FA
  8
0
 62
     7
 10
27.0593
 20
211.71799999999999
 30
0.0
 11
26.467099999999999
 21
209.50700000000001
 31
0.0
  0
LINE
  5
FB
  8
0
 62
     7
 10
26.467099999999999
 20
209.50700000000001
 30
0.0
 11
27.651499999999999
 21
209.50700000000001
 31
0.0
  0
LINE
  5
FC
  8
0
 62
     7
 10
27.0593
 20
155.46700000000001
 30
0.0
 11
27.0593
 21
211.71799999999999
 31
0.0
  0
LINE
  5
FD
  8
0
 62
     7
 10
68.432100000000005
 20
211.71799999999999
 30
0.0
 11
26.359300000000001
 21
211.71799999999999
 31
0.0
  0
LINE
  5
FE
  8
0
 62
     7
 10
68.432100000000005
 20
155.46700000000001
 30
0.0
 11
26.359300000000001
 21
155.46700000000001
 31
0.0
  0
LINE
  5
FF
  8
0
 62
     7
 10
172.767
 20
78.401200000000003
 30
0.0
 11
174.97800000000001
 21
78.993799999999993
 31
0.0
  0
LINE
  5
100
  8
0
 62
     7
 10
174.97800000000001
 20
78.993799999999993
 30
0.0
 11
172.767
 21
79.585700000000003
 31
0.0
  0
LINE
  5
101
  8
0
 62
     7
 10
172.767
 20
79.585700000000003
 30
0.0
 11
172.767
 21
78.401200000000003
 31
0.0
  0
LINE
  5
102
  8
0
 62
     7
 10
149.06299999999999
 20
79.585700000000003
 30
0.0
 11
146.85300000000001
 21
78.993799999999993
 31
0.0
  0
LINE
  5
103
  8
0
 62
     7
 10
146.85300000000001
 20
78.993799999999993
 30
0.0
 11
149.06299999999999
 21
78.401200000000003
 31
0.0
  0
LINE
  5
104
  8
0
 62
     7
 10
149.06299999999999
 20
78.401200000000003
 30
0.0
 11
149.06299999999999
 21
79.585700000000003
 31
0.0
  0
LINE
  5
105
  8
0
 62
     7
 10
174.97800000000001
 20
78.993799999999993
 30
0.0
 11
146.85300000000001
 21
78.993799999999993
 31
0.0
  0
LINE
  5
106
  8
0
 62
     7
 10
145.637
 20
106.074
 30
0.0
 11
145.04499999999999
 21
108.286
 31
0.0
  0
LINE
  5
107
  8
0
 62
     7
 10
145.04499999999999
 20
108.286
 30
0.0
 11
144.453
 21
106.074
 31
0.0
  0
LINE
  5
108
  8
0
 62
     7
 10
144.453
 20
106.074
 30
0.0
 11
145.637
 21
106.074
 31
0.0
  0
LINE
  5
109
  8
0
 62
     7
 10
144.453
 20
96.745099999999994
 30
0.0
 11
145.04499999999999
 21
94.534700000000015
 31
0.0
  0
LINE
  5
10A
  8
0
 62
     7
 10
145.04499999999999
 20
94.534700000000015
 30
0.0
 11
145.637
 21
96.745099999999994
 31
0.0
  0
LINE
  5
10B
  8
0
 62
     7
 10
145.637
 20
96.745099999999994
 30
0.0
 11
144.453
 21
96.745099999999994
 31
0.0
  0
LINE
  5
10C
  8
0
 62
     7
 10
145.04499999999999
 20
108.285
 30
0.0
 11
145.04499999999999
 21
94.534700000000015
 31
0.0
  0
LINE
  5
10D
  8
0
 62
     7
 10
146.85300000000001
 20
84.923500000000004
 30
0.0
 11
146.85300000000001
 21
78.293700000000001
 31
0.0
  0
LINE
  5
10E
  8
0
 62
     7
 10
172.767
 20
70.156400000000005
 30
0.0
 11
174.97800000000001
 21
70.748900000000006
 31
0.0
  0
LINE
  5
10F
  8
0
 62
     7
 10
174.97800000000001
 20
70.748900000000006
 30
0.0
 11
172.767
 21
71.340800000000002
 31
0.0
  0
LINE
  5
110
  8
0
 62
     7
 10
172.767
 20
71.340800000000002
 30
0.0
 11
172.767
 21
70.156400000000005
 31
0.0
  0
LINE
  5
111
  8
0
 62
     7
 10
124.688
 20
71.340800000000002
 30
0.0
 11
122.47799999999999
 21
70.748900000000006
 31
0.0
  0
LINE
  5
112
  8
0
 62
     7
 10
122.47799999999999
 20
70.748900000000006
 30
0.0
 11
124.688
 21
70.156400000000005
 31
0.0
  0
LINE
  5
113
  8
0
 62
     7
 10
124.688
 20
70.156400000000005
 30
0.0
 11
124.688
 21
71.340800000000002
 31
0.0
  0
LINE
  5
114
  8
0
 62
     7
 10
174.97800000000001
 20
70.748900000000006
 30
0.0
 11
122.47799999999999
 21
70.748900000000006
 31
0.0
  0
LINE
  5
115
  8
0
 62
     7
 10
122.47799999999999
 20
96.210400000000007
 30
0.0
 11
122.47799999999999
 21
70.048900000000003
 31
0.0
  0
LINE
  5
116
  8
0
 62
     7
 10
174.97800000000001
 20
96.210400000000007
 30
0.0
 11
174.97800000000001
 21
70.048900000000003
 31
0.0
  0
LINE
  5
117
  8
0
 62
     7
 10
95.670900000000003
 20
76.793000000000006
 30
0.0
 11
97.881600000000006
 21
77.384900000000002
 31
0.0
  0
LINE
  5
118
  8
0
 62
     7
 10
97.881600000000006
 20
77.384900000000002
 30
0.0
 11
95.670900000000003
 21
77.977500000000006
 31
0.0
  0
LINE
  5
119
  8
0
 62
     7
 10
95.670900000000003
 20
77.977500000000006
 30
0.0
 11
95.670900000000003
 21
76.793000000000006
 31
0.0
  0
LINE
  5
11A
  8
0
 62
     7
 10
51.341900000000003
 20
77.977500000000006
 30
0.0
 11
49.1312
 21
77.384900000000002
 31
0.0
  0
LINE
  5
11B
  8
0
 62
     7
 10
49.1312
 20
77.384900000000002
 30
0.0
 11
51.341900000000003
 21
76.793000000000006
 31
0.0
  0
LINE
  5
11C
  8
0
 62
     7
 10
51.341900000000003
 20
76.793000000000006
 30
0.0
 11
51.341900000000003
 21
77.977500000000006
 31
0.0
  0
LINE
  5
11D
  8
0
 62
     7
 10
97.881600000000006
 20
77.384900000000002
 30
0.0
 11
49.1312
 21
77.384900000000002
 31
0.0
  0
LINE
  5
11E
  8
0
 62
     7
 10
49.1312
 20
96.210400000000007
 30
0.0
 11
49.1312
 21
76.684899999999999
 31
0.0
  0
LINE
  5
11F
  8
0
 62
     7
 10
97.881600000000006
 20
96.210400000000007
 30
0.0
 11
97.881600000000006
 21
76.684899999999999
 31
0.0
  0
LINE
  5
120
  8
0
 62
     7
 10
99.108099999999993
 20
137.60599999999999
 30
0.0
 11
101.319
 21
138.19799999999989
 31
0.0
  0
LINE
  5
121
  8
0
 62
     7
 10
101.319
 20
138.19799999999989
 30
0.0
 11
99.108099999999993
 21
138.791
 31
0.0
  0
LINE
  5
122
  8
0
 62
     7
 10
99.108099999999993
 20
138.791
 30
0.0
 11
99.108099999999993
 21
137.60599999999999
 31
0.0
  0
LINE
  5
123
  8
0
 62
     7
 10
47.904400000000003
 20
138.78999999999999
 30
0.0
 11
45.693600000000004
 21
138.19799999999989
 31
0.0
  0
LINE
  5
124
  8
0
 62
     7
 10
45.693600000000004
 20
138.19799999999989
 30
0.0
 11
47.904400000000003
 21
137.60599999999999
 31
0.0
  0
LINE
  5
125
  8
0
 62
     7
 10
47.904400000000003
 20
137.60599999999999
 30
0.0
 11
47.904400000000003
 21
138.78999999999999
 31
0.0
  0
LINE
  5
126
  8
0
 62
     7
 10
101.319
 20
138.19799999999989
 30
0.0
 11
45.693600000000004
 21
138.19799999999989
 31
0.0
  0
LINE
  5
127
  8
0
 62
     7
 10
45.693600000000004
 20
177.625
 30
0.0
 11
45.693600000000004
 21
137.49799999999999
 31
0.0
  0
LINE
  5
128
  8
0
 62
     7
 10
101.319
 20
177.625
 30
0.0
 11
101.319
 21
137.49799999999999
 31
0.0
  0
LINE
  5
129
  8
0
 62
     7
 10
108.64100000000001
 20
201.38200000000001
 30
0.0
 11
108.04900000000001
 21
203.59200000000001
 31
0.0
  0
LINE
  5
12A
  8
0
 62
     7
 10
108.04900000000001
 20
203.59200000000001
 30
0.0
 11
107.45699999999999
 21
201.38200000000001
 31
0.0
  0
LINE
  5
12B
  8
0
 62
     7
 10
107.45699999999999
 20
201.38200000000001
 30
0.0
 11
108.64100000000001
 21
201.38200000000001
 31
0.0
  0
LINE
  5
12C
  8
0
 62
     7
 10
108.64100000000001
 20
209.50700000000001
 30
0.0
 11
108.04900000000001
 21
211.71799999999999
 31
0.0
  0
LINE
  5
12D
  8
0
 62
     7
 10
108.04900000000001
 20
211.71799999999999
 30
0.0
 11
107.45699999999999
 21
209.50700000000001
 31
0.0
  0
LINE
  5
12E
  8
0
 62
     7
 10
107.45699999999999
 20
209.50700000000001
 30
0.0
 11
108.64100000000001
 21
209.50700000000001
 31
0.0
  0
LINE
  5
12F
  8
0
 62
     7
 10
107.45699999999999
 20
205.803
 30
0.0
 11
108.04900000000001
 21
203.59200000000001
 31
0.0
  0
LINE
  5
130
  8
0
 62
     7
 10
108.04900000000001
 20
203.59200000000001
 30
0.0
 11
108.64100000000001
 21
205.803
 31
0.0
  0
LINE
  5
131
  8
0
 62
     7
 10
108.64100000000001
 20
205.803
 30
0.0
 11
107.45699999999999
 21
205.803
 31
0.0
  0
LINE
  5
132
  8
0
 62
     7
 10
107.45699999999999
 20
197.678
 30
0.0
 11
108.04900000000001
 21
195.46799999999999
 31
0.0
  0
LINE
  5
133
  8
0
 62
     7
 10
108.04900000000001
 20
195.46799999999999
 30
0.0
 11
108.64100000000001
 21
197.678
 31
0.0
  0
LINE
  5
134
  8
0
 62
     7
 10
108.64100000000001
 20
197.678
 30
0.0
 11
107.45699999999999
 21
197.678
 31
0.0
  0
LINE
  5
135
  8
0
 62
     7
 10
108.04900000000001
 20
211.71799999999999
 30
0.0
 11
108.04900000000001
 21
195.46700000000001
 31
0.0
  0
ARC
  5
136
  8
0
 62
     7
 10
71.779732999999993
 20
88.475447000000003
 30
0.0
 40
107.00582
 50
89.075598999999997
 51
89.815469999999991
  0
ARC
  5
137
  8
0
 62
     7
 10
70.049132999999998
 20
-105.972368
 30
0.0
 40
301.46022299999998
 50
89.605570999999998
 51
91.077720999999983
  0
ARC
  5
138
  8
0
 62
     7
 10
67.701945999999992
 20
31.838636999999999
 30
0.0
 40
163.62963300000001
 50
91.163612000000001
 51
92.516912000000005
  0
ARC
  5
139
  8
0
 62
     7
 10
83.122623000000004
 20
183.06125700000001
 30
0.0
 40
34.929908000000012
 50
175.689885
 51
179.641063
  0
ARC
  5
13A
  8
0
 62
     7
 10
69.606037999999998
 20
183.97928300000001
 30
0.0
 40
21.38279
 50
169.84799699999999
 51
175.42085499999999
  0
ARC
  5
13B
  8
0
 62
     7
 10
61.773872999999988
 20
185.28928500000001
 30
0.0
 40
13.442655
 50
164.15446399999999
 51
169.460115
  0
ARC
  5
13C
  8
0
 62
     7
 10
57.605883999999989
 20
186.43493599999999
 30
0.0
 40
9.1203009999999995
 50
157.373332
 51
163.92874800000001
  0
ARC
  5
13D
  8
0
 62
     7
 10
54.802743000000007
 20
187.57471899999999
 30
0.0
 40
6.0944690000000001
 50
147.463798
 51
157.125304
  0
ARC
  5
13E
  8
0
 62
     7
 10
53.156443000000003
 20
188.5780399999999
 30
0.0
 40
4.1671230000000001
 50
136.873435
 51
146.91957099999999
  0
LINE
  5
13F
  8
0
 62
     7
 10
50.115099999999998
 20
191.42699999999999
 30
0.0
 11
50.47270000000001
 21
191.82900000000001
 31
0.0
  0
LINE
  5
140
  8
0
 62
     7
 10
50.47270000000001
 20
191.82900000000001
 30
0.0
 11
50.875399999999999
 21
192.18700000000001
 31
0.0
  0
ARC
  5
141
  8
0
 62
     7
 10
56.956868
 20
184.96519799999999
 30
0.0
 40
9.4414990000000003
 50
120.110316
 51
130.099594
  0
ARC
  5
142
  8
0
 62
     7
 10
58.565798000000001
 20
182.34627800000001
 30
0.0
 40
12.514414
 50
111.182868
 51
120.46742
  0
ARC
  5
143
  8
0
 62
     7
 10
60.206908999999989
 20
178.399944
 30
0.0
 40
16.787434000000001
 50
103.05001799999999
 51
111.538618
  0
ARC
  5
144
  8
0
 62
     7
 10
61.297794999999986
 20
174.17484099999999
 30
0.0
 40
21.150020000000001
 50
92.117715000000004
 51
103.344424
  0
ARC
  5
145
  8
0
 62
     7
 10
75.232377999999997
 20
88.475447000000003
 30
0.0
 40
107.00582
 50
90.184510000000017
 51
90.924381999999994
  0
ARC
  5
146
  8
0
 62
     7
 10
76.962978000000007
 20
-105.972368
 30
0.0
 40
301.46022299999998
 50
88.922259000000011
 51
90.394408999999996
  0
ARC
  5
147
  8
0
 62
     7
 10
79.310164999999998
 20
31.838636999999999
 30
0.0
 40
163.62963300000001
 50
87.483068000000003
 51
88.836368000000007
  0
ARC
  5
148
  8
0
 62
     7
 10
73.506050999999999
 20
183.27972600000001
 30
0.0
 40
25.312659
 50
270.00002000000001
 51
359.99999000000003
  0
ARC
  5
149
  8
0
 62
     7
 10
73.506050999999999
 20
183.27971700000001
 30
0.0
 40
25.312650000000001
 50
179.99996999999999
 51
270.00002000000001
  0
ARC
  5
14A
  8
0
  6
AIGENLINE002
 62
     7
 10
73.505711000000005
 20
103.909216
 30
0.0
 40
1.500348999999999
 50
270.01317599999999
 51
0.013146
  0
ARC
  5
14B
  8
0
  6
AIGENLINE002
 62
     7
 10
73.563273999999993
 20
103.966064
 30
0.0
 40
1.558247999999999
 50
182.07808199999999
 51
267.89563500000003
  0
ARC
  5
14C
  8
0
  6
AIGENLINE002
 62
     7
 10
73.563622999999993
 20
103.85199299999999
 30
0.0
 40
1.5586349999999991
 50
92.116656999999989
 51
177.88331400000001
  0
ARC
  5
14D
  8
0
  6
AIGENLINE002
 62
     7
 10
73.448890000000006
 20
103.852394
 30
0.0
 40
1.558219
 50
2.1024579999999999
 51
87.897531999999984
  0
ARC
  5
14E
  8
0
 62
     7
 10
73.50596800000001
 20
183.59210899999999
 30
0.0
 40
5.3124580000000003
 50
270.00094900000011
 51
0.000919
  0
ARC
  5
14F
  8
0
 62
     7
 10
73.506141
 20
183.592107
 30
0.0
 40
5.3124560000000001
 50
179.99904100000001
 51
269.99909100000002
  0
ARC
  5
150
  8
0
 62
     7
 10
73.506229000000005
 20
183.592365
 30
0.0
 40
5.312543999999999
 50
90.001858000000027
 51
180.001868
  0
ARC
  5
151
  8
0
 62
     7
 10
73.505882
 20
183.592365
 30
0.0
 40
5.312543999999999
 50
359.998152
 51
89.998121999999995
  0
ARC
  5
152
  8
0
 62
     7
 10
73.422493000000003
 20
203.676219
 30
0.0
 40
2.2727550000000001
 50
272.10708199999999
 51
357.88841600000001
  0
ARC
  5
153
  8
0
 62
     7
 10
73.589392000000004
 20
203.67599300000001
 30
0.0
 40
2.272521999999999
 50
182.10612900000001
 51
267.89841300000001
  0
ARC
  5
154
  8
0
 62
     7
 10
73.589617000000004
 20
203.508737
 30
0.0
 40
2.2727550000000001
 50
92.107044999999999
 51
177.8884129999999
  0
ARC
  5
155
  8
0
 62
     7
 10
73.422718000000003
 20
203.508961
 30
0.0
 40
2.272521999999999
 50
2.1061259999999988
 51
87.898376000000013
  0
ARC
  5
156
  8
0
  6
AIGENLINE002
 62
     7
 10
146.898077
 20
183.59253899999999
 30
0.0
 40
2.8749509999999989
 50
270.00002000000001
 51
359.99999000000003
  0
ARC
  5
157
  8
0
  6
AIGENLINE002
 62
     7
 10
146.898077
 20
183.59253799999999
 30
0.0
 40
2.8749500000000001
 50
179.99996999999999
 51
270.00002000000001
  0
ARC
  5
158
  8
0
  6
AIGENLINE002
 62
     7
 10
146.898078
 20
183.59253799999999
 30
0.0
 40
2.8749509999999989
 50
90.0
 51
179.99996999999999
  0
ARC
  5
159
  8
0
  6
AIGENLINE002
 62
     7
 10
146.898077
 20
183.59253799999999
 30
0.0
 40
2.8749509999999989
 50
0.00001
 51
89.999980000000008
  0
LINE
  5
15A
  8
0
  6
AIGENLINE003
 62
     7
 10
146.898
 20
209.65299999999999
 30
0.0
 11
146.898
 21
159.512
 31
0.0
  0
LINE
  5
15B
  8
0
  6
AIGENLINE003
 62
     7
 10
121.437
 20
184.84200000000001
 30
0.0
 11
172.364
 21
184.84200000000001
 31
0.0
  0
ARC
  5
15C
  8
0
 62
     7
 10
73.506055000000003
 20
183.59219400000001
 30
0.0
 40
2.8749509999999989
 50
270.00002000000001
 51
359.99999000000003
  0
ARC
  5
15D
  8
0
 62
     7
 10
73.506055000000003
 20
183.5921929999999
 30
0.0
 40
2.8749500000000001
 50
179.99996999999999
 51
270.00002000000001
  0
ARC
  5
15E
  8
0
 62
     7
 10
73.506056000000001
 20
183.5921929999999
 30
0.0
 40
2.8749509999999989
 50
90.0
 51
179.99996999999999
  0
ARC
  5
15F
  8
0
 62
     7
 10
73.506055000000003
 20
183.5921929999999
 30
0.0
 40
2.8749509999999989
 50
0.00001
 51
89.999980000000008
  0
LINE
  5
160
  8
0
  6
AIGENLINE003
 62
     7
 10
73.506100000000004
 20
110.22499999999999
 30
0.0
 11
73.506100000000004
 21
85.5381
 31
0.0
  0
LINE
  5
161
  8
0
  6
AIGENLINE003
 62
     7
 10
73.506100000000004
 20
214.661
 30
0.0
 11
73.506100000000004
 21
152.374
 31
0.0
  0
LINE
  5
162
  8
0
  6
AIGENLINE003
 62
     7
 10
68.193700000000007
 20
203.59200000000001
 30
0.0
 11
78.818399999999997
 21
203.59200000000001
 31
0.0
  0
LINE
  5
163
  8
0
 62
     7
 10
91.010000000000005
 20
195.46700000000001
 30
0.0
 11
108.749
 21
195.46700000000001
 31
0.0
  0
LINE
  5
164
  8
0
 62
     7
 10
79.518500000000003
 20
203.59200000000001
 30
0.0
 11
108.749
 21
203.59200000000001
 31
0.0
  0
LINE
  5
165
  8
0
 62
     7
 10
79.224599999999995
 20
211.71799999999999
 30
0.0
 11
108.749
 21
211.71799999999999
 31
0.0
  0
LINE
  5
166
  8
0
  6
AIGENLINE003
 62
     7
 10
69.527299999999997
 20
103.91
 30
0.0
 11
77.391499999999994
 21
103.91
 31
0.0
  0
LINE
  5
167
  8
0
  6
AIGENLINE003
 62
     7
 10
41.672499999999999
 20
183.59200000000001
 30
0.0
 11
105.283
 21
183.59200000000001
 31
0.0
  0
ARC
  5
168
  8
0
 62
     7
 10
72.415679999999995
 20
183.98309
 30
0.0
 40
28.905797
 50
297.05637899999999
 51
359.22481800000003
  0
ARC
  5
169
  8
0
 62
     7
 10
73.51458199999999
 20
183.028402
 30
0.0
 40
27.561114
 50
269.98228399999999
 51
295.92461100000003
  0
ARC
  5
16A
  8
0
 62
     7
 10
73.79571
 20
183.64556999999999
 30
0.0
 40
28.179767999999999
 50
212.6721750000001
 51
269.411067
  0
ARC
  5
16B
  8
0
 62
     7
 10
74.066158000000001
 20
183.58090799999999
 30
0.0
 40
28.373225999999999
 50
179.97753700000001
 51
212.267437
  0
ARC
  5
16C
  8
0
 62
     7
 10
74.597920000000002
 20
183.20056500000001
 30
0.0
 40
28.907634999999999
 50
117.057956
 51
179.22407799999999
  0
ARC
  5
16D
  8
0
 62
     7
 10
73.498977999999994
 20
184.14972900000001
 30
0.0
 40
27.567886000000001
 50
89.985280000000003
 51
115.92124699999989
  0
ARC
  5
16E
  8
0
 62
     7
 10
73.216394999999991
 20
183.53995399999999
 30
0.0
 40
28.179148999999999
 50
32.671102000000012
 51
89.411023
  0
ARC
  5
16F
  8
0
 62
     7
 10
72.946177000000006
 20
183.604163
 30
0.0
 40
28.372657
 50
359.975481
 51
32.267384
  0
LINE
  5
170
  8
0
  6
AIGENLINE003
 62
     7
 10
146.85300000000001
 20
85.623599999999996
 30
0.0
 11
146.85300000000001
 21
96.116699999999994
 31
0.0
  0
LINE
  5
171
  8
0
 62
     7
 10
156.09
 20
88.934299999999993
 30
0.0
 11
155.84399999999999
 21
88.755199999999988
 31
0.0
  0
LINE
  5
172
  8
0
 62
     7
 10
155.84399999999999
 20
88.755199999999988
 30
0.0
 11
155.59800000000001
 21
88.643600000000006
 31
0.0
  0
LINE
  5
173
  8
0
 62
     7
 10
155.59800000000001
 20
88.643600000000006
 30
0.0
 11
155.30799999999999
 21
88.576000000000008
 31
0.0
  0
LINE
  5
174
  8
0
 62
     7
 10
160.541
 20
93.880099999999985
 30
0.0
 11
160.47399999999999
 21
93.590100000000007
 31
0.0
  0
LINE
  5
175
  8
0
 62
     7
 10
160.47399999999999
 20
93.590100000000007
 30
0.0
 11
160.34
 21
93.344099999999997
 31
0.0
  0
LINE
  5
176
  8
0
 62
     7
 10
160.34
 20
93.344099999999997
 30
0.0
 11
160.161
 21
93.120099999999994
 31
0.0
  0
LINE
  5
177
  8
0
 62
     7
 10
69.256500000000003
 20
87.659599999999983
 30
0.0
 11
69.301299999999998
 21
87.659599999999983
 31
0.0
  0
LINE
  5
178
  8
0
 62
     7
 10
69.301299999999998
 20
87.659599999999983
 30
0.0
 11
73.170500000000004
 21
87.659599999999983
 31
0.0
  0
LINE
  5
179
  8
0
 62
     7
 10
73.170500000000004
 20
87.659599999999983
 30
0.0
 11
73.506399999999999
 21
87.659599999999983
 31
0.0
  0
LINE
  5
17A
  8
0
 62
     7
 10
73.506399999999999
 20
91.382400000000004
 30
0.0
 11
73.215299999999999
 21
91.382400000000004
 31
0.0
  0
LINE
  5
17B
  8
0
 62
     7
 10
73.215299999999999
 20
91.382400000000004
 30
0.0
 11
69.077699999999993
 21
91.382400000000004
 31
0.0
  0
LINE
  5
17C
  8
0
 62
     7
 10
69.077699999999993
 20
91.382400000000004
 30
0.0
 11
69.032899999999998
 21
91.382400000000004
 31
0.0
  0
LINE
  5
17D
  8
0
 62
     7
 10
73.506399999999999
 20
93.084999999999994
 30
0.0
 11
72.991699999999994
 21
93.084999999999994
 31
0.0
  0
LINE
  5
17E
  8
0
 62
     7
 10
72.991699999999994
 20
93.084999999999994
 30
0.0
 11
66.908000000000001
 21
93.084999999999994
 31
0.0
  0
LINE
  5
17F
  8
0
 62
     7
 10
66.908000000000001
 20
93.084999999999994
 30
0.0
 11
66.841099999999997
 21
93.084999999999994
 31
0.0
  0
LINE
  5
180
  8
0
 62
     7
 10
77.755600000000001
 20
87.659599999999983
 30
0.0
 11
77.733599999999996
 21
87.659599999999983
 31
0.0
  0
LINE
  5
181
  8
0
 62
     7
 10
77.733599999999996
 20
87.659599999999983
 30
0.0
 11
73.8416
 21
87.659599999999983
 31
0.0
  0
LINE
  5
182
  8
0
 62
     7
 10
73.8416
 20
87.659599999999983
 30
0.0
 11
73.506399999999999
 21
87.659599999999983
 31
0.0
  0
LINE
  5
183
  8
0
 62
     7
 10
73.506399999999999
 20
93.084999999999994
 30
0.0
 11
74.020799999999994
 21
93.084999999999994
 31
0.0
  0
LINE
  5
184
  8
0
 62
     7
 10
74.020799999999994
 20
93.084999999999994
 30
0.0
 11
80.148600000000002
 21
93.084999999999994
 31
0.0
  0
LINE
  5
185
  8
0
 62
     7
 10
80.148600000000002
 20
93.084999999999994
 30
0.0
 11
80.171299999999988
 21
93.084999999999994
 31
0.0
  0
LINE
  5
186
  8
0
 62
     7
 10
73.506399999999999
 20
91.382400000000004
 30
0.0
 11
73.796800000000005
 21
91.382400000000004
 31
0.0
  0
LINE
  5
187
  8
0
 62
     7
 10
73.796800000000005
 20
91.382400000000004
 30
0.0
 11
77.934799999999996
 21
91.382400000000004
 31
0.0
  0
LINE
  5
188
  8
0
 62
     7
 10
77.934799999999996
 20
91.382400000000004
 30
0.0
 11
77.979500000000002
 21
91.382400000000004
 31
0.0
  0
LINE
  5
189
  8
0
 62
     7
 10
77.845200000000006
 20
91.086799999999997
 30
0.0
 11
77.845200000000006
 21
91.132999999999996
 31
0.0
  0
LINE
  5
18A
  8
0
 62
     7
 10
77.845200000000006
 20
91.132999999999996
 30
0.0
 11
77.866900000000001
 21
91.2012
 31
0.0
  0
LINE
  5
18B
  8
0
 62
     7
 10
77.866900000000001
 20
91.2012
 30
0.0
 11
77.911699999999996
 21
91.291499999999999
 31
0.0
  0
LINE
  5
18C
  8
0
 62
     7
 10
77.911699999999996
 20
91.291499999999999
 30
0.0
 11
77.979500000000002
 21
91.359700000000004
 31
0.0
  0
LINE
  5
18D
  8
0
 62
     7
 10
69.032899999999998
 20
91.359700000000004
 30
0.0
 11
69.100099999999983
 21
91.291499999999999
 31
0.0
  0
LINE
  5
18E
  8
0
 62
     7
 10
69.100099999999983
 20
91.291499999999999
 30
0.0
 11
69.166899999999998
 21
91.155000000000001
 31
0.0
  0
LINE
  5
18F
  8
0
 62
     7
 10
69.166899999999998
 20
91.155000000000001
 30
0.0
 11
69.166899999999998
 21
91.086799999999997
 31
0.0
  0
LINE
  5
190
  8
0
 62
     7
 10
79.813400000000001
 20
92.948599999999985
 30
0.0
 11
79.836100000000002
 21
92.948599999999985
 31
0.0
  0
LINE
  5
191
  8
0
 62
     7
 10
79.836100000000002
 20
92.948599999999985
 30
0.0
 11
79.836100000000002
 21
92.971300000000014
 31
0.0
  0
LINE
  5
192
  8
0
 62
     7
 10
79.836100000000002
 20
92.971300000000014
 30
0.0
 11
79.880899999999997
 21
92.994099999999989
 31
0.0
  0
ARC
  5
193
  8
0
 62
     7
 10
81.373648999999986
 20
90.057291000000006
 30
0.0
 40
3.2943660000000001
 50
114.12972600000001
 51
116.944124
  0
ARC
  5
194
  8
0
 62
     7
 10
80.171757000000014
 20
92.68838199999999
 30
0.0
 40
0.4024
 50
99.722743000000023
 51
111.09945
  0
LINE
  5
195
  8
0
 62
     7
 10
80.103800000000007
 20
93.084999999999994
 30
0.0
 11
80.126499999999979
 21
93.084999999999994
 31
0.0
  0
LINE
  5
196
  8
0
 62
     7
 10
66.863200000000006
 20
93.084999999999994
 30
0.0
 11
66.930000000000007
 21
93.084999999999994
 31
0.0
  0
LINE
  5
197
  8
0
 62
     7
 10
66.930000000000007
 20
93.084999999999994
 30
0.0
 11
66.997500000000002
 21
93.062299999999993
 31
0.0
  0
LINE
  5
198
  8
0
 62
     7
 10
66.997500000000002
 20
93.062299999999993
 30
0.0
 11
67.041600000000003
 21
93.039500000000004
 31
0.0
  0
LINE
  5
199
  8
0
 62
     7
 10
67.041600000000003
 20
93.039500000000004
 30
0.0
 11
67.086399999999983
 21
93.016800000000003
 31
0.0
  0
LINE
  5
19A
  8
0
 62
     7
 10
67.086399999999983
 20
93.016800000000003
 30
0.0
 11
67.131200000000007
 21
92.971300000000014
 31
0.0
  0
LINE
  5
19B
  8
0
 62
     7
 10
67.131200000000007
 20
92.971300000000014
 30
0.0
 11
67.176000000000002
 21
92.948599999999985
 31
0.0
  0
LINE
  5
19C
  8
0
 62
     7
 10
80.171299999999988
 20
93.084999999999994
 30
0.0
 11
80.596500000000006
 21
93.130499999999998
 31
0.0
  0
ARC
  5
19D
  8
0
 62
     7
 10
78.390840999999995
 20
116.61372
 30
0.0
 40
23.586594000000002
 50
275.36564600000003
 51
301.85883200000001
  0
LINE
  5
19E
  8
0
 62
     7
 10
90.840500000000006
 20
96.580399999999983
 30
0.0
 11
91.578100000000006
 21
97.034499999999994
 31
0.0
  0
LINE
  5
19F
  8
0
 62
     7
 10
55.433700000000002
 20
97.034499999999994
 30
0.0
 11
56.194299999999998
 21
96.557699999999997
 31
0.0
  0
ARC
  5
1A0
  8
0
 62
     7
 10
67.452386000000004
 20
114.243923
 30
0.0
 40
20.965371000000001
 50
237.5215279999999
 51
248.00833499999999
  0
ARC
  5
1A1
  8
0
 62
     7
 10
68.574780000000004
 20
116.703738
 30
0.0
 40
23.666813000000001
 50
247.71880300000001
 51
263.78659399999998
  0
LINE
  5
1A2
  8
0
 62
     7
 10
66.013300000000001
 20
93.176000000000002
 30
0.0
 11
66.841099999999997
 21
93.107100000000003
 31
0.0
  0
LINE
  5
1A3
  8
0
 62
     7
 10
69.166899999999998
 20
91.086799999999997
 30
0.0
 11
69.256500000000003
 21
87.659599999999983
 31
0.0
  0
LINE
  5
1A4
  8
0
 62
     7
 10
77.755600000000001
 20
87.659599999999983
 30
0.0
 11
77.845200000000006
 21
91.086799999999997
 31
0.0
  0
LINE
  5
1A5
  8
0
 62
     7
 10
77.979500000000002
 20
91.359700000000004
 30
0.0
 11
79.813400000000001
 21
92.948599999999985
 31
0.0
  0
LINE
  5
1A6
  8
0
 62
     7
 10
67.176000000000002
 20
92.948599999999985
 30
0.0
 11
69.032899999999998
 21
91.359700000000004
 31
0.0
  0
LINE
  5
1A7
  8
0
 62
     7
 10
100.44
 20
108.28400000000001
 30
0.0
 11
46.639299999999992
 21
108.28400000000001
 31
0.0
  0
LINE
  5
1A8
  8
0
 62
     7
 10
46.639299999999992
 20
108.28400000000001
 30
0.0
 11
46.572499999999998
 21
108.28400000000001
 31
0.0
  0
LINE
  5
1A9
  8
0
 62
     7
 10
97.713899999999995
 20
97.034499999999994
 30
0.0
 11
97.669100000000014
 21
97.034499999999994
 31
0.0
  0
LINE
  5
1AA
  8
0
 62
     7
 10
97.669100000000014
 20
97.034499999999994
 30
0.0
 11
49.297899999999998
 21
97.034499999999994
 31
0.0
  0
LINE
  5
1AB
  8
0
 62
     7
 10
45.720499999999987
 20
107.247
 30
0.0
 11
45.877600000000001
 21
106.458
 31
0.0
  0
ARC
  5
1AC
  8
0
 62
     7
 10
109.272807
 20
120.01943300000001
 30
0.0
 40
64.829458000000002
 50
192.074456
 51
194.28844599999991
  0
ARC
  5
1AD
  8
0
 62
     7
 10
85.764643000000007
 20
114.145445
 30
0.0
 40
40.598933000000002
 50
194.44314
 51
198.54454799999999
  0
ARC
  5
1AE
  8
0
 62
     7
 10
74.66534
 20
110.52754899999999
 30
0.0
 40
28.925474000000001
 50
198.74262100000001
 51
205.60721000000009
  0
LINE
  5
1AF
  8
0
 62
     7
 10
48.581000000000003
 20
98.02600000000001
 30
0.0
 11
48.9617
 21
97.237099999999998
 31
0.0
  0
LINE
  5
1B0
  8
0
 62
     7
 10
98.050399999999996
 20
97.237099999999998
 30
0.0
 11
98.430800000000005
 21
98.02600000000001
 31
0.0
  0
ARC
  5
1B1
  8
0
 62
     7
 10
73.613947999999993
 20
109.918775
 30
0.0
 40
27.519338999999999
 50
334.395218
 51
340.60391299999998
  0
ARC
  5
1B2
  8
0
 62
     7
 10
65.712868999999998
 20
112.822998
 30
0.0
 40
35.93666300000001
 50
340.41980999999998
 51
344.93922500000002
  0
ARC
  5
1B3
  8
0
 62
     7
 10
48.575688999999997
 20
117.60170100000001
 30
0.0
 40
53.727150999999999
 50
344.76691899999997
 51
348.02950099999998
  0
LINE
  5
1B4
  8
0
 62
     7
 10
101.13500000000001
 20
106.458
 30
0.0
 11
101.291
 21
107.247
 31
0.0
  0
LINE
  5
1B5
  8
0
 62
     7
 10
46.572499999999998
 20
108.28400000000001
 30
0.0
 11
46.482599999999991
 21
108.28400000000001
 31
0.0
  0
ARC
  5
1B6
  8
0
 62
     7
 10
46.500959000000002
 20
107.552874
 30
0.0
 40
0.731528
 50
91.441530000000014
 51
129.83531600000001
  0
ARC
  5
1B7
  8
0
 62
     7
 10
46.612060999999997
 20
107.405283
 30
0.0
 40
0.916078
 50
129.25801100000001
 51
184.20317900000001
  0
LINE
  5
1B8
  8
0
 62
     7
 10
45.698399999999999
 20
107.33799999999999
 30
0.0
 11
45.720499999999987
 21
107.247
 31
0.0
  0
LINE
  5
1B9
  8
0
 62
     7
 10
101.291
 20
107.247
 30
0.0
 11
101.31399999999999
 21
107.33799999999999
 31
0.0
  0
ARC
  5
1BA
  8
0
 62
     7
 10
100.49125100000001
 20
107.428887
 30
0.0
 40
0.8277469999999999
 50
353.70594299999999
 51
35.917064000000003
  0
ARC
  5
1BB
  8
0
 62
     7
 10
100.418121
 20
107.40226199999999
 30
0.0
 40
0.9028440000000001
 50
34.562912000000011
 51
68.230574000000004
  0
ARC
  5
1BC
  8
0
 62
     7
 10
100.509282
 20
107.58389099999999
 30
0.0
 40
0.7005720000000001
 50
69.645449999999997
 51
88.341685999999996
  0
LINE
  5
1BD
  8
0
 62
     7
 10
100.53
 20
108.28400000000001
 30
0.0
 11
100.44
 21
108.28400000000001
 31
0.0
  0
LINE
  5
1BE
  8
0
 62
     7
 10
98.050399999999996
 20
97.237099999999998
 30
0.0
 11
97.983599999999996
 21
97.146100000000004
 31
0.0
  0
LINE
  5
1BF
  8
0
 62
     7
 10
97.983599999999996
 20
97.146100000000004
 30
0.0
 11
97.893400000000014
 21
97.078599999999994
 31
0.0
  0
LINE
  5
1C0
  8
0
 62
     7
 10
97.893400000000014
 20
97.078599999999994
 30
0.0
 11
97.713899999999995
 21
97.034499999999994
 31
0.0
  0
LINE
  5
1C1
  8
0
 62
     7
 10
49.297899999999998
 20
97.034499999999994
 30
0.0
 11
49.207999999999991
 21
97.0565
 31
0.0
  0
LINE
  5
1C2
  8
0
 62
     7
 10
49.207999999999991
 20
97.0565
 30
0.0
 11
49.096000000000011
 21
97.078599999999994
 31
0.0
  0
LINE
  5
1C3
  8
0
 62
     7
 10
49.096000000000011
 20
97.078599999999994
 30
0.0
 11
49.02879999999999
 21
97.146100000000004
 31
0.0
  0
LINE
  5
1C4
  8
0
 62
     7
 10
49.02879999999999
 20
97.146100000000004
 30
0.0
 11
48.9617
 21
97.237099999999998
 31
0.0
  0
LINE
  5
1C5
  8
0
 62
     7
 10
174.97800000000001
 20
107.435
 30
0.0
 11
174.97800000000001
 21
97.414800000000014
 31
0.0
  0
LINE
  5
1C6
  8
0
 62
     7
 10
122.34099999999999
 20
97.235699999999994
 30
0.0
 11
122.452
 21
97.124099999999999
 31
0.0
  0
LINE
  5
1C7
  8
0
 62
     7
 10
122.452
 20
97.124099999999999
 30
0.0
 11
122.56399999999999
 21
97.0565
 31
0.0
  0
LINE
  5
1C8
  8
0
 62
     7
 10
122.56399999999999
 20
97.0565
 30
0.0
 11
122.676
 21
97.034499999999994
 31
0.0
  0
LINE
  5
1C9
  8
0
  6
AIGENLINE002
 62
     7
 10
153.40700000000001
 20
94.914400000000001
 30
0.0
 11
153.38399999999999
 21
94.914400000000001
 31
0.0
  0
LINE
  5
1CA
  8
0
  6
AIGENLINE002
 62
     7
 10
153.38399999999999
 20
94.914400000000001
 30
0.0
 11
153.20500000000001
 21
94.847499999999997
 31
0.0
  0
ARC
  5
1CB
  8
0
  6
AIGENLINE002
 62
     7
 10
151.23505800000001
 20
103.038419
 30
0.0
 40
8.4244679999999992
 50
277.17838699999999
 51
283.52339000000001
  0
ARC
  5
1CC
  8
0
  6
AIGENLINE002
 62
     7
 10
150.68779900000001
 20
106.891052
 30
0.0
 40
12.315441999999999
 50
273.65968299999997
 51
277.46473500000002
  0
ARC
  5
1CD
  8
0
  6
AIGENLINE002
 62
     7
 10
150.19524000000001
 20
114.007741
 30
0.0
 40
19.449093999999999
 50
270.77519599999999
 51
273.7695589999999
  0
ARC
  5
1CE
  8
0
  6
AIGENLINE002
 62
     7
 10
149.77950899999999
 20
136.055361
 30
0.0
 40
41.500487
 50
269.90990699999998
 51
270.93729000000002
  0
ARC
  5
1CF
  8
0
  6
AIGENLINE002
 62
     7
 10
148.85479599999999
 20
-107.080776
 30
0.0
 40
201.63753299999999
 50
89.755774999999986
 51
90.174761000000004
  0
ARC
  5
1D0
  8
0
  6
AIGENLINE002
 62
     7
 10
148.435676
 20
69.543468999999988
 30
0.0
 40
25.013117999999999
 50
90.448820999999995
 51
92.396641000000002
  0
LINE
  5
1D1
  8
0
  6
AIGENLINE002
 62
     7
 10
147.38999999999999
 20
94.534700000000015
 30
0.0
 11
146.3829999999999
 21
94.534700000000015
 31
0.0
  0
LINE
  5
1D2
  8
0
  6
AIGENLINE002
 62
     7
 10
146.3829999999999
 20
94.534700000000015
 30
0.0
 11
140.47800000000001
 21
94.534700000000015
 31
0.0
  0
LINE
  5
1D3
  8
0
  6
AIGENLINE002
 62
     7
 10
140.47800000000001
 20
94.534700000000015
 30
0.0
 11
140.38900000000001
 21
94.534700000000015
 31
0.0
  0
LINE
  5
1D4
  8
0
 62
     7
 10
174.97800000000001
 20
97.414800000000014
 30
0.0
 11
174.95500000000001
 21
97.347300000000004
 31
0.0
  0
ARC
  5
1D5
  8
0
 62
     7
 10
174.71740299999999
 20
97.353273999999999
 30
0.0
 40
0.23813
 50
334.776523
 51
358.56250799999998
  0
ARC
  5
1D6
  8
0
 62
     7
 10
174.58711400000001
 20
97.411210999999994
 30
0.0
 40
0.380698
 50
278.28193099999999
 51
335.24449600000003
  0
LINE
  5
1D7
  8
0
 62
     7
 10
174.642
 20
97.034499999999994
 30
0.0
 11
174.59800000000001
 21
97.034499999999994
 31
0.0
  0
LINE
  5
1D8
  8
0
 62
     7
 10
174.97800000000001
 20
107.435
 30
0.0
 11
174.95500000000001
 21
107.501
 31
0.0
  0
ARC
  5
1D9
  8
0
 62
     7
 10
174.32947899999999
 20
107.508403
 30
0.0
 40
0.6260170000000001
 50
359.36261200000001
 51
23.348389999999998
  0
ARC
  5
1DA
  8
0
 62
     7
 10
174.11372800000001
 20
107.425451
 30
0.0
 40
0.857027
 50
22.723466999999999
 51
72.737275999999994
  0
ARC
  5
1DB
  8
0
 62
     7
 10
174.22266400000001
 20
107.68195900000001
 30
0.0
 40
0.580418
 50
75.493354000000011
 51
88.297642999999994
  0
LINE
  5
1DC
  8
0
 62
     7
 10
174.24000000000001
 20
108.262
 30
0.0
 11
174.10599999999999
 21
108.28400000000001
 31
0.0
  0
LINE
  5
1DD
  8
0
  6
AIGENLINE002
 62
     7
 10
159.7579999999999
 20
108.28400000000001
 30
0.0
 11
159.71299999999999
 21
108.28400000000001
 31
0.0
  0
ARC
  5
1DE
  8
0
  6
AIGENLINE002
 62
     7
 10
159.688759
 20
107.701634
 30
0.0
 40
0.5830350000000001
 50
87.628837000000004
 51
112.37537399999989
  0
ARC
  5
1DF
  8
0
  6
AIGENLINE002
 62
     7
 10
159.803731
 20
107.40187400000001
 30
0.0
 40
0.9040259999999999
 50
111.881373
 51
165.00358600000001
  0
LINE
  5
1E0
  8
0
  6
AIGENLINE002
 62
     7
 10
158.93000000000001
 20
107.636
 30
0.0
 11
158.90799999999999
 21
107.501
 31
0.0
  0
LINE
  5
1E1
  8
0
  6
AIGENLINE002
 62
     7
 10
153.429
 20
94.937100000000001
 30
0.0
 11
153.45099999999999
 21
94.937100000000001
 31
0.0
  0
ARC
  5
1E2
  8
0
  6
AIGENLINE002
 62
     7
 10
150.905416
 20
99.475820999999996
 30
0.0
 40
5.2036949999999988
 50
299.28331400000002
 51
310.75399099999998
  0
ARC
  5
1E3
  8
0
  6
AIGENLINE002
 62
     7
 10
149.81018999999989
 20
100.806622
 30
0.0
 40
6.9268910000000004
 50
310.43050399999998
 51
320.33470800000009
  0
ARC
  5
1E4
  8
0
  6
AIGENLINE002
 62
     7
 10
147.909085
 20
102.458361
 30
0.0
 40
9.444821000000001
 50
319.98280999999997
 51
327.02556399999997
  0
ARC
  5
1E5
  8
0
  6
AIGENLINE002
 62
     7
 10
144.966655
 20
104.42207000000001
 30
0.0
 40
12.982124000000001
 50
326.82289800000001
 51
334.69848400000001
  0
ARC
  5
1E6
  8
0
  6
AIGENLINE002
 62
     7
 10
139.81788900000001
 20
106.984348
 30
0.0
 40
18.732405
 50
334.34370100000001
 51
341.46037100000001
  0
ARC
  5
1E7
  8
0
  6
AIGENLINE002
 62
     7
 10
132.980065
 20
109.424199
 30
0.0
 40
25.991522
 50
341.153794
 51
354.76844199999999
  0
LINE
  5
1E8
  8
0
  6
AIGENLINE002
 62
     7
 10
158.863
 20
107.054
 30
0.0
 11
158.90799999999999
 21
107.501
 31
0.0
  0
LINE
  5
1E9
  8
0
  6
AIGENLINE002
 62
     7
 10
153.429
 20
94.937100000000001
 30
0.0
 11
153.09299999999999
 21
94.735899999999987
 31
0.0
  0
LINE
  5
1EA
  8
0
  6
AIGENLINE002
 62
     7
 10
153.09299999999999
 20
94.735899999999987
 30
0.0
 11
152.73500000000001
 21
94.534700000000015
 31
0.0
  0
LINE
  5
1EB
  8
0
  6
AIGENLINE002
 62
     7
 10
152.73500000000001
 20
94.534700000000015
 30
0.0
 11
152.55699999999999
 21
94.445099999999996
 31
0.0
  0
LINE
  5
1EC
  8
0
  6
AIGENLINE002
 62
     7
 10
152.55699999999999
 20
94.445099999999996
 30
0.0
 11
152.37799999999999
 21
94.332800000000006
 31
0.0
  0
LINE
  5
1ED
  8
0
  6
AIGENLINE002
 62
     7
 10
152.37799999999999
 20
94.332800000000006
 30
0.0
 11
152.221
 21
94.221199999999996
 31
0.0
  0
LINE
  5
1EE
  8
0
  6
AIGENLINE002
 62
     7
 10
152.221
 20
94.221199999999996
 30
0.0
 11
152.06399999999999
 21
94.086799999999997
 31
0.0
  0
LINE
  5
1EF
  8
0
  6
AIGENLINE002
 62
     7
 10
149.649
 20
92.225800000000007
 30
0.0
 11
150.78899999999999
 21
93.164899999999989
 31
0.0
  0
LINE
  5
1F0
  8
0
  6
AIGENLINE002
 62
     7
 10
150.78899999999999
 20
93.164899999999989
 30
0.0
 11
151.90799999999999
 21
93.953199999999995
 31
0.0
  0
LINE
  5
1F1
  8
0
  6
AIGENLINE002
 62
     7
 10
151.90799999999999
 20
93.953199999999995
 30
0.0
 11
152.06399999999999
 21
94.086799999999997
 31
0.0
  0
LINE
  5
1F2
  8
0
  6
AIGENLINE002
 62
     7
 10
149.649
 20
92.225800000000007
 30
0.0
 11
149.649
 21
87.659599999999983
 31
0.0
  0
LINE
  5
1F3
  8
0
  6
AIGENLINE002
 62
     7
 10
141.77600000000001
 20
93.975200000000001
 30
0.0
 11
142.916
 21
93.187000000000012
 31
0.0
  0
LINE
  5
1F4
  8
0
  6
AIGENLINE002
 62
     7
 10
142.916
 20
93.187000000000012
 30
0.0
 11
144.05799999999999
 21
92.225800000000007
 31
0.0
  0
LINE
  5
1F5
  8
0
  6
AIGENLINE002
 62
     7
 10
144.05799999999999
 20
92.225800000000007
 30
0.0
 11
144.05799999999999
 21
87.659599999999983
 31
0.0
  0
LINE
  5
1F6
  8
0
  6
AIGENLINE002
 62
     7
 10
141.77600000000001
 20
93.975200000000001
 30
0.0
 11
141.619
 21
94.109600000000015
 31
0.0
  0
ARC
  5
1F7
  8
0
  6
AIGENLINE002
 62
     7
 10
130.12037000000001
 20
73.266353000000009
 30
0.0
 40
23.804651
 50
61.115425999999992
 51
62.077309
  0
ARC
  5
1F8
  8
0
  6
AIGENLINE002
 62
     7
 10
139.99968999999999
 20
91.815414999999987
 30
0.0
 40
2.7891129999999991
 50
62.961179000000008
 51
70.703992
  0
ARC
  5
1F9
  8
0
  6
AIGENLINE002
 62
     7
 10
140.50350399999999
 20
93.211064000000007
 30
0.0
 40
1.3054600000000001
 50
71.332560999999998
 51
85.212356999999997
  0
LINE
  5
1FA
  8
0
  6
AIGENLINE002
 62
     7
 10
140.61199999999999
 20
94.512
 30
0.0
 11
140.36600000000001
 21
94.534700000000015
 31
0.0
  0
LINE
  5
1FB
  8
0
  6
AIGENLINE002
 62
     7
 10
121.19199999999999
 20
107.88200000000001
 30
0.0
 11
121.41500000000001
 21
107.435
 31
0.0
  0
ARC
  5
1FC
  8
0
  6
AIGENLINE002
 62
     7
 10
140.46389500000001
 20
116.23590299999999
 30
0.0
 40
20.983981
 50
204.798587
 51
222.90403499999999
  0
ARC
  5
1FD
  8
0
  6
AIGENLINE002
 62
     7
 10
142.24934400000001
 20
117.828067
 30
0.0
 40
23.375765999999999
 50
222.78336400000001
 51
260.8178850000001
  0
ARC
  5
1FE
  8
0
  6
AIGENLINE002
 62
     7
 10
141.74508299999999
 20
115.880619
 30
0.0
 40
21.373625000000001
 50
261.31928099999999
 51
265.27951100000001
  0
LINE
  5
1FF
  8
0
  6
AIGENLINE002
 62
     7
 10
139.98599999999999
 20
94.579499999999996
 30
0.0
 11
140.36600000000001
 21
94.534700000000015
 31
0.0
  0
LINE
  5
200
  8
0
  6
AIGENLINE002
 62
     7
 10
121.19199999999999
 20
107.88200000000001
 30
0.0
 11
121.124
 21
107.994
 31
0.0
  0
LINE
  5
201
  8
0
  6
AIGENLINE002
 62
     7
 10
121.124
 20
107.994
 30
0.0
 11
121.035
 21
108.083
 31
0.0
  0
LINE
  5
202
  8
0
  6
AIGENLINE002
 62
     7
 10
121.035
 20
108.083
 30
0.0
 11
120.81100000000001
 21
108.217
 31
0.0
  0
LINE
  5
203
  8
0
  6
AIGENLINE002
 62
     7
 10
120.81100000000001
 20
108.217
 30
0.0
 11
120.699
 21
108.262
 31
0.0
  0
LINE
  5
204
  8
0
  6
AIGENLINE002
 62
     7
 10
120.699
 20
108.262
 30
0.0
 11
120.565
 21
108.28400000000001
 31
0.0
  0
LINE
  5
205
  8
0
  6
AIGENLINE002
 62
     7
 10
120.565
 20
108.28400000000001
 30
0.0
 11
120.453
 21
108.28400000000001
 31
0.0
  0
LINE
  5
206
  8
0
 62
     7
 10
119.581
 20
108.28400000000001
 30
0.0
 11
119.491
 21
108.28400000000001
 31
0.0
  0
ARC
  5
207
  8
0
 62
     7
 10
119.584508
 20
107.434704
 30
0.0
 40
0.8545440000000001
 50
96.249681000000024
 51
183.01100500000001
  0
LINE
  5
208
  8
0
 62
     7
 10
118.73099999999999
 20
107.39
 30
0.0
 11
118.73099999999999
 21
107.255
 31
0.0
  0
LINE
  5
209
  8
0
 62
     7
 10
118.73099999999999
 20
107.255
 30
0.0
 11
118.93300000000001
 21
106.316
 31
0.0
  0
ARC
  5
20A
  8
0
 62
     7
 10
143.29019299999999
 20
111.42939200000001
 30
0.0
 40
24.888387999999999
 50
191.85528299999999
 51
198.154729
  0
ARC
  5
20B
  8
0
 62
     7
 10
153.10578000000001
 20
114.465419
 30
0.0
 40
35.161746999999998
 50
197.872028
 51
202.50231700000001
  0
ARC
  5
20C
  8
0
 62
     7
 10
168.44982400000001
 20
120.631067
 30
0.0
 40
51.697578999999998
 50
202.30697100000009
 51
205.88310999999999
  0
LINE
  5
20D
  8
0
 62
     7
 10
121.938
 20
98.063199999999995
 30
0.0
 11
122.34
 21
97.235699999999994
 31
0.0
  0
ARC
  5
20E
  8
0
 62
     7
 10
141.89443499999999
 20
116.944479
 30
0.0
 40
23.778238000000002
 50
236.861244
 51
263.93609600000002
  0
LINE
  5
20F
  8
0
 62
     7
 10
139.38300000000001
 20
93.299300000000002
 30
0.0
 11
140.18799999999999
 21
93.209699999999998
 31
0.0
  0
LINE
  5
210
  8
0
 62
     7
 10
140.18799999999999
 20
93.209699999999998
 30
0.0
 11
140.322
 21
93.187000000000012
 31
0.0
  0
LINE
  5
211
  8
0
 62
     7
 10
140.322
 20
93.187000000000012
 30
0.0
 11
140.434
 21
93.142200000000003
 31
0.0
  0
LINE
  5
212
  8
0
 62
     7
 10
140.434
 20
93.142200000000003
 30
0.0
 11
140.54499999999999
 21
93.075400000000016
 31
0.0
  0
LINE
  5
213
  8
0
 62
     7
 10
140.54499999999999
 20
93.075400000000016
 30
0.0
 11
142.37899999999999
 21
91.509200000000007
 31
0.0
  0
LINE
  5
214
  8
0
 62
     7
 10
142.37899999999999
 20
91.509200000000007
 30
0.0
 11
142.447
 21
91.442400000000006
 31
0.0
  0
LINE
  5
215
  8
0
 62
     7
 10
142.447
 20
91.442400000000006
 30
0.0
 11
142.49199999999999
 21
91.352799999999988
 31
0.0
  0
LINE
  5
216
  8
0
 62
     7
 10
142.49199999999999
 20
91.352799999999988
 30
0.0
 11
142.51400000000001
 21
91.241200000000006
 31
0.0
  0
LINE
  5
217
  8
0
 62
     7
 10
151.125
 20
88.307299999999998
 30
0.0
 11
151.125
 21
87.972399999999993
 31
0.0
  0
LINE
  5
218
  8
0
 62
     7
 10
151.125
 20
87.972399999999993
 30
0.0
 11
151.10300000000001
 21
87.659599999999983
 31
0.0
  0
LINE
  5
219
  8
0
 62
     7
 10
151.10300000000001
 20
87.659599999999983
 30
0.0
 11
142.60300000000001
 21
87.659599999999983
 31
0.0
  0
LINE
  5
21A
  8
0
 62
     7
 10
142.60300000000001
 20
87.659599999999983
 30
0.0
 11
142.559
 21
89.336699999999993
 31
0.0
  0
LINE
  5
21B
  8
0
 62
     7
 10
142.559
 20
89.336699999999993
 30
0.0
 11
142.51400000000001
 21
91.241200000000006
 31
0.0
  0
LINE
  5
21C
  8
0
 62
     7
 10
174.10599999999999
 20
108.28400000000001
 30
0.0
 11
119.581
 21
108.28400000000001
 31
0.0
  0
LINE
  5
21D
  8
0
 62
     7
 10
174.59800000000001
 20
97.034499999999994
 30
0.0
 11
122.676
 21
97.034499999999994
 31
0.0
  0
LINE
  5
21E
  8
0
 62
     7
 10
155.30799999999999
 20
88.576000000000008
 30
0.0
 11
151.125
 21
88.307299999999998
 31
0.0
  0
LINE
  5
21F
  8
0
 62
     7
 10
160.161
 20
93.120099999999994
 30
0.0
 11
156.09
 21
88.934299999999993
 31
0.0
  0
LINE
  5
220
  8
0
 62
     7
 10
160.82400000000001
 20
97.034499999999994
 30
0.0
 11
160.541
 21
93.880099999999985
 31
0.0
  0
ARC
  5
221
  8
0
 62
     7
 10
63.80371199999999
 20
183.05479199999999
 30
0.0
 40
35.015723000000001
 50
0.3686159999999999
 51
4.3101209999999988
  0
ARC
  5
222
  8
0
 62
     7
 10
77.390506999999985
 20
183.97674699999999
 30
0.0
 40
21.398306000000002
 50
4.582609999999999
 51
10.151441
  0
ARC
  5
223
  8
0
 62
     7
 10
85.232264000000001
 20
185.288175
 30
0.0
 40
13.448478
 50
10.54006
 51
15.843391
  0
ARC
  5
224
  8
0
 62
     7
 10
89.402648999999997
 20
186.43417700000001
 30
0.0
 40
9.1237220000000008
 50
16.070001999999999
 51
22.622855999999999
  0
ARC
  5
225
  8
0
 62
     7
 10
92.209221999999997
 20
187.57525799999999
 30
0.0
 40
6.0942210000000001
 50
22.870156999999999
 51
32.531655999999998
  0
ARC
  5
226
  8
0
 62
     7
 10
93.856144999999998
 20
188.579003
 30
0.0
 40
4.1661149999999996
 50
33.073616999999999
 51
43.121363000000002
  0
LINE
  5
227
  8
0
 62
     7
 10
96.897000000000006
 20
191.42699999999999
 30
0.0
 11
96.539100000000005
 21
191.82900000000001
 31
0.0
  0
LINE
  5
228
  8
0
 62
     7
 10
96.539100000000005
 20
191.82900000000001
 30
0.0
 11
96.136300000000006
 21
192.18700000000001
 31
0.0
  0
ARC
  5
229
  8
0
 62
     7
 10
90.057206000000008
 20
184.968616
 30
0.0
 40
9.4373989999999992
 50
49.897737999999997
 51
59.891233999999997
  0
ARC
  5
22A
  8
0
 62
     7
 10
88.444866000000005
 20
182.34433000000001
 30
0.0
 40
12.516666000000001
 50
59.53262500000001
 51
68.815190999999999
  0
ARC
  5
22B
  8
0
 62
     7
 10
86.805134999999993
 20
178.401116
 30
0.0
 40
16.786279999999991
 50
68.460452000000004
 51
76.949248999999995
  0
ARC
  5
22C
  8
0
 62
     7
 10
85.714575999999994
 20
174.17783700000001
 30
0.0
 40
21.147017000000002
 50
76.654693000000009
 51
87.882666999999984
  0
LINE
  5
22D
  8
0
 62
     7
 10
148.88
 20
182.44800000000001
 30
0.0
 11
146.898
 21
183.59299999999999
 31
0.0
  0
LINE
  5
22E
  8
0
 62
     7
 10
146.898
 20
183.59299999999999
 30
0.0
 11
148.04300000000001
 21
181.61000000000001
 31
0.0
  0
LINE
  5
22F
  8
0
 62
     7
 10
148.04300000000001
 20
181.61000000000001
 30
0.0
 11
148.88
 21
182.44800000000001
 31
0.0
  0
LINE
  5
230
  8
0
 62
     7
 10
146.90799999999999
 20
183.60300000000001
 30
0.0
 11
150.988
 21
179.523
 31
0.0
  0
TEXT
  5
231
  8
_________2
 62
     7
 10
39.364090666666669
 20
13.603400000000001
 30
0.0
 40
3.6545800000000002
  1
篠崎
 41
0.5
 72
     1
 11
41.313200000000002
 21
13.603400000000001
 31
0.0
  0
TEXT
  5
232
  8
_________2
 62
     7
 10
24.586400000000001
 20
0.707627
 30
0.0
 40
3.9357000000000002
  1
実容量：2.5L、重量：9.3kg、オーバーフロー付
 41
0.5
  0
TEXT
  5
233
  8
_________2
 62
     7
 10
109.179
 20
24.226099999999999
 30
0.0
 40
3.9357000000000002
  1
メトロポール 洗面器
 41
0.5
  0
LINE
  5
234
  8
_________2
 62
     7
 10
205.30099999999999
 20
127.411
 30
0.0
 11
183.55099999999999
 21
127.411
 31
0.0
  0
LINE
  5
235
  8
_________2
 62
     7
 10
100.3
 20
-4.0910799999999998
 30
0.0
 11
100.3
 21
-21.071000000000002
 31
0.0
  0
LINE
  5
236
  8
_________2
 62
     7
 10
100.3
 20
275.93099999999998
 30
0.0
 11
100.3
 21
258.911
 31
0.0
  0
LINE
  5
237
  8
_________2
 62
     7
 10
17.049199999999999
 20
127.411
 30
0.0
 11
-4.7012099999999988
 21
127.411
 31
0.0
  0
LINE
  5
238
  8
_________2
 62
     7
 10
76.740700000000004
 20
29.8047
 30
0.0
 11
74.554400000000001
 21
29.8047
 31
0.0
  0
LINE
  5
239
  8
_________2
 62
     7
 10
77.2333
 20
29.8047
 30
0.0
 11
76.981099999999984
 21
29.8047
 31
0.0
  0
LINE
  5
23A
  8
_________2
 62
     7
 10
77.725999999999999
 20
29.8047
 30
0.0
 11
80.650899999999993
 21
29.8047
 31
0.0
  0
LINE
  5
23B
  8
_________2
 62
     7
 10
77.2333
 20
29.8047
 30
0.0
 11
77.485500000000002
 21
29.8047
 31
0.0
  0
LINE
  5
23C
  8
_________2
 62
     7
 10
70.837100000000007
 20
29.8047
 30
0.0
 11
68.650199999999998
 21
29.8047
 31
0.0
  0
LINE
  5
23D
  8
_________2
 62
     7
 10
71.329099999999997
 20
29.8047
 30
0.0
 11
71.077600000000004
 21
29.8047
 31
0.0
  0
LINE
  5
23E
  8
_________2
 62
     7
 10
71.329099999999997
 20
30.2974
 30
0.0
 11
71.329099999999997
 21
32.484400000000001
 31
0.0
  0
LINE
  5
23F
  8
_________2
 62
     7
 10
71.329099999999997
 20
29.8047
 30
0.0
 11
71.329099999999997
 21
30.057300000000001
 31
0.0
  0
LINE
  5
240
  8
_________2
 62
     7
 10
71.821700000000007
 20
29.8047
 30
0.0
 11
74.008700000000005
 21
29.8047
 31
0.0
  0
LINE
  5
241
  8
_________2
 62
     7
 10
71.329099999999997
 20
29.8047
 30
0.0
 11
71.581299999999985
 21
29.8047
 31
0.0
  0
LINE
  5
242
  8
_________2
 62
     7
 10
71.329099999999997
 20
29.312799999999999
 30
0.0
 11
71.329099999999997
 21
27.126200000000001
 31
0.0
  0
LINE
  5
243
  8
_________2
 62
     7
 10
71.329099999999997
 20
29.8047
 30
0.0
 11
71.329099999999997
 21
29.5532
 31
0.0
  0
LINE
  5
244
  8
_________2
 62
     7
 10
75.040199999999999
 20
28.5852
 30
0.0
 11
80.218199999999996
 21
27.720400000000001
 31
0.0
  0
LINE
  5
245
  8
_________2
 62
     7
 10
75.040199999999999
 20
31.024699999999999
 30
0.0
 11
80.218199999999996
 21
31.8901
 31
0.0
  0
LINE
  5
246
  8
_________2
 62
     7
 10
80.218199999999996
 20
27.720400000000001
 30
0.0
 11
80.218199999999996
 21
31.8901
 31
0.0
  0
LINE
  5
247
  8
_________2
 62
     7
 10
75.040199999999999
 20
28.5852
 30
0.0
 11
75.040199999999999
 21
31.024699999999999
 31
0.0
  0
ARC
  5
248
  8
_________2
 62
     7
 10
71.282501999999994
 20
29.757801000000001
 30
0.0
 40
1.267714
 50
2.1220840000000001
 51
87.894083999999992
  0
ARC
  5
249
  8
_________2
 62
     7
 10
71.375640000000004
 20
29.758545999999999
 30
0.0
 40
1.2669680000000001
 50
92.105782999999988
 51
177.91037
  0
ARC
  5
24A
  8
_________2
 62
     7
 10
71.376013999999998
 20
29.851671
 30
0.0
 40
1.2673680000000001
 50
182.12203600000001
 51
267.877993
  0
ARC
  5
24B
  8
_________2
 62
     7
 10
71.282195999999999
 20
29.852347999999999
 30
0.0
 40
1.2680439999999991
 50
272.11916400000001
 51
357.84848499999998
  0
ARC
  5
24C
  8
_________2
 62
     7
 10
71.248716999999985
 20
29.724731999999999
 30
0.0
 40
2.1668310000000002
 50
2.1161439999999989
 51
87.874379000000005
  0
ARC
  5
24D
  8
_________2
 62
     7
 10
71.408756000000011
 20
29.726146
 30
0.0
 40
2.165392999999999
 50
92.108508999999998
 51
177.91986499999999
  0
ARC
  5
24E
  8
_________2
 62
     7
 10
71.409094999999994
 20
29.884751999999999
 30
0.0
 40
2.1657829999999998
 50
182.117133
 51
267.88289700000001
  0
ARC
  5
24F
  8
_________2
 62
     7
 10
71.249115000000003
 20
29.885429999999999
 30
0.0
 40
2.1664590000000001
 50
272.11546800000002
 51
357.86560400000002
  0
TEXT
  5
250
  8
_________2
 62
     7
 10
104.605
 20
1.6794899999999999
 30
0.0
 40
3.0923400000000001
  1
図番
 41
0.5
  0
LINE
  5
251
  8
_________2
 62
     7
 10
103.55
 20
5.9087199999999989
 30
0.0
 11
183.55099999999999
 21
5.9087199999999989
 31
0.0
  0
TEXT
  5
252
  8
_________2
 62
     7
 10
104.605
 20
11.6793
 30
0.0
 40
3.0923400000000001
  1
品番
 41
0.5
  0
TEXT
  5
253
  8
_________2
 62
     7
 10
104.605
 20
31.8184
 30
0.0
 40
3.0923400000000001
  1
名称
 41
0.5
  0
TEXT
  5
254
  8
_________2
 62
     7
 10
91.844758333333345
 20
26.822299999999998
 30
0.0
 40
3.6545800000000002
  1
mm
 41
0.5
 72
     1
 11
93.367500000000007
 21
26.822299999999998
 31
0.0
  0
TEXT
  5
255
  8
_________2
 62
     7
 10
85.642899999999983
 20
31.8184
 30
0.0
 40
3.0923400000000001
  1
単位
 41
0.5
  0
TEXT
  5
256
  8
_________2
 62
     7
 10
85.642899999999983
 20
19.410799999999998
 30
0.0
 40
3.0923400000000001
  1
尺度
 41
0.5
  0
TEXT
  5
257
  8
_________2
 62
     7
 10
90.548458666666676
 20
13.2182
 30
0.0
 40
3.6545800000000002
  1
1 ： 8
 41
0.5
 72
     1
 11
93.959400000000016
 21
13.2182
 31
0.0
  0
TEXT
  5
258
  8
_________2
 62
     7
 10
137.974425
 20
9.1082000000000001
 30
0.0
 40
3.9357000000000002
  1
VR5941
 41
0.5
 72
     1
 11
143.55000000000001
 21
9.1082000000000001
 31
0.0
  0
TEXT
  5
259
  8
_________2
 62
     7
 10
137.974425
 20
-0.8926299999999999
 30
0.0
 40
3.9357000000000002
  1
VR5941
 41
0.5
 72
     1
 11
143.55000000000001
 21
-0.8926299999999999
 31
0.0
  0
TEXT
  5
25A
  8
_________2
 62
     7
 10
20.790090666666671
 20
13.603400000000001
 30
0.0
 40
3.6545800000000002
  1
菅原
 41
0.5
 72
     1
 11
22.7392
 21
13.603400000000001
 31
0.0
  0
TEXT
  5
25B
  8
_________2
 62
     7
 10
67.785399999999996
 20
13.2182
 30
0.0
 40
3.6545800000000002
  1
17.12.08
 41
0.5
  0
TEXT
  5
25C
  8
_________2
 62
     7
 10
66.592699999999994
 20
19.410799999999998
 30
0.0
 40
3.0923400000000001
  1
日付
 41
0.5
  0
TEXT
  5
25D
  8
_________2
 62
     7
 10
29.638999999999999
 20
19.410799999999998
 30
0.0
 40
3.0923400000000001
  1
検図
 41
0.5
  0
TEXT
  5
25E
  8
_________2
 62
     7
 10
18.020700000000001
 20
5.21143
 30
0.0
 40
3.0923400000000001
  1
備考
 41
0.5
  0
TEXT
  5
25F
  8
_________2
 62
     7
 10
18.020700000000001
 20
19.410799999999998
 30
0.0
 40
3.0923400000000001
  1
製図
 41
0.5
  0
TEXT
  5
260
  8
_________2
 62
     7
 10
23.788165333333339
 20
27.936800000000002
 30
0.0
 40
4.4979399999999989
  1
セラトレーディング株式会社
 41
0.5
 72
     1
 11
41.180199999999999
 21
27.936800000000002
 31
0.0
  0
LINE
  5
261
  8
_________2
 62
     7
 10
183.55099999999999
 20
-4.0910799999999998
 30
0.0
 11
17.049199999999999
 21
-4.0910799999999998
 31
0.0
  0
LINE
  5
262
  8
_________2
 62
     7
 10
17.049199999999999
 20
-4.0910799999999998
 30
0.0
 11
17.049199999999999
 21
258.911
 31
0.0
  0
LINE
  5
263
  8
_________2
 62
     7
 10
17.049199999999999
 20
258.911
 30
0.0
 11
183.55099999999999
 21
258.911
 31
0.0
  0
LINE
  5
264
  8
_________2
 62
     7
 10
183.55099999999999
 20
258.911
 30
0.0
 11
183.55099999999999
 21
-4.0910799999999998
 31
0.0
  0
LINE
  5
265
  8
_________2
 62
     7
 10
65.549599999999998
 20
9.4092999999999982
 30
0.0
 11
65.549599999999998
 21
35.909100000000002
 31
0.0
  0
LINE
  5
266
  8
_________2
 62
     7
 10
84.549400000000006
 20
9.4092999999999982
 30
0.0
 11
84.549400000000006
 21
35.909100000000002
 31
0.0
  0
LINE
  5
267
  8
_________2
 62
     7
 10
103.55
 20
-4.0910799999999998
 30
0.0
 11
103.55
 21
35.909100000000002
 31
0.0
  0
LINE
  5
268
  8
_________2
 62
     7
 10
28.548999999999999
 20
9.4092999999999982
 30
0.0
 11
28.548999999999999
 21
23.409199999999998
 31
0.0
  0
LINE
  5
269
  8
_________2
 62
     7
 10
17.049199999999999
 20
9.4092999999999982
 30
0.0
 11
103.55
 21
9.4092999999999982
 31
0.0
  0
LINE
  5
26A
  8
_________2
 62
     7
 10
17.049199999999999
 20
23.409199999999998
 30
0.0
 11
103.55
 21
23.409199999999998
 31
0.0
  0
LINE
  5
26B
  8
_________2
 62
     7
 10
103.55
 20
15.9085
 30
0.0
 11
183.55099999999999
 21
15.9085
 31
0.0
  0
LINE
  5
26C
  8
_________2
 62
     7
 10
17.049199999999999
 20
35.909100000000002
 30
0.0
 11
183.55099999999999
 21
35.909100000000002
 31
0.0
  0
ENDSEC
  0
EOF
