  0
SECTION
  2
HEADER
  9
$ACADVER
  1
AC1009
  9
$LUNITS
 70
2
  9
$LUPREC
 70
4
  9
$LTSCALE
 40
1.0
  9
$EXTMIN
 10
-30.3177
 20
33.3285
 30
0
  9
$EXTMAX
 10
251.6749
 20
230.337
 30
0
  0
ENDSEC
  0
SECTION
  2
TABLES
  0
TABLE
  2
LTYPE
 70
256
  0
ENDTAB
  0
TABLE
  2
LAYER
 70
3
  0
LAYER
  2
LAYER_1
 70
64
 62
7
  6
CONTINUOUS
  0
LAYER
  2
LAYER_2
 70
64
 62
7
  6
CONTINUOUS
  0
LAYER
  2
LAYER_3
 70
64
 62
7
  6
CONTINUOUS
  0
ENDTAB
  0
TABLE
  2
STYLE
 70
6
  0
STYLE
  2
STANDARD
 70
0
 40
0
 50
0
 71
0
 41
0
 42
0
  3
TXT
  4
BIGFONT
  0
ENDTAB
  0
ENDSEC
  0
SECTION
  2
BLOCKS
  0
BLOCK
  8
LAYER_3
  2
AIGNBL03040006
 70
64
 10
0
 20
0
 30
0
  3
AIGNBL03040006
  0
POLYLINE
  8
LAYER_3
 40
0.05
 41
0.05
 66
1
 10
0
 20
0
 30
0
 70
1
  0
VERTEX
  8
LAYER_3
 10
146.7545
 20
39.1418
  0
VERTEX
  8
LAYER_3
 10
146.2657
 20
37.9567
  0
VERTEX
  8
LAYER_3
 10
145.6376
 20
37.9567
  0
VERTEX
  8
LAYER_3
 10
147.2372
 20
41.7225
  0
VERTEX
  8
LAYER_3
 10
147.9703
 20
41.7225
  0
VERTEX
  8
LAYER_3
 10
149.5767
 20
37.9567
  0
VERTEX
  8
LAYER_3
 10
148.9267
 20
37.9567
  0
VERTEX
  8
LAYER_3
 10
148.424
 20
39.1418
  0
SEQEND
  0
POLYLINE
  8
LAYER_3
 40
0.05
 41
0.05
 66
1
 10
0
 20
0
 30
0
 70
1
  0
VERTEX
  8
LAYER_3
 10
148.2983
 20
39.5208
  0
VERTEX
  8
LAYER_3
 10
147.8373
 20
40.6056
 42
-0.02317247198
  0
VERTEX
  8
LAYER_3
 10
147.5927
 20
41.2926
  0
VERTEX
  8
LAYER_3
 10
147.5789
 20
41.2926
 42
-0.02064481114
  0
VERTEX
  8
LAYER_3
 10
147.3412
 20
40.6101
  0
VERTEX
  8
LAYER_3
 10
146.8806
 20
39.5208
  0
SEQEND
  0
ENDBLK
  0
BLOCK
  8
LAYER_3
  2
AIGNBL03040007
 70
64
 10
0
 20
0
 30
0
  3
AIGNBL03040007
  0
POLYLINE
  8
LAYER_3
 40
0.05
 41
0.05
 66
1
 10
0
 20
0
 30
0
 70
1
  0
VERTEX
  8
LAYER_3
 10
153.942
 20
37.4034
 42
-0.01525137561
  0
VERTEX
  8
LAYER_3
 10
152.1399
 20
37.8396
 42
0.09192818596
  0
VERTEX
  8
LAYER_3
 10
151.8533
 20
37.895
 42
-0.09256808484
  0
VERTEX
  8
LAYER_3
 10
150.8994
 20
38.0977
 42
-0.09799469934
  0
VERTEX
  8
LAYER_3
 10
150.2621
 20
38.5324
 42
-0.1630918382
  0
VERTEX
  8
LAYER_3
 10
149.7964
 20
39.5259
 42
-0.0316951694
  0
VERTEX
  8
LAYER_3
 10
149.7793
 20
39.7998
 42
-0.1055313794
  0
VERTEX
  8
LAYER_3
 10
149.9533
 20
40.6417
 42
-0.1619874109
  0
VERTEX
  8
LAYER_3
 10
150.7418
 20
41.4867
 42
-0.09224146328
  0
VERTEX
  8
LAYER_3
 10
151.5409
 20
41.7524
 42
-0.03717154931
  0
VERTEX
  8
LAYER_3
 10
151.9725
 20
41.7838
 42
-0.09530535683
  0
VERTEX
  8
LAYER_3
 10
152.9361
 20
41.6062
 42
-0.1001834594
  0
VERTEX
  8
LAYER_3
 10
153.5732
 20
41.1834
 42
-0.1611157059
  0
VERTEX
  8
LAYER_3
 10
154.06
 20
40.1825
 42
-0.03590950521
  0
VERTEX
  8
LAYER_3
 10
154.0816
 20
39.8784
 42
-0.1066899695
  0
VERTEX
  8
LAYER_3
 10
153.9052
 20
39.0236
 42
-0.2183856259
  0
VERTEX
  8
LAYER_3
 10
152.7953
 20
38.0897
 42
-0.006706171784
  0
VERTEX
  8
LAYER_3
 10
152.7407
 20
38.0738
  0
VERTEX
  8
LAYER_3
 10
152.7407
 20
38.0514
 42
0.01533555045
  0
VERTEX
  8
LAYER_3
 10
154.117
 20
37.8113
  0
SEQEND
  0
POLYLINE
  8
LAYER_3
 40
0.05
 41
0.05
 66
1
 10
0
 20
0
 30
0
 70
1
  0
VERTEX
  8
LAYER_3
 10
153.4394
 20
39.857
 42
0.1175610784
  0
VERTEX
  8
LAYER_3
 10
153.257
 20
40.6254
 42
0.1170135141
  0
VERTEX
  8
LAYER_3
 10
152.8315
 20
41.1234
 42
0.1200044572
  0
VERTEX
  8
LAYER_3
 10
152.2186
 20
41.3675
 42
0.03774262044
  0
VERTEX
  8
LAYER_3
 10
151.9511
 20
41.3873
 42
0.1153139376
  0
VERTEX
  8
LAYER_3
 10
151.2089
 20
41.2226
 42
0.1853550912
  0
VERTEX
  8
LAYER_3
 10
150.5507
 20
40.4882
 42
0.09859892291
  0
VERTEX
  8
LAYER_3
 10
150.4287
 20
39.8122
 42
0.1178359247
  0
VERTEX
  8
LAYER_3
 10
150.5964
 20
39.0734
 42
0.2866694251
  0
VERTEX
  8
LAYER_3
 10
151.9232
 20
38.2912
 42
0.1188197759
  0
VERTEX
  8
LAYER_3
 10
152.6722
 20
38.4633
 42
0.1796740134
  0
VERTEX
  8
LAYER_3
 10
153.3126
 20
39.18
 42
0.09850052237
  0
SEQEND
  0
ENDBLK
  0
BLOCK
  8
LAYER_3
  2
AIGNBL03040008
 70
64
 10
0
 20
0
 30
0
  3
AIGNBL03040008
  0
POLYLINE
  8
LAYER_3
 40
0.05
 41
0.05
 66
1
 10
0
 20
0
 30
0
 70
1
  0
VERTEX
  8
LAYER_3
 10
155.4089
 20
41.7225
  0
VERTEX
  8
LAYER_3
 10
155.4089
 20
39.4932
 42
0.1220213404
  0
VERTEX
  8
LAYER_3
 10
155.569
 20
38.7775
 42
0.2218709818
  0
VERTEX
  8
LAYER_3
 10
156.2104
 20
38.3206
 42
0.05223876895
  0
VERTEX
  8
LAYER_3
 10
156.5055
 20
38.2912
 42
0.1302821267
  0
VERTEX
  8
LAYER_3
 10
157.1748
 20
38.452
 42
0.1509367336
  0
VERTEX
  8
LAYER_3
 10
157.526
 20
38.8454
 42
0.1174732039
  0
VERTEX
  8
LAYER_3
 10
157.651
 20
39.4932
  0
VERTEX
  8
LAYER_3
 10
157.651
 20
41.7225
  0
VERTEX
  8
LAYER_3
 10
158.2656
 20
41.7225
  0
VERTEX
  8
LAYER_3
 10
158.2656
 20
39.5266
 42
-0.1106199636
  0
VERTEX
  8
LAYER_3
 10
158.0961
 20
38.708
 42
-0.1822316276
  0
VERTEX
  8
LAYER_3
 10
157.4057
 20
38.0637
 42
-0.09768689614
  0
VERTEX
  8
LAYER_3
 10
156.6028
 20
37.8972
 42
-0.01000776787
  0
VERTEX
  8
LAYER_3
 10
156.4845
 20
37.895
 42
-0.09899827608
  0
VERTEX
  8
LAYER_3
 10
155.612
 20
38.0554
 42
-0.1209605854
  0
VERTEX
  8
LAYER_3
 10
155.1093
 20
38.4366
 42
-0.1192983303
  0
VERTEX
  8
LAYER_3
 10
154.8407
 20
39.0317
 42
-0.05319533763
  0
VERTEX
  8
LAYER_3
 10
154.7943
 20
39.5046
  0
VERTEX
  8
LAYER_3
 10
154.7943
 20
41.7225
  0
SEQEND
  0
ENDBLK
  0
BLOCK
  8
LAYER_3
  2
AIGNBL03040009
 70
64
 10
0
 20
0
 30
0
  3
AIGNBL03040009
  0
POLYLINE
  8
LAYER_3
 40
0.05
 41
0.05
 66
1
 10
0
 20
0
 30
0
 70
1
  0
VERTEX
  8
LAYER_3
 10
160.0119
 20
39.1418
  0
VERTEX
  8
LAYER_3
 10
159.5227
 20
37.9567
  0
VERTEX
  8
LAYER_3
 10
158.8947
 20
37.9567
  0
VERTEX
  8
LAYER_3
 10
160.4939
 20
41.7225
  0
VERTEX
  8
LAYER_3
 10
161.227
 20
41.7225
  0
VERTEX
  8
LAYER_3
 10
162.8335
 20
37.9567
  0
VERTEX
  8
LAYER_3
 10
162.1841
 20
37.9567
  0
VERTEX
  8
LAYER_3
 10
161.6814
 20
39.1418
  0
SEQEND
  0
POLYLINE
  8
LAYER_3
 40
0.05
 41
0.05
 66
1
 10
0
 20
0
 30
0
 70
1
  0
VERTEX
  8
LAYER_3
 10
161.5553
 20
39.5208
  0
VERTEX
  8
LAYER_3
 10
161.094
 20
40.6056
 42
-0.02227599701
  0
VERTEX
  8
LAYER_3
 10
160.8494
 20
41.2926
  0
VERTEX
  8
LAYER_3
 10
160.8357
 20
41.2926
 42
-0.0206476565
  0
VERTEX
  8
LAYER_3
 10
160.5983
 20
40.6101
  0
VERTEX
  8
LAYER_3
 10
160.1373
 20
39.5208
  0
SEQEND
  0
ENDBLK
  0
BLOCK
  8
LAYER_3
  2
AIGNBL0304000A
 70
64
 10
0
 20
0
 30
0
  3
AIGNBL0304000A
  0
POLYLINE
  8
LAYER_3
 40
0.05
 41
0.05
 66
1
 10
0
 20
0
 30
0
 70
1
  0
VERTEX
  8
LAYER_3
 10
163.8742
 20
41.6777
 42
-0.03334485223
  0
VERTEX
  8
LAYER_3
 10
165.0411
 20
41.7508
 42
-0.08841555942
  0
VERTEX
  8
LAYER_3
 10
166.0872
 20
41.5858
 42
-0.06038484967
  0
VERTEX
  8
LAYER_3
 10
166.3609
 20
41.438
 42
-0.2471651456
  0
VERTEX
  8
LAYER_3
 10
166.7726
 20
40.6497
 42
-0.1483298328
  0
VERTEX
  8
LAYER_3
 10
166.6029
 20
40.0554
 42
-0.07223194904
  0
VERTEX
  8
LAYER_3
 10
166.4095
 20
39.8456
 42
-0.1209372404
  0
VERTEX
  8
LAYER_3
 10
165.7228
 20
39.517
 42
-0.06224269186
  0
VERTEX
  8
LAYER_3
 10
164.9708
 20
39.4319
 42
-0.05738783264
  0
VERTEX
  8
LAYER_3
 10
164.4823
 20
39.4653
  0
VERTEX
  8
LAYER_3
 10
164.4823
 20
37.9567
  0
VERTEX
  8
LAYER_3
 10
163.8742
 20
37.9567
  0
SEQEND
  0
POLYLINE
  8
LAYER_3
 40
0.05
 41
0.05
 66
1
 10
0
 20
0
 30
0
 70
1
  0
VERTEX
  8
LAYER_3
 10
164.4823
 20
39.8622
 42
0.05012782438
  0
VERTEX
  8
LAYER_3
 10
164.9846
 20
39.8229
 42
0.1135463519
  0
VERTEX
  8
LAYER_3
 10
165.7697
 20
39.9822
 42
0.1653329065
  0
VERTEX
  8
LAYER_3
 10
166.1074
 20
40.3302
 42
0.1044639943
  0
VERTEX
  8
LAYER_3
 10
166.1656
 20
40.6273
 42
0.2826437488
  0
VERTEX
  8
LAYER_3
 10
165.8147
 20
41.2103
 42
0.0629694601
  0
VERTEX
  8
LAYER_3
 10
165.549
 20
41.3107
 42
0.06259589917
  0
VERTEX
  8
LAYER_3
 10
165.0552
 20
41.3649
 42
0.05214717704
  0
VERTEX
  8
LAYER_3
 10
164.4823
 20
41.3256
  0
SEQEND
  0
ENDBLK
  0
BLOCK
  8
LAYER_3
  2
AIGNBL0304000B
 70
64
 10
0
 20
0
 30
0
  3
AIGNBL0304000B
  0
POLYLINE
  8
LAYER_3
 40
0.05
 41
0.05
 66
1
 10
0
 20
0
 30
0
 70
1
  0
VERTEX
  8
LAYER_3
 10
168.3246
 20
41.4207
 42
-0.3048675751
  0
VERTEX
  8
LAYER_3
 10
168.1582
 20
41.1661
 42
-0.1151020929
  0
VERTEX
  8
LAYER_3
 10
167.9329
 20
41.1189
 42
-0.2442513348
  0
VERTEX
  8
LAYER_3
 10
167.6028
 20
41.2794
 42
-0.1394546152
  0
VERTEX
  8
LAYER_3
 10
167.5626
 20
41.4207
 42
-0.287439772
  0
VERTEX
  8
LAYER_3
 10
167.7346
 20
41.6803
 42
-0.1179404017
  0
VERTEX
  8
LAYER_3
 10
167.9467
 20
41.7277
 42
-0.2416274379
  0
VERTEX
  8
LAYER_3
 10
168.2814
 20
41.5719
 42
-0.1426378456
  0
SEQEND
  0
POLYLINE
  8
LAYER_3
 40
0.05
 41
0.05
 66
1
 10
0
 20
0
 30
0
 70
1
  0
VERTEX
  8
LAYER_3
 10
167.639
 20
37.9567
  0
VERTEX
  8
LAYER_3
 10
167.639
 20
40.6607
  0
VERTEX
  8
LAYER_3
 10
168.2536
 20
40.6607
  0
VERTEX
  8
LAYER_3
 10
168.2536
 20
37.9567
  0
SEQEND
  0
ENDBLK
  0
BLOCK
  8
LAYER_3
  2
AIGNBL0304000C
 70
64
 10
0
 20
0
 30
0
  3
AIGNBL0304000C
  0
POLYLINE
  8
LAYER_3
 40
0.05
 41
0.05
 66
1
 10
0
 20
0
 30
0
 70
1
  0
VERTEX
  8
LAYER_3
 10
170.1254
 20
39.1418
  0
VERTEX
  8
LAYER_3
 10
169.6372
 20
37.9567
  0
VERTEX
  8
LAYER_3
 10
169.0081
 20
37.9567
  0
VERTEX
  8
LAYER_3
 10
170.6077
 20
41.7225
  0
VERTEX
  8
LAYER_3
 10
171.3415
 20
41.7225
  0
VERTEX
  8
LAYER_3
 10
172.9479
 20
37.9567
  0
VERTEX
  8
LAYER_3
 10
172.2982
 20
37.9567
  0
VERTEX
  8
LAYER_3
 10
171.7955
 20
39.1418
  0
SEQEND
  0
POLYLINE
  8
LAYER_3
 40
0.05
 41
0.05
 66
1
 10
0
 20
0
 30
0
 70
1
  0
VERTEX
  8
LAYER_3
 10
171.6695
 20
39.5208
  0
VERTEX
  8
LAYER_3
 10
171.2085
 20
40.6056
 42
-0.02430767271
  0
VERTEX
  8
LAYER_3
 10
170.9646
 20
41.2926
  0
VERTEX
  8
LAYER_3
 10
170.9498
 20
41.2926
 42
-0.02046602706
  0
VERTEX
  8
LAYER_3
 10
170.7127
 20
40.6101
  0
VERTEX
  8
LAYER_3
 10
170.2518
 20
39.5208
  0
SEQEND
  0
ENDBLK
  0
BLOCK
  8
LAYER_3
  2
AIGNBL03030005
 70
64
 10
0
 20
0
 30
0
  3
AIGNBL03030005
  0
INSERT
  8
LAYER_3
  2
AIGNBL03040006
 10
0
 20
0
 30
0
  0
INSERT
  8
LAYER_3
  2
AIGNBL03040007
 10
0
 20
0
 30
0
  0
INSERT
  8
LAYER_3
  2
AIGNBL03040008
 10
0
 20
0
 30
0
  0
INSERT
  8
LAYER_3
  2
AIGNBL03040009
 10
0
 20
0
 30
0
  0
INSERT
  8
LAYER_3
  2
AIGNBL0304000A
 10
0
 20
0
 30
0
  0
INSERT
  8
LAYER_3
  2
AIGNBL0304000B
 10
0
 20
0
 30
0
  0
INSERT
  8
LAYER_3
  2
AIGNBL0304000C
 10
0
 20
0
 30
0
  0
ENDBLK
  0
BLOCK
  8
LAYER_3
  2
AIGNBL0303000E
 70
64
 10
0
 20
0
 30
0
  3
AIGNBL0303000E
  0
POLYLINE
  8
LAYER_3
 40
0.05
 41
0.05
 66
1
 10
0
 20
0
 30
0
 70
1
  0
VERTEX
  8
LAYER_3
 10
145.7475
 20
36.0574
  0
VERTEX
  8
LAYER_3
 10
146.3008
 20
36.0574
  0
VERTEX
  8
LAYER_3
 10
146.3008
 20
35.9637
  0
VERTEX
  8
LAYER_3
 10
145.6424
 20
35.9637
  0
VERTEX
  8
LAYER_3
 10
145.6424
 20
36.9969
  0
VERTEX
  8
LAYER_3
 10
146.2832
 20
36.9969
  0
VERTEX
  8
LAYER_3
 10
146.2832
 20
36.9035
  0
VERTEX
  8
LAYER_3
 10
145.7475
 20
36.9035
  0
VERTEX
  8
LAYER_3
 10
145.7475
 20
36.549
  0
VERTEX
  8
LAYER_3
 10
146.2481
 20
36.549
  0
VERTEX
  8
LAYER_3
 10
146.2481
 20
36.4557
  0
VERTEX
  8
LAYER_3
 10
145.7475
 20
36.4557
  0
SEQEND
  0
ENDBLK
  0
BLOCK
  8
LAYER_3
  2
AIGNBL0303000F
 70
64
 10
0
 20
0
 30
0
  3
AIGNBL0303000F
  0
POLYLINE
  8
LAYER_3
 40
0.05
 41
0.05
 66
1
 10
0
 20
0
 30
0
 70
1
  0
VERTEX
  8
LAYER_3
 10
147.4404
 20
36.117
  0
VERTEX
  8
LAYER_3
 10
147.4432
 20
36.117
  0
VERTEX
  8
LAYER_3
 10
147.4432
 20
36.9969
  0
VERTEX
  8
LAYER_3
 10
147.5483
 20
36.9969
  0
VERTEX
  8
LAYER_3
 10
147.5483
 20
35.9637
  0
VERTEX
  8
LAYER_3
 10
147.4174
 20
35.9637
  0
VERTEX
  8
LAYER_3
 10
146.8162
 20
36.8525
  0
VERTEX
  8
LAYER_3
 10
146.8127
 20
36.8525
  0
VERTEX
  8
LAYER_3
 10
146.8127
 20
35.9637
  0
VERTEX
  8
LAYER_3
 10
146.708
 20
35.9637
  0
VERTEX
  8
LAYER_3
 10
146.708
 20
36.9969
  0
VERTEX
  8
LAYER_3
 10
146.8393
 20
36.9969
  0
SEQEND
  0
ENDBLK
  0
BLOCK
  8
LAYER_3
  2
AIGNBL03030010
 70
64
 10
0
 20
0
 30
0
  3
AIGNBL03030010
  0
POLYLINE
  8
LAYER_3
 40
0.05
 41
0.05
 66
1
 10
0
 20
0
 30
0
 70
1
  0
VERTEX
  8
LAYER_3
 10
148.0213
 20
36.1756
 42
0.1563325367
  0
VERTEX
  8
LAYER_3
 10
148.0757
 20
36.0726
 42
0.1919271311
  0
VERTEX
  8
LAYER_3
 10
148.1891
 20
36.0309
  0
VERTEX
  8
LAYER_3
 10
148.2783
 20
36.0505
  0
VERTEX
  8
LAYER_3
 10
148.3344
 20
36.1039
  0
VERTEX
  8
LAYER_3
 10
148.3634
 20
36.1804
  0
VERTEX
  8
LAYER_3
 10
148.3716
 20
36.27
  0
VERTEX
  8
LAYER_3
 10
148.3716
 20
36.9969
  0
VERTEX
  8
LAYER_3
 10
148.4767
 20
36.9969
  0
VERTEX
  8
LAYER_3
 10
148.4767
 20
36.2614
  0
VERTEX
  8
LAYER_3
 10
148.4654
 20
36.1535
 42
-0.09689434064
  0
VERTEX
  8
LAYER_3
 10
148.424
 20
36.0484
 42
-0.1145812533
  0
VERTEX
  8
LAYER_3
 10
148.3393
 20
35.9689
 42
-0.1249341208
  0
VERTEX
  8
LAYER_3
 10
148.2004
 20
35.9375
 42
-0.1797266639
  0
VERTEX
  8
LAYER_3
 10
148.0158
 20
35.9975
 42
-0.1772027805
  0
VERTEX
  8
LAYER_3
 10
147.9234
 20
36.149
  0
SEQEND
  0
ENDBLK
  0
BLOCK
  8
LAYER_3
  2
AIGNBL03030011
 70
64
 10
0
 20
0
 30
0
  3
AIGNBL03030011
  0
POLYLINE
  8
LAYER_3
 40
0.05
 41
0.05
 66
1
 10
0
 20
0
 30
0
 70
1
  0
VERTEX
  8
LAYER_3
 10
149.965
 20
36.4805
 42
-0.1019307791
  0
VERTEX
  8
LAYER_3
 10
149.924
 20
36.2631
 42
-0.09962254273
  0
VERTEX
  8
LAYER_3
 10
149.8114
 20
36.0915
 42
-0.09627361929
  0
VERTEX
  8
LAYER_3
 10
149.6405
 20
35.9785
 42
-0.09758594962
  0
VERTEX
  8
LAYER_3
 10
149.4265
 20
35.9375
 42
-0.1000844711
  0
VERTEX
  8
LAYER_3
 10
149.2129
 20
35.9785
 42
-0.09985105323
  0
VERTEX
  8
LAYER_3
 10
149.0421
 20
36.0915
 42
-0.09735230618
  0
VERTEX
  8
LAYER_3
 10
148.9287
 20
36.2631
 42
-0.09653980076
  0
VERTEX
  8
LAYER_3
 10
148.8881
 20
36.4805
 42
-0.1004594477
  0
VERTEX
  8
LAYER_3
 10
148.9287
 20
36.6978
 42
-0.1001669327
  0
VERTEX
  8
LAYER_3
 10
149.0421
 20
36.8694
 42
-0.09871200056
  0
VERTEX
  8
LAYER_3
 10
149.2129
 20
36.9824
 42
-0.09768823248
  0
VERTEX
  8
LAYER_3
 10
149.4265
 20
37.0234
 42
-0.1000514256
  0
VERTEX
  8
LAYER_3
 10
149.6405
 20
36.9824
 42
-0.0983303992
  0
VERTEX
  8
LAYER_3
 10
149.8114
 20
36.8694
 42
-0.09762598086
  0
VERTEX
  8
LAYER_3
 10
149.924
 20
36.6978
 42
-0.09788199595
  0
SEQEND
  0
POLYLINE
  8
LAYER_3
 40
0.05
 41
0.05
 66
1
 10
0
 20
0
 30
0
 70
1
  0
VERTEX
  8
LAYER_3
 10
149.8541
 20
36.4798
 42
0.08634913196
  0
VERTEX
  8
LAYER_3
 10
149.8251
 20
36.6517
 42
0.09663020944
  0
VERTEX
  8
LAYER_3
 10
149.7404
 20
36.795
 42
0.1032857511
  0
VERTEX
  8
LAYER_3
 10
149.6053
 20
36.8932
 42
0.1061320656
  0
VERTEX
  8
LAYER_3
 10
149.4265
 20
36.93
 42
0.1113757871
  0
VERTEX
  8
LAYER_3
 10
149.2477
 20
36.8932
 42
0.1056595975
  0
VERTEX
  8
LAYER_3
 10
149.113
 20
36.795
 42
0.09787799956
  0
VERTEX
  8
LAYER_3
 10
149.0283
 20
36.6517
 42
0.08491464556
  0
VERTEX
  8
LAYER_3
 10
148.999
 20
36.4798
 42
0.08693146424
  0
VERTEX
  8
LAYER_3
 10
149.0283
 20
36.3079
 42
0.1009797617
  0
VERTEX
  8
LAYER_3
 10
149.113
 20
36.1649
 42
0.09920321622
  0
VERTEX
  8
LAYER_3
 10
149.2477
 20
36.0674
 42
0.1060640085
  0
VERTEX
  8
LAYER_3
 10
149.4265
 20
36.0309
 42
0.1126980581
  0
VERTEX
  8
LAYER_3
 10
149.6053
 20
36.0674
 42
0.1035582302
  0
VERTEX
  8
LAYER_3
 10
149.7404
 20
36.1649
 42
0.09432567525
  0
VERTEX
  8
LAYER_3
 10
149.8251
 20
36.3079
 42
0.08466662837
  0
SEQEND
  0
ENDBLK
  0
BLOCK
  8
LAYER_3
  2
AIGNBL03030012
 70
64
 10
0
 20
0
 30
0
  3
AIGNBL03030012
  0
POLYLINE
  8
LAYER_3
 40
0.05
 41
0.05
 66
1
 10
0
 20
0
 30
0
 70
1
  0
VERTEX
  8
LAYER_3
 10
150.7398
 20
35.9637
  0
VERTEX
  8
LAYER_3
 10
150.6351
 20
35.9637
  0
VERTEX
  8
LAYER_3
 10
150.6351
 20
36.4091
  0
VERTEX
  8
LAYER_3
 10
150.2482
 20
36.9969
  0
VERTEX
  8
LAYER_3
 10
150.3795
 20
36.9969
  0
VERTEX
  8
LAYER_3
 10
150.6905
 20
36.4967
  0
VERTEX
  8
LAYER_3
 10
151.004
 20
36.9969
  0
VERTEX
  8
LAYER_3
 10
151.1263
 20
36.9969
  0
VERTEX
  8
LAYER_3
 10
150.7398
 20
36.4091
  0
SEQEND
  0
ENDBLK
  0
BLOCK
  8
LAYER_3
  2
AIGNBL03030013
 70
64
 10
0
 20
0
 30
0
  3
AIGNBL03030013
  0
POLYLINE
  8
LAYER_3
 40
0.05
 41
0.05
 66
1
 10
0
 20
0
 30
0
 70
1
  0
VERTEX
  8
LAYER_3
 10
152.0314
 20
36.9969
  0
VERTEX
  8
LAYER_3
 10
152.339
 20
36.9969
  0
VERTEX
  8
LAYER_3
 10
152.4575
 20
36.9845
  0
VERTEX
  8
LAYER_3
 10
152.5643
 20
36.9421
 42
-0.1168262011
  0
VERTEX
  8
LAYER_3
 10
152.6422
 20
36.8611
 42
-0.1230288266
  0
VERTEX
  8
LAYER_3
 10
152.6718
 20
36.733
 42
-0.1795449175
  0
VERTEX
  8
LAYER_3
 10
152.6219
 20
36.5907
 42
-0.1695619646
  0
VERTEX
  8
LAYER_3
 10
152.4885
 20
36.5111
  0
VERTEX
  8
LAYER_3
 10
152.4885
 20
36.5084
 42
-0.1719890535
  0
VERTEX
  8
LAYER_3
 10
152.6553
 20
36.4302
 42
-0.2018462152
  0
VERTEX
  8
LAYER_3
 10
152.7214
 20
36.2496
 42
-0.1251382371
  0
VERTEX
  8
LAYER_3
 10
152.6942
 20
36.1325
 42
-0.1153486961
  0
VERTEX
  8
LAYER_3
 10
152.6181
 20
36.0419
 42
-0.08656795839
  0
VERTEX
  8
LAYER_3
 10
152.4972
 20
35.9844
 42
-0.06557363107
  0
VERTEX
  8
LAYER_3
 10
152.3373
 20
35.9637
  0
VERTEX
  8
LAYER_3
 10
152.0314
 20
35.9637
  0
SEQEND
  0
POLYLINE
  8
LAYER_3
 40
0.05
 41
0.05
 66
1
 10
0
 20
0
 30
0
 70
1
  0
VERTEX
  8
LAYER_3
 10
152.1365
 20
36.5445
  0
VERTEX
  8
LAYER_3
 10
152.348
 20
36.5445
  0
VERTEX
  8
LAYER_3
 10
152.4248
 20
36.5535
  0
VERTEX
  8
LAYER_3
 10
152.4951
 20
36.5831
  0
VERTEX
  8
LAYER_3
 10
152.5471
 20
36.6396
 42
0.1157679243
  0
VERTEX
  8
LAYER_3
 10
152.5667
 20
36.7258
  0
VERTEX
  8
LAYER_3
 10
152.5471
 20
36.8095
  0
VERTEX
  8
LAYER_3
 10
152.4941
 20
36.8656
  0
VERTEX
  8
LAYER_3
 10
152.4152
 20
36.897
  0
VERTEX
  8
LAYER_3
 10
152.3187
 20
36.9066
  0
VERTEX
  8
LAYER_3
 10
152.1365
 20
36.9066
  0
SEQEND
  0
POLYLINE
  8
LAYER_3
 40
0.05
 41
0.05
 66
1
 10
0
 20
0
 30
0
 70
1
  0
VERTEX
  8
LAYER_3
 10
152.1365
 20
36.0543
  0
VERTEX
  8
LAYER_3
 10
152.3321
 20
36.0543
  0
VERTEX
  8
LAYER_3
 10
152.4407
 20
36.0653
  0
VERTEX
  8
LAYER_3
 10
152.5313
 20
36.1001
 42
0.1172546835
  0
VERTEX
  8
LAYER_3
 10
152.5929
 20
36.1632
 42
0.1286909246
  0
VERTEX
  8
LAYER_3
 10
152.6164
 20
36.2558
 42
0.2499212344
  0
VERTEX
  8
LAYER_3
 10
152.5471
 20
36.4081
 42
0.1538083763
  0
VERTEX
  8
LAYER_3
 10
152.3511
 20
36.4584
  0
VERTEX
  8
LAYER_3
 10
152.1365
 20
36.4584
  0
SEQEND
  0
ENDBLK
  0
BLOCK
  8
LAYER_3
  2
AIGNBL03030014
 70
64
 10
0
 20
0
 30
0
  3
AIGNBL03030014
  0
POLYLINE
  8
LAYER_3
 40
0.05
 41
0.05
 66
1
 10
0
 20
0
 30
0
 70
1
  0
VERTEX
  8
LAYER_3
 10
153.1534
 20
35.9637
  0
VERTEX
  8
LAYER_3
 10
153.038
 20
35.9637
  0
VERTEX
  8
LAYER_3
 10
153.4849
 20
36.9969
  0
VERTEX
  8
LAYER_3
 10
153.5872
 20
36.9969
  0
VERTEX
  8
LAYER_3
 10
154.0306
 20
35.9637
  0
VERTEX
  8
LAYER_3
 10
153.9138
 20
35.9637
  0
VERTEX
  8
LAYER_3
 10
153.7997
 20
36.2352
  0
VERTEX
  8
LAYER_3
 10
153.2658
 20
36.2352
  0
SEQEND
  0
POLYLINE
  8
LAYER_3
 40
0.05
 41
0.05
 66
1
 10
0
 20
0
 30
0
 70
1
  0
VERTEX
  8
LAYER_3
 10
153.305
 20
36.3316
  0
VERTEX
  8
LAYER_3
 10
153.7605
 20
36.3316
  0
VERTEX
  8
LAYER_3
 10
153.5327
 20
36.8804
  0
SEQEND
  0
ENDBLK
  0
BLOCK
  8
LAYER_3
  2
AIGNBL03030015
 70
64
 10
0
 20
0
 30
0
  3
AIGNBL03030015
  0
POLYLINE
  8
LAYER_3
 40
0.05
 41
0.05
 66
1
 10
0
 20
0
 30
0
 70
1
  0
VERTEX
  8
LAYER_3
 10
154.7151
 20
35.9637
  0
VERTEX
  8
LAYER_3
 10
154.61
 20
35.9637
  0
VERTEX
  8
LAYER_3
 10
154.61
 20
36.9035
  0
VERTEX
  8
LAYER_3
 10
154.2638
 20
36.9035
  0
VERTEX
  8
LAYER_3
 10
154.2638
 20
36.9969
  0
VERTEX
  8
LAYER_3
 10
155.0606
 20
36.9969
  0
VERTEX
  8
LAYER_3
 10
155.0606
 20
36.9035
  0
VERTEX
  8
LAYER_3
 10
154.7151
 20
36.9035
  0
SEQEND
  0
ENDBLK
  0
BLOCK
  8
LAYER_3
  2
AIGNBL03030016
 70
64
 10
0
 20
0
 30
0
  3
AIGNBL03030016
  0
POLYLINE
  8
LAYER_3
 40
0.05
 41
0.05
 66
1
 10
0
 20
0
 30
0
 70
1
  0
VERTEX
  8
LAYER_3
 10
155.4169
 20
36.9969
  0
VERTEX
  8
LAYER_3
 10
155.5216
 20
36.9969
  0
VERTEX
  8
LAYER_3
 10
155.5216
 20
36.549
  0
VERTEX
  8
LAYER_3
 10
156.0852
 20
36.549
  0
VERTEX
  8
LAYER_3
 10
156.0852
 20
36.9969
  0
VERTEX
  8
LAYER_3
 10
156.1903
 20
36.9969
  0
VERTEX
  8
LAYER_3
 10
156.1903
 20
35.9637
  0
VERTEX
  8
LAYER_3
 10
156.0852
 20
35.9637
  0
VERTEX
  8
LAYER_3
 10
156.0852
 20
36.4529
  0
VERTEX
  8
LAYER_3
 10
155.5216
 20
36.4529
  0
VERTEX
  8
LAYER_3
 10
155.5216
 20
35.9637
  0
VERTEX
  8
LAYER_3
 10
155.4169
 20
35.9637
  0
SEQEND
  0
ENDBLK
  0
BLOCK
  8
LAYER_3
  2
AIGNBL03030017
 70
64
 10
0
 20
0
 30
0
  3
AIGNBL03030017
  0
POLYLINE
  8
LAYER_3
 40
0.05
 41
0.05
 66
1
 10
0
 20
0
 30
0
 70
1
  0
VERTEX
  8
LAYER_3
 10
156.7708
 20
35.9637
  0
VERTEX
  8
LAYER_3
 10
156.6657
 20
35.9637
  0
VERTEX
  8
LAYER_3
 10
156.6657
 20
36.9969
  0
VERTEX
  8
LAYER_3
 10
156.9696
 20
36.9969
  0
VERTEX
  8
LAYER_3
 10
157.1101
 20
36.9824
 42
-0.1032885834
  0
VERTEX
  8
LAYER_3
 10
157.2228
 20
36.9349
 42
-0.1281738609
  0
VERTEX
  8
LAYER_3
 10
157.2962
 20
36.8494
 42
-0.1081125707
  0
VERTEX
  8
LAYER_3
 10
157.3224
 20
36.7213
  0
VERTEX
  8
LAYER_3
 10
157.3024
 20
36.6176
  0
VERTEX
  8
LAYER_3
 10
157.2469
 20
36.5366
  0
VERTEX
  8
LAYER_3
 10
157.1635
 20
36.4818
  0
VERTEX
  8
LAYER_3
 10
157.0585
 20
36.4557
  0
VERTEX
  8
LAYER_3
 10
157.3606
 20
35.9637
  0
VERTEX
  8
LAYER_3
 10
157.2321
 20
35.9637
  0
VERTEX
  8
LAYER_3
 10
156.9461
 20
36.4467
  0
VERTEX
  8
LAYER_3
 10
156.7708
 20
36.4467
  0
SEQEND
  0
POLYLINE
  8
LAYER_3
 40
0.05
 41
0.05
 66
1
 10
0
 20
0
 30
0
 70
1
  0
VERTEX
  8
LAYER_3
 10
156.7708
 20
36.5373
  0
VERTEX
  8
LAYER_3
 10
156.9534
 20
36.5373
 42
0.153451873
  0
VERTEX
  8
LAYER_3
 10
157.1491
 20
36.5831
 42
0.2580279849
  0
VERTEX
  8
LAYER_3
 10
157.2176
 20
36.7213
  0
VERTEX
  8
LAYER_3
 10
157.1983
 20
36.8071
  0
VERTEX
  8
LAYER_3
 10
157.146
 20
36.8642
  0
VERTEX
  8
LAYER_3
 10
157.0643
 20
36.8963
  0
VERTEX
  8
LAYER_3
 10
156.9579
 20
36.9066
  0
VERTEX
  8
LAYER_3
 10
156.7708
 20
36.9066
  0
SEQEND
  0
ENDBLK
  0
BLOCK
  8
LAYER_3
  2
AIGNBL03030018
 70
64
 10
0
 20
0
 30
0
  3
AIGNBL03030018
  0
POLYLINE
  8
LAYER_3
 40
0.05
 41
0.05
 66
1
 10
0
 20
0
 30
0
 70
1
  0
VERTEX
  8
LAYER_3
 10
158.7627
 20
36.4805
 42
-0.09904480664
  0
VERTEX
  8
LAYER_3
 10
158.7221
 20
36.2631
 42
-0.0998654539
  0
VERTEX
  8
LAYER_3
 10
158.6088
 20
36.0915
 42
-0.09816046092
  0
VERTEX
  8
LAYER_3
 10
158.4382
 20
35.9785
 42
-0.09758412454
  0
VERTEX
  8
LAYER_3
 10
158.2243
 20
35.9375
 42
-0.09999517154
  0
VERTEX
  8
LAYER_3
 10
158.0103
 20
35.9785
 42
-0.09953435427
  0
VERTEX
  8
LAYER_3
 10
157.8398
 20
36.0915
 42
-0.09864299929
  0
VERTEX
  8
LAYER_3
 10
157.7268
 20
36.2631
 42
-0.09653980076
  0
VERTEX
  8
LAYER_3
 10
157.6862
 20
36.4805
 42
-0.1004594477
  0
VERTEX
  8
LAYER_3
 10
157.7268
 20
36.6978
 42
-0.1008040346
  0
VERTEX
  8
LAYER_3
 10
157.8398
 20
36.8694
 42
-0.09763764092
  0
VERTEX
  8
LAYER_3
 10
158.0103
 20
36.9824
 42
-0.09752919603
  0
VERTEX
  8
LAYER_3
 10
158.2243
 20
37.0234
 42
-0.1000174927
  0
VERTEX
  8
LAYER_3
 10
158.4382
 20
36.9824
 42
-0.1006724022
  0
VERTEX
  8
LAYER_3
 10
158.6088
 20
36.8694
 42
-0.09709867792
  0
VERTEX
  8
LAYER_3
 10
158.7221
 20
36.6978
 42
-0.09585658013
  0
SEQEND
  0
POLYLINE
  8
LAYER_3
 40
0.05
 41
0.05
 66
1
 10
0
 20
0
 30
0
 70
1
  0
VERTEX
  8
LAYER_3
 10
158.6518
 20
36.4798
 42
0.08852014676
  0
VERTEX
  8
LAYER_3
 10
158.6225
 20
36.6517
 42
0.09973444611
  0
VERTEX
  8
LAYER_3
 10
158.5378
 20
36.795
 42
0.1024799068
  0
VERTEX
  8
LAYER_3
 10
158.4031
 20
36.8932
 42
0.1060321998
  0
VERTEX
  8
LAYER_3
 10
158.2243
 20
36.93
 42
0.1116325688
  0
VERTEX
  8
LAYER_3
 10
158.0455
 20
36.8932
 42
0.1060506217
  0
VERTEX
  8
LAYER_3
 10
157.9104
 20
36.795
 42
0.09526104957
  0
VERTEX
  8
LAYER_3
 10
157.8257
 20
36.6517
 42
0.08440311357
  0
VERTEX
  8
LAYER_3
 10
157.7967
 20
36.4798
 42
0.08751084222
  0
VERTEX
  8
LAYER_3
 10
157.8257
 20
36.3079
 42
0.09826867926
  0
VERTEX
  8
LAYER_3
 10
157.9104
 20
36.1649
 42
0.09908422267
  0
VERTEX
  8
LAYER_3
 10
158.0455
 20
36.0674
 42
0.1061654103
  0
VERTEX
  8
LAYER_3
 10
158.2243
 20
36.0309
 42
0.1124388132
  0
VERTEX
  8
LAYER_3
 10
158.4031
 20
36.0674
 42
0.1028204009
  0
VERTEX
  8
LAYER_3
 10
158.5378
 20
36.1649
 42
0.09882210045
  0
VERTEX
  8
LAYER_3
 10
158.6225
 20
36.3079
 42
0.08589740831
  0
SEQEND
  0
ENDBLK
  0
BLOCK
  8
LAYER_3
  2
AIGNBL03030019
 70
64
 10
0
 20
0
 30
0
  3
AIGNBL03030019
  0
POLYLINE
  8
LAYER_3
 40
0.05
 41
0.05
 66
1
 10
0
 20
0
 30
0
 70
1
  0
VERTEX
  8
LAYER_3
 10
160.2045
 20
36.4805
 42
-0.1019307791
  0
VERTEX
  8
LAYER_3
 10
160.1635
 20
36.2631
 42
-0.1000344077
  0
VERTEX
  8
LAYER_3
 10
160.0509
 20
36.0915
 42
-0.09685913213
  0
VERTEX
  8
LAYER_3
 10
159.88
 20
35.9785
 42
-0.09758412454
  0
VERTEX
  8
LAYER_3
 10
159.6661
 20
35.9375
 42
-0.1006569764
  0
VERTEX
  8
LAYER_3
 10
159.4525
 20
35.9785
 42
-0.1011318925
  0
VERTEX
  8
LAYER_3
 10
159.2816
 20
36.0915
 42
-0.09735230618
  0
VERTEX
  8
LAYER_3
 10
159.1682
 20
36.2631
 42
-0.09653980076
  0
VERTEX
  8
LAYER_3
 10
159.1276
 20
36.4805
 42
-0.1004594477
  0
VERTEX
  8
LAYER_3
 10
159.1682
 20
36.6978
 42
-0.1001669327
  0
VERTEX
  8
LAYER_3
 10
159.2816
 20
36.8694
 42
-0.09867928162
  0
VERTEX
  8
LAYER_3
 10
159.4525
 20
36.9824
 42
-0.09791748865
  0
VERTEX
  8
LAYER_3
 10
159.6661
 20
37.0234
 42
-0.1000174927
  0
VERTEX
  8
LAYER_3
 10
159.88
 20
36.9824
 42
-0.0983303992
  0
VERTEX
  8
LAYER_3
 10
160.0509
 20
36.8694
 42
-0.09781653482
  0
VERTEX
  8
LAYER_3
 10
160.1635
 20
36.6978
 42
-0.09788199595
  0
SEQEND
  0
POLYLINE
  8
LAYER_3
 40
0.05
 41
0.05
 66
1
 10
0
 20
0
 30
0
 70
1
  0
VERTEX
  8
LAYER_3
 10
160.0936
 20
36.4798
 42
0.08634913196
  0
VERTEX
  8
LAYER_3
 10
160.0646
 20
36.6517
 42
0.09721101768
  0
VERTEX
  8
LAYER_3
 10
159.9799
 20
36.795
 42
0.1030853098
  0
VERTEX
  8
LAYER_3
 10
159.8449
 20
36.8932
 42
0.1060321998
  0
VERTEX
  8
LAYER_3
 10
159.6661
 20
36.93
 42
0.1116325688
  0
VERTEX
  8
LAYER_3
 10
159.4873
 20
36.8932
 42
0.1058584166
  0
VERTEX
  8
LAYER_3
 10
159.3525
 20
36.795
 42
0.09787799956
  0
VERTEX
  8
LAYER_3
 10
159.2678
 20
36.6517
 42
0.08491464556
  0
VERTEX
  8
LAYER_3
 10
159.2385
 20
36.4798
 42
0.08693146424
  0
VERTEX
  8
LAYER_3
 10
159.2678
 20
36.3079
 42
0.1009797617
  0
VERTEX
  8
LAYER_3
 10
159.3525
 20
36.1649
 42
0.09947922476
  0
VERTEX
  8
LAYER_3
 10
159.4873
 20
36.0674
 42
0.1061654103
  0
VERTEX
  8
LAYER_3
 10
159.6661
 20
36.0309
 42
0.1124388132
  0
VERTEX
  8
LAYER_3
 10
159.8449
 20
36.0674
 42
0.103362111
  0
VERTEX
  8
LAYER_3
 10
159.9799
 20
36.1649
 42
0.09450022685
  0
VERTEX
  8
LAYER_3
 10
160.0646
 20
36.3079
 42
0.08466662837
  0
SEQEND
  0
ENDBLK
  0
BLOCK
  8
LAYER_3
  2
AIGNBL0303001A
 70
64
 10
0
 20
0
 30
0
  3
AIGNBL0303001A
  0
POLYLINE
  8
LAYER_3
 40
0.05
 41
0.05
 66
1
 10
0
 20
0
 30
0
 70
1
  0
VERTEX
  8
LAYER_3
 10
161.1354
 20
36.1418
  0
VERTEX
  8
LAYER_3
 10
161.1371
 20
36.1418
  0
VERTEX
  8
LAYER_3
 10
161.4826
 20
36.9969
  0
VERTEX
  8
LAYER_3
 10
161.6435
 20
36.9969
  0
VERTEX
  8
LAYER_3
 10
161.6435
 20
35.9637
  0
VERTEX
  8
LAYER_3
 10
161.5381
 20
35.9637
  0
VERTEX
  8
LAYER_3
 10
161.5381
 20
36.8611
  0
VERTEX
  8
LAYER_3
 10
161.5354
 20
36.8611
  0
VERTEX
  8
LAYER_3
 10
161.1619
 20
35.9637
  0
VERTEX
  8
LAYER_3
 10
161.1064
 20
35.9637
  0
VERTEX
  8
LAYER_3
 10
160.7327
 20
36.8611
  0
VERTEX
  8
LAYER_3
 10
160.7299
 20
36.8611
  0
VERTEX
  8
LAYER_3
 10
160.7299
 20
35.9637
  0
VERTEX
  8
LAYER_3
 10
160.6248
 20
35.9637
  0
VERTEX
  8
LAYER_3
 10
160.6248
 20
36.9969
  0
VERTEX
  8
LAYER_3
 10
160.7854
 20
36.9969
  0
SEQEND
  0
ENDBLK
  0
BLOCK
  8
LAYER_3
  2
AIGNBL0303001B
 70
64
 10
0
 20
0
 30
0
  3
AIGNBL0303001B
  0
POLYLINE
  8
LAYER_3
 40
0.05
 41
0.05
 66
1
 10
0
 20
0
 30
0
 70
1
  0
VERTEX
  8
LAYER_3
 10
162.7901
 20
36.0574
  0
VERTEX
  8
LAYER_3
 10
163.3433
 20
36.0574
  0
VERTEX
  8
LAYER_3
 10
163.3433
 20
35.9637
  0
VERTEX
  8
LAYER_3
 10
162.685
 20
35.9637
  0
VERTEX
  8
LAYER_3
 10
162.685
 20
36.9969
  0
VERTEX
  8
LAYER_3
 10
163.3258
 20
36.9969
  0
VERTEX
  8
LAYER_3
 10
163.3258
 20
36.9035
  0
VERTEX
  8
LAYER_3
 10
162.7901
 20
36.9035
  0
VERTEX
  8
LAYER_3
 10
162.7901
 20
36.549
  0
VERTEX
  8
LAYER_3
 10
163.2906
 20
36.549
  0
VERTEX
  8
LAYER_3
 10
163.2906
 20
36.4557
  0
VERTEX
  8
LAYER_3
 10
162.7901
 20
36.4557
  0
SEQEND
  0
ENDBLK
  0
BLOCK
  8
LAYER_3
  2
AIGNBL0303001C
 70
64
 10
0
 20
0
 30
0
  3
AIGNBL0303001C
  0
POLYLINE
  8
LAYER_3
 40
0.05
 41
0.05
 66
1
 10
0
 20
0
 30
0
 70
1
  0
VERTEX
  8
LAYER_3
 10
164.0885
 20
36.5797
  0
VERTEX
  8
LAYER_3
 10
164.3707
 20
36.9969
  0
VERTEX
  8
LAYER_3
 10
164.4957
 20
36.9969
  0
VERTEX
  8
LAYER_3
 10
164.1533
 20
36.5053
  0
VERTEX
  8
LAYER_3
 10
164.5326
 20
35.9637
  0
VERTEX
  8
LAYER_3
 10
164.4013
 20
35.9637
  0
VERTEX
  8
LAYER_3
 10
164.0858
 20
36.4295
  0
VERTEX
  8
LAYER_3
 10
163.7723
 20
35.9637
  0
VERTEX
  8
LAYER_3
 10
163.6407
 20
35.9637
  0
VERTEX
  8
LAYER_3
 10
164.0203
 20
36.5066
  0
VERTEX
  8
LAYER_3
 10
163.6744
 20
36.9969
  0
VERTEX
  8
LAYER_3
 10
163.806
 20
36.9969
  0
SEQEND
  0
ENDBLK
  0
BLOCK
  8
LAYER_3
  2
AIGNBL0303001D
 70
64
 10
0
 20
0
 30
0
  3
AIGNBL0303001D
  0
POLYLINE
  8
LAYER_3
 40
0.05
 41
0.05
 66
1
 10
0
 20
0
 30
0
 70
1
  0
VERTEX
  8
LAYER_3
 10
164.8988
 20
36.9969
  0
VERTEX
  8
LAYER_3
 10
165.191
 20
36.9969
  0
VERTEX
  8
LAYER_3
 10
165.3339
 20
36.9803
 42
-0.104442724
  0
VERTEX
  8
LAYER_3
 10
165.4438
 20
36.929
 42
-0.1219459081
  0
VERTEX
  8
LAYER_3
 10
165.5148
 20
36.8429
 42
-0.1032545831
  0
VERTEX
  8
LAYER_3
 10
165.5392
 20
36.7213
 42
-0.1239274235
  0
VERTEX
  8
LAYER_3
 10
165.5141
 20
36.5993
 42
-0.1163667494
  0
VERTEX
  8
LAYER_3
 10
165.4424
 20
36.5132
 42
-0.08715194998
  0
VERTEX
  8
LAYER_3
 10
165.3315
 20
36.4615
 42
-0.06108707382
  0
VERTEX
  8
LAYER_3
 10
165.1878
 20
36.4439
  0
VERTEX
  8
LAYER_3
 10
165.0039
 20
36.4439
  0
VERTEX
  8
LAYER_3
 10
165.0039
 20
35.9637
  0
VERTEX
  8
LAYER_3
 10
164.8988
 20
35.9637
  0
SEQEND
  0
POLYLINE
  8
LAYER_3
 40
0.05
 41
0.05
 66
1
 10
0
 20
0
 30
0
 70
1
  0
VERTEX
  8
LAYER_3
 10
165.0039
 20
36.5328
  0
VERTEX
  8
LAYER_3
 10
165.1816
 20
36.5328
 42
0.1698628217
  0
VERTEX
  8
LAYER_3
 10
165.3701
 20
36.5811
 42
0.2445965084
  0
VERTEX
  8
LAYER_3
 10
165.4345
 20
36.7213
 42
0.2593003012
  0
VERTEX
  8
LAYER_3
 10
165.368
 20
36.8622
 42
0.143072224
  0
VERTEX
  8
LAYER_3
 10
165.1816
 20
36.9066
  0
VERTEX
  8
LAYER_3
 10
165.0039
 20
36.9066
  0
SEQEND
  0
ENDBLK
  0
BLOCK
  8
LAYER_3
  2
AIGNBL0303001E
 70
64
 10
0
 20
0
 30
0
  3
AIGNBL0303001E
  0
POLYLINE
  8
LAYER_3
 40
0.05
 41
0.05
 66
1
 10
0
 20
0
 30
0
 70
1
  0
VERTEX
  8
LAYER_3
 10
166.0515
 20
36.0574
  0
VERTEX
  8
LAYER_3
 10
166.6048
 20
36.0574
  0
VERTEX
  8
LAYER_3
 10
166.6048
 20
35.9637
  0
VERTEX
  8
LAYER_3
 10
165.9465
 20
35.9637
  0
VERTEX
  8
LAYER_3
 10
165.9465
 20
36.9969
  0
VERTEX
  8
LAYER_3
 10
166.5872
 20
36.9969
  0
VERTEX
  8
LAYER_3
 10
166.5872
 20
36.9035
  0
VERTEX
  8
LAYER_3
 10
166.0515
 20
36.9035
  0
VERTEX
  8
LAYER_3
 10
166.0515
 20
36.549
  0
VERTEX
  8
LAYER_3
 10
166.5521
 20
36.549
  0
VERTEX
  8
LAYER_3
 10
166.5521
 20
36.4557
  0
VERTEX
  8
LAYER_3
 10
166.0515
 20
36.4557
  0
SEQEND
  0
ENDBLK
  0
BLOCK
  8
LAYER_3
  2
AIGNBL0303001F
 70
64
 10
0
 20
0
 30
0
  3
AIGNBL0303001F
  0
POLYLINE
  8
LAYER_3
 40
0.05
 41
0.05
 66
1
 10
0
 20
0
 30
0
 70
1
  0
VERTEX
  8
LAYER_3
 10
167.1168
 20
35.9637
  0
VERTEX
  8
LAYER_3
 10
167.0117
 20
35.9637
  0
VERTEX
  8
LAYER_3
 10
167.0117
 20
36.9969
  0
VERTEX
  8
LAYER_3
 10
167.3155
 20
36.9969
  0
VERTEX
  8
LAYER_3
 10
167.4561
 20
36.9824
 42
-0.1033890198
  0
VERTEX
  8
LAYER_3
 10
167.5688
 20
36.9349
 42
-0.1259996581
  0
VERTEX
  8
LAYER_3
 10
167.6425
 20
36.8494
 42
-0.1064650891
  0
VERTEX
  8
LAYER_3
 10
167.6683
 20
36.7213
  0
VERTEX
  8
LAYER_3
 10
167.6483
 20
36.6176
  0
VERTEX
  8
LAYER_3
 10
167.5929
 20
36.5366
  0
VERTEX
  8
LAYER_3
 10
167.5095
 20
36.4818
  0
VERTEX
  8
LAYER_3
 10
167.4044
 20
36.4557
  0
VERTEX
  8
LAYER_3
 10
167.7066
 20
35.9637
  0
VERTEX
  8
LAYER_3
 10
167.5781
 20
35.9637
  0
VERTEX
  8
LAYER_3
 10
167.2921
 20
36.4467
  0
VERTEX
  8
LAYER_3
 10
167.1168
 20
36.4467
  0
SEQEND
  0
POLYLINE
  8
LAYER_3
 40
0.05
 41
0.05
 66
1
 10
0
 20
0
 30
0
 70
1
  0
VERTEX
  8
LAYER_3
 10
167.1168
 20
36.5373
  0
VERTEX
  8
LAYER_3
 10
167.2993
 20
36.5373
 42
0.1542719415
  0
VERTEX
  8
LAYER_3
 10
167.495
 20
36.5831
 42
0.2583775622
  0
VERTEX
  8
LAYER_3
 10
167.5636
 20
36.7213
  0
VERTEX
  8
LAYER_3
 10
167.5446
 20
36.8071
  0
VERTEX
  8
LAYER_3
 10
167.4919
 20
36.8642
  0
VERTEX
  8
LAYER_3
 10
167.4103
 20
36.8963
  0
VERTEX
  8
LAYER_3
 10
167.3038
 20
36.9066
  0
VERTEX
  8
LAYER_3
 10
167.1168
 20
36.9066
  0
SEQEND
  0
ENDBLK
  0
BLOCK
  8
LAYER_3
  2
AIGNBL03030020
 70
64
 10
0
 20
0
 30
0
  3
AIGNBL03030020
  0
POLYLINE
  8
LAYER_3
 40
0.05
 41
0.05
 66
1
 10
0
 20
0
 30
0
 70
1
  0
VERTEX
  8
LAYER_3
 10
168.1923
 20
35.9637
  0
VERTEX
  8
LAYER_3
 10
168.0876
 20
35.9637
  0
VERTEX
  8
LAYER_3
 10
168.0876
 20
36.9969
  0
VERTEX
  8
LAYER_3
 10
168.1923
 20
36.9969
  0
SEQEND
  0
ENDBLK
  0
BLOCK
  8
LAYER_3
  2
AIGNBL03030021
 70
64
 10
0
 20
0
 30
0
  3
AIGNBL03030021
  0
POLYLINE
  8
LAYER_3
 40
0.05
 41
0.05
 66
1
 10
0
 20
0
 30
0
 70
1
  0
VERTEX
  8
LAYER_3
 10
168.7732
 20
36.0574
  0
VERTEX
  8
LAYER_3
 10
169.3261
 20
36.0574
  0
VERTEX
  8
LAYER_3
 10
169.3261
 20
35.9637
  0
VERTEX
  8
LAYER_3
 10
168.6681
 20
35.9637
  0
VERTEX
  8
LAYER_3
 10
168.6681
 20
36.9969
  0
VERTEX
  8
LAYER_3
 10
169.3089
 20
36.9969
  0
VERTEX
  8
LAYER_3
 10
169.3089
 20
36.9035
  0
VERTEX
  8
LAYER_3
 10
168.7732
 20
36.9035
  0
VERTEX
  8
LAYER_3
 10
168.7732
 20
36.549
  0
VERTEX
  8
LAYER_3
 10
169.2737
 20
36.549
  0
VERTEX
  8
LAYER_3
 10
169.2737
 20
36.4557
  0
VERTEX
  8
LAYER_3
 10
168.7732
 20
36.4557
  0
SEQEND
  0
ENDBLK
  0
BLOCK
  8
LAYER_3
  2
AIGNBL03030022
 70
64
 10
0
 20
0
 30
0
  3
AIGNBL03030022
  0
POLYLINE
  8
LAYER_3
 40
0.05
 41
0.05
 66
1
 10
0
 20
0
 30
0
 70
1
  0
VERTEX
  8
LAYER_3
 10
170.4661
 20
36.117
  0
VERTEX
  8
LAYER_3
 10
170.4688
 20
36.117
  0
VERTEX
  8
LAYER_3
 10
170.4688
 20
36.9969
  0
VERTEX
  8
LAYER_3
 10
170.5739
 20
36.9969
  0
VERTEX
  8
LAYER_3
 10
170.5739
 20
35.9637
  0
VERTEX
  8
LAYER_3
 10
170.4427
 20
35.9637
  0
VERTEX
  8
LAYER_3
 10
169.8415
 20
36.8525
  0
VERTEX
  8
LAYER_3
 10
169.8384
 20
36.8525
  0
VERTEX
  8
LAYER_3
 10
169.8384
 20
35.9637
  0
VERTEX
  8
LAYER_3
 10
169.7333
 20
35.9637
  0
VERTEX
  8
LAYER_3
 10
169.7333
 20
36.9969
  0
VERTEX
  8
LAYER_3
 10
169.8649
 20
36.9969
  0
SEQEND
  0
ENDBLK
  0
BLOCK
  8
LAYER_3
  2
AIGNBL03030023
 70
64
 10
0
 20
0
 30
0
  3
AIGNBL03030023
  0
POLYLINE
  8
LAYER_3
 40
0.05
 41
0.05
 66
1
 10
0
 20
0
 30
0
 70
1
  0
VERTEX
  8
LAYER_3
 10
171.9196
 20
36.1315
  0
VERTEX
  8
LAYER_3
 10
171.8558
 20
36.0571
  0
VERTEX
  8
LAYER_3
 10
171.7697
 20
35.9954
  0
VERTEX
  8
LAYER_3
 10
171.6615
 20
35.953
  0
VERTEX
  8
LAYER_3
 10
171.5327
 20
35.9375
 42
-0.0997799169
  0
VERTEX
  8
LAYER_3
 10
171.3167
 20
35.9785
 42
-0.102530266
  0
VERTEX
  8
LAYER_3
 10
171.1461
 20
36.0915
 42
-0.1000387679
  0
VERTEX
  8
LAYER_3
 10
171.0345
 20
36.2631
 42
-0.09630702324
  0
VERTEX
  8
LAYER_3
 10
170.9942
 20
36.4805
 42
-0.1019529564
  0
VERTEX
  8
LAYER_3
 10
171.0352
 20
36.6978
 42
-0.09989904409
  0
VERTEX
  8
LAYER_3
 10
171.1479
 20
36.8694
 42
-0.09705342834
  0
VERTEX
  8
LAYER_3
 10
171.3187
 20
36.9824
 42
-0.09752919603
  0
VERTEX
  8
LAYER_3
 10
171.5327
 20
37.0234
  0
VERTEX
  8
LAYER_3
 10
171.6443
 20
37.0113
  0
VERTEX
  8
LAYER_3
 10
171.7473
 20
36.9779
  0
VERTEX
  8
LAYER_3
 10
171.8348
 20
36.9263
  0
VERTEX
  8
LAYER_3
 10
171.9006
 20
36.8584
  0
VERTEX
  8
LAYER_3
 10
171.8131
 20
36.794
  0
VERTEX
  8
LAYER_3
 10
171.7697
 20
36.8439
  0
VERTEX
  8
LAYER_3
 10
171.7063
 20
36.8877
  0
VERTEX
  8
LAYER_3
 10
171.6267
 20
36.9183
  0
VERTEX
  8
LAYER_3
 10
171.5341
 20
36.93
 42
0.1106055686
  0
VERTEX
  8
LAYER_3
 10
171.3539
 20
36.8935
 42
0.1040964846
  0
VERTEX
  8
LAYER_3
 10
171.2188
 20
36.7953
 42
0.09554708239
  0
VERTEX
  8
LAYER_3
 10
171.1341
 20
36.652
 42
0.08465136707
  0
VERTEX
  8
LAYER_3
 10
171.1051
 20
36.4805
 42
0.09018441759
  0
VERTEX
  8
LAYER_3
 10
171.1351
 20
36.3089
 42
0.09834905538
  0
VERTEX
  8
LAYER_3
 10
171.2206
 20
36.1656
 42
0.1037153981
  0
VERTEX
  8
LAYER_3
 10
171.3556
 20
36.0674
 42
0.1064777274
  0
VERTEX
  8
LAYER_3
 10
171.5341
 20
36.0309
 42
0.1093190709
  0
VERTEX
  8
LAYER_3
 10
171.7032
 20
36.0674
 42
0.1366622766
  0
VERTEX
  8
LAYER_3
 10
171.8376
 20
36.1842
  0
SEQEND
  0
ENDBLK
  0
BLOCK
  8
LAYER_3
  2
AIGNBL03030024
 70
64
 10
0
 20
0
 30
0
  3
AIGNBL03030024
  0
POLYLINE
  8
LAYER_3
 40
0.05
 41
0.05
 66
1
 10
0
 20
0
 30
0
 70
1
  0
VERTEX
  8
LAYER_3
 10
172.4067
 20
36.0574
  0
VERTEX
  8
LAYER_3
 10
172.96
 20
36.0574
  0
VERTEX
  8
LAYER_3
 10
172.96
 20
35.9637
  0
VERTEX
  8
LAYER_3
 10
172.3016
 20
35.9637
  0
VERTEX
  8
LAYER_3
 10
172.3016
 20
36.9969
  0
VERTEX
  8
LAYER_3
 10
172.9424
 20
36.9969
  0
VERTEX
  8
LAYER_3
 10
172.9424
 20
36.9035
  0
VERTEX
  8
LAYER_3
 10
172.4067
 20
36.9035
  0
VERTEX
  8
LAYER_3
 10
172.4067
 20
36.549
  0
VERTEX
  8
LAYER_3
 10
172.9073
 20
36.549
  0
VERTEX
  8
LAYER_3
 10
172.9073
 20
36.4557
  0
VERTEX
  8
LAYER_3
 10
172.4067
 20
36.4557
  0
SEQEND
  0
ENDBLK
  0
BLOCK
  8
LAYER_3
  2
AIGNBL03020004
 70
64
 10
0
 20
0
 30
0
  3
AIGNBL03020004
  0
INSERT
  8
LAYER_3
  2
AIGNBL03030005
 10
0
 20
0
 30
0
  0
ENDBLK
  0
BLOCK
  8
LAYER_3
  2
AIGNBL0302000D
 70
64
 10
0
 20
0
 30
0
  3
AIGNBL0302000D
  0
INSERT
  8
LAYER_3
  2
AIGNBL0303000E
 10
0
 20
0
 30
0
  0
INSERT
  8
LAYER_3
  2
AIGNBL0303000F
 10
0
 20
0
 30
0
  0
INSERT
  8
LAYER_3
  2
AIGNBL03030010
 10
0
 20
0
 30
0
  0
INSERT
  8
LAYER_3
  2
AIGNBL03030011
 10
0
 20
0
 30
0
  0
INSERT
  8
LAYER_3
  2
AIGNBL03030012
 10
0
 20
0
 30
0
  0
INSERT
  8
LAYER_3
  2
AIGNBL03030013
 10
0
 20
0
 30
0
  0
INSERT
  8
LAYER_3
  2
AIGNBL03030014
 10
0
 20
0
 30
0
  0
INSERT
  8
LAYER_3
  2
AIGNBL03030015
 10
0
 20
0
 30
0
  0
INSERT
  8
LAYER_3
  2
AIGNBL03030016
 10
0
 20
0
 30
0
  0
INSERT
  8
LAYER_3
  2
AIGNBL03030017
 10
0
 20
0
 30
0
  0
INSERT
  8
LAYER_3
  2
AIGNBL03030018
 10
0
 20
0
 30
0
  0
INSERT
  8
LAYER_3
  2
AIGNBL03030019
 10
0
 20
0
 30
0
  0
INSERT
  8
LAYER_3
  2
AIGNBL0303001A
 10
0
 20
0
 30
0
  0
INSERT
  8
LAYER_3
  2
AIGNBL0303001B
 10
0
 20
0
 30
0
  0
INSERT
  8
LAYER_3
  2
AIGNBL0303001C
 10
0
 20
0
 30
0
  0
INSERT
  8
LAYER_3
  2
AIGNBL0303001D
 10
0
 20
0
 30
0
  0
INSERT
  8
LAYER_3
  2
AIGNBL0303001E
 10
0
 20
0
 30
0
  0
INSERT
  8
LAYER_3
  2
AIGNBL0303001F
 10
0
 20
0
 30
0
  0
INSERT
  8
LAYER_3
  2
AIGNBL03030020
 10
0
 20
0
 30
0
  0
INSERT
  8
LAYER_3
  2
AIGNBL03030021
 10
0
 20
0
 30
0
  0
INSERT
  8
LAYER_3
  2
AIGNBL03030022
 10
0
 20
0
 30
0
  0
INSERT
  8
LAYER_3
  2
AIGNBL03030023
 10
0
 20
0
 30
0
  0
INSERT
  8
LAYER_3
  2
AIGNBL03030024
 10
0
 20
0
 30
0
  0
ENDBLK
  0
BLOCK
  8
LAYER_1
  2
AIGNBL01010002
 70
64
 10
0
 20
0
 30
0
  3
AIGNBL01010002
  0
TEXT
  8
LAYER_1
 10
95.892
 20
105.4099
 11
95.892
 21
105.4099
 40
5.0507
 41
0.5
  1
45
  0
ENDBLK
  0
BLOCK
  8
LAYER_1
  2
AIGNBL01010003
 70
64
 10
0
 20
0
 30
0
  3
AIGNBL01010003
  0
TEXT
  8
LAYER_1
 10
95.892
 20
162.1179
 11
95.892
 21
162.1179
 40
5.0507
 41
0.5
  1
34
  0
ENDBLK
  0
BLOCK
  8
LAYER_1
  2
AIGNBL01010004
 70
64
 10
0
 20
0
 30
0
  3
AIGNBL01010004
  0
TEXT
  8
LAYER_1
 10
135.6889
 20
105.2828
 11
135.6889
 21
105.2828
 40
5.0507
 41
0.5
  1
45
  0
ENDBLK
  0
BLOCK
  8
LAYER_1
  2
AIGNBL01010005
 70
64
 10
0
 20
0
 30
0
  3
AIGNBL01010005
  0
TEXT
  8
LAYER_1
 10
106.3181
 20
149.7845
 11
106.3181
 21
149.7845
 40
5.0507
 41
0.5
  1
G1/2
  0
ENDBLK
  0
BLOCK
  8
LAYER_1
  2
AIGNBL01010006
 70
64
 10
0
 20
0
 30
0
  3
AIGNBL01010006
  0
TEXT
  8
LAYER_1
 10
125.5172
 20
142.3286
 11
125.5172
 21
142.3286
 40
5.0507
 41
0.5
  1
菊座×2
  0
ENDBLK
  0
BLOCK
  8
LAYER_1
  2
AIGNBL01010007
 70
64
 10
0
 20
0
 30
0
  3
AIGNBL01010007
  0
TEXT
  8
LAYER_1
 10
89.0316
 20
143.2188
 11
89.0316
 21
143.2188
 40
5.0507
 41
0.5
  1
ゴムパッキン×2
  0
ENDBLK
  0
BLOCK
  8
LAYER_1
  2
AIGNBL01010008
 70
64
 10
0
 20
0
 30
0
  3
AIGNBL01010008
  0
TEXT
  8
LAYER_1
 10
118.2091
 20
183.185
 11
118.2091
 21
183.185
 40
4.2803
 41
0.5
  1
アダプター
  0
ENDBLK
  0
BLOCK
  8
LAYER_1
  2
AIGNBL01010009
 70
64
 10
0
 20
0
 30
0
  3
AIGNBL01010009
  0
TEXT
  8
LAYER_1
 10
117.5067
 20
96.637
 11
117.5067
 21
96.637
 40
5.0507
 41
0.5
  1
1
  0
ENDBLK
  0
BLOCK
  8
LAYER_1
  2
AIGNBL0101000A
 70
64
 10
0
 20
0
 30
0
  3
AIGNBL0101000A
  0
TEXT
  8
LAYER_1
 10
114.2015
 20
161.2281
 11
114.2015
 21
161.2281
 40
5.0507
 41
0.5
  1
8
  0
ENDBLK
  0
BLOCK
  8
LAYER_1
  2
AIGNBL0101000B
 70
64
 10
0
 20
0
 30
0
  3
AIGNBL0101000B
  0
TEXT
  8
LAYER_1
 10
155.9054
 20
95.8736
 11
155.9054
 21
95.8736
 40
5.0507
 41
0.5
  1
1
  0
ENDBLK
  0
BLOCK
  8
LAYER_3
  2
AIGNBL03010002
 70
64
 10
0
 20
0
 30
0
  3
AIGNBL03010002
  0
POLYLINE
  8
LAYER_3
 40
0.7056
 41
0.7056
 66
1
 10
0
 20
0
 30
0
 70
1
  0
VERTEX
  8
LAYER_3
 10
251.6749
 20
230.337
  0
VERTEX
  8
LAYER_3
 10
251.6749
 20
33.3285
  0
VERTEX
  8
LAYER_3
 10
-30.3177
 20
33.3285
  0
VERTEX
  8
LAYER_3
 10
-30.3177
 20
230.337
  0
SEQEND
  0
ENDBLK
  0
BLOCK
  8
LAYER_3
  2
AIGNBL03010003
 70
64
 10
0
 20
0
 30
0
  3
AIGNBL03010003
  0
INSERT
  8
LAYER_3
  2
AIGNBL03020004
 10
0
 20
0
 30
0
  0
INSERT
  8
LAYER_3
  2
AIGNBL0302000D
 10
0
 20
0
 30
0
  0
ENDBLK
  0
ENDSEC
  0
SECTION
  2
ENTITIES
  0
POLYLINE
  8
LAYER_1
 40
0.1058
 41
0.1058
 66
1
 10
0
 20
0
 30
0
  0
VERTEX
  8
LAYER_1
 10
146.9182
 20
125.9913
  0
VERTEX
  8
LAYER_1
 10
146.8934
 20
126.5773
  0
VERTEX
  8
LAYER_1
 10
146.8079
 20
127.1381
  0
VERTEX
  8
LAYER_1
 10
146.6739
 20
127.6997
  0
VERTEX
  8
LAYER_1
 10
146.4782
 20
128.2499
  0
VERTEX
  8
LAYER_1
 10
146.2467
 20
128.7746
  0
VERTEX
  8
LAYER_1
 10
145.9535
 20
129.2751
  0
VERTEX
  8
LAYER_1
 10
145.6238
 20
129.7378
  0
VERTEX
  8
LAYER_1
 10
145.2452
 20
130.1781
  0
VERTEX
  8
LAYER_1
 10
144.8304
 20
130.5684
  0
VERTEX
  8
LAYER_1
 10
144.3791
 20
130.9219
  0
VERTEX
  8
LAYER_1
 10
143.8903
 20
131.2402
  0
VERTEX
  8
LAYER_1
 10
143.378
 20
131.5083
  0
VERTEX
  8
LAYER_1
 10
142.8405
 20
131.7156
  0
VERTEX
  8
LAYER_1
 10
142.2921
 20
131.8748
  0
VERTEX
  8
LAYER_1
 10
141.7181
 20
131.9851
  0
VERTEX
  8
LAYER_1
 10
141.1569
 20
132.0457
  0
VERTEX
  8
LAYER_1
 10
140.5706
 20
132.0457
  0
VERTEX
  8
LAYER_1
 10
139.997
 20
131.9851
  0
VERTEX
  8
LAYER_1
 10
139.4354
 20
131.8748
  0
VERTEX
  8
LAYER_1
 10
138.8742
 20
131.7156
  0
VERTEX
  8
LAYER_1
 10
138.3485
 20
131.5083
  0
VERTEX
  8
LAYER_1
 10
137.8359
 20
131.2402
  0
VERTEX
  8
LAYER_1
 10
137.3484
 20
130.9219
  0
VERTEX
  8
LAYER_1
 10
136.8964
 20
130.5684
  0
VERTEX
  8
LAYER_1
 10
136.4809
 20
130.1781
  0
VERTEX
  8
LAYER_1
 10
136.103
 20
129.7378
  0
VERTEX
  8
LAYER_1
 10
135.7609
 20
129.2751
  0
VERTEX
  8
LAYER_1
 10
135.4808
 20
128.7746
  0
VERTEX
  8
LAYER_1
 10
135.2365
 20
128.2499
  0
VERTEX
  8
LAYER_1
 10
135.0536
 20
127.6997
  0
VERTEX
  8
LAYER_1
 10
134.9196
 20
127.1381
  0
VERTEX
  8
LAYER_1
 10
134.8341
 20
126.5773
  0
VERTEX
  8
LAYER_1
 10
134.8093
 20
125.9913
  0
VERTEX
  8
LAYER_1
 10
134.8341
 20
125.417
  0
VERTEX
  8
LAYER_1
 10
134.9196
 20
124.8437
  0
VERTEX
  8
LAYER_1
 10
135.0536
 20
124.2942
  0
VERTEX
  8
LAYER_1
 10
135.2365
 20
123.7454
  0
VERTEX
  8
LAYER_1
 10
135.4808
 20
123.2207
  0
VERTEX
  8
LAYER_1
 10
135.7609
 20
122.7202
  0
VERTEX
  8
LAYER_1
 10
136.103
 20
122.2561
  0
VERTEX
  8
LAYER_1
 10
136.4809
 20
121.8172
  0
VERTEX
  8
LAYER_1
 10
136.8964
 20
121.4258
  0
VERTEX
  8
LAYER_1
 10
137.3484
 20
121.0603
  0
VERTEX
  8
LAYER_1
 10
137.8359
 20
120.7544
  0
VERTEX
  8
LAYER_1
 10
138.3485
 20
120.486
  0
VERTEX
  8
LAYER_1
 10
138.8742
 20
120.2797
  0
VERTEX
  8
LAYER_1
 10
139.4354
 20
120.1201
  0
VERTEX
  8
LAYER_1
 10
139.997
 20
120.0102
  0
VERTEX
  8
LAYER_1
 10
140.5706
 20
119.9496
  0
VERTEX
  8
LAYER_1
 10
141.1569
 20
119.9496
  0
VERTEX
  8
LAYER_1
 10
141.7181
 20
120.0102
  0
VERTEX
  8
LAYER_1
 10
142.2921
 20
120.1201
  0
VERTEX
  8
LAYER_1
 10
142.8405
 20
120.2797
  0
VERTEX
  8
LAYER_1
 10
143.378
 20
120.486
  0
VERTEX
  8
LAYER_1
 10
143.8903
 20
120.7544
  0
VERTEX
  8
LAYER_1
 10
144.3791
 20
121.0603
  0
VERTEX
  8
LAYER_1
 10
144.8304
 20
121.4258
  0
VERTEX
  8
LAYER_1
 10
145.2452
 20
121.8172
  0
VERTEX
  8
LAYER_1
 10
145.6238
 20
122.2561
  0
VERTEX
  8
LAYER_1
 10
145.9535
 20
122.7202
  0
VERTEX
  8
LAYER_1
 10
146.2467
 20
123.2207
  0
VERTEX
  8
LAYER_1
 10
146.4782
 20
123.7454
  0
VERTEX
  8
LAYER_1
 10
146.6739
 20
124.2942
  0
VERTEX
  8
LAYER_1
 10
146.8079
 20
124.8437
  0
VERTEX
  8
LAYER_1
 10
146.8934
 20
125.417
  0
VERTEX
  8
LAYER_1
 10
146.9182
 20
125.9913
  0
SEQEND
  0
POLYLINE
  8
LAYER_1
 40
0.1058
 41
0.1058
 66
1
 10
0
 20
0
 30
0
  0
VERTEX
  8
LAYER_1
 10
153.8387
 20
125.9913
  0
VERTEX
  8
LAYER_1
 10
153.827
 20
126.5773
  0
VERTEX
  8
LAYER_1
 10
153.7901
 20
127.1381
  0
VERTEX
  8
LAYER_1
 10
153.7288
 20
127.7128
  0
VERTEX
  8
LAYER_1
 10
153.6313
 20
128.2737
  0
VERTEX
  8
LAYER_1
 10
153.521
 20
128.8479
  0
VERTEX
  8
LAYER_1
 10
153.3867
 20
129.3964
  0
VERTEX
  8
LAYER_1
 10
153.2292
 20
129.9466
  0
VERTEX
  8
LAYER_1
 10
153.0332
 20
130.4947
  0
VERTEX
  8
LAYER_1
 10
152.8258
 20
131.0321
  0
VERTEX
  8
LAYER_1
 10
152.594
 20
131.5448
  0
VERTEX
  8
LAYER_1
 10
152.3249
 20
132.0584
  0
VERTEX
  8
LAYER_1
 10
152.0569
 20
132.5583
  0
VERTEX
  8
LAYER_1
 10
151.7516
 20
133.0585
  0
VERTEX
  8
LAYER_1
 10
151.4337
 20
133.5226
  0
VERTEX
  8
LAYER_1
 10
151.0802
 20
133.9867
  0
VERTEX
  8
LAYER_1
 10
150.714
 20
134.4387
  0
VERTEX
  8
LAYER_1
 10
150.3354
 20
134.8655
  0
VERTEX
  8
LAYER_1
 10
149.933
 20
135.281
  0
VERTEX
  8
LAYER_1
 10
149.5178
 20
135.6703
  0
VERTEX
  8
LAYER_1
 10
149.0786
 20
136.0368
  0
VERTEX
  8
LAYER_1
 10
148.6266
 20
136.3913
  0
VERTEX
  8
LAYER_1
 10
148.1629
 20
136.721
  0
VERTEX
  8
LAYER_1
 10
147.6751
 20
137.038
  0
VERTEX
  8
LAYER_1
 10
147.1862
 20
137.3312
  0
VERTEX
  8
LAYER_1
 10
146.6739
 20
137.5992
  0
VERTEX
  8
LAYER_1
 10
146.1613
 20
137.8438
  0
VERTEX
  8
LAYER_1
 10
145.6238
 20
138.0632
  0
VERTEX
  8
LAYER_1
 10
145.0864
 20
138.2589
  0
VERTEX
  8
LAYER_1
 10
144.5369
 20
138.4415
  0
VERTEX
  8
LAYER_1
 10
143.9891
 20
138.5886
  0
VERTEX
  8
LAYER_1
 10
143.4269
 20
138.7219
  0
VERTEX
  8
LAYER_1
 10
142.8654
 20
138.8201
  0
VERTEX
  8
LAYER_1
 10
142.2921
 20
138.8928
  0
VERTEX
  8
LAYER_1
 10
141.7181
 20
138.9421
  0
VERTEX
  8
LAYER_1
 10
141.1438
 20
138.9662
  0
VERTEX
  8
LAYER_1
 10
140.5706
 20
138.9662
  0
VERTEX
  8
LAYER_1
 10
139.997
 20
138.9421
  0
VERTEX
  8
LAYER_1
 10
139.4234
 20
138.8928
  0
VERTEX
  8
LAYER_1
 10
138.8622
 20
138.8201
  0
VERTEX
  8
LAYER_1
 10
138.2999
 20
138.7219
  0
VERTEX
  8
LAYER_1
 10
137.7266
 20
138.5886
  0
VERTEX
  8
LAYER_1
 10
137.1778
 20
138.4415
  0
VERTEX
  8
LAYER_1
 10
136.6404
 20
138.2589
  0
VERTEX
  8
LAYER_1
 10
136.0909
 20
138.0632
  0
VERTEX
  8
LAYER_1
 10
135.5662
 20
137.8438
  0
VERTEX
  8
LAYER_1
 10
135.0536
 20
137.5992
  0
VERTEX
  8
LAYER_1
 10
134.5413
 20
137.3312
  0
VERTEX
  8
LAYER_1
 10
134.0525
 20
137.038
  0
VERTEX
  8
LAYER_1
 10
133.5646
 20
136.721
  0
VERTEX
  8
LAYER_1
 10
133.1009
 20
136.3913
  0
VERTEX
  8
LAYER_1
 10
132.6489
 20
136.0368
  0
VERTEX
  8
LAYER_1
 10
132.2097
 20
135.6703
  0
VERTEX
  8
LAYER_1
 10
131.7828
 20
135.281
  0
VERTEX
  8
LAYER_1
 10
131.3915
 20
134.8655
  0
VERTEX
  8
LAYER_1
 10
131.0008
 20
134.4387
  0
VERTEX
  8
LAYER_1
 10
130.6346
 20
133.9867
  0
VERTEX
  8
LAYER_1
 10
130.2925
 20
133.5226
  0
VERTEX
  8
LAYER_1
 10
129.9759
 20
133.0585
  0
VERTEX
  8
LAYER_1
 10
129.6706
 20
132.5583
  0
VERTEX
  8
LAYER_1
 10
129.3899
 20
132.0584
  0
VERTEX
  8
LAYER_1
 10
129.1335
 20
131.5448
  0
VERTEX
  8
LAYER_1
 10
128.9017
 20
131.0321
  0
VERTEX
  8
LAYER_1
 10
128.6943
 20
130.4947
  0
VERTEX
  8
LAYER_1
 10
128.5107
 20
129.9466
  0
VERTEX
  8
LAYER_1
 10
128.3395
 20
129.3964
  0
VERTEX
  8
LAYER_1
 10
128.1937
 20
128.8479
  0
VERTEX
  8
LAYER_1
 10
128.0962
 20
128.2737
  0
VERTEX
  8
LAYER_1
 10
127.998
 20
127.7128
  0
VERTEX
  8
LAYER_1
 10
127.9374
 20
127.1381
  0
VERTEX
  8
LAYER_1
 10
127.9009
 20
126.5773
  0
SEQEND
  0
POLYLINE
  8
LAYER_1
 40
0.1058
 41
0.1058
 66
1
 10
0
 20
0
 30
0
  0
VERTEX
  8
LAYER_1
 10
127.9009
 20
126.5773
  0
VERTEX
  8
LAYER_1
 10
127.8888
 20
125.9913
  0
VERTEX
  8
LAYER_1
 10
127.9009
 20
125.4297
  0
VERTEX
  8
LAYER_1
 10
127.9374
 20
124.8437
  0
VERTEX
  8
LAYER_1
 10
127.998
 20
124.2825
  0
VERTEX
  8
LAYER_1
 10
128.0962
 20
123.7082
  0
VERTEX
  8
LAYER_1
 10
128.1937
 20
123.1473
  0
VERTEX
  8
LAYER_1
 10
128.3395
 20
122.5979
  0
VERTEX
  8
LAYER_1
 10
128.5107
 20
122.0367
  0
VERTEX
  8
LAYER_1
 10
128.6943
 20
121.4992
  0
VERTEX
  8
LAYER_1
 10
128.9017
 20
120.9628
  0
VERTEX
  8
LAYER_1
 10
129.1335
 20
120.4374
  0
VERTEX
  8
LAYER_1
 10
129.3899
 20
119.9248
  0
VERTEX
  8
LAYER_1
 10
129.6706
 20
119.4242
  0
VERTEX
  8
LAYER_1
 10
129.9759
 20
118.9364
  0
VERTEX
  8
LAYER_1
 10
130.2925
 20
118.4596
  0
VERTEX
  8
LAYER_1
 10
130.6346
 20
118.0086
  0
VERTEX
  8
LAYER_1
 10
131.0008
 20
117.5566
  0
VERTEX
  8
LAYER_1
 10
131.3915
 20
117.1295
  0
VERTEX
  8
LAYER_1
 10
131.7828
 20
116.7271
  0
VERTEX
  8
LAYER_1
 10
132.2097
 20
116.3357
  0
VERTEX
  8
LAYER_1
 10
132.6489
 20
115.9581
  0
VERTEX
  8
LAYER_1
 10
133.1009
 20
115.604
  0
VERTEX
  8
LAYER_1
 10
133.5646
 20
115.275
  0
VERTEX
  8
LAYER_1
 10
134.0525
 20
114.9573
  0
VERTEX
  8
LAYER_1
 10
134.5413
 20
114.6638
  0
VERTEX
  8
LAYER_1
 10
135.0536
 20
114.3951
  0
VERTEX
  8
LAYER_1
 10
135.5662
 20
114.1512
  0
VERTEX
  8
LAYER_1
 10
136.0909
 20
113.9317
  0
VERTEX
  8
LAYER_1
 10
136.6404
 20
113.7364
  0
VERTEX
  8
LAYER_1
 10
137.1778
 20
113.5538
  0
VERTEX
  8
LAYER_1
 10
137.7266
 20
113.4063
  0
VERTEX
  8
LAYER_1
 10
138.2999
 20
113.2844
  0
VERTEX
  8
LAYER_1
 10
138.8622
 20
113.1748
  0
VERTEX
  8
LAYER_1
 10
139.4234
 20
113.1015
  0
VERTEX
  8
LAYER_1
 10
139.997
 20
113.0529
  0
VERTEX
  8
LAYER_1
 10
140.5706
 20
113.0281
  0
VERTEX
  8
LAYER_1
 10
141.1438
 20
113.0281
  0
VERTEX
  8
LAYER_1
 10
141.7181
 20
113.0529
  0
VERTEX
  8
LAYER_1
 10
142.2921
 20
113.1015
  0
VERTEX
  8
LAYER_1
 10
142.8654
 20
113.1748
  0
VERTEX
  8
LAYER_1
 10
143.4269
 20
113.2844
  0
VERTEX
  8
LAYER_1
 10
143.9891
 20
113.4063
  0
VERTEX
  8
LAYER_1
 10
144.5369
 20
113.5538
  0
VERTEX
  8
LAYER_1
 10
145.0864
 20
113.7364
  0
VERTEX
  8
LAYER_1
 10
145.6238
 20
113.9317
  0
VERTEX
  8
LAYER_1
 10
146.1613
 20
114.1512
  0
VERTEX
  8
LAYER_1
 10
146.6739
 20
114.3951
  0
VERTEX
  8
LAYER_1
 10
147.1862
 20
114.6638
  0
VERTEX
  8
LAYER_1
 10
147.6751
 20
114.9573
  0
VERTEX
  8
LAYER_1
 10
148.1629
 20
115.275
  0
VERTEX
  8
LAYER_1
 10
148.6266
 20
115.604
  0
VERTEX
  8
LAYER_1
 10
149.0786
 20
115.9581
  0
VERTEX
  8
LAYER_1
 10
149.5178
 20
116.3357
  0
VERTEX
  8
LAYER_1
 10
149.933
 20
116.7271
  0
VERTEX
  8
LAYER_1
 10
150.3354
 20
117.1295
  0
VERTEX
  8
LAYER_1
 10
150.714
 20
117.5566
  0
VERTEX
  8
LAYER_1
 10
151.0802
 20
118.0086
  0
VERTEX
  8
LAYER_1
 10
151.4337
 20
118.4596
  0
VERTEX
  8
LAYER_1
 10
151.7516
 20
118.9364
  0
VERTEX
  8
LAYER_1
 10
152.0569
 20
119.4242
  0
VERTEX
  8
LAYER_1
 10
152.3249
 20
119.9248
  0
VERTEX
  8
LAYER_1
 10
152.594
 20
120.4374
  0
VERTEX
  8
LAYER_1
 10
152.8258
 20
120.9628
  0
VERTEX
  8
LAYER_1
 10
153.0332
 20
121.4992
  0
VERTEX
  8
LAYER_1
 10
153.2292
 20
122.0367
  0
VERTEX
  8
LAYER_1
 10
153.3867
 20
122.5979
  0
VERTEX
  8
LAYER_1
 10
153.521
 20
123.1473
  0
VERTEX
  8
LAYER_1
 10
153.6313
 20
123.7082
  0
VERTEX
  8
LAYER_1
 10
153.7288
 20
124.2825
  0
VERTEX
  8
LAYER_1
 10
153.7901
 20
124.8437
  0
VERTEX
  8
LAYER_1
 10
153.827
 20
125.4297
  0
VERTEX
  8
LAYER_1
 10
153.8387
 20
125.9913
  0
SEQEND
  0
POLYLINE
  8
LAYER_1
 40
0.1058
 41
0.1058
 66
1
 10
0
 20
0
 30
0
  0
VERTEX
  8
LAYER_1
 10
148.895
 20
129.9586
  0
VERTEX
  8
LAYER_1
 10
146.3687
 20
128.5062
  0
SEQEND
  0
POLYLINE
  8
LAYER_1
 40
0.1058
 41
0.1058
 66
1
 10
0
 20
0
 30
0
  0
VERTEX
  8
LAYER_1
 10
148.3089
 20
130.9715
  0
VERTEX
  8
LAYER_1
 10
148.895
 20
129.9586
  0
SEQEND
  0
POLYLINE
  8
LAYER_1
 40
0.1058
 41
0.1058
 66
1
 10
0
 20
0
 30
0
  0
VERTEX
  8
LAYER_1
 10
148.3089
 20
130.9715
  0
VERTEX
  8
LAYER_1
 10
145.7947
 20
129.5067
  0
SEQEND
  0
POLYLINE
  8
LAYER_1
 40
0.1058
 41
0.1058
 66
1
 10
0
 20
0
 30
0
  0
VERTEX
  8
LAYER_1
 10
149.799
 20
125.417
  0
VERTEX
  8
LAYER_1
 10
146.8934
 20
125.417
  0
SEQEND
  0
POLYLINE
  8
LAYER_1
 40
0.1058
 41
0.1058
 66
1
 10
0
 20
0
 30
0
  0
VERTEX
  8
LAYER_1
 10
149.799
 20
126.5773
  0
VERTEX
  8
LAYER_1
 10
149.799
 20
125.417
  0
SEQEND
  0
POLYLINE
  8
LAYER_1
 40
0.1058
 41
0.1058
 66
1
 10
0
 20
0
 30
0
  0
VERTEX
  8
LAYER_1
 10
149.799
 20
126.5773
  0
VERTEX
  8
LAYER_1
 10
146.8934
 20
126.5773
  0
SEQEND
  0
POLYLINE
  8
LAYER_1
 40
0.1058
 41
0.1058
 66
1
 10
0
 20
0
 30
0
  0
VERTEX
  8
LAYER_1
 10
148.3089
 20
121.0234
  0
VERTEX
  8
LAYER_1
 10
145.7947
 20
122.4886
  0
SEQEND
  0
POLYLINE
  8
LAYER_1
 40
0.1058
 41
0.1058
 66
1
 10
0
 20
0
 30
0
  0
VERTEX
  8
LAYER_1
 10
148.895
 20
122.0239
  0
VERTEX
  8
LAYER_1
 10
148.3089
 20
121.0234
  0
SEQEND
  0
POLYLINE
  8
LAYER_1
 40
0.1058
 41
0.1058
 66
1
 10
0
 20
0
 30
0
  0
VERTEX
  8
LAYER_1
 10
148.895
 20
122.0239
  0
VERTEX
  8
LAYER_1
 10
146.3687
 20
123.4767
  0
SEQEND
  0
POLYLINE
  8
LAYER_1
 40
0.1058
 41
0.1058
 66
1
 10
0
 20
0
 30
0
  0
VERTEX
  8
LAYER_1
 10
144.8304
 20
117.9718
  0
VERTEX
  8
LAYER_1
 10
143.378
 20
120.486
  0
SEQEND
  0
POLYLINE
  8
LAYER_1
 40
0.1058
 41
0.1058
 66
1
 10
0
 20
0
 30
0
  0
VERTEX
  8
LAYER_1
 10
145.8312
 20
118.545
  0
VERTEX
  8
LAYER_1
 10
144.8304
 20
117.9718
  0
SEQEND
  0
POLYLINE
  8
LAYER_1
 40
0.1058
 41
0.1058
 66
1
 10
0
 20
0
 30
0
  0
VERTEX
  8
LAYER_1
 10
145.8312
 20
118.545
  0
VERTEX
  8
LAYER_1
 10
144.3791
 20
121.0603
  0
SEQEND
  0
POLYLINE
  8
LAYER_1
 40
0.1058
 41
0.1058
 66
1
 10
0
 20
0
 30
0
  0
VERTEX
  8
LAYER_1
 10
140.2898
 20
117.0571
  0
VERTEX
  8
LAYER_1
 10
140.2898
 20
119.9734
  0
SEQEND
  0
POLYLINE
  8
LAYER_1
 40
0.1058
 41
0.1058
 66
1
 10
0
 20
0
 30
0
  0
VERTEX
  8
LAYER_1
 10
141.437
 20
117.0571
  0
VERTEX
  8
LAYER_1
 10
140.2898
 20
117.0571
  0
SEQEND
  0
POLYLINE
  8
LAYER_1
 40
0.1058
 41
0.1058
 66
1
 10
0
 20
0
 30
0
  0
VERTEX
  8
LAYER_1
 10
141.437
 20
117.0571
  0
VERTEX
  8
LAYER_1
 10
141.437
 20
119.9734
  0
SEQEND
  0
POLYLINE
  8
LAYER_1
 40
0.1058
 41
0.1058
 66
1
 10
0
 20
0
 30
0
  0
VERTEX
  8
LAYER_1
 10
135.8963
 20
118.545
  0
VERTEX
  8
LAYER_1
 10
137.3484
 20
121.0603
  0
SEQEND
  0
POLYLINE
  8
LAYER_1
 40
0.1058
 41
0.1058
 66
1
 10
0
 20
0
 30
0
  0
VERTEX
  8
LAYER_1
 10
136.8843
 20
117.9718
  0
VERTEX
  8
LAYER_1
 10
135.8963
 20
118.545
  0
SEQEND
  0
POLYLINE
  8
LAYER_1
 40
0.1058
 41
0.1058
 66
1
 10
0
 20
0
 30
0
  0
VERTEX
  8
LAYER_1
 10
136.8843
 20
117.9718
  0
VERTEX
  8
LAYER_1
 10
138.3485
 20
120.486
  0
SEQEND
  0
POLYLINE
  8
LAYER_1
 40
0.1058
 41
0.1058
 66
1
 10
0
 20
0
 30
0
  0
VERTEX
  8
LAYER_1
 10
132.8315
 20
122.0239
  0
VERTEX
  8
LAYER_1
 10
135.3468
 20
123.4767
  0
SEQEND
  0
POLYLINE
  8
LAYER_1
 40
0.1058
 41
0.1058
 66
1
 10
0
 20
0
 30
0
  0
VERTEX
  8
LAYER_1
 10
133.4058
 20
121.0234
  0
VERTEX
  8
LAYER_1
 10
132.8315
 20
122.0239
  0
SEQEND
  0
POLYLINE
  8
LAYER_1
 40
0.1058
 41
0.1058
 66
1
 10
0
 20
0
 30
0
  0
VERTEX
  8
LAYER_1
 10
133.4058
 20
121.0234
  0
VERTEX
  8
LAYER_1
 10
135.9321
 20
122.4886
  0
SEQEND
  0
POLYLINE
  8
LAYER_1
 40
0.1058
 41
0.1058
 66
1
 10
0
 20
0
 30
0
  0
VERTEX
  8
LAYER_1
 10
131.9289
 20
126.5773
  0
VERTEX
  8
LAYER_1
 10
134.8341
 20
126.5773
  0
SEQEND
  0
POLYLINE
  8
LAYER_1
 40
0.1058
 41
0.1058
 66
1
 10
0
 20
0
 30
0
  0
VERTEX
  8
LAYER_1
 10
131.9289
 20
125.417
  0
VERTEX
  8
LAYER_1
 10
131.9289
 20
126.5773
  0
SEQEND
  0
POLYLINE
  8
LAYER_1
 40
0.1058
 41
0.1058
 66
1
 10
0
 20
0
 30
0
  0
VERTEX
  8
LAYER_1
 10
131.9289
 20
125.417
  0
VERTEX
  8
LAYER_1
 10
134.8341
 20
125.417
  0
SEQEND
  0
POLYLINE
  8
LAYER_1
 40
0.1058
 41
0.1058
 66
1
 10
0
 20
0
 30
0
  0
VERTEX
  8
LAYER_1
 10
133.4058
 20
130.9715
  0
VERTEX
  8
LAYER_1
 10
135.9321
 20
129.5067
  0
SEQEND
  0
POLYLINE
  8
LAYER_1
 40
0.1058
 41
0.1058
 66
1
 10
0
 20
0
 30
0
  0
VERTEX
  8
LAYER_1
 10
132.8315
 20
129.9586
  0
VERTEX
  8
LAYER_1
 10
133.4058
 20
130.9715
  0
SEQEND
  0
POLYLINE
  8
LAYER_1
 40
0.1058
 41
0.1058
 66
1
 10
0
 20
0
 30
0
  0
VERTEX
  8
LAYER_1
 10
132.8315
 20
129.9586
  0
VERTEX
  8
LAYER_1
 10
135.3468
 20
128.5062
  0
SEQEND
  0
POLYLINE
  8
LAYER_1
 40
0.1058
 41
0.1058
 66
1
 10
0
 20
0
 30
0
  0
VERTEX
  8
LAYER_1
 10
136.8843
 20
134.0232
  0
VERTEX
  8
LAYER_1
 10
138.3485
 20
131.5083
  0
SEQEND
  0
POLYLINE
  8
LAYER_1
 40
0.1058
 41
0.1058
 66
1
 10
0
 20
0
 30
0
  0
VERTEX
  8
LAYER_1
 10
135.8963
 20
133.4492
  0
VERTEX
  8
LAYER_1
 10
136.8843
 20
134.0232
  0
SEQEND
  0
POLYLINE
  8
LAYER_1
 40
0.1058
 41
0.1058
 66
1
 10
0
 20
0
 30
0
  0
VERTEX
  8
LAYER_1
 10
135.8963
 20
133.4492
  0
VERTEX
  8
LAYER_1
 10
137.3484
 20
130.9219
  0
SEQEND
  0
POLYLINE
  8
LAYER_1
 40
0.1058
 41
0.1058
 66
1
 10
0
 20
0
 30
0
  0
VERTEX
  8
LAYER_1
 10
141.437
 20
134.9389
  0
VERTEX
  8
LAYER_1
 10
141.437
 20
132.0209
  0
SEQEND
  0
POLYLINE
  8
LAYER_1
 40
0.1058
 41
0.1058
 66
1
 10
0
 20
0
 30
0
  0
VERTEX
  8
LAYER_1
 10
140.2898
 20
134.9389
  0
VERTEX
  8
LAYER_1
 10
141.437
 20
134.9389
  0
SEQEND
  0
POLYLINE
  8
LAYER_1
 40
0.1058
 41
0.1058
 66
1
 10
0
 20
0
 30
0
  0
VERTEX
  8
LAYER_1
 10
140.2898
 20
134.9389
  0
VERTEX
  8
LAYER_1
 10
140.2898
 20
132.0209
  0
SEQEND
  0
POLYLINE
  8
LAYER_1
 40
0.1058
 41
0.1058
 66
1
 10
0
 20
0
 30
0
  0
VERTEX
  8
LAYER_1
 10
148.0171
 20
115.1768
  0
VERTEX
  8
LAYER_1
 10
146.6622
 20
117.0323
  0
SEQEND
  0
POLYLINE
  8
LAYER_1
 40
0.1058
 41
0.1058
 66
1
 10
0
 20
0
 30
0
  0
VERTEX
  8
LAYER_1
 10
147.6017
 20
117.7024
  0
VERTEX
  8
LAYER_1
 10
146.6622
 20
117.0323
  0
SEQEND
  0
POLYLINE
  8
LAYER_1
 40
0.1058
 41
0.1058
 66
1
 10
0
 20
0
 30
0
  0
VERTEX
  8
LAYER_1
 10
148.9439
 20
115.8482
  0
VERTEX
  8
LAYER_1
 10
147.6017
 20
117.7024
  0
SEQEND
  0
POLYLINE
  8
LAYER_1
 40
0.1058
 41
0.1058
 66
1
 10
0
 20
0
 30
0
  0
VERTEX
  8
LAYER_1
 10
132.7829
 20
115.8482
  0
VERTEX
  8
LAYER_1
 10
134.1258
 20
117.7024
  0
SEQEND
  0
POLYLINE
  8
LAYER_1
 40
0.1058
 41
0.1058
 66
1
 10
0
 20
0
 30
0
  0
VERTEX
  8
LAYER_1
 10
135.0536
 20
117.0323
  0
VERTEX
  8
LAYER_1
 10
134.1258
 20
117.7024
  0
SEQEND
  0
POLYLINE
  8
LAYER_1
 40
0.1058
 41
0.1058
 66
1
 10
0
 20
0
 30
0
  0
VERTEX
  8
LAYER_1
 10
133.7107
 20
115.1768
  0
VERTEX
  8
LAYER_1
 10
135.0536
 20
117.0323
  0
SEQEND
  0
POLYLINE
  8
LAYER_1
 40
0.1058
 41
0.1058
 66
1
 10
0
 20
0
 30
0
  0
VERTEX
  8
LAYER_1
 10
128.7184
 20
130.5567
  0
VERTEX
  8
LAYER_1
 10
130.8916
 20
129.8363
  0
SEQEND
  0
POLYLINE
  8
LAYER_1
 40
0.1058
 41
0.1058
 66
1
 10
0
 20
0
 30
0
  0
VERTEX
  8
LAYER_1
 10
130.5371
 20
128.7498
  0
VERTEX
  8
LAYER_1
 10
130.8916
 20
129.8363
  0
SEQEND
  0
POLYLINE
  8
LAYER_1
 40
0.1058
 41
0.1058
 66
1
 10
0
 20
0
 30
0
  0
VERTEX
  8
LAYER_1
 10
128.3529
 20
129.4577
  0
VERTEX
  8
LAYER_1
 10
130.5371
 20
128.7498
  0
SEQEND
  0
POLYLINE
  8
LAYER_1
 40
0.1058
 41
0.1058
 66
1
 10
0
 20
0
 30
0
  0
VERTEX
  8
LAYER_1
 10
141.437
 20
138.9541
  0
VERTEX
  8
LAYER_1
 10
141.437
 20
136.6597
  0
SEQEND
  0
POLYLINE
  8
LAYER_1
 40
0.1058
 41
0.1058
 66
1
 10
0
 20
0
 30
0
  0
VERTEX
  8
LAYER_1
 10
140.2898
 20
136.6597
  0
VERTEX
  8
LAYER_1
 10
141.437
 20
136.6597
  0
SEQEND
  0
POLYLINE
  8
LAYER_1
 40
0.1058
 41
0.1058
 66
1
 10
0
 20
0
 30
0
  0
VERTEX
  8
LAYER_1
 10
140.2898
 20
138.9541
  0
VERTEX
  8
LAYER_1
 10
140.2898
 20
136.6597
  0
SEQEND
  0
POLYLINE
  8
LAYER_1
 40
0.1058
 41
0.1058
 66
1
 10
0
 20
0
 30
0
  0
VERTEX
  8
LAYER_1
 10
144.8304
 20
134.0232
  0
VERTEX
  8
LAYER_1
 10
143.378
 20
131.5083
  0
SEQEND
  0
POLYLINE
  8
LAYER_1
 40
0.1058
 41
0.1058
 66
1
 10
0
 20
0
 30
0
  0
VERTEX
  8
LAYER_1
 10
145.8312
 20
133.4492
  0
VERTEX
  8
LAYER_1
 10
144.3791
 20
130.9219
  0
SEQEND
  0
POLYLINE
  8
LAYER_1
 40
0.1058
 41
0.1058
 66
1
 10
0
 20
0
 30
0
  0
VERTEX
  8
LAYER_1
 10
144.8304
 20
134.0232
  0
VERTEX
  8
LAYER_1
 10
145.8312
 20
133.4492
  0
SEQEND
  0
POLYLINE
  8
LAYER_1
 40
0.1058
 41
0.1058
 66
1
 10
0
 20
0
 30
0
  0
VERTEX
  8
LAYER_1
 10
150.8242
 20
129.8363
  0
VERTEX
  8
LAYER_1
 10
151.1894
 20
128.7498
  0
SEQEND
  0
POLYLINE
  8
LAYER_1
 40
0.1058
 41
0.1058
 66
1
 10
0
 20
0
 30
0
  0
VERTEX
  8
LAYER_1
 10
153.0084
 20
130.5567
  0
VERTEX
  8
LAYER_1
 10
150.8242
 20
129.8363
  0
SEQEND
  0
POLYLINE
  8
LAYER_1
 40
0.1058
 41
0.1058
 66
1
 10
0
 20
0
 30
0
  0
VERTEX
  8
LAYER_1
 10
153.3632
 20
129.4577
  0
VERTEX
  8
LAYER_1
 10
151.1894
 20
128.7505
  0
SEQEND
  0
POLYLINE
  8
LAYER_1
 40
0.1058
 41
0.1058
 66
1
 10
0
 20
0
 30
0
  0
VERTEX
  8
LAYER_1
 10
113.8146
 20
125.9913
  0
VERTEX
  8
LAYER_1
 10
113.8146
 20
126.5773
  0
VERTEX
  8
LAYER_1
 10
113.766
 20
127.1381
  0
VERTEX
  8
LAYER_1
 10
113.705
 20
127.7128
  0
VERTEX
  8
LAYER_1
 10
113.6196
 20
128.2737
  0
VERTEX
  8
LAYER_1
 10
113.5094
 20
128.8479
  0
VERTEX
  8
LAYER_1
 10
113.3629
 20
129.3964
  0
VERTEX
  8
LAYER_1
 10
113.2041
 20
129.9466
  0
VERTEX
  8
LAYER_1
 10
113.0091
 20
130.4947
  0
VERTEX
  8
LAYER_1
 10
112.8014
 20
131.0321
  0
VERTEX
  8
LAYER_1
 10
112.5695
 20
131.5448
  0
VERTEX
  8
LAYER_1
 10
112.3132
 20
132.0584
  0
VERTEX
  8
LAYER_1
 10
112.0324
 20
132.5583
  0
VERTEX
  8
LAYER_1
 10
111.7275
 20
133.0585
  0
VERTEX
  8
LAYER_1
 10
111.4099
 20
133.5226
  0
VERTEX
  8
LAYER_1
 10
111.0685
 20
133.9867
  0
VERTEX
  8
LAYER_1
 10
110.7019
 20
134.4387
  0
VERTEX
  8
LAYER_1
 10
110.3237
 20
134.8655
  0
VERTEX
  8
LAYER_1
 10
109.9209
 20
135.281
  0
VERTEX
  8
LAYER_1
 10
109.5058
 20
135.6703
  0
VERTEX
  8
LAYER_1
 10
109.0666
 20
136.0368
  0
VERTEX
  8
LAYER_1
 10
108.6025
 20
136.3913
  0
VERTEX
  8
LAYER_1
 10
108.1384
 20
136.721
  0
VERTEX
  8
LAYER_1
 10
107.6629
 20
137.038
  0
VERTEX
  8
LAYER_1
 10
107.1621
 20
137.3312
  0
VERTEX
  8
LAYER_1
 10
106.6619
 20
137.5992
  0
VERTEX
  8
LAYER_1
 10
106.1368
 20
137.8438
  0
VERTEX
  8
LAYER_1
 10
105.6122
 20
138.0632
  0
VERTEX
  8
LAYER_1
 10
105.0752
 20
138.2589
  0
VERTEX
  8
LAYER_1
 10
104.5257
 20
138.4415
  0
VERTEX
  8
LAYER_1
 10
103.9764
 20
138.5886
  0
VERTEX
  8
LAYER_1
 10
103.4145
 20
138.7219
  0
VERTEX
  8
LAYER_1
 10
102.8409
 20
138.8201
  0
VERTEX
  8
LAYER_1
 10
102.2801
 20
138.8928
  0
VERTEX
  8
LAYER_1
 10
101.7063
 20
138.9421
  0
VERTEX
  8
LAYER_1
 10
101.1325
 20
138.9662
  0
VERTEX
  8
LAYER_1
 10
100.5587
 20
138.9662
  0
VERTEX
  8
LAYER_1
 10
99.9846
 20
138.9421
  0
VERTEX
  8
LAYER_1
 10
99.4117
 20
138.8928
  0
VERTEX
  8
LAYER_1
 10
98.8376
 20
138.8201
  0
VERTEX
  8
LAYER_1
 10
98.2763
 20
138.7219
  0
VERTEX
  8
LAYER_1
 10
97.715
 20
138.5886
  0
VERTEX
  8
LAYER_1
 10
97.1655
 20
138.4415
  0
VERTEX
  8
LAYER_1
 10
96.6162
 20
138.2589
  0
VERTEX
  8
LAYER_1
 10
96.0787
 20
138.0632
  0
VERTEX
  8
LAYER_1
 10
95.5545
 20
137.8438
  0
VERTEX
  8
LAYER_1
 10
95.0295
 20
137.5992
  0
VERTEX
  8
LAYER_1
 10
94.5288
 20
137.3312
  0
VERTEX
  8
LAYER_1
 10
94.0289
 20
137.038
  0
VERTEX
  8
LAYER_1
 10
93.54
 20
136.721
  0
VERTEX
  8
LAYER_1
 10
93.076
 20
136.3913
  0
VERTEX
  8
LAYER_1
 10
92.6245
 20
136.0368
  0
VERTEX
  8
LAYER_1
 10
92.1852
 20
135.6703
  0
VERTEX
  8
LAYER_1
 10
91.7703
 20
135.281
  0
VERTEX
  8
LAYER_1
 10
91.3677
 20
134.8655
  0
VERTEX
  8
LAYER_1
 10
90.9891
 20
134.4387
  0
VERTEX
  8
LAYER_1
 10
90.6227
 20
133.9867
  0
VERTEX
  8
LAYER_1
 10
90.2813
 20
133.5226
  0
VERTEX
  8
LAYER_1
 10
89.9513
 20
133.0585
  0
VERTEX
  8
LAYER_1
 10
89.6584
 20
132.5583
  0
VERTEX
  8
LAYER_1
 10
89.378
 20
132.0584
  0
VERTEX
  8
LAYER_1
 10
89.1215
 20
131.5448
  0
VERTEX
  8
LAYER_1
 10
88.8897
 20
131.0321
  0
VERTEX
  8
LAYER_1
 10
88.6702
 20
130.4947
  0
VERTEX
  8
LAYER_1
 10
88.4868
 20
129.9466
  0
VERTEX
  8
LAYER_1
 10
88.3279
 20
129.3964
  0
VERTEX
  8
LAYER_1
 10
88.1819
 20
128.8479
  0
VERTEX
  8
LAYER_1
 10
88.0718
 20
128.2737
  0
VERTEX
  8
LAYER_1
 10
87.986
 20
127.7128
  0
VERTEX
  8
LAYER_1
 10
87.9257
 20
127.1381
  0
VERTEX
  8
LAYER_1
 10
87.8763
 20
126.5773
  0
VERTEX
  8
LAYER_1
 10
87.8639
 20
125.9913
  0
VERTEX
  8
LAYER_1
 10
87.8763
 20
125.4297
  0
VERTEX
  8
LAYER_1
 10
87.9257
 20
124.8437
  0
VERTEX
  8
LAYER_1
 10
87.986
 20
124.2825
  0
VERTEX
  8
LAYER_1
 10
88.0718
 20
123.7082
  0
VERTEX
  8
LAYER_1
 10
88.1819
 20
123.1473
  0
VERTEX
  8
LAYER_1
 10
88.3279
 20
122.5979
  0
SEQEND
  0
POLYLINE
  8
LAYER_1
 40
0.1058
 41
0.1058
 66
1
 10
0
 20
0
 30
0
  0
VERTEX
  8
LAYER_1
 10
88.3279
 20
122.5979
  0
VERTEX
  8
LAYER_1
 10
88.4868
 20
122.0367
  0
VERTEX
  8
LAYER_1
 10
88.6702
 20
121.4992
  0
VERTEX
  8
LAYER_1
 10
88.8897
 20
120.9628
  0
VERTEX
  8
LAYER_1
 10
89.1215
 20
120.4374
  0
VERTEX
  8
LAYER_1
 10
89.378
 20
119.9248
  0
VERTEX
  8
LAYER_1
 10
89.6584
 20
119.4242
  0
VERTEX
  8
LAYER_1
 10
89.9513
 20
118.9364
  0
VERTEX
  8
LAYER_1
 10
90.2813
 20
118.4596
  0
VERTEX
  8
LAYER_1
 10
90.6227
 20
118.0086
  0
VERTEX
  8
LAYER_1
 10
90.9891
 20
117.5563
  0
VERTEX
  8
LAYER_1
 10
91.3677
 20
117.1295
  0
VERTEX
  8
LAYER_1
 10
91.7703
 20
116.7271
  0
VERTEX
  8
LAYER_1
 10
92.1852
 20
116.3357
  0
VERTEX
  8
LAYER_1
 10
92.6245
 20
115.9581
  0
VERTEX
  8
LAYER_1
 10
93.076
 20
115.604
  0
VERTEX
  8
LAYER_1
 10
93.54
 20
115.275
  0
VERTEX
  8
LAYER_1
 10
94.0289
 20
114.9573
  0
VERTEX
  8
LAYER_1
 10
94.5288
 20
114.6638
  0
VERTEX
  8
LAYER_1
 10
95.0295
 20
114.3951
  0
VERTEX
  8
LAYER_1
 10
95.5545
 20
114.1512
  0
VERTEX
  8
LAYER_1
 10
96.0787
 20
113.9317
  0
VERTEX
  8
LAYER_1
 10
96.6162
 20
113.7364
  0
VERTEX
  8
LAYER_1
 10
97.1655
 20
113.5538
  0
VERTEX
  8
LAYER_1
 10
97.715
 20
113.4063
  0
VERTEX
  8
LAYER_1
 10
98.2763
 20
113.2844
  0
VERTEX
  8
LAYER_1
 10
98.8376
 20
113.1748
  0
VERTEX
  8
LAYER_1
 10
99.4117
 20
113.1015
  0
VERTEX
  8
LAYER_1
 10
99.9846
 20
113.0529
  0
VERTEX
  8
LAYER_1
 10
100.5587
 20
113.0281
  0
VERTEX
  8
LAYER_1
 10
101.1325
 20
113.0281
  0
VERTEX
  8
LAYER_1
 10
101.7063
 20
113.0529
  0
VERTEX
  8
LAYER_1
 10
102.2801
 20
113.1015
  0
VERTEX
  8
LAYER_1
 10
102.8409
 20
113.1748
  0
VERTEX
  8
LAYER_1
 10
103.4145
 20
113.2844
  0
VERTEX
  8
LAYER_1
 10
103.9764
 20
113.4063
  0
VERTEX
  8
LAYER_1
 10
104.5257
 20
113.5538
  0
VERTEX
  8
LAYER_1
 10
105.0752
 20
113.7364
  0
VERTEX
  8
LAYER_1
 10
105.6122
 20
113.9317
  0
VERTEX
  8
LAYER_1
 10
106.1368
 20
114.1512
  0
VERTEX
  8
LAYER_1
 10
106.6619
 20
114.3951
  0
VERTEX
  8
LAYER_1
 10
107.1621
 20
114.6638
  0
VERTEX
  8
LAYER_1
 10
107.6629
 20
114.9573
  0
VERTEX
  8
LAYER_1
 10
108.1384
 20
115.275
  0
VERTEX
  8
LAYER_1
 10
108.6025
 20
115.604
  0
VERTEX
  8
LAYER_1
 10
109.0666
 20
115.9581
  0
VERTEX
  8
LAYER_1
 10
109.5058
 20
116.3357
  0
VERTEX
  8
LAYER_1
 10
109.9209
 20
116.7271
  0
VERTEX
  8
LAYER_1
 10
110.3237
 20
117.1295
  0
VERTEX
  8
LAYER_1
 10
110.7019
 20
117.5563
  0
VERTEX
  8
LAYER_1
 10
111.0685
 20
118.0086
  0
VERTEX
  8
LAYER_1
 10
111.4099
 20
118.4596
  0
VERTEX
  8
LAYER_1
 10
111.7275
 20
118.9364
  0
VERTEX
  8
LAYER_1
 10
112.0324
 20
119.4242
  0
VERTEX
  8
LAYER_1
 10
112.3132
 20
119.9248
  0
VERTEX
  8
LAYER_1
 10
112.5695
 20
120.4374
  0
VERTEX
  8
LAYER_1
 10
112.8014
 20
120.9628
  0
VERTEX
  8
LAYER_1
 10
113.0091
 20
121.4992
  0
VERTEX
  8
LAYER_1
 10
113.2041
 20
122.0367
  0
VERTEX
  8
LAYER_1
 10
113.3629
 20
122.5979
  0
VERTEX
  8
LAYER_1
 10
113.5094
 20
123.1473
  0
VERTEX
  8
LAYER_1
 10
113.6196
 20
123.7082
  0
VERTEX
  8
LAYER_1
 10
113.705
 20
124.2825
  0
VERTEX
  8
LAYER_1
 10
113.766
 20
124.8437
  0
VERTEX
  8
LAYER_1
 10
113.8146
 20
125.4297
  0
VERTEX
  8
LAYER_1
 10
113.8146
 20
125.9913
  0
SEQEND
  0
POLYLINE
  8
LAYER_1
 40
0.1058
 41
0.1058
 66
1
 10
0
 20
0
 30
0
  0
VERTEX
  8
LAYER_1
 10
108.053
 20
125.9913
  0
VERTEX
  8
LAYER_1
 10
108.0289
 20
126.5652
  0
VERTEX
  8
LAYER_1
 10
107.9559
 20
127.1381
  0
VERTEX
  8
LAYER_1
 10
107.846
 20
127.6994
  0
VERTEX
  8
LAYER_1
 10
107.6871
 20
128.2499
  0
VERTEX
  8
LAYER_1
 10
107.4918
 20
128.7863
  0
VERTEX
  8
LAYER_1
 10
107.2475
 20
129.311
  0
VERTEX
  8
LAYER_1
 10
106.9671
 20
129.8112
  0
VERTEX
  8
LAYER_1
 10
106.6371
 20
130.2753
  0
VERTEX
  8
LAYER_1
 10
106.2836
 20
130.7272
  0
VERTEX
  8
LAYER_1
 10
105.8926
 20
131.1427
  0
VERTEX
  8
LAYER_1
 10
105.4654
 20
131.52
  0
VERTEX
  8
LAYER_1
 10
105.0141
 20
131.8748
  0
VERTEX
  8
LAYER_1
 10
104.5257
 20
132.1914
  0
VERTEX
  8
LAYER_1
 10
104.025
 20
132.4608
  0
VERTEX
  8
LAYER_1
 10
103.5
 20
132.6923
  0
VERTEX
  8
LAYER_1
 10
102.9634
 20
132.8877
  0
VERTEX
  8
LAYER_1
 10
102.402
 20
133.0337
  0
VERTEX
  8
LAYER_1
 10
101.8403
 20
133.1312
  0
VERTEX
  8
LAYER_1
 10
101.2665
 20
133.1929
  0
VERTEX
  8
LAYER_1
 10
100.7048
 20
133.205
  0
VERTEX
  8
LAYER_1
 10
100.1319
 20
133.1691
  0
VERTEX
  8
LAYER_1
 10
99.5577
 20
133.0837
  0
VERTEX
  8
LAYER_1
 10
98.9964
 20
132.9731
  0
VERTEX
  8
LAYER_1
 10
98.447
 20
132.7895
  0
VERTEX
  8
LAYER_1
 10
97.922
 20
132.5831
  0
VERTEX
  8
LAYER_1
 10
97.4092
 20
132.3385
  0
VERTEX
  8
LAYER_1
 10
96.9095
 20
132.0336
  0
VERTEX
  8
LAYER_1
 10
96.4454
 20
131.7156
  0
VERTEX
  8
LAYER_1
 10
96.0057
 20
131.3374
  0
VERTEX
  8
LAYER_1
 10
95.6031
 20
130.935
  0
VERTEX
  8
LAYER_1
 10
95.2245
 20
130.5078
  0
VERTEX
  8
LAYER_1
 10
94.8831
 20
130.0441
  0
VERTEX
  8
LAYER_1
 10
94.5773
 20
129.5552
  0
VERTEX
  8
LAYER_1
 10
94.3212
 20
129.0543
  0
VERTEX
  8
LAYER_1
 10
94.0895
 20
128.5183
  0
VERTEX
  8
LAYER_1
 10
93.9183
 20
127.9808
  0
VERTEX
  8
LAYER_1
 10
93.7843
 20
127.4196
  0
VERTEX
  8
LAYER_1
 10
93.6864
 20
126.8574
  0
VERTEX
  8
LAYER_1
 10
93.6379
 20
126.2841
  0
VERTEX
  8
LAYER_1
 10
93.6379
 20
125.7112
  0
VERTEX
  8
LAYER_1
 10
93.6864
 20
125.1369
  0
VERTEX
  8
LAYER_1
 10
93.7843
 20
124.5757
  0
VERTEX
  8
LAYER_1
 10
93.9183
 20
124.0141
  0
VERTEX
  8
LAYER_1
 10
94.0895
 20
123.464
  0
VERTEX
  8
LAYER_1
 10
94.3212
 20
122.9393
  0
VERTEX
  8
LAYER_1
 10
94.5773
 20
122.427
  0
VERTEX
  8
LAYER_1
 10
94.8831
 20
121.9512
  0
VERTEX
  8
LAYER_1
 10
95.2245
 20
121.4872
  0
VERTEX
  8
LAYER_1
 10
95.6031
 20
121.0603
  0
VERTEX
  8
LAYER_1
 10
96.0057
 20
120.6448
  0
VERTEX
  8
LAYER_1
 10
96.4454
 20
120.2914
  0
VERTEX
  8
LAYER_1
 10
96.9095
 20
119.9496
  0
VERTEX
  8
LAYER_1
 10
97.4092
 20
119.6568
  0
VERTEX
  8
LAYER_1
 10
97.922
 20
119.3994
  0
VERTEX
  8
LAYER_1
 10
98.447
 20
119.1927
  0
VERTEX
  8
LAYER_1
 10
98.9964
 20
119.0339
  0
VERTEX
  8
LAYER_1
 10
99.5577
 20
118.8995
  0
VERTEX
  8
LAYER_1
 10
100.1319
 20
118.8262
  0
VERTEX
  8
LAYER_1
 10
100.7048
 20
118.7893
  0
VERTEX
  8
LAYER_1
 10
101.2665
 20
118.8014
  0
VERTEX
  8
LAYER_1
 10
101.8403
 20
118.8627
  0
VERTEX
  8
LAYER_1
 10
102.402
 20
118.9602
  0
VERTEX
  8
LAYER_1
 10
102.9634
 20
119.1073
  0
VERTEX
  8
LAYER_1
 10
103.5
 20
119.2899
  0
VERTEX
  8
LAYER_1
 10
104.025
 20
119.5341
  0
VERTEX
  8
LAYER_1
 10
104.5257
 20
119.8029
  0
VERTEX
  8
LAYER_1
 10
105.0141
 20
120.1201
  0
VERTEX
  8
LAYER_1
 10
105.4654
 20
120.4622
  0
VERTEX
  8
LAYER_1
 10
105.8926
 20
120.8526
  0
VERTEX
  8
LAYER_1
 10
106.2836
 20
121.2677
  0
VERTEX
  8
LAYER_1
 10
106.6371
 20
121.7066
  0
VERTEX
  8
LAYER_1
 10
106.9671
 20
122.1944
  0
VERTEX
  8
LAYER_1
 10
107.2475
 20
122.6833
  0
VERTEX
  8
LAYER_1
 10
107.4918
 20
123.208
  0
VERTEX
  8
LAYER_1
 10
107.6871
 20
123.7454
  0
VERTEX
  8
LAYER_1
 10
107.846
 20
124.2942
  0
VERTEX
  8
LAYER_1
 10
107.9559
 20
124.8565
  0
VERTEX
  8
LAYER_1
 10
108.0289
 20
125.4297
  0
VERTEX
  8
LAYER_1
 10
108.053
 20
125.9913
  0
SEQEND
  0
POLYLINE
  8
LAYER_1
 40
0.1058
 41
0.1058
 66
1
 10
0
 20
0
 30
0
  0
VERTEX
  8
LAYER_1
 10
108.053
 20
94.8659
  0
VERTEX
  8
LAYER_1
 10
108.053
 20
94.2916
  0
SEQEND
  0
POLYLINE
  8
LAYER_1
 40
0.1058
 41
0.1058
 66
1
 10
0
 20
0
 30
0
  0
VERTEX
  8
LAYER_1
 10
113.8146
 20
94.8659
  0
VERTEX
  8
LAYER_1
 10
113.8146
 20
94.2916
  0
SEQEND
  0
POLYLINE
  8
LAYER_1
 40
0.1058
 41
0.1058
 66
1
 10
0
 20
0
 30
0
  0
VERTEX
  8
LAYER_1
 10
140.8638
 20
125.9913
  0
VERTEX
  8
LAYER_1
 10
141.437
 20
125.9913
  0
SEQEND
  0
POLYLINE
  8
LAYER_1
 40
0.1058
 41
0.1058
 66
1
 10
0
 20
0
 30
0
  0
VERTEX
  8
LAYER_1
 10
142.5973
 20
125.9913
  0
VERTEX
  8
LAYER_1
 10
150.0921
 20
125.9913
  0
SEQEND
  0
POLYLINE
  8
LAYER_1
 40
0.1058
 41
0.1058
 66
1
 10
0
 20
0
 30
0
  0
VERTEX
  8
LAYER_1
 10
151.239
 20
125.9913
  0
VERTEX
  8
LAYER_1
 10
152.3986
 20
125.9913
  0
SEQEND
  0
POLYLINE
  8
LAYER_1
 40
0.1058
 41
0.1058
 66
1
 10
0
 20
0
 30
0
  0
VERTEX
  8
LAYER_1
 10
153.5458
 20
125.9913
  0
VERTEX
  8
LAYER_1
 10
156.7195
 20
125.9913
  0
SEQEND
  0
POLYLINE
  8
LAYER_1
 40
0.1058
 41
0.1058
 66
1
 10
0
 20
0
 30
0
  0
VERTEX
  8
LAYER_1
 10
140.8638
 20
125.9913
  0
VERTEX
  8
LAYER_1
 10
140.2898
 20
125.9913
  0
SEQEND
  0
POLYLINE
  8
LAYER_1
 40
0.1058
 41
0.1058
 66
1
 10
0
 20
0
 30
0
  0
VERTEX
  8
LAYER_1
 10
139.1302
 20
125.9913
  0
VERTEX
  8
LAYER_1
 10
131.6354
 20
125.9913
  0
SEQEND
  0
POLYLINE
  8
LAYER_1
 40
0.1058
 41
0.1058
 66
1
 10
0
 20
0
 30
0
  0
VERTEX
  8
LAYER_1
 10
130.4885
 20
125.9913
  0
VERTEX
  8
LAYER_1
 10
129.3292
 20
125.9913
  0
SEQEND
  0
POLYLINE
  8
LAYER_1
 40
0.1058
 41
0.1058
 66
1
 10
0
 20
0
 30
0
  0
VERTEX
  8
LAYER_1
 10
128.1817
 20
125.9913
  0
VERTEX
  8
LAYER_1
 10
125.007
 20
125.9913
  0
SEQEND
  0
POLYLINE
  8
LAYER_1
 40
0.1058
 41
0.1058
 66
1
 10
0
 20
0
 30
0
  0
VERTEX
  8
LAYER_1
 10
140.8638
 20
125.9913
  0
VERTEX
  8
LAYER_1
 10
140.8638
 20
126.5773
  0
SEQEND
  0
POLYLINE
  8
LAYER_1
 40
0.1058
 41
0.1058
 66
1
 10
0
 20
0
 30
0
  0
VERTEX
  8
LAYER_1
 10
140.8638
 20
127.7242
  0
VERTEX
  8
LAYER_1
 10
140.8638
 20
135.2193
  0
SEQEND
  0
POLYLINE
  8
LAYER_1
 40
0.1058
 41
0.1058
 66
1
 10
0
 20
0
 30
0
  0
VERTEX
  8
LAYER_1
 10
140.8638
 20
136.3782
  0
VERTEX
  8
LAYER_1
 10
140.8638
 20
137.5258
  0
SEQEND
  0
POLYLINE
  8
LAYER_1
 40
0.1058
 41
0.1058
 66
1
 10
0
 20
0
 30
0
  0
VERTEX
  8
LAYER_1
 10
140.8638
 20
138.6861
  0
VERTEX
  8
LAYER_1
 10
140.8638
 20
141.8587
  0
SEQEND
  0
POLYLINE
  8
LAYER_1
 40
0.1058
 41
0.1058
 66
1
 10
0
 20
0
 30
0
  0
VERTEX
  8
LAYER_1
 10
140.8638
 20
125.9913
  0
VERTEX
  8
LAYER_1
 10
140.8638
 20
125.417
  0
SEQEND
  0
POLYLINE
  8
LAYER_1
 40
0.1058
 41
0.1058
 66
1
 10
0
 20
0
 30
0
  0
VERTEX
  8
LAYER_1
 10
140.8638
 20
124.2705
  0
VERTEX
  8
LAYER_1
 10
140.8638
 20
116.7756
  0
SEQEND
  0
POLYLINE
  8
LAYER_1
 40
0.1058
 41
0.1058
 66
1
 10
0
 20
0
 30
0
  0
VERTEX
  8
LAYER_1
 10
140.8638
 20
115.6167
  0
VERTEX
  8
LAYER_1
 10
140.8638
 20
114.4685
  0
SEQEND
  0
POLYLINE
  8
LAYER_1
 40
0.1058
 41
0.1058
 66
1
 10
0
 20
0
 30
0
  0
VERTEX
  8
LAYER_1
 10
140.8638
 20
113.3092
  0
VERTEX
  8
LAYER_1
 10
140.8638
 20
110.1352
  0
SEQEND
  0
POLYLINE
  8
LAYER_1
 40
0.1058
 41
0.1058
 66
1
 10
0
 20
0
 30
0
  0
VERTEX
  8
LAYER_1
 10
100.8397
 20
125.9913
  0
VERTEX
  8
LAYER_1
 10
101.425
 20
125.9913
  0
SEQEND
  0
POLYLINE
  8
LAYER_1
 40
0.1058
 41
0.1058
 66
1
 10
0
 20
0
 30
0
  0
VERTEX
  8
LAYER_1
 10
102.5729
 20
125.9913
  0
VERTEX
  8
LAYER_1
 10
110.067
 20
125.9913
  0
SEQEND
  0
POLYLINE
  8
LAYER_1
 40
0.1058
 41
0.1058
 66
1
 10
0
 20
0
 30
0
  0
VERTEX
  8
LAYER_1
 10
111.227
 20
125.9913
  0
VERTEX
  8
LAYER_1
 10
112.3742
 20
125.9913
  0
SEQEND
  0
POLYLINE
  8
LAYER_1
 40
0.1058
 41
0.1058
 66
1
 10
0
 20
0
 30
0
  0
VERTEX
  8
LAYER_1
 10
113.5338
 20
125.9913
  0
VERTEX
  8
LAYER_1
 10
116.7074
 20
125.9913
  0
SEQEND
  0
POLYLINE
  8
LAYER_1
 40
0.1058
 41
0.1058
 66
1
 10
0
 20
0
 30
0
  0
VERTEX
  8
LAYER_1
 10
100.8397
 20
125.9913
  0
VERTEX
  8
LAYER_1
 10
100.2659
 20
125.9913
  0
SEQEND
  0
POLYLINE
  8
LAYER_1
 40
0.1058
 41
0.1058
 66
1
 10
0
 20
0
 30
0
  0
VERTEX
  8
LAYER_1
 10
99.1185
 20
125.9913
  0
VERTEX
  8
LAYER_1
 10
91.6239
 20
125.9913
  0
SEQEND
  0
POLYLINE
  8
LAYER_1
 40
0.1058
 41
0.1058
 66
1
 10
0
 20
0
 30
0
  0
VERTEX
  8
LAYER_1
 10
90.4639
 20
125.9913
  0
VERTEX
  8
LAYER_1
 10
89.3165
 20
125.9913
  0
SEQEND
  0
POLYLINE
  8
LAYER_1
 40
0.1058
 41
0.1058
 66
1
 10
0
 20
0
 30
0
  0
VERTEX
  8
LAYER_1
 10
88.1571
 20
125.9913
  0
VERTEX
  8
LAYER_1
 10
84.9838
 20
125.9913
  0
SEQEND
  0
POLYLINE
  8
LAYER_1
 40
0.1058
 41
0.1058
 66
1
 10
0
 20
0
 30
0
  0
VERTEX
  8
LAYER_1
 10
100.8397
 20
125.9913
  0
VERTEX
  8
LAYER_1
 10
100.8397
 20
126.5773
  0
SEQEND
  0
POLYLINE
  8
LAYER_1
 40
0.1058
 41
0.1058
 66
1
 10
0
 20
0
 30
0
  0
VERTEX
  8
LAYER_1
 10
100.8397
 20
127.7242
  0
VERTEX
  8
LAYER_1
 10
100.8397
 20
135.2193
  0
SEQEND
  0
POLYLINE
  8
LAYER_1
 40
0.1058
 41
0.1058
 66
1
 10
0
 20
0
 30
0
  0
VERTEX
  8
LAYER_1
 10
100.8397
 20
136.3782
  0
VERTEX
  8
LAYER_1
 10
100.8397
 20
137.5258
  0
SEQEND
  0
POLYLINE
  8
LAYER_1
 40
0.1058
 41
0.1058
 66
1
 10
0
 20
0
 30
0
  0
VERTEX
  8
LAYER_1
 10
100.8397
 20
138.6861
  0
VERTEX
  8
LAYER_1
 10
100.8397
 20
141.8587
  0
SEQEND
  0
POLYLINE
  8
LAYER_1
 40
0.1058
 41
0.1058
 66
1
 10
0
 20
0
 30
0
  0
VERTEX
  8
LAYER_1
 10
100.8397
 20
125.9913
  0
VERTEX
  8
LAYER_1
 10
100.8397
 20
125.417
  0
SEQEND
  0
POLYLINE
  8
LAYER_1
 40
0.1058
 41
0.1058
 66
1
 10
0
 20
0
 30
0
  0
VERTEX
  8
LAYER_1
 10
100.8397
 20
124.2705
  0
VERTEX
  8
LAYER_1
 10
100.8397
 20
116.7756
  0
SEQEND
  0
POLYLINE
  8
LAYER_1
 40
0.1058
 41
0.1058
 66
1
 10
0
 20
0
 30
0
  0
VERTEX
  8
LAYER_1
 10
100.8397
 20
115.6167
  0
VERTEX
  8
LAYER_1
 10
100.8397
 20
114.4685
  0
SEQEND
  0
POLYLINE
  8
LAYER_1
 40
0.1058
 41
0.1058
 66
1
 10
0
 20
0
 30
0
  0
VERTEX
  8
LAYER_1
 10
100.8397
 20
113.3092
  0
VERTEX
  8
LAYER_1
 10
100.8397
 20
110.1352
  0
SEQEND
  0
POLYLINE
  8
LAYER_1
 40
0.1058
 41
0.1058
 66
1
 10
0
 20
0
 30
0
  0
VERTEX
  8
LAYER_1
 10
148.2969
 20
94.9751
  0
VERTEX
  8
LAYER_1
 10
147.7963
 20
95.2073
  0
VERTEX
  8
LAYER_1
 10
147.2596
 20
95.3413
  0
VERTEX
  8
LAYER_1
 10
146.7345
 20
95.3785
  0
VERTEX
  8
LAYER_1
 10
146.4541
 20
95.3544
  0
SEQEND
  0
POLYLINE
  8
LAYER_1
 40
0.1058
 41
0.1058
 66
1
 10
0
 20
0
 30
0
  0
VERTEX
  8
LAYER_1
 10
146.7345
 20
95.3785
  0
VERTEX
  8
LAYER_1
 10
146.4541
 20
95.3544
  0
VERTEX
  8
LAYER_1
 10
145.6972
 20
95.1825
  0
VERTEX
  8
LAYER_1
 10
144.9524
 20
95.0116
  0
VERTEX
  8
LAYER_1
 10
144.5872
 20
94.9999
  0
SEQEND
  0
POLYLINE
  8
LAYER_1
 40
0.1058
 41
0.1058
 66
1
 10
0
 20
0
 30
0
  0
VERTEX
  8
LAYER_1
 10
144.9524
 20
95.0116
  0
VERTEX
  8
LAYER_1
 10
144.5872
 20
94.9999
  0
VERTEX
  8
LAYER_1
 10
143.6708
 20
95.1825
  0
VERTEX
  8
LAYER_1
 10
142.7555
 20
95.3544
  0
VERTEX
  8
LAYER_1
 10
142.7313
 20
95.3544
  0
SEQEND
  0
POLYLINE
  8
LAYER_1
 40
0.1058
 41
0.1058
 66
1
 10
0
 20
0
 30
0
  0
VERTEX
  8
LAYER_1
 10
142.7555
 20
95.3544
  0
VERTEX
  8
LAYER_1
 10
142.7313
 20
95.3544
  0
VERTEX
  8
LAYER_1
 10
141.6444
 20
95.1218
  0
VERTEX
  8
LAYER_1
 10
140.8638
 20
94.9751
  0
SEQEND
  0
POLYLINE
  8
LAYER_1
 40
0.1058
 41
0.1058
 66
1
 10
0
 20
0
 30
0
  0
VERTEX
  8
LAYER_1
 10
141.6444
 20
95.1218
  0
VERTEX
  8
LAYER_1
 10
140.8638
 20
94.9751
  0
VERTEX
  8
LAYER_1
 10
139.6063
 20
95.2559
  0
VERTEX
  8
LAYER_1
 10
138.9962
 20
95.3544
  0
SEQEND
  0
POLYLINE
  8
LAYER_1
 40
0.1058
 41
0.1058
 66
1
 10
0
 20
0
 30
0
  0
VERTEX
  8
LAYER_1
 10
139.6063
 20
95.2559
  0
VERTEX
  8
LAYER_1
 10
138.9962
 20
95.3544
  0
VERTEX
  8
LAYER_1
 10
137.5678
 20
95.0485
  0
VERTEX
  8
LAYER_1
 10
137.1289
 20
94.9999
  0
SEQEND
  0
POLYLINE
  8
LAYER_1
 40
0.1058
 41
0.1058
 66
1
 10
0
 20
0
 30
0
  0
VERTEX
  8
LAYER_1
 10
137.5678
 20
95.0485
  0
VERTEX
  8
LAYER_1
 10
137.1289
 20
94.9999
  0
VERTEX
  8
LAYER_1
 10
135.5294
 20
95.3044
  0
VERTEX
  8
LAYER_1
 10
135.2734
 20
95.3544
  0
SEQEND
  0
POLYLINE
  8
LAYER_1
 40
0.1058
 41
0.1058
 66
1
 10
0
 20
0
 30
0
  0
VERTEX
  8
LAYER_1
 10
135.5294
 20
95.3044
  0
VERTEX
  8
LAYER_1
 10
135.2734
 20
95.3544
  0
VERTEX
  8
LAYER_1
 10
133.6373
 20
95.0853
  0
VERTEX
  8
LAYER_1
 10
133.4296
 20
94.9751
  0
SEQEND
  0
POLYLINE
  8
LAYER_1
 40
0.1058
 41
0.1058
 66
1
 10
0
 20
0
 30
0
  0
VERTEX
  8
LAYER_1
 10
148.3706
 20
94.2916
  0
VERTEX
  8
LAYER_1
 10
148.3089
 20
94.3164
  0
VERTEX
  8
LAYER_1
 10
147.7236
 20
94.5358
  0
VERTEX
  8
LAYER_1
 10
147.1128
 20
94.6698
  0
VERTEX
  8
LAYER_1
 10
146.5027
 20
94.6698
  0
VERTEX
  8
LAYER_1
 10
146.4541
 20
94.6578
  0
SEQEND
  0
POLYLINE
  8
LAYER_1
 40
0.1058
 41
0.1058
 66
1
 10
0
 20
0
 30
0
  0
VERTEX
  8
LAYER_1
 10
146.5027
 20
94.6698
  0
VERTEX
  8
LAYER_1
 10
146.4541
 20
94.6578
  0
VERTEX
  8
LAYER_1
 10
145.6724
 20
94.4873
  0
VERTEX
  8
LAYER_1
 10
144.8918
 20
94.3164
  0
VERTEX
  8
LAYER_1
 10
144.5872
 20
94.3036
  0
SEQEND
  0
POLYLINE
  8
LAYER_1
 40
0.1058
 41
0.1058
 66
1
 10
0
 20
0
 30
0
  0
VERTEX
  8
LAYER_1
 10
144.8918
 20
94.3164
  0
VERTEX
  8
LAYER_1
 10
144.5872
 20
94.3036
  0
VERTEX
  8
LAYER_1
 10
143.646
 20
94.499
  0
VERTEX
  8
LAYER_1
 10
142.7313
 20
94.6578
  0
SEQEND
  0
POLYLINE
  8
LAYER_1
 40
0.1058
 41
0.1058
 66
1
 10
0
 20
0
 30
0
  0
VERTEX
  8
LAYER_1
 10
143.646
 20
94.499
  0
VERTEX
  8
LAYER_1
 10
142.7313
 20
94.6578
  0
VERTEX
  8
LAYER_1
 10
141.6079
 20
94.4139
  0
VERTEX
  8
LAYER_1
 10
140.8638
 20
94.2916
  0
SEQEND
  0
POLYLINE
  8
LAYER_1
 40
0.1058
 41
0.1058
 66
1
 10
0
 20
0
 30
0
  0
VERTEX
  8
LAYER_1
 10
141.6079
 20
94.4139
  0
VERTEX
  8
LAYER_1
 10
140.8638
 20
94.2916
  0
VERTEX
  8
LAYER_1
 10
139.5694
 20
94.5723
  0
VERTEX
  8
LAYER_1
 10
138.9962
 20
94.6578
  0
SEQEND
  0
POLYLINE
  8
LAYER_1
 40
0.1058
 41
0.1058
 66
1
 10
0
 20
0
 30
0
  0
VERTEX
  8
LAYER_1
 10
139.5694
 20
94.5723
  0
VERTEX
  8
LAYER_1
 10
138.9962
 20
94.6578
  0
VERTEX
  8
LAYER_1
 10
137.5313
 20
94.3532
  0
VERTEX
  8
LAYER_1
 10
137.1289
 20
94.3036
  0
SEQEND
  0
POLYLINE
  8
LAYER_1
 40
0.1058
 41
0.1058
 66
1
 10
0
 20
0
 30
0
  0
VERTEX
  8
LAYER_1
 10
137.5313
 20
94.3532
  0
VERTEX
  8
LAYER_1
 10
137.1289
 20
94.3036
  0
VERTEX
  8
LAYER_1
 10
135.5049
 20
94.6213
  0
VERTEX
  8
LAYER_1
 10
135.2734
 20
94.6578
  0
SEQEND
  0
POLYLINE
  8
LAYER_1
 40
0.1058
 41
0.1058
 66
1
 10
0
 20
0
 30
0
  0
VERTEX
  8
LAYER_1
 10
135.5049
 20
94.6213
  0
VERTEX
  8
LAYER_1
 10
135.2734
 20
94.6578
  0
VERTEX
  8
LAYER_1
 10
133.4544
 20
94.3412
  0
VERTEX
  8
LAYER_1
 10
133.4058
 20
94.3164
  0
SEQEND
  0
POLYLINE
  8
LAYER_1
 40
0.1058
 41
0.1058
 66
1
 10
0
 20
0
 30
0
  0
VERTEX
  8
LAYER_1
 10
133.4544
 20
94.3412
  0
VERTEX
  8
LAYER_1
 10
133.4058
 20
94.3164
  0
VERTEX
  8
LAYER_1
 10
133.3445
 20
94.2916
  0
SEQEND
  0
POLYLINE
  8
LAYER_1
 40
0.1058
 41
0.1058
 66
1
 10
0
 20
0
 30
0
  0
VERTEX
  8
LAYER_1
 10
127.8888
 20
94.9751
  0
VERTEX
  8
LAYER_1
 10
127.8888
 20
94.2916
  0
SEQEND
  0
POLYLINE
  8
LAYER_1
 40
0.1058
 41
0.1058
 66
1
 10
0
 20
0
 30
0
  0
VERTEX
  8
LAYER_1
 10
127.8888
 20
94.9751
  0
VERTEX
  8
LAYER_1
 10
133.4296
 20
94.9751
  0
SEQEND
  0
POLYLINE
  8
LAYER_1
 40
0.1058
 41
0.1058
 66
1
 10
0
 20
0
 30
0
  0
VERTEX
  8
LAYER_1
 10
127.8888
 20
94.2916
  0
VERTEX
  8
LAYER_1
 10
133.3445
 20
94.2916
  0
SEQEND
  0
POLYLINE
  8
LAYER_1
 40
0.1058
 41
0.1058
 66
1
 10
0
 20
0
 30
0
  0
VERTEX
  8
LAYER_1
 10
148.3706
 20
94.2916
  0
VERTEX
  8
LAYER_1
 10
153.8387
 20
94.2916
  0
SEQEND
  0
POLYLINE
  8
LAYER_1
 40
0.1058
 41
0.1058
 66
1
 10
0
 20
0
 30
0
  0
VERTEX
  8
LAYER_1
 10
153.8387
 20
94.9751
  0
VERTEX
  8
LAYER_1
 10
153.8387
 20
94.2916
  0
SEQEND
  0
POLYLINE
  8
LAYER_1
 40
0.1058
 41
0.1058
 66
1
 10
0
 20
0
 30
0
  0
VERTEX
  8
LAYER_1
 10
153.8387
 20
94.9751
  0
VERTEX
  8
LAYER_1
 10
148.2969
 20
94.9751
  0
SEQEND
  0
POLYLINE
  8
LAYER_1
 40
0.1058
 41
0.1058
 66
1
 10
0
 20
0
 30
0
  0
VERTEX
  8
LAYER_1
 10
134.8093
 20
95.3664
  0
VERTEX
  8
LAYER_1
 10
134.8093
 20
94.6829
  0
SEQEND
  0
POLYLINE
  8
LAYER_1
 40
0.1058
 41
0.1058
 66
1
 10
0
 20
0
 30
0
  0
VERTEX
  8
LAYER_1
 10
146.9182
 20
95.3664
  0
VERTEX
  8
LAYER_1
 10
146.9182
 20
94.6829
  0
SEQEND
  0
POLYLINE
  8
LAYER_1
 40
0.1058
 41
0.1058
 66
1
 10
0
 20
0
 30
0
  0
VERTEX
  8
LAYER_1
 10
133.7958
 20
94.4625
  0
VERTEX
  8
LAYER_1
 10
134.6991
 20
95.3544
  0
SEQEND
  0
POLYLINE
  8
LAYER_1
 40
0.1058
 41
0.1058
 66
1
 10
0
 20
0
 30
0
  0
VERTEX
  8
LAYER_1
 10
132.8077
 20
94.2916
  0
VERTEX
  8
LAYER_1
 10
133.5646
 20
95.0364
  0
SEQEND
  0
POLYLINE
  8
LAYER_1
 40
0.1058
 41
0.1058
 66
1
 10
0
 20
0
 30
0
  0
VERTEX
  8
LAYER_1
 10
132.0023
 20
94.2916
  0
VERTEX
  8
LAYER_1
 10
132.6975
 20
94.9751
  0
SEQEND
  0
POLYLINE
  8
LAYER_1
 40
0.1058
 41
0.1058
 66
1
 10
0
 20
0
 30
0
  0
VERTEX
  8
LAYER_1
 10
131.1834
 20
94.2916
  0
VERTEX
  8
LAYER_1
 10
131.8683
 20
94.9751
  0
SEQEND
  0
POLYLINE
  8
LAYER_1
 40
0.1058
 41
0.1058
 66
1
 10
0
 20
0
 30
0
  0
VERTEX
  8
LAYER_1
 10
130.3659
 20
94.2916
  0
VERTEX
  8
LAYER_1
 10
131.0628
 20
94.9751
  0
SEQEND
  0
POLYLINE
  8
LAYER_1
 40
0.1058
 41
0.1058
 66
1
 10
0
 20
0
 30
0
  0
VERTEX
  8
LAYER_1
 10
129.5487
 20
94.2916
  0
VERTEX
  8
LAYER_1
 10
130.2439
 20
94.9751
  0
SEQEND
  0
POLYLINE
  8
LAYER_1
 40
0.1058
 41
0.1058
 66
1
 10
0
 20
0
 30
0
  0
VERTEX
  8
LAYER_1
 10
128.7312
 20
94.2916
  0
VERTEX
  8
LAYER_1
 10
129.4264
 20
94.9751
  0
SEQEND
  0
POLYLINE
  8
LAYER_1
 40
0.1058
 41
0.1058
 66
1
 10
0
 20
0
 30
0
  0
VERTEX
  8
LAYER_1
 10
127.9257
 20
94.2916
  0
VERTEX
  8
LAYER_1
 10
128.6209
 20
94.9751
  0
SEQEND
  0
POLYLINE
  8
LAYER_1
 40
0.1058
 41
0.1058
 66
1
 10
0
 20
0
 30
0
  0
VERTEX
  8
LAYER_1
 10
153.2041
 20
94.2916
  0
VERTEX
  8
LAYER_1
 10
153.8387
 20
94.9144
  0
SEQEND
  0
POLYLINE
  8
LAYER_1
 40
0.1058
 41
0.1058
 66
1
 10
0
 20
0
 30
0
  0
VERTEX
  8
LAYER_1
 10
152.3866
 20
94.2916
  0
VERTEX
  8
LAYER_1
 10
153.0818
 20
94.9751
  0
SEQEND
  0
POLYLINE
  8
LAYER_1
 40
0.1058
 41
0.1058
 66
1
 10
0
 20
0
 30
0
  0
VERTEX
  8
LAYER_1
 10
151.5684
 20
94.2916
  0
VERTEX
  8
LAYER_1
 10
152.2643
 20
94.9751
  0
SEQEND
  0
POLYLINE
  8
LAYER_1
 40
0.1058
 41
0.1058
 66
1
 10
0
 20
0
 30
0
  0
VERTEX
  8
LAYER_1
 10
150.7508
 20
94.2916
  0
VERTEX
  8
LAYER_1
 10
151.4471
 20
94.9751
  0
SEQEND
  0
POLYLINE
  8
LAYER_1
 40
0.1058
 41
0.1058
 66
1
 10
0
 20
0
 30
0
  0
VERTEX
  8
LAYER_1
 10
149.9447
 20
94.2916
  0
VERTEX
  8
LAYER_1
 10
150.6282
 20
94.9751
  0
SEQEND
  0
POLYLINE
  8
LAYER_1
 40
0.1058
 41
0.1058
 66
1
 10
0
 20
0
 30
0
  0
VERTEX
  8
LAYER_1
 10
149.1272
 20
94.2916
  0
VERTEX
  8
LAYER_1
 10
149.8107
 20
94.9751
  0
SEQEND
  0
POLYLINE
  8
LAYER_1
 40
0.1058
 41
0.1058
 66
1
 10
0
 20
0
 30
0
  0
VERTEX
  8
LAYER_1
 10
148.3338
 20
94.3036
  0
VERTEX
  8
LAYER_1
 10
149.0052
 20
94.9751
  0
SEQEND
  0
POLYLINE
  8
LAYER_1
 40
0.1058
 41
0.1058
 66
1
 10
0
 20
0
 30
0
  0
VERTEX
  8
LAYER_1
 10
147.7357
 20
94.5238
  0
VERTEX
  8
LAYER_1
 10
148.2118
 20
95.0116
  0
SEQEND
  0
POLYLINE
  8
LAYER_1
 40
0.1058
 41
0.1058
 66
1
 10
0
 20
0
 30
0
  0
VERTEX
  8
LAYER_1
 10
147.0522
 20
94.6578
  0
VERTEX
  8
LAYER_1
 10
147.6382
 20
95.2441
  0
SEQEND
  0
POLYLINE
  8
LAYER_1
 40
0.1058
 41
0.1058
 66
1
 10
0
 20
0
 30
0
  0
VERTEX
  8
LAYER_1
 10
146.9182
 20
95.3413
  0
VERTEX
  8
LAYER_1
 10
146.9423
 20
95.3664
  0
SEQEND
  0
POLYLINE
  8
LAYER_1
 40
0.1058
 41
0.1058
 66
1
 10
0
 20
0
 30
0
  0
VERTEX
  8
LAYER_1
 10
127.8888
 20
95.8419
  0
VERTEX
  8
LAYER_1
 10
127.8888
 20
105.3255
  0
SEQEND
  0
POLYLINE
  8
LAYER_1
 40
0.1058
 41
0.1058
 66
1
 10
0
 20
0
 30
0
  0
VERTEX
  8
LAYER_1
 10
153.8387
 20
95.8422
  0
VERTEX
  8
LAYER_1
 10
153.8387
 20
105.3255
  0
SEQEND
  0
POLYLINE
  8
LAYER_1
 40
0.1058
 41
0.1058
 66
1
 10
0
 20
0
 30
0
  0
VERTEX
  8
LAYER_1
 10
127.8888
 20
104.4594
  0
VERTEX
  8
LAYER_1
 10
129.5604
 20
104.0202
  0
SEQEND
  0
POLYLINE
  8
LAYER_1
 40
0.1058
 41
0.1058
 66
1
 10
0
 20
0
 30
0
  0
VERTEX
  8
LAYER_1
 10
127.8888
 20
104.4594
  0
VERTEX
  8
LAYER_1
 10
129.5604
 20
104.9114
  0
SEQEND
  0
POLYLINE
  8
LAYER_1
 40
0.1058
 41
0.1058
 66
1
 10
0
 20
0
 30
0
  0
VERTEX
  8
LAYER_1
 10
153.8387
 20
104.4594
  0
VERTEX
  8
LAYER_1
 10
152.1671
 20
104.9114
  0
SEQEND
  0
POLYLINE
  8
LAYER_1
 40
0.1058
 41
0.1058
 66
1
 10
0
 20
0
 30
0
  0
VERTEX
  8
LAYER_1
 10
153.8387
 20
104.4594
  0
VERTEX
  8
LAYER_1
 10
152.1671
 20
104.0202
  0
SEQEND
  0
POLYLINE
  8
LAYER_1
 40
0.1058
 41
0.1058
 66
1
 10
0
 20
0
 30
0
  0
VERTEX
  8
LAYER_1
 10
127.8888
 20
104.4594
  0
VERTEX
  8
LAYER_1
 10
153.8387
 20
104.4594
  0
SEQEND
  0
POLYLINE
  8
LAYER_1
 40
0.1058
 41
0.1058
 66
1
 10
0
 20
0
 30
0
  0
VERTEX
  8
LAYER_1
 10
134.8093
 20
96.2325
  0
VERTEX
  8
LAYER_1
 10
134.8093
 20
102.5305
  0
SEQEND
  0
POLYLINE
  8
LAYER_1
 40
0.1058
 41
0.1058
 66
1
 10
0
 20
0
 30
0
  0
VERTEX
  8
LAYER_1
 10
146.9182
 20
96.2325
  0
VERTEX
  8
LAYER_1
 10
146.9182
 20
102.5305
  0
SEQEND
  0
POLYLINE
  8
LAYER_1
 40
0.1058
 41
0.1058
 66
1
 10
0
 20
0
 30
0
  0
VERTEX
  8
LAYER_1
 10
134.8093
 20
101.6641
  0
VERTEX
  8
LAYER_1
 10
136.4692
 20
101.2131
  0
SEQEND
  0
POLYLINE
  8
LAYER_1
 40
0.1058
 41
0.1058
 66
1
 10
0
 20
0
 30
0
  0
VERTEX
  8
LAYER_1
 10
134.8093
 20
101.6641
  0
VERTEX
  8
LAYER_1
 10
136.4692
 20
102.103
  0
SEQEND
  0
POLYLINE
  8
LAYER_1
 40
0.1058
 41
0.1058
 66
1
 10
0
 20
0
 30
0
  0
VERTEX
  8
LAYER_1
 10
146.9182
 20
101.6641
  0
VERTEX
  8
LAYER_1
 10
145.2452
 20
102.103
  0
SEQEND
  0
POLYLINE
  8
LAYER_1
 40
0.1058
 41
0.1058
 66
1
 10
0
 20
0
 30
0
  0
VERTEX
  8
LAYER_1
 10
146.9182
 20
101.6641
  0
VERTEX
  8
LAYER_1
 10
145.2452
 20
101.2131
  0
SEQEND
  0
POLYLINE
  8
LAYER_1
 40
0.1058
 41
0.1058
 66
1
 10
0
 20
0
 30
0
  0
VERTEX
  8
LAYER_1
 10
113.8146
 20
94.8659
  0
VERTEX
  8
LAYER_1
 10
100.8397
 20
94.8659
  0
SEQEND
  0
POLYLINE
  8
LAYER_1
 40
0.1058
 41
0.1058
 66
1
 10
0
 20
0
 30
0
  0
VERTEX
  8
LAYER_1
 10
113.8146
 20
94.2916
  0
VERTEX
  8
LAYER_1
 10
100.8397
 20
94.2916
  0
SEQEND
  0
POLYLINE
  8
LAYER_1
 40
0.1058
 41
0.1058
 66
1
 10
0
 20
0
 30
0
  0
VERTEX
  8
LAYER_1
 10
113.7905
 20
94.2916
  0
VERTEX
  8
LAYER_1
 10
113.7905
 20
94.8659
  0
SEQEND
  0
POLYLINE
  8
LAYER_1
 40
0.1058
 41
0.1058
 66
1
 10
0
 20
0
 30
0
  0
VERTEX
  8
LAYER_1
 10
113.6806
 20
94.2916
  0
VERTEX
  8
LAYER_1
 10
113.6806
 20
94.8659
  0
SEQEND
  0
POLYLINE
  8
LAYER_1
 40
0.1058
 41
0.1058
 66
1
 10
0
 20
0
 30
0
  0
VERTEX
  8
LAYER_1
 10
113.5579
 20
94.2916
  0
VERTEX
  8
LAYER_1
 10
113.5579
 20
94.8659
  0
SEQEND
  0
POLYLINE
  8
LAYER_1
 40
0.1058
 41
0.1058
 66
1
 10
0
 20
0
 30
0
  0
VERTEX
  8
LAYER_1
 10
113.4484
 20
94.2916
  0
VERTEX
  8
LAYER_1
 10
113.4484
 20
94.8659
  0
SEQEND
  0
POLYLINE
  8
LAYER_1
 40
0.1058
 41
0.1058
 66
1
 10
0
 20
0
 30
0
  0
VERTEX
  8
LAYER_1
 10
113.3264
 20
94.2916
  0
VERTEX
  8
LAYER_1
 10
113.3264
 20
94.8659
  0
SEQEND
  0
POLYLINE
  8
LAYER_1
 40
0.1058
 41
0.1058
 66
1
 10
0
 20
0
 30
0
  0
VERTEX
  8
LAYER_1
 10
113.2165
 20
94.2916
  0
VERTEX
  8
LAYER_1
 10
113.2165
 20
94.8659
  0
SEQEND
  0
POLYLINE
  8
LAYER_1
 40
0.1058
 41
0.1058
 66
1
 10
0
 20
0
 30
0
  0
VERTEX
  8
LAYER_1
 10
113.0946
 20
94.2916
  0
VERTEX
  8
LAYER_1
 10
113.0946
 20
94.8659
  0
SEQEND
  0
POLYLINE
  8
LAYER_1
 40
0.1058
 41
0.1058
 66
1
 10
0
 20
0
 30
0
  0
VERTEX
  8
LAYER_1
 10
112.9847
 20
94.2916
  0
VERTEX
  8
LAYER_1
 10
112.9847
 20
94.8659
  0
SEQEND
  0
POLYLINE
  8
LAYER_1
 40
0.1058
 41
0.1058
 66
1
 10
0
 20
0
 30
0
  0
VERTEX
  8
LAYER_1
 10
112.8748
 20
94.2916
  0
VERTEX
  8
LAYER_1
 10
112.8748
 20
94.8659
  0
SEQEND
  0
POLYLINE
  8
LAYER_1
 40
0.1058
 41
0.1058
 66
1
 10
0
 20
0
 30
0
  0
VERTEX
  8
LAYER_1
 10
112.7525
 20
94.2916
  0
VERTEX
  8
LAYER_1
 10
112.7525
 20
94.8659
  0
SEQEND
  0
POLYLINE
  8
LAYER_1
 40
0.1058
 41
0.1058
 66
1
 10
0
 20
0
 30
0
  0
VERTEX
  8
LAYER_1
 10
112.6429
 20
94.2916
  0
VERTEX
  8
LAYER_1
 10
112.6429
 20
94.8659
  0
SEQEND
  0
POLYLINE
  8
LAYER_1
 40
0.1058
 41
0.1058
 66
1
 10
0
 20
0
 30
0
  0
VERTEX
  8
LAYER_1
 10
112.521
 20
94.2916
  0
VERTEX
  8
LAYER_1
 10
112.521
 20
94.8659
  0
SEQEND
  0
POLYLINE
  8
LAYER_1
 40
0.1058
 41
0.1058
 66
1
 10
0
 20
0
 30
0
  0
VERTEX
  8
LAYER_1
 10
112.4111
 20
94.2916
  0
VERTEX
  8
LAYER_1
 10
112.4111
 20
94.8659
  0
SEQEND
  0
POLYLINE
  8
LAYER_1
 40
0.1058
 41
0.1058
 66
1
 10
0
 20
0
 30
0
  0
VERTEX
  8
LAYER_1
 10
112.2891
 20
94.2916
  0
VERTEX
  8
LAYER_1
 10
112.2891
 20
94.8659
  0
SEQEND
  0
POLYLINE
  8
LAYER_1
 40
0.1058
 41
0.1058
 66
1
 10
0
 20
0
 30
0
  0
VERTEX
  8
LAYER_1
 10
112.1789
 20
94.2916
  0
VERTEX
  8
LAYER_1
 10
112.1789
 20
94.8659
  0
SEQEND
  0
POLYLINE
  8
LAYER_1
 40
0.1058
 41
0.1058
 66
1
 10
0
 20
0
 30
0
  0
VERTEX
  8
LAYER_1
 10
112.0569
 20
94.2916
  0
VERTEX
  8
LAYER_1
 10
112.0569
 20
94.8659
  0
SEQEND
  0
POLYLINE
  8
LAYER_1
 40
0.1058
 41
0.1058
 66
1
 10
0
 20
0
 30
0
  0
VERTEX
  8
LAYER_1
 10
111.947
 20
94.2916
  0
VERTEX
  8
LAYER_1
 10
111.947
 20
94.8659
  0
SEQEND
  0
POLYLINE
  8
LAYER_1
 40
0.1058
 41
0.1058
 66
1
 10
0
 20
0
 30
0
  0
VERTEX
  8
LAYER_1
 10
111.825
 20
94.2916
  0
VERTEX
  8
LAYER_1
 10
111.825
 20
94.8659
  0
SEQEND
  0
POLYLINE
  8
LAYER_1
 40
0.1058
 41
0.1058
 66
1
 10
0
 20
0
 30
0
  0
VERTEX
  8
LAYER_1
 10
111.7151
 20
94.2916
  0
VERTEX
  8
LAYER_1
 10
111.7151
 20
94.8659
  0
SEQEND
  0
POLYLINE
  8
LAYER_1
 40
0.1058
 41
0.1058
 66
1
 10
0
 20
0
 30
0
  0
VERTEX
  8
LAYER_1
 10
111.6056
 20
94.2916
  0
VERTEX
  8
LAYER_1
 10
111.6056
 20
94.8659
  0
SEQEND
  0
POLYLINE
  8
LAYER_1
 40
0.1058
 41
0.1058
 66
1
 10
0
 20
0
 30
0
  0
VERTEX
  8
LAYER_1
 10
111.4829
 20
94.2916
  0
VERTEX
  8
LAYER_1
 10
111.4829
 20
94.8659
  0
SEQEND
  0
POLYLINE
  8
LAYER_1
 40
0.1058
 41
0.1058
 66
1
 10
0
 20
0
 30
0
  0
VERTEX
  8
LAYER_1
 10
111.3734
 20
94.2916
  0
VERTEX
  8
LAYER_1
 10
111.3734
 20
94.8659
  0
SEQEND
  0
POLYLINE
  8
LAYER_1
 40
0.1058
 41
0.1058
 66
1
 10
0
 20
0
 30
0
  0
VERTEX
  8
LAYER_1
 10
111.2511
 20
94.2916
  0
VERTEX
  8
LAYER_1
 10
111.2511
 20
94.8659
  0
SEQEND
  0
POLYLINE
  8
LAYER_1
 40
0.1058
 41
0.1058
 66
1
 10
0
 20
0
 30
0
  0
VERTEX
  8
LAYER_1
 10
111.1415
 20
94.2916
  0
VERTEX
  8
LAYER_1
 10
111.1415
 20
94.8659
  0
SEQEND
  0
POLYLINE
  8
LAYER_1
 40
0.1058
 41
0.1058
 66
1
 10
0
 20
0
 30
0
  0
VERTEX
  8
LAYER_1
 10
111.0196
 20
94.2916
  0
VERTEX
  8
LAYER_1
 10
111.0196
 20
94.8659
  0
SEQEND
  0
POLYLINE
  8
LAYER_1
 40
0.1058
 41
0.1058
 66
1
 10
0
 20
0
 30
0
  0
VERTEX
  8
LAYER_1
 10
110.9097
 20
94.2916
  0
VERTEX
  8
LAYER_1
 10
110.9097
 20
94.8659
  0
SEQEND
  0
POLYLINE
  8
LAYER_1
 40
0.1058
 41
0.1058
 66
1
 10
0
 20
0
 30
0
  0
VERTEX
  8
LAYER_1
 10
110.7874
 20
94.2916
  0
VERTEX
  8
LAYER_1
 10
110.7874
 20
94.8659
  0
SEQEND
  0
POLYLINE
  8
LAYER_1
 40
0.1058
 41
0.1058
 66
1
 10
0
 20
0
 30
0
  0
VERTEX
  8
LAYER_1
 10
110.6775
 20
94.2916
  0
VERTEX
  8
LAYER_1
 10
110.6775
 20
94.8659
  0
SEQEND
  0
POLYLINE
  8
LAYER_1
 40
0.1058
 41
0.1058
 66
1
 10
0
 20
0
 30
0
  0
VERTEX
  8
LAYER_1
 10
110.5679
 20
94.2916
  0
VERTEX
  8
LAYER_1
 10
110.5679
 20
94.8659
  0
SEQEND
  0
POLYLINE
  8
LAYER_1
 40
0.1058
 41
0.1058
 66
1
 10
0
 20
0
 30
0
  0
VERTEX
  8
LAYER_1
 10
110.4456
 20
94.2916
  0
VERTEX
  8
LAYER_1
 10
110.4456
 20
94.8659
  0
SEQEND
  0
POLYLINE
  8
LAYER_1
 40
0.1058
 41
0.1058
 66
1
 10
0
 20
0
 30
0
  0
VERTEX
  8
LAYER_1
 10
110.3361
 20
94.2916
  0
VERTEX
  8
LAYER_1
 10
110.3361
 20
94.8659
  0
SEQEND
  0
POLYLINE
  8
LAYER_1
 40
0.1058
 41
0.1058
 66
1
 10
0
 20
0
 30
0
  0
VERTEX
  8
LAYER_1
 10
110.2134
 20
94.2916
  0
VERTEX
  8
LAYER_1
 10
110.2134
 20
94.8659
  0
SEQEND
  0
POLYLINE
  8
LAYER_1
 40
0.1058
 41
0.1058
 66
1
 10
0
 20
0
 30
0
  0
VERTEX
  8
LAYER_1
 10
110.1039
 20
94.2916
  0
VERTEX
  8
LAYER_1
 10
110.1039
 20
94.8659
  0
SEQEND
  0
POLYLINE
  8
LAYER_1
 40
0.1058
 41
0.1058
 66
1
 10
0
 20
0
 30
0
  0
VERTEX
  8
LAYER_1
 10
109.9816
 20
94.2916
  0
VERTEX
  8
LAYER_1
 10
109.9816
 20
94.8659
  0
SEQEND
  0
POLYLINE
  8
LAYER_1
 40
0.1058
 41
0.1058
 66
1
 10
0
 20
0
 30
0
  0
VERTEX
  8
LAYER_1
 10
109.872
 20
94.2916
  0
VERTEX
  8
LAYER_1
 10
109.872
 20
94.8659
  0
SEQEND
  0
POLYLINE
  8
LAYER_1
 40
0.1058
 41
0.1058
 66
1
 10
0
 20
0
 30
0
  0
VERTEX
  8
LAYER_1
 10
109.7501
 20
94.2916
  0
VERTEX
  8
LAYER_1
 10
109.7501
 20
94.8659
  0
SEQEND
  0
POLYLINE
  8
LAYER_1
 40
0.1058
 41
0.1058
 66
1
 10
0
 20
0
 30
0
  0
VERTEX
  8
LAYER_1
 10
109.6402
 20
94.2916
  0
VERTEX
  8
LAYER_1
 10
109.6402
 20
94.8659
  0
SEQEND
  0
POLYLINE
  8
LAYER_1
 40
0.1058
 41
0.1058
 66
1
 10
0
 20
0
 30
0
  0
VERTEX
  8
LAYER_1
 10
109.5299
 20
94.2916
  0
VERTEX
  8
LAYER_1
 10
109.5299
 20
94.8659
  0
SEQEND
  0
POLYLINE
  8
LAYER_1
 40
0.1058
 41
0.1058
 66
1
 10
0
 20
0
 30
0
  0
VERTEX
  8
LAYER_1
 10
109.408
 20
94.2916
  0
VERTEX
  8
LAYER_1
 10
109.408
 20
94.8659
  0
SEQEND
  0
POLYLINE
  8
LAYER_1
 40
0.1058
 41
0.1058
 66
1
 10
0
 20
0
 30
0
  0
VERTEX
  8
LAYER_1
 10
109.2984
 20
94.2916
  0
VERTEX
  8
LAYER_1
 10
109.2984
 20
94.8659
  0
SEQEND
  0
POLYLINE
  8
LAYER_1
 40
0.1058
 41
0.1058
 66
1
 10
0
 20
0
 30
0
  0
VERTEX
  8
LAYER_1
 10
109.1761
 20
94.2916
  0
VERTEX
  8
LAYER_1
 10
109.1761
 20
94.8659
  0
SEQEND
  0
POLYLINE
  8
LAYER_1
 40
0.1058
 41
0.1058
 66
1
 10
0
 20
0
 30
0
  0
VERTEX
  8
LAYER_1
 10
109.0666
 20
94.2916
  0
VERTEX
  8
LAYER_1
 10
109.0666
 20
94.8659
  0
SEQEND
  0
POLYLINE
  8
LAYER_1
 40
0.1058
 41
0.1058
 66
1
 10
0
 20
0
 30
0
  0
VERTEX
  8
LAYER_1
 10
108.9443
 20
94.2916
  0
VERTEX
  8
LAYER_1
 10
108.9443
 20
94.8659
  0
SEQEND
  0
POLYLINE
  8
LAYER_1
 40
0.1058
 41
0.1058
 66
1
 10
0
 20
0
 30
0
  0
VERTEX
  8
LAYER_1
 10
108.8344
 20
94.2916
  0
VERTEX
  8
LAYER_1
 10
108.8344
 20
94.8659
  0
SEQEND
  0
POLYLINE
  8
LAYER_1
 40
0.1058
 41
0.1058
 66
1
 10
0
 20
0
 30
0
  0
VERTEX
  8
LAYER_1
 10
108.7121
 20
94.2916
  0
VERTEX
  8
LAYER_1
 10
108.7121
 20
94.8659
  0
SEQEND
  0
POLYLINE
  8
LAYER_1
 40
0.1058
 41
0.1058
 66
1
 10
0
 20
0
 30
0
  0
VERTEX
  8
LAYER_1
 10
108.6025
 20
94.2916
  0
VERTEX
  8
LAYER_1
 10
108.6025
 20
94.8659
  0
SEQEND
  0
POLYLINE
  8
LAYER_1
 40
0.1058
 41
0.1058
 66
1
 10
0
 20
0
 30
0
  0
VERTEX
  8
LAYER_1
 10
108.4809
 20
94.2916
  0
VERTEX
  8
LAYER_1
 10
108.4809
 20
94.8659
  0
SEQEND
  0
POLYLINE
  8
LAYER_1
 40
0.1058
 41
0.1058
 66
1
 10
0
 20
0
 30
0
  0
VERTEX
  8
LAYER_1
 10
108.3706
 20
94.2916
  0
VERTEX
  8
LAYER_1
 10
108.3706
 20
94.8659
  0
SEQEND
  0
POLYLINE
  8
LAYER_1
 40
0.1058
 41
0.1058
 66
1
 10
0
 20
0
 30
0
  0
VERTEX
  8
LAYER_1
 10
108.2611
 20
94.2916
  0
VERTEX
  8
LAYER_1
 10
108.2611
 20
94.8659
  0
SEQEND
  0
POLYLINE
  8
LAYER_1
 40
0.1058
 41
0.1058
 66
1
 10
0
 20
0
 30
0
  0
VERTEX
  8
LAYER_1
 10
108.1384
 20
94.2916
  0
VERTEX
  8
LAYER_1
 10
108.1384
 20
94.8659
  0
SEQEND
  0
POLYLINE
  8
LAYER_1
 40
0.1058
 41
0.1058
 66
1
 10
0
 20
0
 30
0
  0
VERTEX
  8
LAYER_1
 10
87.8639
 20
94.8659
  0
VERTEX
  8
LAYER_1
 10
100.8397
 20
94.8659
  0
SEQEND
  0
POLYLINE
  8
LAYER_1
 40
0.1058
 41
0.1058
 66
1
 10
0
 20
0
 30
0
  0
VERTEX
  8
LAYER_1
 10
87.8639
 20
94.2916
  0
VERTEX
  8
LAYER_1
 10
100.8397
 20
94.2916
  0
SEQEND
  0
POLYLINE
  8
LAYER_1
 40
0.1058
 41
0.1058
 66
1
 10
0
 20
0
 30
0
  0
VERTEX
  8
LAYER_1
 10
93.6136
 20
94.2916
  0
VERTEX
  8
LAYER_1
 10
93.6136
 20
94.8659
  0
SEQEND
  0
POLYLINE
  8
LAYER_1
 40
0.1058
 41
0.1058
 66
1
 10
0
 20
0
 30
0
  0
VERTEX
  8
LAYER_1
 10
93.4915
 20
94.2916
  0
VERTEX
  8
LAYER_1
 10
93.4915
 20
94.8659
  0
SEQEND
  0
POLYLINE
  8
LAYER_1
 40
0.1058
 41
0.1058
 66
1
 10
0
 20
0
 30
0
  0
VERTEX
  8
LAYER_1
 10
93.3817
 20
94.2916
  0
VERTEX
  8
LAYER_1
 10
93.3817
 20
94.8659
  0
SEQEND
  0
POLYLINE
  8
LAYER_1
 40
0.1058
 41
0.1058
 66
1
 10
0
 20
0
 30
0
  0
VERTEX
  8
LAYER_1
 10
93.2591
 20
94.2916
  0
VERTEX
  8
LAYER_1
 10
93.2591
 20
94.8659
  0
SEQEND
  0
POLYLINE
  8
LAYER_1
 40
0.1058
 41
0.1058
 66
1
 10
0
 20
0
 30
0
  0
VERTEX
  8
LAYER_1
 10
93.1495
 20
94.2916
  0
VERTEX
  8
LAYER_1
 10
93.1495
 20
94.8659
  0
SEQEND
  0
POLYLINE
  8
LAYER_1
 40
0.1058
 41
0.1058
 66
1
 10
0
 20
0
 30
0
  0
VERTEX
  8
LAYER_1
 10
93.0274
 20
94.2916
  0
VERTEX
  8
LAYER_1
 10
93.0274
 20
94.8659
  0
SEQEND
  0
POLYLINE
  8
LAYER_1
 40
0.1058
 41
0.1058
 66
1
 10
0
 20
0
 30
0
  0
VERTEX
  8
LAYER_1
 10
92.9177
 20
94.2916
  0
VERTEX
  8
LAYER_1
 10
92.9177
 20
94.8659
  0
SEQEND
  0
POLYLINE
  8
LAYER_1
 40
0.1058
 41
0.1058
 66
1
 10
0
 20
0
 30
0
  0
VERTEX
  8
LAYER_1
 10
92.7955
 20
94.2916
  0
VERTEX
  8
LAYER_1
 10
92.7955
 20
94.8659
  0
SEQEND
  0
POLYLINE
  8
LAYER_1
 40
0.1058
 41
0.1058
 66
1
 10
0
 20
0
 30
0
  0
VERTEX
  8
LAYER_1
 10
92.6855
 20
94.2916
  0
VERTEX
  8
LAYER_1
 10
92.6855
 20
94.8659
  0
SEQEND
  0
POLYLINE
  8
LAYER_1
 40
0.1058
 41
0.1058
 66
1
 10
0
 20
0
 30
0
  0
VERTEX
  8
LAYER_1
 10
92.5633
 20
94.2916
  0
VERTEX
  8
LAYER_1
 10
92.5633
 20
94.8659
  0
SEQEND
  0
POLYLINE
  8
LAYER_1
 40
0.1058
 41
0.1058
 66
1
 10
0
 20
0
 30
0
  0
VERTEX
  8
LAYER_1
 10
92.4536
 20
94.2916
  0
VERTEX
  8
LAYER_1
 10
92.4536
 20
94.8659
  0
SEQEND
  0
POLYLINE
  8
LAYER_1
 40
0.1058
 41
0.1058
 66
1
 10
0
 20
0
 30
0
  0
VERTEX
  8
LAYER_1
 10
92.3439
 20
94.2916
  0
VERTEX
  8
LAYER_1
 10
92.3439
 20
94.8659
  0
SEQEND
  0
POLYLINE
  8
LAYER_1
 40
0.1058
 41
0.1058
 66
1
 10
0
 20
0
 30
0
  0
VERTEX
  8
LAYER_1
 10
92.2219
 20
94.2916
  0
VERTEX
  8
LAYER_1
 10
92.2219
 20
94.8659
  0
SEQEND
  0
POLYLINE
  8
LAYER_1
 40
0.1058
 41
0.1058
 66
1
 10
0
 20
0
 30
0
  0
VERTEX
  8
LAYER_1
 10
92.1122
 20
94.2916
  0
VERTEX
  8
LAYER_1
 10
92.1122
 20
94.8659
  0
SEQEND
  0
POLYLINE
  8
LAYER_1
 40
0.1058
 41
0.1058
 66
1
 10
0
 20
0
 30
0
  0
VERTEX
  8
LAYER_1
 10
91.9896
 20
94.2916
  0
VERTEX
  8
LAYER_1
 10
91.9896
 20
94.8659
  0
SEQEND
  0
POLYLINE
  8
LAYER_1
 40
0.1058
 41
0.1058
 66
1
 10
0
 20
0
 30
0
  0
VERTEX
  8
LAYER_1
 10
91.88
 20
94.2916
  0
VERTEX
  8
LAYER_1
 10
91.88
 20
94.8659
  0
SEQEND
  0
POLYLINE
  8
LAYER_1
 40
0.1058
 41
0.1058
 66
1
 10
0
 20
0
 30
0
  0
VERTEX
  8
LAYER_1
 10
91.7579
 20
94.2916
  0
VERTEX
  8
LAYER_1
 10
91.7579
 20
94.8659
  0
SEQEND
  0
POLYLINE
  8
LAYER_1
 40
0.1058
 41
0.1058
 66
1
 10
0
 20
0
 30
0
  0
VERTEX
  8
LAYER_1
 10
91.6482
 20
94.2916
  0
VERTEX
  8
LAYER_1
 10
91.6482
 20
94.8659
  0
SEQEND
  0
POLYLINE
  8
LAYER_1
 40
0.1058
 41
0.1058
 66
1
 10
0
 20
0
 30
0
  0
VERTEX
  8
LAYER_1
 10
91.526
 20
94.2916
  0
VERTEX
  8
LAYER_1
 10
91.526
 20
94.8659
  0
SEQEND
  0
POLYLINE
  8
LAYER_1
 40
0.1058
 41
0.1058
 66
1
 10
0
 20
0
 30
0
  0
VERTEX
  8
LAYER_1
 10
91.4163
 20
94.2916
  0
VERTEX
  8
LAYER_1
 10
91.4163
 20
94.8659
  0
SEQEND
  0
POLYLINE
  8
LAYER_1
 40
0.1058
 41
0.1058
 66
1
 10
0
 20
0
 30
0
  0
VERTEX
  8
LAYER_1
 10
91.3062
 20
94.2916
  0
VERTEX
  8
LAYER_1
 10
91.3062
 20
94.8659
  0
SEQEND
  0
POLYLINE
  8
LAYER_1
 40
0.1058
 41
0.1058
 66
1
 10
0
 20
0
 30
0
  0
VERTEX
  8
LAYER_1
 10
91.1841
 20
94.2916
  0
VERTEX
  8
LAYER_1
 10
91.1841
 20
94.8659
  0
SEQEND
  0
POLYLINE
  8
LAYER_1
 40
0.1058
 41
0.1058
 66
1
 10
0
 20
0
 30
0
  0
VERTEX
  8
LAYER_1
 10
91.0744
 20
94.2916
  0
VERTEX
  8
LAYER_1
 10
91.0744
 20
94.8659
  0
SEQEND
  0
POLYLINE
  8
LAYER_1
 40
0.1058
 41
0.1058
 66
1
 10
0
 20
0
 30
0
  0
VERTEX
  8
LAYER_1
 10
90.9522
 20
94.2916
  0
VERTEX
  8
LAYER_1
 10
90.9522
 20
94.8659
  0
SEQEND
  0
POLYLINE
  8
LAYER_1
 40
0.1058
 41
0.1058
 66
1
 10
0
 20
0
 30
0
  0
VERTEX
  8
LAYER_1
 10
90.8427
 20
94.2916
  0
VERTEX
  8
LAYER_1
 10
90.8427
 20
94.8659
  0
SEQEND
  0
POLYLINE
  8
LAYER_1
 40
0.1058
 41
0.1058
 66
1
 10
0
 20
0
 30
0
  0
VERTEX
  8
LAYER_1
 10
90.7206
 20
94.2916
  0
VERTEX
  8
LAYER_1
 10
90.7206
 20
94.8659
  0
SEQEND
  0
POLYLINE
  8
LAYER_1
 40
0.1058
 41
0.1058
 66
1
 10
0
 20
0
 30
0
  0
VERTEX
  8
LAYER_1
 10
90.6105
 20
94.2916
  0
VERTEX
  8
LAYER_1
 10
90.6105
 20
94.8659
  0
SEQEND
  0
POLYLINE
  8
LAYER_1
 40
0.1058
 41
0.1058
 66
1
 10
0
 20
0
 30
0
  0
VERTEX
  8
LAYER_1
 10
90.4884
 20
94.2916
  0
VERTEX
  8
LAYER_1
 10
90.4884
 20
94.8659
  0
SEQEND
  0
POLYLINE
  8
LAYER_1
 40
0.1058
 41
0.1058
 66
1
 10
0
 20
0
 30
0
  0
VERTEX
  8
LAYER_1
 10
90.3786
 20
94.2916
  0
VERTEX
  8
LAYER_1
 10
90.3786
 20
94.8659
  0
SEQEND
  0
POLYLINE
  8
LAYER_1
 40
0.1058
 41
0.1058
 66
1
 10
0
 20
0
 30
0
  0
VERTEX
  8
LAYER_1
 10
90.257
 20
94.2916
  0
VERTEX
  8
LAYER_1
 10
90.257
 20
94.8659
  0
SEQEND
  0
POLYLINE
  8
LAYER_1
 40
0.1058
 41
0.1058
 66
1
 10
0
 20
0
 30
0
  0
VERTEX
  8
LAYER_1
 10
90.1468
 20
94.2916
  0
VERTEX
  8
LAYER_1
 10
90.1468
 20
94.8659
  0
SEQEND
  0
POLYLINE
  8
LAYER_1
 40
0.1058
 41
0.1058
 66
1
 10
0
 20
0
 30
0
  0
VERTEX
  8
LAYER_1
 10
90.0371
 20
94.2916
  0
VERTEX
  8
LAYER_1
 10
90.0371
 20
94.8659
  0
SEQEND
  0
POLYLINE
  8
LAYER_1
 40
0.1058
 41
0.1058
 66
1
 10
0
 20
0
 30
0
  0
VERTEX
  8
LAYER_1
 10
89.9146
 20
94.2916
  0
VERTEX
  8
LAYER_1
 10
89.9146
 20
94.8659
  0
SEQEND
  0
POLYLINE
  8
LAYER_1
 40
0.1058
 41
0.1058
 66
1
 10
0
 20
0
 30
0
  0
VERTEX
  8
LAYER_1
 10
89.8049
 20
94.2916
  0
VERTEX
  8
LAYER_1
 10
89.8049
 20
94.8659
  0
SEQEND
  0
POLYLINE
  8
LAYER_1
 40
0.1058
 41
0.1058
 66
1
 10
0
 20
0
 30
0
  0
VERTEX
  8
LAYER_1
 10
89.6827
 20
94.2916
  0
VERTEX
  8
LAYER_1
 10
89.6827
 20
94.8659
  0
SEQEND
  0
POLYLINE
  8
LAYER_1
 40
0.1058
 41
0.1058
 66
1
 10
0
 20
0
 30
0
  0
VERTEX
  8
LAYER_1
 10
89.573
 20
94.2916
  0
VERTEX
  8
LAYER_1
 10
89.573
 20
94.8659
  0
SEQEND
  0
POLYLINE
  8
LAYER_1
 40
0.1058
 41
0.1058
 66
1
 10
0
 20
0
 30
0
  0
VERTEX
  8
LAYER_1
 10
89.4514
 20
94.2916
  0
VERTEX
  8
LAYER_1
 10
89.4514
 20
94.8659
  0
SEQEND
  0
POLYLINE
  8
LAYER_1
 40
0.1058
 41
0.1058
 66
1
 10
0
 20
0
 30
0
  0
VERTEX
  8
LAYER_1
 10
89.3408
 20
94.2916
  0
VERTEX
  8
LAYER_1
 10
89.3408
 20
94.8659
  0
SEQEND
  0
POLYLINE
  8
LAYER_1
 40
0.1058
 41
0.1058
 66
1
 10
0
 20
0
 30
0
  0
VERTEX
  8
LAYER_1
 10
89.2188
 20
94.2916
  0
VERTEX
  8
LAYER_1
 10
89.2188
 20
94.8659
  0
SEQEND
  0
POLYLINE
  8
LAYER_1
 40
0.1058
 41
0.1058
 66
1
 10
0
 20
0
 30
0
  0
VERTEX
  8
LAYER_1
 10
89.1091
 20
94.2916
  0
VERTEX
  8
LAYER_1
 10
89.1091
 20
94.8659
  0
SEQEND
  0
POLYLINE
  8
LAYER_1
 40
0.1058
 41
0.1058
 66
1
 10
0
 20
0
 30
0
  0
VERTEX
  8
LAYER_1
 10
88.9994
 20
94.2916
  0
VERTEX
  8
LAYER_1
 10
88.9994
 20
94.8659
  0
SEQEND
  0
POLYLINE
  8
LAYER_1
 40
0.1058
 41
0.1058
 66
1
 10
0
 20
0
 30
0
  0
VERTEX
  8
LAYER_1
 10
88.8773
 20
94.2916
  0
VERTEX
  8
LAYER_1
 10
88.8773
 20
94.8659
  0
SEQEND
  0
POLYLINE
  8
LAYER_1
 40
0.1058
 41
0.1058
 66
1
 10
0
 20
0
 30
0
  0
VERTEX
  8
LAYER_1
 10
88.7675
 20
94.2916
  0
VERTEX
  8
LAYER_1
 10
88.7675
 20
94.8659
  0
SEQEND
  0
POLYLINE
  8
LAYER_1
 40
0.1058
 41
0.1058
 66
1
 10
0
 20
0
 30
0
  0
VERTEX
  8
LAYER_1
 10
88.6459
 20
94.2916
  0
VERTEX
  8
LAYER_1
 10
88.6459
 20
94.8659
  0
SEQEND
  0
POLYLINE
  8
LAYER_1
 40
0.1058
 41
0.1058
 66
1
 10
0
 20
0
 30
0
  0
VERTEX
  8
LAYER_1
 10
88.5353
 20
94.2916
  0
VERTEX
  8
LAYER_1
 10
88.5353
 20
94.8659
  0
SEQEND
  0
POLYLINE
  8
LAYER_1
 40
0.1058
 41
0.1058
 66
1
 10
0
 20
0
 30
0
  0
VERTEX
  8
LAYER_1
 10
88.4132
 20
94.2916
  0
VERTEX
  8
LAYER_1
 10
88.4132
 20
94.8659
  0
SEQEND
  0
POLYLINE
  8
LAYER_1
 40
0.1058
 41
0.1058
 66
1
 10
0
 20
0
 30
0
  0
VERTEX
  8
LAYER_1
 10
88.3035
 20
94.2916
  0
VERTEX
  8
LAYER_1
 10
88.3035
 20
94.8659
  0
SEQEND
  0
POLYLINE
  8
LAYER_1
 40
0.1058
 41
0.1058
 66
1
 10
0
 20
0
 30
0
  0
VERTEX
  8
LAYER_1
 10
88.1819
 20
94.2916
  0
VERTEX
  8
LAYER_1
 10
88.1819
 20
94.8659
  0
SEQEND
  0
POLYLINE
  8
LAYER_1
 40
0.1058
 41
0.1058
 66
1
 10
0
 20
0
 30
0
  0
VERTEX
  8
LAYER_1
 10
88.0718
 20
94.2916
  0
VERTEX
  8
LAYER_1
 10
88.0718
 20
94.8659
  0
SEQEND
  0
POLYLINE
  8
LAYER_1
 40
0.1058
 41
0.1058
 66
1
 10
0
 20
0
 30
0
  0
VERTEX
  8
LAYER_1
 10
87.95
 20
94.2916
  0
VERTEX
  8
LAYER_1
 10
87.95
 20
94.8659
  0
SEQEND
  0
POLYLINE
  8
LAYER_1
 40
0.1058
 41
0.1058
 66
1
 10
0
 20
0
 30
0
  0
VERTEX
  8
LAYER_1
 10
93.6379
 20
94.8659
  0
VERTEX
  8
LAYER_1
 10
93.6379
 20
94.2916
  0
SEQEND
  0
POLYLINE
  8
LAYER_1
 40
0.1058
 41
0.1058
 66
1
 10
0
 20
0
 30
0
  0
VERTEX
  8
LAYER_1
 10
87.8639
 20
95.732
  0
VERTEX
  8
LAYER_1
 10
87.8639
 20
105.1546
  0
SEQEND
  0
POLYLINE
  8
LAYER_1
 40
0.1058
 41
0.1058
 66
1
 10
0
 20
0
 30
0
  0
VERTEX
  8
LAYER_1
 10
113.8146
 20
95.732
  0
VERTEX
  8
LAYER_1
 10
113.8146
 20
105.1546
  0
SEQEND
  0
POLYLINE
  8
LAYER_1
 40
0.1058
 41
0.1058
 66
1
 10
0
 20
0
 30
0
  0
VERTEX
  8
LAYER_1
 10
87.8639
 20
104.2886
  0
VERTEX
  8
LAYER_1
 10
89.5368
 20
103.8376
  0
SEQEND
  0
POLYLINE
  8
LAYER_1
 40
0.1058
 41
0.1058
 66
1
 10
0
 20
0
 30
0
  0
VERTEX
  8
LAYER_1
 10
87.8639
 20
104.2886
  0
VERTEX
  8
LAYER_1
 10
89.5368
 20
104.7402
  0
SEQEND
  0
POLYLINE
  8
LAYER_1
 40
0.1058
 41
0.1058
 66
1
 10
0
 20
0
 30
0
  0
VERTEX
  8
LAYER_1
 10
113.8146
 20
104.2886
  0
VERTEX
  8
LAYER_1
 10
112.142
 20
104.7402
  0
SEQEND
  0
POLYLINE
  8
LAYER_1
 40
0.1058
 41
0.1058
 66
1
 10
0
 20
0
 30
0
  0
VERTEX
  8
LAYER_1
 10
113.8146
 20
104.2886
  0
VERTEX
  8
LAYER_1
 10
112.142
 20
103.8376
  0
SEQEND
  0
POLYLINE
  8
LAYER_1
 40
0.1058
 41
0.1058
 66
1
 10
0
 20
0
 30
0
  0
VERTEX
  8
LAYER_1
 10
87.8639
 20
104.2886
  0
VERTEX
  8
LAYER_1
 10
113.8146
 20
104.2886
  0
SEQEND
  0
POLYLINE
  8
LAYER_1
 40
0.1058
 41
0.1058
 66
1
 10
0
 20
0
 30
0
  0
VERTEX
  8
LAYER_1
 10
93.6379
 20
95.732
  0
VERTEX
  8
LAYER_1
 10
93.6379
 20
102.0058
  0
SEQEND
  0
POLYLINE
  8
LAYER_1
 40
0.1058
 41
0.1058
 66
1
 10
0
 20
0
 30
0
  0
VERTEX
  8
LAYER_1
 10
108.053
 20
95.732
  0
VERTEX
  8
LAYER_1
 10
108.053
 20
102.0058
  0
SEQEND
  0
POLYLINE
  8
LAYER_1
 40
0.1058
 41
0.1058
 66
1
 10
0
 20
0
 30
0
  0
VERTEX
  8
LAYER_1
 10
93.6379
 20
101.1397
  0
VERTEX
  8
LAYER_1
 10
95.3099
 20
100.6874
  0
SEQEND
  0
POLYLINE
  8
LAYER_1
 40
0.1058
 41
0.1058
 66
1
 10
0
 20
0
 30
0
  0
VERTEX
  8
LAYER_1
 10
93.6379
 20
101.1397
  0
VERTEX
  8
LAYER_1
 10
95.3099
 20
101.5907
  0
SEQEND
  0
POLYLINE
  8
LAYER_1
 40
0.1058
 41
0.1058
 66
1
 10
0
 20
0
 30
0
  0
VERTEX
  8
LAYER_1
 10
108.053
 20
101.1397
  0
VERTEX
  8
LAYER_1
 10
106.3809
 20
101.5907
  0
SEQEND
  0
POLYLINE
  8
LAYER_1
 40
0.1058
 41
0.1058
 66
1
 10
0
 20
0
 30
0
  0
VERTEX
  8
LAYER_1
 10
108.053
 20
101.1397
  0
VERTEX
  8
LAYER_1
 10
106.3809
 20
100.6874
  0
SEQEND
  0
POLYLINE
  8
LAYER_1
 40
0.1058
 41
0.1058
 66
1
 10
0
 20
0
 30
0
  0
VERTEX
  8
LAYER_1
 10
93.6379
 20
101.1397
  0
VERTEX
  8
LAYER_1
 10
108.053
 20
101.1397
  0
SEQEND
  0
POLYLINE
  8
LAYER_1
 40
0.1058
 41
0.1058
 66
1
 10
0
 20
0
 30
0
  0
VERTEX
  8
LAYER_1
 10
87.8639
 20
94.8659
  0
VERTEX
  8
LAYER_1
 10
87.8639
 20
94.2916
  0
SEQEND
  0
POLYLINE
  8
LAYER_1
 40
0.1058
 41
0.1058
 66
1
 10
0
 20
0
 30
0
  0
VERTEX
  8
LAYER_1
 10
91.1598
 20
154.4801
  0
VERTEX
  8
LAYER_1
 10
100.8397
 20
154.4801
  0
SEQEND
  0
POLYLINE
  8
LAYER_1
 40
0.1058
 41
0.1058
 66
1
 10
0
 20
0
 30
0
  0
VERTEX
  8
LAYER_1
 10
91.1598
 20
159.0952
  0
VERTEX
  8
LAYER_1
 10
100.8397
 20
159.0952
  0
SEQEND
  0
POLYLINE
  8
LAYER_1
 40
0.1058
 41
0.1058
 66
1
 10
0
 20
0
 30
0
  0
VERTEX
  8
LAYER_1
 10
91.0377
 20
154.6033
  0
VERTEX
  8
LAYER_1
 10
91.0377
 20
158.985
  0
SEQEND
  0
POLYLINE
  8
LAYER_1
 40
0.1058
 41
0.1058
 66
1
 10
0
 20
0
 30
0
  0
VERTEX
  8
LAYER_1
 10
100.8397
 20
156.7877
  0
VERTEX
  8
LAYER_1
 10
100.8397
 20
156.2146
  0
SEQEND
  0
POLYLINE
  8
LAYER_1
 40
0.1058
 41
0.1058
 66
1
 10
0
 20
0
 30
0
  0
VERTEX
  8
LAYER_1
 10
100.8397
 20
155.0663
  0
VERTEX
  8
LAYER_1
 10
100.8397
 20
151.5995
  0
SEQEND
  0
POLYLINE
  8
LAYER_1
 40
0.1058
 41
0.1058
 66
1
 10
0
 20
0
 30
0
  0
VERTEX
  8
LAYER_1
 10
100.8397
 20
156.7877
  0
VERTEX
  8
LAYER_1
 10
100.8397
 20
157.3737
  0
SEQEND
  0
POLYLINE
  8
LAYER_1
 40
0.1058
 41
0.1058
 66
1
 10
0
 20
0
 30
0
  0
VERTEX
  8
LAYER_1
 10
100.8397
 20
158.5209
  0
VERTEX
  8
LAYER_1
 10
100.8397
 20
161.9879
  0
SEQEND
  0
POLYLINE
  8
LAYER_1
 40
0.1058
 41
0.1058
 66
1
 10
0
 20
0
 30
0
  0
VERTEX
  8
LAYER_1
 10
110.3602
 20
154.4801
  0
VERTEX
  8
LAYER_1
 10
100.8397
 20
154.4801
  0
SEQEND
  0
POLYLINE
  8
LAYER_1
 40
0.1058
 41
0.1058
 66
1
 10
0
 20
0
 30
0
  0
VERTEX
  8
LAYER_1
 10
108.053
 20
157.0807
  0
VERTEX
  8
LAYER_1
 10
100.8397
 20
157.0807
  0
SEQEND
  0
POLYLINE
  8
LAYER_1
 40
0.1058
 41
0.1058
 66
1
 10
0
 20
0
 30
0
  0
VERTEX
  8
LAYER_1
 10
110.3602
 20
159.0952
  0
VERTEX
  8
LAYER_1
 10
100.8397
 20
159.0952
  0
SEQEND
  0
POLYLINE
  8
LAYER_1
 40
0.1058
 41
0.1058
 66
1
 10
0
 20
0
 30
0
  0
VERTEX
  8
LAYER_1
 10
106.2099
 20
156.4092
  0
VERTEX
  8
LAYER_1
 10
100.8397
 20
156.4092
  0
SEQEND
  0
POLYLINE
  8
LAYER_1
 40
0.1058
 41
0.1058
 66
1
 10
0
 20
0
 30
0
  0
VERTEX
  8
LAYER_1
 10
106.2099
 20
155.1516
  0
VERTEX
  8
LAYER_1
 10
100.8397
 20
155.1516
  0
SEQEND
  0
POLYLINE
  8
LAYER_1
 40
0.1058
 41
0.1058
 66
1
 10
0
 20
0
 30
0
  0
VERTEX
  8
LAYER_1
 10
106.2099
 20
155.1516
  0
VERTEX
  8
LAYER_1
 10
106.2099
 20
156.4092
  0
SEQEND
  0
POLYLINE
  8
LAYER_1
 40
0.1058
 41
0.1058
 66
1
 10
0
 20
0
 30
0
  0
VERTEX
  8
LAYER_1
 10
106.8932
 20
154.4801
  0
VERTEX
  8
LAYER_1
 10
106.2099
 20
155.1516
  0
SEQEND
  0
POLYLINE
  8
LAYER_1
 40
0.1058
 41
0.1058
 66
1
 10
0
 20
0
 30
0
  0
VERTEX
  8
LAYER_1
 10
110.653
 20
154.7744
  0
VERTEX
  8
LAYER_1
 10
110.653
 20
158.8143
  0
SEQEND
  0
POLYLINE
  8
LAYER_1
 40
0.1058
 41
0.1058
 66
1
 10
0
 20
0
 30
0
  0
VERTEX
  8
LAYER_1
 10
110.3602
 20
159.0952
  0
VERTEX
  8
LAYER_1
 10
110.653
 20
158.8143
  0
SEQEND
  0
POLYLINE
  8
LAYER_1
 40
0.1058
 41
0.1058
 66
1
 10
0
 20
0
 30
0
  0
VERTEX
  8
LAYER_1
 10
106.8932
 20
157.0807
  0
VERTEX
  8
LAYER_1
 10
106.2099
 20
156.4092
  0
SEQEND
  0
POLYLINE
  8
LAYER_1
 40
0.1058
 41
0.1058
 66
1
 10
0
 20
0
 30
0
  0
VERTEX
  8
LAYER_1
 10
110.3602
 20
154.4801
  0
VERTEX
  8
LAYER_1
 10
110.653
 20
154.7744
  0
SEQEND
  0
POLYLINE
  8
LAYER_1
 40
0.1058
 41
0.1058
 66
1
 10
0
 20
0
 30
0
  0
VERTEX
  8
LAYER_1
 10
106.8932
 20
154.4801
  0
VERTEX
  8
LAYER_1
 10
106.8932
 20
157.0807
  0
SEQEND
  0
POLYLINE
  8
LAYER_1
 40
0.1058
 41
0.1058
 66
1
 10
0
 20
0
 30
0
  0
VERTEX
  8
LAYER_1
 10
102.5605
 20
149.3166
  0
VERTEX
  8
LAYER_1
 10
110.8976
 20
149.3166
  0
SEQEND
  0
POLYLINE
  8
LAYER_1
 40
0.1058
 41
0.1058
 66
1
 10
0
 20
0
 30
0
  0
VERTEX
  8
LAYER_1
 10
102.5605
 20
149.3166
  0
VERTEX
  8
LAYER_1
 10
106.2099
 20
155.7864
  0
VERTEX
  8
LAYER_1
 10
105.0017
 20
154.5535
  0
SEQEND
  0
POLYLINE
  8
LAYER_1
 40
0.1058
 41
0.1058
 66
1
 10
0
 20
0
 30
0
  0
VERTEX
  8
LAYER_1
 10
106.2099
 20
155.7864
  0
VERTEX
  8
LAYER_1
 10
105.7829
 20
154.1146
  0
SEQEND
  0
POLYLINE
  8
LAYER_1
 40
0.1058
 41
0.1058
 66
1
 10
0
 20
0
 30
0
  0
VERTEX
  8
LAYER_1
 10
91.0377
 20
159.6803
  0
VERTEX
  8
LAYER_1
 10
91.0377
 20
167.0043
  0
SEQEND
  0
POLYLINE
  8
LAYER_1
 40
0.1058
 41
0.1058
 66
1
 10
0
 20
0
 30
0
  0
VERTEX
  8
LAYER_1
 10
110.653
 20
159.6803
  0
VERTEX
  8
LAYER_1
 10
110.653
 20
167.0043
  0
SEQEND
  0
POLYLINE
  8
LAYER_1
 40
0.1058
 41
0.1058
 66
1
 10
0
 20
0
 30
0
  0
VERTEX
  8
LAYER_1
 10
91.0377
 20
166.138
  0
VERTEX
  8
LAYER_1
 10
92.7098
 20
165.6862
  0
SEQEND
  0
POLYLINE
  8
LAYER_1
 40
0.1058
 41
0.1058
 66
1
 10
0
 20
0
 30
0
  0
VERTEX
  8
LAYER_1
 10
91.0377
 20
166.138
  0
VERTEX
  8
LAYER_1
 10
92.7098
 20
166.589
  0
SEQEND
  0
POLYLINE
  8
LAYER_1
 40
0.1058
 41
0.1058
 66
1
 10
0
 20
0
 30
0
  0
VERTEX
  8
LAYER_1
 10
110.653
 20
166.138
  0
VERTEX
  8
LAYER_1
 10
108.9811
 20
166.589
  0
SEQEND
  0
POLYLINE
  8
LAYER_1
 40
0.1058
 41
0.1058
 66
1
 10
0
 20
0
 30
0
  0
VERTEX
  8
LAYER_1
 10
110.653
 20
166.138
  0
VERTEX
  8
LAYER_1
 10
108.9811
 20
165.6862
  0
SEQEND
  0
POLYLINE
  8
LAYER_1
 40
0.1058
 41
0.1058
 66
1
 10
0
 20
0
 30
0
  0
VERTEX
  8
LAYER_1
 10
91.0377
 20
166.138
  0
VERTEX
  8
LAYER_1
 10
110.653
 20
166.138
  0
SEQEND
  0
POLYLINE
  8
LAYER_1
 40
0.1058
 41
0.1058
 66
1
 10
0
 20
0
 30
0
  0
VERTEX
  8
LAYER_1
 10
117.6355
 20
154.4801
  0
VERTEX
  8
LAYER_1
 10
117.6355
 20
151.8937
  0
SEQEND
  0
POLYLINE
  8
LAYER_1
 40
0.1058
 41
0.1058
 66
1
 10
0
 20
0
 30
0
  0
VERTEX
  8
LAYER_1
 10
111.227
 20
159.0952
  0
VERTEX
  8
LAYER_1
 10
118.5016
 20
159.0952
  0
SEQEND
  0
POLYLINE
  8
LAYER_1
 40
0.1058
 41
0.1058
 66
1
 10
0
 20
0
 30
0
  0
VERTEX
  8
LAYER_1
 10
111.227
 20
154.4801
  0
VERTEX
  8
LAYER_1
 10
118.5016
 20
154.4801
  0
SEQEND
  0
POLYLINE
  8
LAYER_1
 40
0.1058
 41
0.1058
 66
1
 10
0
 20
0
 30
0
  0
VERTEX
  8
LAYER_1
 10
117.6355
 20
159.0952
  0
VERTEX
  8
LAYER_1
 10
118.0872
 20
160.7671
  0
SEQEND
  0
POLYLINE
  8
LAYER_1
 40
0.1058
 41
0.1058
 66
1
 10
0
 20
0
 30
0
  0
VERTEX
  8
LAYER_1
 10
117.6355
 20
159.0952
  0
VERTEX
  8
LAYER_1
 10
117.1835
 20
160.7671
  0
SEQEND
  0
POLYLINE
  8
LAYER_1
 40
0.1058
 41
0.1058
 66
1
 10
0
 20
0
 30
0
  0
VERTEX
  8
LAYER_1
 10
117.6355
 20
154.4801
  0
VERTEX
  8
LAYER_1
 10
117.1835
 20
152.8086
  0
SEQEND
  0
POLYLINE
  8
LAYER_1
 40
0.1058
 41
0.1058
 66
1
 10
0
 20
0
 30
0
  0
VERTEX
  8
LAYER_1
 10
117.6355
 20
154.4801
  0
VERTEX
  8
LAYER_1
 10
118.0872
 20
152.8086
  0
SEQEND
  0
POLYLINE
  8
LAYER_1
 40
0.1058
 41
0.1058
 66
1
 10
0
 20
0
 30
0
  0
VERTEX
  8
LAYER_1
 10
117.6355
 20
166.4798
  0
VERTEX
  8
LAYER_1
 10
117.6355
 20
154.4801
  0
SEQEND
  0
POLYLINE
  8
LAYER_1
 40
0.1058
 41
0.1058
 66
1
 10
0
 20
0
 30
0
  0
VERTEX
  8
LAYER_1
 10
91.0377
 20
158.985
  0
VERTEX
  8
LAYER_1
 10
91.1598
 20
159.0952
  0
SEQEND
  0
POLYLINE
  8
LAYER_1
 40
0.1058
 41
0.1058
 66
1
 10
0
 20
0
 30
0
  0
VERTEX
  8
LAYER_1
 10
91.0377
 20
154.6033
  0
VERTEX
  8
LAYER_1
 10
91.1598
 20
154.4801
  0
SEQEND
  0
POLYLINE
  8
LAYER_1
 40
0.1058
 41
0.1058
 66
1
 10
0
 20
0
 30
0
  0
VERTEX
  8
LAYER_1
 10
106.9914
 20
183.312
  0
VERTEX
  8
LAYER_1
 10
106.9551
 20
183.897
  0
VERTEX
  8
LAYER_1
 10
106.8817
 20
184.4594
  0
VERTEX
  8
LAYER_1
 10
106.7473
 20
185.0206
  0
VERTEX
  8
LAYER_1
 10
106.5518
 20
185.558
  0
VERTEX
  8
LAYER_1
 10
106.3203
 20
186.0824
  0
VERTEX
  8
LAYER_1
 10
106.0271
 20
186.5831
  0
VERTEX
  8
LAYER_1
 10
105.6976
 20
187.0589
  0
VERTEX
  8
LAYER_1
 10
105.319
 20
187.4859
  0
VERTEX
  8
LAYER_1
 10
104.9044
 20
187.8893
  0
VERTEX
  8
LAYER_1
 10
104.4524
 20
188.2428
  0
VERTEX
  8
LAYER_1
 10
103.964
 20
188.5478
  0
VERTEX
  8
LAYER_1
 10
103.4514
 20
188.816
  0
VERTEX
  8
LAYER_1
 10
102.9267
 20
189.0246
  0
VERTEX
  8
LAYER_1
 10
102.3653
 20
189.1826
  0
VERTEX
  8
LAYER_1
 10
101.8036
 20
189.2928
  0
VERTEX
  8
LAYER_1
 10
101.2298
 20
189.3535
  0
VERTEX
  8
LAYER_1
 10
100.656
 20
189.3535
  0
VERTEX
  8
LAYER_1
 10
100.0824
 20
189.2928
  0
VERTEX
  8
LAYER_1
 10
99.5216
 20
189.1826
  0
VERTEX
  8
LAYER_1
 10
98.9721
 20
189.0246
  0
VERTEX
  8
LAYER_1
 10
98.435
 20
188.816
  0
VERTEX
  8
LAYER_1
 10
97.922
 20
188.5478
  0
VERTEX
  8
LAYER_1
 10
97.434
 20
188.2428
  0
VERTEX
  8
LAYER_1
 10
96.9824
 20
187.8893
  0
VERTEX
  8
LAYER_1
 10
96.5671
 20
187.4859
  0
VERTEX
  8
LAYER_1
 10
96.2012
 20
187.0589
  0
VERTEX
  8
LAYER_1
 10
95.8593
 20
186.5831
  0
VERTEX
  8
LAYER_1
 10
95.5788
 20
186.0824
  0
VERTEX
  8
LAYER_1
 10
95.3342
 20
185.558
  0
VERTEX
  8
LAYER_1
 10
95.1511
 20
185.0206
  0
VERTEX
  8
LAYER_1
 10
95.0051
 20
184.4594
  0
VERTEX
  8
LAYER_1
 10
94.9317
 20
183.897
  0
VERTEX
  8
LAYER_1
 10
94.895
 20
183.312
  0
VERTEX
  8
LAYER_1
 10
94.9317
 20
182.7379
  0
VERTEX
  8
LAYER_1
 10
95.0051
 20
182.1766
  0
VERTEX
  8
LAYER_1
 10
95.1511
 20
181.6142
  0
VERTEX
  8
LAYER_1
 10
95.3342
 20
181.0778
  0
VERTEX
  8
LAYER_1
 10
95.5788
 20
180.5535
  0
VERTEX
  8
LAYER_1
 10
95.8593
 20
180.0527
  0
VERTEX
  8
LAYER_1
 10
96.2012
 20
179.5759
  0
VERTEX
  8
LAYER_1
 10
96.5671
 20
179.1488
  0
VERTEX
  8
LAYER_1
 10
96.9824
 20
178.7465
  0
VERTEX
  8
LAYER_1
 10
97.434
 20
178.4048
  0
VERTEX
  8
LAYER_1
 10
97.922
 20
178.088
  0
VERTEX
  8
LAYER_1
 10
98.435
 20
177.8189
  0
VERTEX
  8
LAYER_1
 10
98.9721
 20
177.6112
  0
VERTEX
  8
LAYER_1
 10
99.5216
 20
177.4522
  0
VERTEX
  8
LAYER_1
 10
100.0824
 20
177.3428
  0
VERTEX
  8
LAYER_1
 10
100.656
 20
177.2815
  0
VERTEX
  8
LAYER_1
 10
101.2298
 20
177.2815
  0
VERTEX
  8
LAYER_1
 10
101.8036
 20
177.3428
  0
VERTEX
  8
LAYER_1
 10
102.3653
 20
177.4522
  0
VERTEX
  8
LAYER_1
 10
102.9267
 20
177.6112
  0
VERTEX
  8
LAYER_1
 10
103.4514
 20
177.8189
  0
VERTEX
  8
LAYER_1
 10
103.964
 20
178.088
  0
VERTEX
  8
LAYER_1
 10
104.4524
 20
178.4048
  0
VERTEX
  8
LAYER_1
 10
104.9044
 20
178.7465
  0
VERTEX
  8
LAYER_1
 10
105.319
 20
179.1488
  0
VERTEX
  8
LAYER_1
 10
105.6976
 20
179.5759
  0
VERTEX
  8
LAYER_1
 10
106.0271
 20
180.0527
  0
VERTEX
  8
LAYER_1
 10
106.3203
 20
180.5535
  0
VERTEX
  8
LAYER_1
 10
106.5518
 20
181.0778
  0
VERTEX
  8
LAYER_1
 10
106.7473
 20
181.6142
  0
VERTEX
  8
LAYER_1
 10
106.8817
 20
182.1766
  0
VERTEX
  8
LAYER_1
 10
106.9551
 20
182.7379
  0
VERTEX
  8
LAYER_1
 10
106.9914
 20
183.312
  0
SEQEND
  0
POLYLINE
  8
LAYER_1
 40
0.1058
 41
0.1058
 66
1
 10
0
 20
0
 30
0
  0
VERTEX
  8
LAYER_1
 10
106.3203
 20
183.312
  0
VERTEX
  8
LAYER_1
 10
106.2836
 20
183.8852
  0
VERTEX
  8
LAYER_1
 10
106.1983
 20
184.4594
  0
VERTEX
  8
LAYER_1
 10
106.0514
 20
185.0085
  0
VERTEX
  8
LAYER_1
 10
105.844
 20
185.533
  0
VERTEX
  8
LAYER_1
 10
105.5755
 20
186.0457
  0
VERTEX
  8
LAYER_1
 10
105.2578
 20
186.5214
  0
VERTEX
  8
LAYER_1
 10
104.892
 20
186.9615
  0
VERTEX
  8
LAYER_1
 10
104.4891
 20
187.3639
  0
VERTEX
  8
LAYER_1
 10
104.0374
 20
187.7055
  0
VERTEX
  8
LAYER_1
 10
103.5496
 20
188.0233
  0
VERTEX
  8
LAYER_1
 10
103.0364
 20
188.2678
  0
VERTEX
  8
LAYER_1
 10
102.4993
 20
188.4624
  0
VERTEX
  8
LAYER_1
 10
101.938
 20
188.5976
  0
VERTEX
  8
LAYER_1
 10
101.3762
 20
188.6701
  0
VERTEX
  8
LAYER_1
 10
100.803
 20
188.6829
  0
VERTEX
  8
LAYER_1
 10
100.2292
 20
188.6452
  0
VERTEX
  8
LAYER_1
 10
99.668
 20
188.5358
  0
VERTEX
  8
LAYER_1
 10
99.1185
 20
188.3651
  0
VERTEX
  8
LAYER_1
 10
98.5935
 20
188.1454
  0
VERTEX
  8
LAYER_1
 10
98.0927
 20
187.8764
  0
VERTEX
  8
LAYER_1
 10
97.6292
 20
187.5465
  0
VERTEX
  8
LAYER_1
 10
97.1899
 20
187.1693
  0
VERTEX
  8
LAYER_1
 10
96.8117
 20
186.7538
  0
VERTEX
  8
LAYER_1
 10
96.4697
 20
186.2901
  0
VERTEX
  8
LAYER_1
 10
96.1769
 20
185.8023
  0
VERTEX
  8
LAYER_1
 10
95.9447
 20
185.2769
  0
VERTEX
  8
LAYER_1
 10
95.7616
 20
184.7274
  0
VERTEX
  8
LAYER_1
 10
95.6398
 20
184.1662
  0
VERTEX
  8
LAYER_1
 10
95.5788
 20
183.605
  0
VERTEX
  8
LAYER_1
 10
95.5788
 20
183.0309
  0
VERTEX
  8
LAYER_1
 10
95.6398
 20
182.4697
  0
VERTEX
  8
LAYER_1
 10
95.7616
 20
181.9083
  0
VERTEX
  8
LAYER_1
 10
95.9447
 20
181.3581
  0
VERTEX
  8
LAYER_1
 10
96.1769
 20
180.8455
  0
VERTEX
  8
LAYER_1
 10
96.4697
 20
180.3458
  0
VERTEX
  8
LAYER_1
 10
96.8117
 20
179.8939
  0
VERTEX
  8
LAYER_1
 10
97.1899
 20
179.4666
  0
VERTEX
  8
LAYER_1
 10
97.6292
 20
179.0881
  0
VERTEX
  8
LAYER_1
 10
98.0927
 20
178.7584
  0
VERTEX
  8
LAYER_1
 10
98.5935
 20
178.4904
  0
VERTEX
  8
LAYER_1
 10
99.1185
 20
178.2708
  0
VERTEX
  8
LAYER_1
 10
99.668
 20
178.0999
  0
VERTEX
  8
LAYER_1
 10
100.2292
 20
177.9897
  0
VERTEX
  8
LAYER_1
 10
100.803
 20
177.953
  0
VERTEX
  8
LAYER_1
 10
101.3762
 20
177.9648
  0
VERTEX
  8
LAYER_1
 10
101.938
 20
178.0382
  0
VERTEX
  8
LAYER_1
 10
102.4993
 20
178.1734
  0
VERTEX
  8
LAYER_1
 10
103.0364
 20
178.3681
  0
VERTEX
  8
LAYER_1
 10
103.5496
 20
178.6124
  0
VERTEX
  8
LAYER_1
 10
104.0374
 20
178.9174
  0
VERTEX
  8
LAYER_1
 10
104.4891
 20
179.2719
  0
VERTEX
  8
LAYER_1
 10
104.892
 20
179.6743
  0
VERTEX
  8
LAYER_1
 10
105.2578
 20
180.1134
  0
VERTEX
  8
LAYER_1
 10
105.5755
 20
180.5893
  0
VERTEX
  8
LAYER_1
 10
105.844
 20
181.1018
  0
VERTEX
  8
LAYER_1
 10
106.0514
 20
181.6392
  0
VERTEX
  8
LAYER_1
 10
106.1983
 20
182.1766
  0
VERTEX
  8
LAYER_1
 10
106.2836
 20
182.7508
  0
VERTEX
  8
LAYER_1
 10
106.3203
 20
183.312
  0
SEQEND
  0
POLYLINE
  8
LAYER_1
 40
0.1058
 41
0.1058
 66
1
 10
0
 20
0
 30
0
  0
VERTEX
  8
LAYER_1
 10
100.8397
 20
183.312
  0
VERTEX
  8
LAYER_1
 10
101.425
 20
183.312
  0
SEQEND
  0
POLYLINE
  8
LAYER_1
 40
0.1058
 41
0.1058
 66
1
 10
0
 20
0
 30
0
  0
VERTEX
  8
LAYER_1
 10
102.5729
 20
183.312
  0
VERTEX
  8
LAYER_1
 10
114.2297
 20
183.312
  0
SEQEND
  0
POLYLINE
  8
LAYER_1
 40
0.1058
 41
0.1058
 66
1
 10
0
 20
0
 30
0
  0
VERTEX
  8
LAYER_1
 10
100.8397
 20
183.312
  0
VERTEX
  8
LAYER_1
 10
100.2659
 20
183.312
  0
SEQEND
  0
POLYLINE
  8
LAYER_1
 40
0.1058
 41
0.1058
 66
1
 10
0
 20
0
 30
0
  0
VERTEX
  8
LAYER_1
 10
99.1185
 20
183.312
  0
VERTEX
  8
LAYER_1
 10
87.4617
 20
183.312
  0
SEQEND
  0
POLYLINE
  8
LAYER_1
 40
0.1058
 41
0.1058
 66
1
 10
0
 20
0
 30
0
  0
VERTEX
  8
LAYER_1
 10
100.8397
 20
183.312
  0
VERTEX
  8
LAYER_1
 10
100.8397
 20
183.897
  0
SEQEND
  0
POLYLINE
  8
LAYER_1
 40
0.1058
 41
0.1058
 66
1
 10
0
 20
0
 30
0
  0
VERTEX
  8
LAYER_1
 10
100.8397
 20
185.0452
  0
VERTEX
  8
LAYER_1
 10
100.8397
 20
196.7012
  0
SEQEND
  0
POLYLINE
  8
LAYER_1
 40
0.1058
 41
0.1058
 66
1
 10
0
 20
0
 30
0
  0
VERTEX
  8
LAYER_1
 10
100.8397
 20
183.312
  0
VERTEX
  8
LAYER_1
 10
100.8397
 20
182.7379
  0
SEQEND
  0
POLYLINE
  8
LAYER_1
 40
0.1058
 41
0.1058
 66
1
 10
0
 20
0
 30
0
  0
VERTEX
  8
LAYER_1
 10
100.8397
 20
181.5906
  0
VERTEX
  8
LAYER_1
 10
100.8397
 20
169.9336
  0
SEQEND
  0
POLYLINE
  8
LAYER_1
 40
0.1058
 41
0.1058
 66
1
 10
0
 20
0
 30
0
  0
VERTEX
  8
LAYER_1
 10
110.7505
 20
183.312
  0
VERTEX
  8
LAYER_1
 10
110.7267
 20
183.897
  0
VERTEX
  8
LAYER_1
 10
110.6775
 20
184.4594
  0
VERTEX
  8
LAYER_1
 10
110.592
 20
185.0335
  0
VERTEX
  8
LAYER_1
 10
110.4825
 20
185.6066
  0
VERTEX
  8
LAYER_1
 10
110.3237
 20
186.1557
  0
VERTEX
  8
LAYER_1
 10
110.1524
 20
186.7052
  0
VERTEX
  8
LAYER_1
 10
109.933
 20
187.2296
  0
VERTEX
  8
LAYER_1
 10
109.6887
 20
187.7551
  0
VERTEX
  8
LAYER_1
 10
109.408
 20
188.2559
  0
VERTEX
  8
LAYER_1
 10
109.1031
 20
188.7556
  0
VERTEX
  8
LAYER_1
 10
108.7734
 20
189.2193
  0
VERTEX
  8
LAYER_1
 10
108.4075
 20
189.6715
  0
VERTEX
  8
LAYER_1
 10
108.0289
 20
190.0985
  0
VERTEX
  8
LAYER_1
 10
107.6138
 20
190.5009
  0
VERTEX
  8
LAYER_1
 10
107.1866
 20
190.8793
  0
VERTEX
  8
LAYER_1
 10
106.7349
 20
191.234
  0
VERTEX
  8
LAYER_1
 10
106.2593
 20
191.5637
  0
VERTEX
  8
LAYER_1
 10
105.7586
 20
191.8556
  0
VERTEX
  8
LAYER_1
 10
105.2459
 20
192.124
  0
VERTEX
  8
LAYER_1
 10
104.7333
 20
192.3564
  0
VERTEX
  8
LAYER_1
 10
104.1843
 20
192.564
  0
VERTEX
  8
LAYER_1
 10
103.6469
 20
192.7348
  0
VERTEX
  8
LAYER_1
 10
103.0855
 20
192.8809
  0
VERTEX
  8
LAYER_1
 10
102.5236
 20
192.9911
  0
VERTEX
  8
LAYER_1
 10
101.95
 20
193.0645
  0
VERTEX
  8
LAYER_1
 10
101.3762
 20
193.1133
  0
VERTEX
  8
LAYER_1
 10
100.803
 20
193.1252
  0
VERTEX
  8
LAYER_1
 10
100.2292
 20
193.1014
  0
VERTEX
  8
LAYER_1
 10
99.6556
 20
193.0399
  0
VERTEX
  8
LAYER_1
 10
99.0818
 20
192.9422
  0
VERTEX
  8
LAYER_1
 10
98.5204
 20
192.8203
  0
VERTEX
  8
LAYER_1
 10
97.9711
 20
192.6623
  0
VERTEX
  8
LAYER_1
 10
97.4221
 20
192.4665
  0
VERTEX
  8
LAYER_1
 10
96.8971
 20
192.2472
  0
VERTEX
  8
LAYER_1
 10
96.3843
 20
191.9909
  0
VERTEX
  8
LAYER_1
 10
95.8836
 20
191.7097
  0
VERTEX
  8
LAYER_1
 10
95.3957
 20
191.3928
  0
VERTEX
  8
LAYER_1
 10
94.9317
 20
191.051
  0
VERTEX
  8
LAYER_1
 10
94.48
 20
190.6965
  0
VERTEX
  8
LAYER_1
 10
94.0651
 20
190.306
  0
VERTEX
  8
LAYER_1
 10
93.6622
 20
189.8909
  0
VERTEX
  8
LAYER_1
 10
93.2959
 20
189.4517
  0
VERTEX
  8
LAYER_1
 10
92.942
 20
188.9869
  0
VERTEX
  8
LAYER_1
 10
92.6245
 20
188.5122
  0
VERTEX
  8
LAYER_1
 10
92.3439
 20
188.0114
  0
VERTEX
  8
LAYER_1
 10
92.0753
 20
187.499
  0
VERTEX
  8
LAYER_1
 10
91.8431
 20
186.9734
  0
VERTEX
  8
LAYER_1
 10
91.6482
 20
186.436
  0
VERTEX
  8
LAYER_1
 10
91.4774
 20
185.8746
  0
VERTEX
  8
LAYER_1
 10
91.3433
 20
185.3136
  0
VERTEX
  8
LAYER_1
 10
91.2451
 20
184.7513
  0
VERTEX
  8
LAYER_1
 10
91.1841
 20
184.1781
  0
VERTEX
  8
LAYER_1
 10
91.1479
 20
183.605
  0
VERTEX
  8
LAYER_1
 10
91.1479
 20
183.0309
  0
VERTEX
  8
LAYER_1
 10
91.1841
 20
182.4567
  0
VERTEX
  8
LAYER_1
 10
91.2451
 20
181.8836
  0
VERTEX
  8
LAYER_1
 10
91.3433
 20
181.3223
  0
VERTEX
  8
LAYER_1
 10
91.4774
 20
180.76
  0
VERTEX
  8
LAYER_1
 10
91.6482
 20
180.2117
  0
VERTEX
  8
LAYER_1
 10
91.8431
 20
179.6614
  0
VERTEX
  8
LAYER_1
 10
92.0753
 20
179.1369
  0
VERTEX
  8
LAYER_1
 10
92.3439
 20
178.6244
  0
VERTEX
  8
LAYER_1
 10
92.6245
 20
178.1237
  0
VERTEX
  8
LAYER_1
 10
92.942
 20
177.6479
  0
VERTEX
  8
LAYER_1
 10
93.2959
 20
177.184
  0
VERTEX
  8
LAYER_1
 10
93.6622
 20
176.7451
  0
VERTEX
  8
LAYER_1
 10
94.0651
 20
176.3296
  0
VERTEX
  8
LAYER_1
 10
94.48
 20
175.9393
  0
VERTEX
  8
LAYER_1
 10
94.9317
 20
175.5727
  0
VERTEX
  8
LAYER_1
 10
95.3957
 20
175.2431
  0
VERTEX
  8
LAYER_1
 10
95.8836
 20
174.9261
  0
VERTEX
  8
LAYER_1
 10
96.3843
 20
174.645
  0
VERTEX
  8
LAYER_1
 10
96.8971
 20
174.3887
  0
VERTEX
  8
LAYER_1
 10
97.4221
 20
174.1692
  0
VERTEX
  8
LAYER_1
 10
97.9711
 20
173.9735
  0
VERTEX
  8
LAYER_1
 10
98.5204
 20
173.8145
  0
VERTEX
  8
LAYER_1
 10
99.0818
 20
173.6934
  0
VERTEX
  8
LAYER_1
 10
99.6556
 20
173.5961
  0
VERTEX
  8
LAYER_1
 10
100.2292
 20
173.5465
  0
VERTEX
  8
LAYER_1
 10
100.803
 20
173.5105
  0
VERTEX
  8
LAYER_1
 10
101.3762
 20
173.5226
  0
VERTEX
  8
LAYER_1
 10
101.95
 20
173.5711
  0
VERTEX
  8
LAYER_1
 10
102.5236
 20
173.6438
  0
VERTEX
  8
LAYER_1
 10
103.0855
 20
173.7539
  0
VERTEX
  8
LAYER_1
 10
103.6469
 20
173.9002
  0
VERTEX
  8
LAYER_1
 10
104.1843
 20
174.0709
  0
VERTEX
  8
LAYER_1
 10
104.7333
 20
174.2795
  0
VERTEX
  8
LAYER_1
 10
105.2459
 20
174.511
  0
VERTEX
  8
LAYER_1
 10
105.7586
 20
174.7802
  0
VERTEX
  8
LAYER_1
 10
106.2593
 20
175.0722
  0
VERTEX
  8
LAYER_1
 10
106.7349
 20
175.4019
  0
VERTEX
  8
LAYER_1
 10
107.1866
 20
175.7555
  0
VERTEX
  8
LAYER_1
 10
107.6138
 20
176.135
  0
VERTEX
  8
LAYER_1
 10
108.0289
 20
176.5374
  0
VERTEX
  8
LAYER_1
 10
108.4075
 20
176.9646
  0
VERTEX
  8
LAYER_1
 10
108.7734
 20
177.4166
  0
VERTEX
  8
LAYER_1
 10
109.1031
 20
177.8796
  0
VERTEX
  8
LAYER_1
 10
109.408
 20
178.38
  0
VERTEX
  8
LAYER_1
 10
109.6887
 20
178.8807
  0
VERTEX
  8
LAYER_1
 10
109.933
 20
179.4051
  0
VERTEX
  8
LAYER_1
 10
110.1524
 20
179.9306
  0
VERTEX
  8
LAYER_1
 10
110.3237
 20
180.4801
  0
VERTEX
  8
LAYER_1
 10
110.4825
 20
181.0293
  0
VERTEX
  8
LAYER_1
 10
110.592
 20
181.6025
  0
VERTEX
  8
LAYER_1
 10
110.6775
 20
182.1648
  0
VERTEX
  8
LAYER_1
 10
110.7267
 20
182.7379
  0
VERTEX
  8
LAYER_1
 10
110.7505
 20
183.312
  0
SEQEND
  0
POLYLINE
  8
LAYER_1
 40
0.1058
 41
0.1058
 66
1
 10
0
 20
0
 30
0
  0
VERTEX
  8
LAYER_1
 10
158.575
 20
94.2916
  0
VERTEX
  8
LAYER_1
 10
158.575
 20
91.6919
  0
SEQEND
  0
POLYLINE
  8
LAYER_1
 40
0.1058
 41
0.1058
 66
1
 10
0
 20
0
 30
0
  0
VERTEX
  8
LAYER_1
 10
154.7048
 20
94.9751
  0
VERTEX
  8
LAYER_1
 10
159.4411
 20
94.9751
  0
SEQEND
  0
POLYLINE
  8
LAYER_1
 40
0.1058
 41
0.1058
 66
1
 10
0
 20
0
 30
0
  0
VERTEX
  8
LAYER_1
 10
154.7048
 20
94.2916
  0
VERTEX
  8
LAYER_1
 10
159.4411
 20
94.2916
  0
SEQEND
  0
POLYLINE
  8
LAYER_1
 40
0.1058
 41
0.1058
 66
1
 10
0
 20
0
 30
0
  0
VERTEX
  8
LAYER_1
 10
158.575
 20
94.9751
  0
VERTEX
  8
LAYER_1
 10
159.0263
 20
96.6477
  0
SEQEND
  0
POLYLINE
  8
LAYER_1
 40
0.1058
 41
0.1058
 66
1
 10
0
 20
0
 30
0
  0
VERTEX
  8
LAYER_1
 10
158.575
 20
94.9751
  0
VERTEX
  8
LAYER_1
 10
158.1347
 20
96.6477
  0
SEQEND
  0
POLYLINE
  8
LAYER_1
 40
0.1058
 41
0.1058
 66
1
 10
0
 20
0
 30
0
  0
VERTEX
  8
LAYER_1
 10
158.575
 20
94.2916
  0
VERTEX
  8
LAYER_1
 10
158.1347
 20
92.62
  0
SEQEND
  0
POLYLINE
  8
LAYER_1
 40
0.1058
 41
0.1058
 66
1
 10
0
 20
0
 30
0
  0
VERTEX
  8
LAYER_1
 10
158.575
 20
94.2916
  0
VERTEX
  8
LAYER_1
 10
159.0263
 20
92.62
  0
SEQEND
  0
POLYLINE
  8
LAYER_1
 40
0.1058
 41
0.1058
 66
1
 10
0
 20
0
 30
0
  0
VERTEX
  8
LAYER_1
 10
158.575
 20
101.5669
  0
VERTEX
  8
LAYER_1
 10
158.575
 20
94.2916
  0
SEQEND
  0
POLYLINE
  8
LAYER_1
 40
0.1058
 41
0.1058
 66
1
 10
0
 20
0
 30
0
  0
VERTEX
  8
LAYER_1
 10
140.8638
 20
97.8555
  0
VERTEX
  8
LAYER_1
 10
140.8638
 20
95.7079
  0
SEQEND
  0
POLYLINE
  8
LAYER_1
 40
0.1058
 41
0.1058
 66
1
 10
0
 20
0
 30
0
  0
VERTEX
  8
LAYER_1
 10
140.8638
 20
94.9871
  0
VERTEX
  8
LAYER_1
 10
140.8638
 20
94.2795
  0
SEQEND
  0
POLYLINE
  8
LAYER_1
 40
0.1058
 41
0.1058
 66
1
 10
0
 20
0
 30
0
  0
VERTEX
  8
LAYER_1
 10
120.5032
 20
94.2916
  0
VERTEX
  8
LAYER_1
 10
120.5032
 20
91.6919
  0
SEQEND
  0
POLYLINE
  8
LAYER_1
 40
0.1058
 41
0.1058
 66
1
 10
0
 20
0
 30
0
  0
VERTEX
  8
LAYER_1
 10
114.681
 20
94.8659
  0
VERTEX
  8
LAYER_1
 10
121.3704
 20
94.8659
  0
SEQEND
  0
POLYLINE
  8
LAYER_1
 40
0.1058
 41
0.1058
 66
1
 10
0
 20
0
 30
0
  0
VERTEX
  8
LAYER_1
 10
114.681
 20
94.2916
  0
VERTEX
  8
LAYER_1
 10
121.3704
 20
94.2916
  0
SEQEND
  0
POLYLINE
  8
LAYER_1
 40
0.1058
 41
0.1058
 66
1
 10
0
 20
0
 30
0
  0
VERTEX
  8
LAYER_1
 10
120.5032
 20
94.8659
  0
VERTEX
  8
LAYER_1
 10
120.9549
 20
96.5374
  0
SEQEND
  0
POLYLINE
  8
LAYER_1
 40
0.1058
 41
0.1058
 66
1
 10
0
 20
0
 30
0
  0
VERTEX
  8
LAYER_1
 10
120.5032
 20
94.8659
  0
VERTEX
  8
LAYER_1
 10
120.064
 20
96.5374
  0
SEQEND
  0
POLYLINE
  8
LAYER_1
 40
0.1058
 41
0.1058
 66
1
 10
0
 20
0
 30
0
  0
VERTEX
  8
LAYER_1
 10
120.5032
 20
94.2916
  0
VERTEX
  8
LAYER_1
 10
120.064
 20
92.62
  0
SEQEND
  0
POLYLINE
  8
LAYER_1
 40
0.1058
 41
0.1058
 66
1
 10
0
 20
0
 30
0
  0
VERTEX
  8
LAYER_1
 10
120.5032
 20
94.2916
  0
VERTEX
  8
LAYER_1
 10
120.9549
 20
92.62
  0
SEQEND
  0
POLYLINE
  8
LAYER_1
 40
0.1058
 41
0.1058
 66
1
 10
0
 20
0
 30
0
  0
VERTEX
  8
LAYER_1
 10
120.5032
 20
101.1277
  0
VERTEX
  8
LAYER_1
 10
120.5032
 20
94.2916
  0
SEQEND
  0
POLYLINE
  8
LAYER_1
 40
0.1058
 41
0.1058
 66
1
 10
0
 20
0
 30
0
  0
VERTEX
  8
LAYER_1
 10
100.8397
 20
98.3812
  0
VERTEX
  8
LAYER_1
 10
100.8397
 20
96.0613
  0
SEQEND
  0
POLYLINE
  8
LAYER_1
 40
0.1058
 41
0.1058
 66
1
 10
0
 20
0
 30
0
  0
VERTEX
  8
LAYER_1
 10
100.8397
 20
95.281
  0
VERTEX
  8
LAYER_1
 10
100.8397
 20
94.499
  0
SEQEND
  0
POLYLINE
  8
LAYER_1
 40
0.1058
 41
0.1058
 66
1
 10
0
 20
0
 30
0
  0
VERTEX
  8
LAYER_1
 10
100.8397
 20
93.7304
  0
VERTEX
  8
LAYER_1
 10
100.8397
 20
91.3991
  0
SEQEND
  0
POLYLINE
  8
LAYER_1
 40
0.1058
 41
0.1058
 66
1
 10
0
 20
0
 30
0
  0
VERTEX
  8
LAYER_1
 10
108.053
 20
157.0807
  0
VERTEX
  8
LAYER_1
 10
108.053
 20
159.0952
  0
SEQEND
  0
POLYLINE
  8
LAYER_1
 40
0.1058
 41
0.1058
 66
1
 10
0
 20
0
 30
0
  0
VERTEX
  8
LAYER_1
 10
109.994
 20
154.4801
  0
VERTEX
  8
LAYER_1
 10
110.653
 20
155.1397
  0
SEQEND
  0
POLYLINE
  8
LAYER_1
 40
0.1058
 41
0.1058
 66
1
 10
0
 20
0
 30
0
  0
VERTEX
  8
LAYER_1
 10
109.1885
 20
154.4801
  0
VERTEX
  8
LAYER_1
 10
110.653
 20
155.9453
  0
SEQEND
  0
POLYLINE
  8
LAYER_1
 40
0.1058
 41
0.1058
 66
1
 10
0
 20
0
 30
0
  0
VERTEX
  8
LAYER_1
 10
108.3706
 20
154.4801
  0
VERTEX
  8
LAYER_1
 10
110.653
 20
156.7629
  0
SEQEND
  0
POLYLINE
  8
LAYER_1
 40
0.1058
 41
0.1058
 66
1
 10
0
 20
0
 30
0
  0
VERTEX
  8
LAYER_1
 10
107.5531
 20
154.4801
  0
VERTEX
  8
LAYER_1
 10
110.653
 20
157.5814
  0
SEQEND
  0
POLYLINE
  8
LAYER_1
 40
0.1058
 41
0.1058
 66
1
 10
0
 20
0
 30
0
  0
VERTEX
  8
LAYER_1
 10
106.8932
 20
154.6391
  0
VERTEX
  8
LAYER_1
 10
110.653
 20
158.3989
  0
SEQEND
  0
POLYLINE
  8
LAYER_1
 40
0.1058
 41
0.1058
 66
1
 10
0
 20
0
 30
0
  0
VERTEX
  8
LAYER_1
 10
106.8932
 20
155.4577
  0
VERTEX
  8
LAYER_1
 10
110.4456
 20
159.0098
  0
SEQEND
  0
POLYLINE
  8
LAYER_1
 40
0.1058
 41
0.1058
 66
1
 10
0
 20
0
 30
0
  0
VERTEX
  8
LAYER_1
 10
106.8932
 20
156.2621
  0
VERTEX
  8
LAYER_1
 10
107.6992
 20
157.0807
  0
SEQEND
  0
POLYLINE
  8
LAYER_1
 40
0.1058
 41
0.1058
 66
1
 10
0
 20
0
 30
0
  0
VERTEX
  8
LAYER_1
 10
108.053
 20
157.4343
  0
VERTEX
  8
LAYER_1
 10
109.7135
 20
159.0952
  0
SEQEND
  0
POLYLINE
  8
LAYER_1
 40
0.1058
 41
0.1058
 66
1
 10
0
 20
0
 30
0
  0
VERTEX
  8
LAYER_1
 10
108.053
 20
158.2529
  0
VERTEX
  8
LAYER_1
 10
108.8957
 20
159.0952
  0
SEQEND
  0
POLYLINE
  8
LAYER_1
 40
0.1058
 41
0.1058
 66
1
 10
0
 20
0
 30
0
  0
VERTEX
  8
LAYER_1
 10
108.053
 20
159.0576
  0
VERTEX
  8
LAYER_1
 10
108.0899
 20
159.0952
  0
SEQEND
  0
POLYLINE
  8
LAYER_1
 40
0.1058
 41
0.1058
 66
1
 10
0
 20
0
 30
0
  0
VERTEX
  8
LAYER_1
 10
108.053
 20
183.312
  0
VERTEX
  8
LAYER_1
 10
108.0289
 20
183.8852
  0
VERTEX
  8
LAYER_1
 10
107.9559
 20
184.4594
  0
VERTEX
  8
LAYER_1
 10
107.846
 20
185.0206
  0
VERTEX
  8
LAYER_1
 10
107.6871
 20
185.5699
  0
VERTEX
  8
LAYER_1
 10
107.4918
 20
186.1063
  0
VERTEX
  8
LAYER_1
 10
107.2475
 20
186.6318
  0
VERTEX
  8
LAYER_1
 10
106.9671
 20
187.1322
  0
VERTEX
  8
LAYER_1
 10
106.6371
 20
187.5963
  0
VERTEX
  8
LAYER_1
 10
106.2836
 20
188.0473
  0
VERTEX
  8
LAYER_1
 10
105.8926
 20
188.4624
  0
VERTEX
  8
LAYER_1
 10
105.4654
 20
188.8539
  0
VERTEX
  8
LAYER_1
 10
105.0141
 20
189.1957
  0
VERTEX
  8
LAYER_1
 10
104.5257
 20
189.5123
  0
VERTEX
  8
LAYER_1
 10
104.025
 20
189.7934
  0
VERTEX
  8
LAYER_1
 10
103.5
 20
190.013
  0
VERTEX
  8
LAYER_1
 10
102.9634
 20
190.2087
  0
VERTEX
  8
LAYER_1
 10
102.402
 20
190.3548
  0
VERTEX
  8
LAYER_1
 10
101.8403
 20
190.4521
  0
VERTEX
  8
LAYER_1
 10
101.2665
 20
190.5127
  0
VERTEX
  8
LAYER_1
 10
100.7048
 20
190.5255
  0
VERTEX
  8
LAYER_1
 10
100.1319
 20
190.4888
  0
VERTEX
  8
LAYER_1
 10
99.5577
 20
190.4154
  0
VERTEX
  8
LAYER_1
 10
98.9964
 20
190.2942
  0
VERTEX
  8
LAYER_1
 10
98.447
 20
190.1104
  0
VERTEX
  8
LAYER_1
 10
97.922
 20
189.9026
  0
VERTEX
  8
LAYER_1
 10
97.4092
 20
189.6584
  0
VERTEX
  8
LAYER_1
 10
96.9095
 20
189.3664
  0
VERTEX
  8
LAYER_1
 10
96.4454
 20
189.0365
  0
VERTEX
  8
LAYER_1
 10
96.0057
 20
188.6581
  0
VERTEX
  8
LAYER_1
 10
95.6031
 20
188.2559
  0
VERTEX
  8
LAYER_1
 10
95.2245
 20
187.8276
  0
VERTEX
  8
LAYER_1
 10
94.8831
 20
187.3639
  0
VERTEX
  8
LAYER_1
 10
94.5773
 20
186.8761
  0
VERTEX
  8
LAYER_1
 10
94.3212
 20
186.3754
  0
VERTEX
  8
LAYER_1
 10
94.0895
 20
185.8379
  0
VERTEX
  8
LAYER_1
 10
93.9183
 20
185.3017
  0
VERTEX
  8
LAYER_1
 10
93.7843
 20
184.7395
  0
VERTEX
  8
LAYER_1
 10
93.6864
 20
184.1781
  0
VERTEX
  8
LAYER_1
 10
93.6379
 20
183.605
  0
VERTEX
  8
LAYER_1
 10
93.6379
 20
183.0309
  0
VERTEX
  8
LAYER_1
 10
93.6864
 20
182.4567
  0
VERTEX
  8
LAYER_1
 10
93.7843
 20
181.8964
  0
VERTEX
  8
LAYER_1
 10
93.9183
 20
181.3342
  0
VERTEX
  8
LAYER_1
 10
94.0895
 20
180.7979
  0
VERTEX
  8
LAYER_1
 10
94.3212
 20
180.2724
  0
VERTEX
  8
LAYER_1
 10
94.5773
 20
179.7599
  0
VERTEX
  8
LAYER_1
 10
94.8831
 20
179.2719
  0
VERTEX
  8
LAYER_1
 10
95.2245
 20
178.807
  0
VERTEX
  8
LAYER_1
 10
95.6031
 20
178.38
  0
VERTEX
  8
LAYER_1
 10
96.0057
 20
177.9776
  0
VERTEX
  8
LAYER_1
 10
96.4454
 20
177.6112
  0
VERTEX
  8
LAYER_1
 10
96.9095
 20
177.2695
  0
VERTEX
  8
LAYER_1
 10
97.4092
 20
176.9764
  0
VERTEX
  8
LAYER_1
 10
97.922
 20
176.7331
  0
VERTEX
  8
LAYER_1
 10
98.447
 20
176.5126
  0
VERTEX
  8
LAYER_1
 10
98.9964
 20
176.3536
  0
VERTEX
  8
LAYER_1
 10
99.5577
 20
176.2204
  0
VERTEX
  8
LAYER_1
 10
100.1319
 20
176.147
  0
VERTEX
  8
LAYER_1
 10
100.7048
 20
176.1104
  0
VERTEX
  8
LAYER_1
 10
101.2665
 20
176.1221
  0
VERTEX
  8
LAYER_1
 10
101.8403
 20
176.1827
  0
VERTEX
  8
LAYER_1
 10
102.402
 20
176.2811
  0
VERTEX
  8
LAYER_1
 10
102.9634
 20
176.427
  0
VERTEX
  8
LAYER_1
 10
103.5
 20
176.6228
  0
VERTEX
  8
LAYER_1
 10
104.025
 20
176.8541
  0
VERTEX
  8
LAYER_1
 10
104.5257
 20
177.1223
  0
VERTEX
  8
LAYER_1
 10
105.0141
 20
177.4403
  0
VERTEX
  8
LAYER_1
 10
105.4654
 20
177.7819
  0
VERTEX
  8
LAYER_1
 10
105.8926
 20
178.1734
  0
VERTEX
  8
LAYER_1
 10
106.2836
 20
178.5877
  0
VERTEX
  8
LAYER_1
 10
106.6371
 20
179.0278
  0
VERTEX
  8
LAYER_1
 10
106.9671
 20
179.5153
  0
VERTEX
  8
LAYER_1
 10
107.2475
 20
180.0031
  0
VERTEX
  8
LAYER_1
 10
107.4918
 20
180.5287
  0
VERTEX
  8
LAYER_1
 10
107.6871
 20
181.066
  0
VERTEX
  8
LAYER_1
 10
107.846
 20
181.6142
  0
VERTEX
  8
LAYER_1
 10
107.9559
 20
182.1766
  0
VERTEX
  8
LAYER_1
 10
108.0289
 20
182.7508
  0
VERTEX
  8
LAYER_1
 10
108.053
 20
183.312
  0
SEQEND
  0
INSERT
  8
LAYER_1
  2
AIGNBL01010002
 10
0
 20
0
 30
0
  0
INSERT
  8
LAYER_1
  2
AIGNBL01010003
 10
0
 20
0
 30
0
  0
INSERT
  8
LAYER_1
  2
AIGNBL01010004
 10
0
 20
0
 30
0
  0
INSERT
  8
LAYER_1
  2
AIGNBL01010005
 10
0
 20
0
 30
0
  0
INSERT
  8
LAYER_1
  2
AIGNBL01010006
 10
0
 20
0
 30
0
  0
INSERT
  8
LAYER_1
  2
AIGNBL01010007
 10
0
 20
0
 30
0
  0
INSERT
  8
LAYER_1
  2
AIGNBL01010008
 10
0
 20
0
 30
0
  0
INSERT
  8
LAYER_1
  2
AIGNBL01010009
 10
0
 20
0
 30
0
  0
INSERT
  8
LAYER_1
  2
AIGNBL0101000A
 10
0
 20
0
 30
0
  0
INSERT
  8
LAYER_1
  2
AIGNBL0101000B
 10
0
 20
0
 30
0
  0
TEXT
  8
LAYER_3
 10
-26.2556
 20
43.1712
 11
-26.2556
 21
43.1712
 40
3.2995
 41
0.5
  1
仕様
  0
POLYLINE
  8
LAYER_3
 40
0.3528
 41
0.3528
 66
1
 10
0
 20
0
 30
0
  0
VERTEX
  8
LAYER_3
 10
250.6748
 20
51.9507
  0
VERTEX
  8
LAYER_3
 10
-29.3178
 20
51.9507
  0
SEQEND
  0
INSERT
  8
LAYER_3
  2
AIGNBL03010002
 10
0
 20
0
 30
0
  0
POLYLINE
  8
LAYER_3
 40
0.3528
 41
0.3528
 66
1
 10
0
 20
0
 30
0
  0
VERTEX
  8
LAYER_3
 10
-29.3178
 20
229.3369
  0
VERTEX
  8
LAYER_3
 10
-29.3178
 20
34.3283
  0
VERTEX
  8
LAYER_3
 10
250.6748
 20
34.3283
  0
VERTEX
  8
LAYER_3
 10
250.6748
 20
229.3369
  0
VERTEX
  8
LAYER_3
 10
-29.3178
 20
229.3369
  0
SEQEND
  0
POLYLINE
  8
LAYER_3
 40
0.3528
 41
0.3528
 66
1
 10
0
 20
0
 30
0
  0
VERTEX
  8
LAYER_3
 10
250.6748
 20
60.4597
  0
VERTEX
  8
LAYER_3
 10
-29.3178
 20
60.4597
  0
SEQEND
  0
POLYLINE
  8
LAYER_3
 40
0.3528
 41
0.3528
 66
1
 10
0
 20
0
 30
0
  0
VERTEX
  8
LAYER_3
 10
250.6748
 20
43.4416
  0
VERTEX
  8
LAYER_3
 10
143.534
 20
43.4416
  0
SEQEND
  0
TEXT
  8
LAYER_3
 10
188.1725
 20
45.7175
 11
188.1725
 21
45.7175
 40
3.7615
 41
0.5
  1
-
  0
TEXT
  8
LAYER_3
 10
182.8808
 20
49.4743
 11
182.8808
 21
49.4743
 40
2.1997
 41
0.5
  1
縮尺
  0
POLYLINE
  8
LAYER_3
 40
0.3528
 41
0.3528
 66
1
 10
0
 20
0
 30
0
  0
VERTEX
  8
LAYER_3
 10
181.3526
 20
43.4416
  0
VERTEX
  8
LAYER_3
 10
181.3526
 20
51.9507
  0
SEQEND
  0
TEXT
  8
LAYER_3
 10
144.2327
 20
57.9834
 11
144.2327
 21
57.9834
 40
2.1997
 41
0.5
  1
品番
  0
TEXT
  8
LAYER_3
 10
-28.1609
 20
57.9834
 11
-28.1609
 21
57.9834
 40
2.1997
 41
0.5
  1
品名
  0
TEXT
  8
LAYER_3
 10
144.2327
 20
49.4743
 11
144.2327
 21
49.4743
 40
2.1997
 41
0.5
  1
重量
  0
TEXT
  8
LAYER_3
 10
150.2547
 20
54.1514
 11
150.2547
 21
54.1514
 40
5.9385
 41
0.5
  1
Y107-812
  0
TEXT
  8
LAYER_3
 10
149.5454
 20
45.7175
 11
149.5454
 21
45.7175
 40
3.7615
 41
0.5
  1
-
  0
POLYLINE
  8
LAYER_3
 40
0.3528
 41
0.3528
 66
1
 10
0
 20
0
 30
0
  0
VERTEX
  8
LAYER_3
 10
143.534
 20
34.9539
  0
VERTEX
  8
LAYER_3
 10
143.534
 20
60.4597
  0
SEQEND
  0
TEXT
  8
LAYER_3
 10
-15.2256
 20
54.8911
 11
-15.2256
 21
54.8911
 40
3.6373
 41
0.5
  1
単水栓取付アダプター
  0
TEXT
  8
LAYER_3
 10
237.263
 20
63.2582
 11
237.263
 21
63.2582
 40
2.9618
 41
0.5
  1
単位：mm
  0
TEXT
  8
LAYER_3
 10
176.0254
 20
39.5359
 11
176.0254
 21
39.5359
 40
3.3853
 41
0.5
  1
●TEL 0120-65-1232●FAX 06-6532-1580
  0
TEXT
  8
LAYER_3
 10
176.0254
 20
36.0212
 11
176.0254
 21
36.0212
 40
3.3853
 41
0.5
  1
hits@hiratatile.co.jp
  0
INSERT
  8
LAYER_3
  2
AIGNBL03010003
 10
0
 20
0
 30
0
  0
TEXT
  8
LAYER_3
 10
240.3591
 20
225.8432
 11
240.3591
 21
225.8432
 40
2.0732
 41
0.5
  1
171218RT
  0
ENDSEC
  0
EOF
