  0
SECTION
  2
HEADER
  9
$ACADVER
  1
AC1009
  9
$LUNITS
 70
2
  9
$LUPREC
 70
4
  9
$LTSCALE
 40
1.0
  9
$EXTMIN
 10
16.0764
 20
-7.7766
 30
0
  9
$EXTMAX
 10
206.0763
 20
269.2235
 30
0
  0
ENDSEC
  0
SECTION
  2
TABLES
  0
TABLE
  2
LTYPE
 70
256
  0
LTYPE
  2
AIGENLINE001
 70
64
  3
generate AI->DXF Converter
 72
65
 73
4
 40
50.8
 49
31.75
 49
-6.35
 49
6.35
 49
-6.35
  0
ENDTAB
  0
TABLE
  2
LAYER
 70
7
  0
LAYER
  2
LAYER_1
 70
64
 62
7
  6
CONTINUOUS
  0
LAYER
  2
LAYER_2
 70
64
 62
7
  6
CONTINUOUS
  0
LAYER
  2
LAYER_3
 70
64
 62
7
  6
CONTINUOUS
  0
LAYER
  2
LAYER_4
 70
64
 62
7
  6
CONTINUOUS
  0
LAYER
  2
LAYER_5
 70
64
 62
7
  6
CONTINUOUS
  0
LAYER
  2
LAYER_6
 70
64
 62
7
  6
CONTINUOUS
  0
LAYER
  2
LAYER_7
 70
64
 62
7
  6
CONTINUOUS
  0
ENDTAB
  0
TABLE
  2
STYLE
 70
6
  0
STYLE
  2
STANDARD
 70
0
 40
0
 50
0
 71
0
 41
0
 42
0
  3
TXT
  4
BIGFONT
  0
ENDTAB
  0
ENDSEC
  0
SECTION
  2
BLOCKS
  0
BLOCK
  8
LAYER_7
  2
AIGNBL07040006
 70
64
 10
0
 20
0
 30
0
  3
AIGNBL07040006
  0
POLYLINE
  8
LAYER_7
 40
0.05
 41
0.05
 66
1
 10
0
 20
0
 30
0
 70
1
  0
VERTEX
  8
LAYER_7
 10
129.5759
 20
-1.9017
  0
VERTEX
  8
LAYER_7
 10
129.1615
 20
-2.9063
  0
VERTEX
  8
LAYER_7
 10
128.6292
 20
-2.9063
  0
VERTEX
  8
LAYER_7
 10
129.9848
 20
0.2856
  0
VERTEX
  8
LAYER_7
 10
130.6063
 20
0.2856
  0
VERTEX
  8
LAYER_7
 10
131.9682
 20
-2.9063
  0
VERTEX
  8
LAYER_7
 10
131.417
 20
-2.9063
  0
VERTEX
  8
LAYER_7
 10
130.9908
 20
-1.9017
  0
SEQEND
  0
POLYLINE
  8
LAYER_7
 40
0.05
 41
0.05
 66
1
 10
0
 20
0
 30
0
 70
1
  0
VERTEX
  8
LAYER_7
 10
130.8843
 20
-1.5806
  0
VERTEX
  8
LAYER_7
 10
130.4937
 20
-0.6611
 42
-0.02231634433
  0
VERTEX
  8
LAYER_7
 10
130.2863
 20
-0.0789
  0
VERTEX
  8
LAYER_7
 10
130.2746
 20
-0.0789
  0
VERTEX
  8
LAYER_7
 10
130.073
 20
-0.6573
  0
VERTEX
  8
LAYER_7
 10
129.6827
 20
-1.5806
  0
SEQEND
  0
ENDBLK
  0
BLOCK
  8
LAYER_7
  2
AIGNBL07040007
 70
64
 10
0
 20
0
 30
0
  3
AIGNBL07040007
  0
POLYLINE
  8
LAYER_7
 40
0.05
 41
0.05
 66
1
 10
0
 20
0
 30
0
 70
1
  0
VERTEX
  8
LAYER_7
 10
135.6682
 20
-3.3752
 42
-0.01546784356
  0
VERTEX
  8
LAYER_7
 10
134.1406
 20
-3.0055
 42
0.09489436555
  0
VERTEX
  8
LAYER_7
 10
133.8978
 20
-2.9586
 42
-0.10037316
  0
VERTEX
  8
LAYER_7
 10
133.0334
 20
-2.7616
 42
-0.109711943
  0
VERTEX
  8
LAYER_7
 10
132.4708
 20
-2.3298
 42
-0.1713268648
  0
VERTEX
  8
LAYER_7
 10
132.1403
 20
-1.3917
 42
-0.006480698287
  0
VERTEX
  8
LAYER_7
 10
132.1397
 20
-1.3439
 42
-0.1157034776
  0
VERTEX
  8
LAYER_7
 10
132.3143
 20
-0.5737
 42
-0.1679073219
  0
VERTEX
  8
LAYER_7
 10
133.0508
 20
0.1353
 42
-0.1003512093
  0
VERTEX
  8
LAYER_7
 10
133.8492
 20
0.3333
 42
-0.01509702754
  0
VERTEX
  8
LAYER_7
 10
133.9987
 20
0.3376
 42
-0.1039792847
  0
VERTEX
  8
LAYER_7
 10
134.8741
 20
0.1618
 42
-0.1145979469
  0
VERTEX
  8
LAYER_7
 10
135.4472
 20
-0.2739
 42
-0.1701831437
  0
VERTEX
  8
LAYER_7
 10
135.7859
 20
-1.2334
 42
-0.006053583771
  0
VERTEX
  8
LAYER_7
 10
135.7864
 20
-1.2774
 42
-0.1147423235
  0
VERTEX
  8
LAYER_7
 10
135.6161
 20
-2.0449
 42
-0.1769022546
  0
VERTEX
  8
LAYER_7
 10
134.889
 20
-2.7221
 42
-0.03554750027
  0
VERTEX
  8
LAYER_7
 10
134.6498
 20
-2.8071
  0
VERTEX
  8
LAYER_7
 10
134.6498
 20
-2.826
 42
0.01550615466
  0
VERTEX
  8
LAYER_7
 10
135.8163
 20
-3.0296
  0
SEQEND
  0
POLYLINE
  8
LAYER_7
 40
0.05
 41
0.05
 66
1
 10
0
 20
0
 30
0
 70
1
  0
VERTEX
  8
LAYER_7
 10
135.242
 20
-1.2957
 42
0.1259408456
  0
VERTEX
  8
LAYER_7
 10
135.0661
 20
-0.6047
 42
0.2766861333
  0
VERTEX
  8
LAYER_7
 10
133.9804
 20
0.0014
 42
0.1290056232
  0
VERTEX
  8
LAYER_7
 10
133.2943
 20
-0.169
 42
0.1986365062
  0
VERTEX
  8
LAYER_7
 10
132.7484
 20
-0.8931
 42
0.0720898619
  0
VERTEX
  8
LAYER_7
 10
132.6903
 20
-1.3336
 42
0.1266906031
  0
VERTEX
  8
LAYER_7
 10
132.8535
 20
-1.9998
 42
0.2778283058
  0
VERTEX
  8
LAYER_7
 10
133.957
 20
-2.6228
 42
0.1289619697
  0
VERTEX
  8
LAYER_7
 10
134.6333
 20
-2.4541
 42
0.197407087
  0
VERTEX
  8
LAYER_7
 10
135.1812
 20
-1.7353
 42
0.07132386385
  0
SEQEND
  0
ENDBLK
  0
BLOCK
  8
LAYER_7
  2
AIGNBL07040008
 70
64
 10
0
 20
0
 30
0
  3
AIGNBL07040008
  0
POLYLINE
  8
LAYER_7
 40
0.05
 41
0.05
 66
1
 10
0
 20
0
 30
0
 70
1
  0
VERTEX
  8
LAYER_7
 10
136.9115
 20
0.2856
  0
VERTEX
  8
LAYER_7
 10
136.9115
 20
-1.604
 42
0.138981145
  0
VERTEX
  8
LAYER_7
 10
137.0775
 20
-2.2603
 42
0.2426831429
  0
VERTEX
  8
LAYER_7
 10
137.7307
 20
-2.6183
 42
0.02279944991
  0
VERTEX
  8
LAYER_7
 10
137.841
 20
-2.6228
 42
0.1447112033
  0
VERTEX
  8
LAYER_7
 10
138.4458
 20
-2.4624
 42
0.1656484091
  0
VERTEX
  8
LAYER_7
 10
138.7433
 20
-2.0609
 42
0.08652758299
  0
VERTEX
  8
LAYER_7
 10
138.8118
 20
-1.604
  0
VERTEX
  8
LAYER_7
 10
138.8118
 20
0.2856
  0
VERTEX
  8
LAYER_7
 10
139.3328
 20
0.2856
  0
VERTEX
  8
LAYER_7
 10
139.3328
 20
-1.5758
 42
-0.1213960252
  0
VERTEX
  8
LAYER_7
 10
139.1651
 20
-2.3157
 42
-0.2016266738
  0
VERTEX
  8
LAYER_7
 10
138.4576
 20
-2.87
 42
-0.07892314617
  0
VERTEX
  8
LAYER_7
 10
137.8231
 20
-2.9586
 42
-0.1140673463
  0
VERTEX
  8
LAYER_7
 10
137.0107
 20
-2.7878
 42
-0.2086854916
  0
VERTEX
  8
LAYER_7
 10
136.4579
 20
-2.1056
 42
-0.07376116688
  0
VERTEX
  8
LAYER_7
 10
136.3906
 20
-1.5944
  0
VERTEX
  8
LAYER_7
 10
136.3906
 20
0.2856
  0
SEQEND
  0
ENDBLK
  0
BLOCK
  8
LAYER_7
  2
AIGNBL07040009
 70
64
 10
0
 20
0
 30
0
  3
AIGNBL07040009
  0
POLYLINE
  8
LAYER_7
 40
0.05
 41
0.05
 66
1
 10
0
 20
0
 30
0
 70
1
  0
VERTEX
  8
LAYER_7
 10
140.8131
 20
-1.9017
  0
VERTEX
  8
LAYER_7
 10
140.3983
 20
-2.9063
  0
VERTEX
  8
LAYER_7
 10
139.866
 20
-2.9063
  0
VERTEX
  8
LAYER_7
 10
141.2217
 20
0.2856
  0
VERTEX
  8
LAYER_7
 10
141.8428
 20
0.2856
  0
VERTEX
  8
LAYER_7
 10
143.2047
 20
-2.9063
  0
VERTEX
  8
LAYER_7
 10
142.6542
 20
-2.9063
  0
VERTEX
  8
LAYER_7
 10
142.228
 20
-1.9017
  0
SEQEND
  0
POLYLINE
  8
LAYER_7
 40
0.05
 41
0.05
 66
1
 10
0
 20
0
 30
0
 70
1
  0
VERTEX
  8
LAYER_7
 10
142.1212
 20
-1.5806
  0
VERTEX
  8
LAYER_7
 10
141.7302
 20
-0.6611
 42
-0.02125651819
  0
VERTEX
  8
LAYER_7
 10
141.5228
 20
-0.0789
  0
VERTEX
  8
LAYER_7
 10
141.5111
 20
-0.0789
 42
-0.02103918769
  0
VERTEX
  8
LAYER_7
 10
141.3099
 20
-0.6573
  0
VERTEX
  8
LAYER_7
 10
140.9192
 20
-1.5806
  0
SEQEND
  0
ENDBLK
  0
BLOCK
  8
LAYER_7
  2
AIGNBL0704000A
 70
64
 10
0
 20
0
 30
0
  3
AIGNBL0704000A
  0
POLYLINE
  8
LAYER_7
 40
0.05
 41
0.05
 66
1
 10
0
 20
0
 30
0
 70
1
  0
VERTEX
  8
LAYER_7
 10
144.0866
 20
0.2477
 42
-0.03323004622
  0
VERTEX
  8
LAYER_7
 10
145.0757
 20
0.3097
 42
-0.09649700979
  0
VERTEX
  8
LAYER_7
 10
146.0056
 20
0.1514
 42
-0.0523624427
  0
VERTEX
  8
LAYER_7
 10
146.1944
 20
0.0444
 42
-0.2476074937
  0
VERTEX
  8
LAYER_7
 10
146.5433
 20
-0.6236
 42
-0.1633493674
  0
VERTEX
  8
LAYER_7
 10
146.3723
 20
-1.1652
 42
-0.05697336531
  0
VERTEX
  8
LAYER_7
 10
146.2357
 20
-1.3053
 42
-0.1301814771
  0
VERTEX
  8
LAYER_7
 10
145.5827
 20
-1.6002
 42
-0.05286501804
  0
VERTEX
  8
LAYER_7
 10
145.0161
 20
-1.6561
 42
-0.0589106892
  0
VERTEX
  8
LAYER_7
 10
144.602
 20
-1.6275
  0
VERTEX
  8
LAYER_7
 10
144.602
 20
-2.9063
  0
VERTEX
  8
LAYER_7
 10
144.0866
 20
-2.9063
  0
SEQEND
  0
POLYLINE
  8
LAYER_7
 40
0.05
 41
0.05
 66
1
 10
0
 20
0
 30
0
 70
1
  0
VERTEX
  8
LAYER_7
 10
144.602
 20
-1.2912
 42
0.04848394292
  0
VERTEX
  8
LAYER_7
 10
145.0278
 20
-1.3246
 42
0.1267241775
  0
VERTEX
  8
LAYER_7
 10
145.737
 20
-1.1646
 42
0.1801713856
  0
VERTEX
  8
LAYER_7
 10
146.0018
 20
-0.8343
 42
0.07354410889
  0
VERTEX
  8
LAYER_7
 10
146.029
 20
-0.6425
 42
0.3108550011
  0
VERTEX
  8
LAYER_7
 10
145.6717
 20
-0.1192
 42
0.1110538748
  0
VERTEX
  8
LAYER_7
 10
145.0878
 20
-0.0176
 42
0.05507706355
  0
VERTEX
  8
LAYER_7
 10
144.602
 20
-0.0506
  0
SEQEND
  0
ENDBLK
  0
BLOCK
  8
LAYER_7
  2
AIGNBL0704000B
 70
64
 10
0
 20
0
 30
0
  3
AIGNBL0704000B
  0
POLYLINE
  8
LAYER_7
 40
0.05
 41
0.05
 66
1
 10
0
 20
0
 30
0
 70
1
  0
VERTEX
  8
LAYER_7
 10
147.859
 20
0.03
 42
-0.3245339907
  0
VERTEX
  8
LAYER_7
 10
147.6969
 20
-0.1954
 42
-0.09620347437
  0
VERTEX
  8
LAYER_7
 10
147.5269
 20
-0.226
 42
-0.2676237393
  0
VERTEX
  8
LAYER_7
 10
147.2363
 20
-0.0702
 42
-0.1146413536
  0
VERTEX
  8
LAYER_7
 10
147.2131
 20
0.03
 42
-0.3124013774
  0
VERTEX
  8
LAYER_7
 10
147.3861
 20
0.2622
 42
-0.09436570029
  0
VERTEX
  8
LAYER_7
 10
147.5386
 20
0.2901
 42
-0.2690720095
  0
VERTEX
  8
LAYER_7
 10
147.8351
 20
0.1355
 42
-0.1137202002
  0
SEQEND
  0
POLYLINE
  8
LAYER_7
 40
0.05
 41
0.05
 66
1
 10
0
 20
0
 30
0
 70
1
  0
VERTEX
  8
LAYER_7
 10
147.2778
 20
-2.9063
  0
VERTEX
  8
LAYER_7
 10
147.2778
 20
-0.6143
  0
VERTEX
  8
LAYER_7
 10
147.7987
 20
-0.6143
  0
VERTEX
  8
LAYER_7
 10
147.7987
 20
-2.9063
  0
SEQEND
  0
ENDBLK
  0
BLOCK
  8
LAYER_7
  2
AIGNBL0704000C
 70
64
 10
0
 20
0
 30
0
  3
AIGNBL0704000C
  0
POLYLINE
  8
LAYER_7
 40
0.05
 41
0.05
 66
1
 10
0
 20
0
 30
0
 70
1
  0
VERTEX
  8
LAYER_7
 10
149.3852
 20
-1.9017
  0
VERTEX
  8
LAYER_7
 10
148.9715
 20
-2.9063
  0
VERTEX
  8
LAYER_7
 10
148.4381
 20
-2.9063
  0
VERTEX
  8
LAYER_7
 10
149.7941
 20
0.2856
  0
VERTEX
  8
LAYER_7
 10
150.416
 20
0.2856
  0
VERTEX
  8
LAYER_7
 10
151.7778
 20
-2.9063
  0
VERTEX
  8
LAYER_7
 10
151.2269
 20
-2.9063
  0
VERTEX
  8
LAYER_7
 10
150.8008
 20
-1.9017
  0
SEQEND
  0
POLYLINE
  8
LAYER_7
 40
0.05
 41
0.05
 66
1
 10
0
 20
0
 30
0
 70
1
  0
VERTEX
  8
LAYER_7
 10
150.694
 20
-1.5806
  0
VERTEX
  8
LAYER_7
 10
150.3033
 20
-0.6611
 42
-0.02374663041
  0
VERTEX
  8
LAYER_7
 10
150.0966
 20
-0.0789
  0
VERTEX
  8
LAYER_7
 10
150.0842
 20
-0.0789
  0
VERTEX
  8
LAYER_7
 10
149.883
 20
-0.6573
  0
VERTEX
  8
LAYER_7
 10
149.4923
 20
-1.5806
  0
SEQEND
  0
ENDBLK
  0
BLOCK
  8
LAYER_7
  2
AIGNBL07030005
 70
64
 10
0
 20
0
 30
0
  3
AIGNBL07030005
  0
INSERT
  8
LAYER_7
  2
AIGNBL07040006
 10
0
 20
0
 30
0
  0
INSERT
  8
LAYER_7
  2
AIGNBL07040007
 10
0
 20
0
 30
0
  0
INSERT
  8
LAYER_7
  2
AIGNBL07040008
 10
0
 20
0
 30
0
  0
INSERT
  8
LAYER_7
  2
AIGNBL07040009
 10
0
 20
0
 30
0
  0
INSERT
  8
LAYER_7
  2
AIGNBL0704000A
 10
0
 20
0
 30
0
  0
INSERT
  8
LAYER_7
  2
AIGNBL0704000B
 10
0
 20
0
 30
0
  0
INSERT
  8
LAYER_7
  2
AIGNBL0704000C
 10
0
 20
0
 30
0
  0
ENDBLK
  0
BLOCK
  8
LAYER_7
  2
AIGNBL0703000E
 70
64
 10
0
 20
0
 30
0
  3
AIGNBL0703000E
  0
POLYLINE
  8
LAYER_7
 40
0.05
 41
0.05
 66
1
 10
0
 20
0
 30
0
 70
1
  0
VERTEX
  8
LAYER_7
 10
128.7222
 20
-4.5162
  0
VERTEX
  8
LAYER_7
 10
129.1914
 20
-4.5162
  0
VERTEX
  8
LAYER_7
 10
129.1914
 20
-4.5957
  0
VERTEX
  8
LAYER_7
 10
128.6333
 20
-4.5957
  0
VERTEX
  8
LAYER_7
 10
128.6333
 20
-3.72
  0
VERTEX
  8
LAYER_7
 10
129.1762
 20
-3.72
  0
VERTEX
  8
LAYER_7
 10
129.1762
 20
-3.7989
  0
VERTEX
  8
LAYER_7
 10
128.7222
 20
-3.7989
  0
VERTEX
  8
LAYER_7
 10
128.7222
 20
-4.0993
  0
VERTEX
  8
LAYER_7
 10
129.1467
 20
-4.0993
  0
VERTEX
  8
LAYER_7
 10
129.1467
 20
-4.1785
  0
VERTEX
  8
LAYER_7
 10
128.7222
 20
-4.1785
  0
SEQEND
  0
ENDBLK
  0
BLOCK
  8
LAYER_7
  2
AIGNBL0703000F
 70
64
 10
0
 20
0
 30
0
  3
AIGNBL0703000F
  0
POLYLINE
  8
LAYER_7
 40
0.05
 41
0.05
 66
1
 10
0
 20
0
 30
0
 70
1
  0
VERTEX
  8
LAYER_7
 10
130.1574
 20
-4.4655
  0
VERTEX
  8
LAYER_7
 10
130.1595
 20
-4.4655
  0
VERTEX
  8
LAYER_7
 10
130.1595
 20
-3.72
  0
VERTEX
  8
LAYER_7
 10
130.2487
 20
-3.72
  0
VERTEX
  8
LAYER_7
 10
130.2487
 20
-4.5957
  0
VERTEX
  8
LAYER_7
 10
130.1378
 20
-4.5957
  0
VERTEX
  8
LAYER_7
 10
129.6283
 20
-3.8423
  0
VERTEX
  8
LAYER_7
 10
129.6252
 20
-3.8423
  0
VERTEX
  8
LAYER_7
 10
129.6252
 20
-4.5957
  0
VERTEX
  8
LAYER_7
 10
129.5366
 20
-4.5957
  0
VERTEX
  8
LAYER_7
 10
129.5366
 20
-3.72
  0
VERTEX
  8
LAYER_7
 10
129.6476
 20
-3.72
  0
SEQEND
  0
ENDBLK
  0
BLOCK
  8
LAYER_7
  2
AIGNBL07030010
 70
64
 10
0
 20
0
 30
0
  3
AIGNBL07030010
  0
POLYLINE
  8
LAYER_7
 40
0.05
 41
0.05
 66
1
 10
0
 20
0
 30
0
 70
1
  0
VERTEX
  8
LAYER_7
 10
130.6497
 20
-4.4159
 42
0.1576719028
  0
VERTEX
  8
LAYER_7
 10
130.6959
 20
-4.5034
 42
0.1890563282
  0
VERTEX
  8
LAYER_7
 10
130.7917
 20
-4.5386
  0
VERTEX
  8
LAYER_7
 10
130.8675
 20
-4.522
  0
VERTEX
  8
LAYER_7
 10
130.915
 20
-4.4769
  0
VERTEX
  8
LAYER_7
 10
130.9395
 20
-4.4118
  0
VERTEX
  8
LAYER_7
 10
130.9467
 20
-4.336
  0
VERTEX
  8
LAYER_7
 10
130.9467
 20
-3.72
  0
VERTEX
  8
LAYER_7
 10
131.0356
 20
-3.72
  0
VERTEX
  8
LAYER_7
 10
131.0356
 20
-4.3432
  0
VERTEX
  8
LAYER_7
 10
131.0259
 20
-4.4345
  0
VERTEX
  8
LAYER_7
 10
130.9908
 20
-4.5237
 42
-0.1130953748
  0
VERTEX
  8
LAYER_7
 10
130.9191
 20
-4.5913
 42
-0.1226010698
  0
VERTEX
  8
LAYER_7
 10
130.8013
 20
-4.6178
 42
-0.1818698991
  0
VERTEX
  8
LAYER_7
 10
130.6449
 20
-4.5668
 42
-0.1775350534
  0
VERTEX
  8
LAYER_7
 10
130.5667
 20
-4.4387
  0
SEQEND
  0
ENDBLK
  0
BLOCK
  8
LAYER_7
  2
AIGNBL07030011
 70
64
 10
0
 20
0
 30
0
  3
AIGNBL07030011
  0
POLYLINE
  8
LAYER_7
 40
0.05
 41
0.05
 66
1
 10
0
 20
0
 30
0
 70
1
  0
VERTEX
  8
LAYER_7
 10
132.2972
 20
-4.1576
 42
-0.1022791594
  0
VERTEX
  8
LAYER_7
 10
132.2624
 20
-4.3418
 42
-0.09970376068
  0
VERTEX
  8
LAYER_7
 10
132.167
 20
-4.4872
 42
-0.09570319659
  0
VERTEX
  8
LAYER_7
 10
132.0219
 20
-4.583
 42
-0.09730113973
  0
VERTEX
  8
LAYER_7
 10
131.8407
 20
-4.6178
 42
-0.1005044879
  0
VERTEX
  8
LAYER_7
 10
131.6595
 20
-4.583
 42
-0.09966120318
  0
VERTEX
  8
LAYER_7
 10
131.5148
 20
-4.4872
 42
-0.09705125056
  0
VERTEX
  8
LAYER_7
 10
131.4187
 20
-4.3418
 42
-0.09607487332
  0
VERTEX
  8
LAYER_7
 10
131.3842
 20
-4.1576
 42
-0.1007736406
  0
VERTEX
  8
LAYER_7
 10
131.4187
 20
-3.9732
 42
-0.1001858518
  0
VERTEX
  8
LAYER_7
 10
131.5148
 20
-3.8279
 42
-0.09808507614
  0
VERTEX
  8
LAYER_7
 10
131.6595
 20
-3.7321
 42
-0.09730113973
  0
VERTEX
  8
LAYER_7
 10
131.8407
 20
-3.6973
 42
-0.1005044879
  0
VERTEX
  8
LAYER_7
 10
132.0219
 20
-3.7321
 42
-0.09855811897
  0
VERTEX
  8
LAYER_7
 10
132.167
 20
-3.8279
 42
-0.09628842512
  0
VERTEX
  8
LAYER_7
 10
132.2624
 20
-3.9732
 42
-0.09699166297
  0
SEQEND
  0
POLYLINE
  8
LAYER_7
 40
0.05
 41
0.05
 66
1
 10
0
 20
0
 30
0
 70
1
  0
VERTEX
  8
LAYER_7
 10
132.2031
 20
-4.1582
 42
0.08559937197
  0
VERTEX
  8
LAYER_7
 10
132.1787
 20
-4.0125
 42
0.09664405852
  0
VERTEX
  8
LAYER_7
 10
132.1067
 20
-3.8909
 42
0.1020590541
  0
VERTEX
  8
LAYER_7
 10
131.9923
 20
-3.8078
 42
0.1059768973
  0
VERTEX
  8
LAYER_7
 10
131.8407
 20
-3.7765
 42
0.1133141163
  0
VERTEX
  8
LAYER_7
 10
131.6891
 20
-3.8078
 42
0.1061646081
  0
VERTEX
  8
LAYER_7
 10
131.5751
 20
-3.8909
 42
0.0967254779
  0
VERTEX
  8
LAYER_7
 10
131.5031
 20
-4.0125
 42
0.08449949919
  0
VERTEX
  8
LAYER_7
 10
131.4783
 20
-4.1582
 42
0.08539697836
  0
VERTEX
  8
LAYER_7
 10
131.5031
 20
-4.304
 42
0.1012181166
  0
VERTEX
  8
LAYER_7
 10
131.5751
 20
-4.4252
 42
0.09946553095
  0
VERTEX
  8
LAYER_7
 10
131.6891
 20
-4.5075
 42
0.1062766662
  0
VERTEX
  8
LAYER_7
 10
131.8407
 20
-4.5386
 42
0.1150129684
  0
VERTEX
  8
LAYER_7
 10
131.9923
 20
-4.5075
 42
0.10635245
  0
VERTEX
  8
LAYER_7
 10
132.1067
 20
-4.4252
 42
0.09368815098
  0
VERTEX
  8
LAYER_7
 10
132.1787
 20
-4.304
 42
0.0834821187
  0
SEQEND
  0
ENDBLK
  0
BLOCK
  8
LAYER_7
  2
AIGNBL07030012
 70
64
 10
0
 20
0
 30
0
  3
AIGNBL07030012
  0
POLYLINE
  8
LAYER_7
 40
0.05
 41
0.05
 66
1
 10
0
 20
0
 30
0
 70
1
  0
VERTEX
  8
LAYER_7
 10
132.9538
 20
-4.5957
  0
VERTEX
  8
LAYER_7
 10
132.8649
 20
-4.5957
  0
VERTEX
  8
LAYER_7
 10
132.8649
 20
-4.2182
  0
VERTEX
  8
LAYER_7
 10
132.5373
 20
-3.72
  0
VERTEX
  8
LAYER_7
 10
132.6486
 20
-3.72
  0
VERTEX
  8
LAYER_7
 10
132.9121
 20
-4.1438
  0
VERTEX
  8
LAYER_7
 10
133.1777
 20
-3.72
  0
VERTEX
  8
LAYER_7
 10
133.2815
 20
-3.72
  0
VERTEX
  8
LAYER_7
 10
132.9538
 20
-4.2182
  0
SEQEND
  0
ENDBLK
  0
BLOCK
  8
LAYER_7
  2
AIGNBL07030013
 70
64
 10
0
 20
0
 30
0
  3
AIGNBL07030013
  0
POLYLINE
  8
LAYER_7
 40
0.05
 41
0.05
 66
1
 10
0
 20
0
 30
0
 70
1
  0
VERTEX
  8
LAYER_7
 10
134.0487
 20
-3.72
  0
VERTEX
  8
LAYER_7
 10
134.3094
 20
-3.72
  0
VERTEX
  8
LAYER_7
 10
134.4097
 20
-3.7303
  0
VERTEX
  8
LAYER_7
 10
134.5003
 20
-3.7662
 42
-0.1150293855
  0
VERTEX
  8
LAYER_7
 10
134.5664
 20
-3.8351
 42
-0.1215002924
  0
VERTEX
  8
LAYER_7
 10
134.5916
 20
-3.9436
 42
-0.179677182
  0
VERTEX
  8
LAYER_7
 10
134.5492
 20
-4.0642
 42
-0.1667916725
  0
VERTEX
  8
LAYER_7
 10
134.4362
 20
-4.1317
  0
VERTEX
  8
LAYER_7
 10
134.4362
 20
-4.1338
 42
-0.1720976719
  0
VERTEX
  8
LAYER_7
 10
134.5775
 20
-4.2003
 42
-0.1997018961
  0
VERTEX
  8
LAYER_7
 10
134.6336
 20
-4.3532
 42
-0.1274833917
  0
VERTEX
  8
LAYER_7
 10
134.6105
 20
-4.4524
 42
-0.11637429
  0
VERTEX
  8
LAYER_7
 10
134.5458
 20
-4.5293
 42
-0.08593783818
  0
VERTEX
  8
LAYER_7
 10
134.4435
 20
-4.5782
 42
-0.06453463165
  0
VERTEX
  8
LAYER_7
 10
134.3081
 20
-4.5957
  0
VERTEX
  8
LAYER_7
 10
134.0487
 20
-4.5957
  0
SEQEND
  0
POLYLINE
  8
LAYER_7
 40
0.05
 41
0.05
 66
1
 10
0
 20
0
 30
0
 70
1
  0
VERTEX
  8
LAYER_7
 10
134.1375
 20
-4.1031
  0
VERTEX
  8
LAYER_7
 10
134.317
 20
-4.1031
  0
VERTEX
  8
LAYER_7
 10
134.3822
 20
-4.0955
  0
VERTEX
  8
LAYER_7
 10
134.4417
 20
-4.0707
  0
VERTEX
  8
LAYER_7
 10
134.4858
 20
-4.0228
 42
0.1131003852
  0
VERTEX
  8
LAYER_7
 10
134.5024
 20
-3.9498
  0
VERTEX
  8
LAYER_7
 10
134.4858
 20
-3.8788
  0
VERTEX
  8
LAYER_7
 10
134.4407
 20
-3.831
  0
VERTEX
  8
LAYER_7
 10
134.3739
 20
-3.8044
  0
VERTEX
  8
LAYER_7
 10
134.2922
 20
-3.7965
  0
VERTEX
  8
LAYER_7
 10
134.1375
 20
-3.7965
  0
SEQEND
  0
POLYLINE
  8
LAYER_7
 40
0.05
 41
0.05
 66
1
 10
0
 20
0
 30
0
 70
1
  0
VERTEX
  8
LAYER_7
 10
134.1375
 20
-4.5189
  0
VERTEX
  8
LAYER_7
 10
134.3036
 20
-4.5189
  0
VERTEX
  8
LAYER_7
 10
134.3956
 20
-4.5093
  0
VERTEX
  8
LAYER_7
 10
134.4724
 20
-4.48
  0
VERTEX
  8
LAYER_7
 10
134.5244
 20
-4.4266
 42
0.1281406861
  0
VERTEX
  8
LAYER_7
 10
134.5444
 20
-4.3481
 42
0.2512555223
  0
VERTEX
  8
LAYER_7
 10
134.4858
 20
-4.2189
 42
0.1507360226
  0
VERTEX
  8
LAYER_7
 10
134.3194
 20
-4.1761
  0
VERTEX
  8
LAYER_7
 10
134.1375
 20
-4.1761
  0
SEQEND
  0
ENDBLK
  0
BLOCK
  8
LAYER_7
  2
AIGNBL07030014
 70
64
 10
0
 20
0
 30
0
  3
AIGNBL07030014
  0
POLYLINE
  8
LAYER_7
 40
0.05
 41
0.05
 66
1
 10
0
 20
0
 30
0
 70
1
  0
VERTEX
  8
LAYER_7
 10
134.9999
 20
-4.5957
  0
VERTEX
  8
LAYER_7
 10
134.902
 20
-4.5957
  0
VERTEX
  8
LAYER_7
 10
135.2806
 20
-3.72
  0
VERTEX
  8
LAYER_7
 10
135.3675
 20
-3.72
  0
VERTEX
  8
LAYER_7
 10
135.7433
 20
-4.5957
  0
VERTEX
  8
LAYER_7
 10
135.6441
 20
-4.5957
  0
VERTEX
  8
LAYER_7
 10
135.5476
 20
-4.3656
  0
VERTEX
  8
LAYER_7
 10
135.0949
 20
-4.3656
  0
SEQEND
  0
POLYLINE
  8
LAYER_7
 40
0.05
 41
0.05
 66
1
 10
0
 20
0
 30
0
 70
1
  0
VERTEX
  8
LAYER_7
 10
135.128
 20
-4.2836
  0
VERTEX
  8
LAYER_7
 10
135.5142
 20
-4.2836
  0
VERTEX
  8
LAYER_7
 10
135.3213
 20
-3.8185
  0
SEQEND
  0
ENDBLK
  0
BLOCK
  8
LAYER_7
  2
AIGNBL07030015
 70
64
 10
0
 20
0
 30
0
  3
AIGNBL07030015
  0
POLYLINE
  8
LAYER_7
 40
0.05
 41
0.05
 66
1
 10
0
 20
0
 30
0
 70
1
  0
VERTEX
  8
LAYER_7
 10
136.3235
 20
-4.5957
  0
VERTEX
  8
LAYER_7
 10
136.2342
 20
-4.5957
  0
VERTEX
  8
LAYER_7
 10
136.2342
 20
-3.7989
  0
VERTEX
  8
LAYER_7
 10
135.9407
 20
-3.7989
  0
VERTEX
  8
LAYER_7
 10
135.9407
 20
-3.72
  0
VERTEX
  8
LAYER_7
 10
136.6163
 20
-3.72
  0
VERTEX
  8
LAYER_7
 10
136.6163
 20
-3.7989
  0
VERTEX
  8
LAYER_7
 10
136.3235
 20
-3.7989
  0
SEQEND
  0
ENDBLK
  0
BLOCK
  8
LAYER_7
  2
AIGNBL07030016
 70
64
 10
0
 20
0
 30
0
  3
AIGNBL07030016
  0
POLYLINE
  8
LAYER_7
 40
0.05
 41
0.05
 66
1
 10
0
 20
0
 30
0
 70
1
  0
VERTEX
  8
LAYER_7
 10
136.9181
 20
-3.72
  0
VERTEX
  8
LAYER_7
 10
137.007
 20
-3.72
  0
VERTEX
  8
LAYER_7
 10
137.007
 20
-4.0993
  0
VERTEX
  8
LAYER_7
 10
137.4848
 20
-4.0993
  0
VERTEX
  8
LAYER_7
 10
137.4848
 20
-3.72
  0
VERTEX
  8
LAYER_7
 10
137.5737
 20
-3.72
  0
VERTEX
  8
LAYER_7
 10
137.5737
 20
-4.5957
  0
VERTEX
  8
LAYER_7
 10
137.4848
 20
-4.5957
  0
VERTEX
  8
LAYER_7
 10
137.4848
 20
-4.181
  0
VERTEX
  8
LAYER_7
 10
137.007
 20
-4.181
  0
VERTEX
  8
LAYER_7
 10
137.007
 20
-4.5957
  0
VERTEX
  8
LAYER_7
 10
136.9181
 20
-4.5957
  0
SEQEND
  0
ENDBLK
  0
BLOCK
  8
LAYER_7
  2
AIGNBL07030017
 70
64
 10
0
 20
0
 30
0
  3
AIGNBL07030017
  0
POLYLINE
  8
LAYER_7
 40
0.05
 41
0.05
 66
1
 10
0
 20
0
 30
0
 70
1
  0
VERTEX
  8
LAYER_7
 10
138.0656
 20
-4.5957
  0
VERTEX
  8
LAYER_7
 10
137.9767
 20
-4.5957
  0
VERTEX
  8
LAYER_7
 10
137.9767
 20
-3.72
  0
VERTEX
  8
LAYER_7
 10
138.2341
 20
-3.72
  0
VERTEX
  8
LAYER_7
 10
138.3533
 20
-3.7321
  0
VERTEX
  8
LAYER_7
 10
138.4487
 20
-3.7724
 42
-0.1287326038
  0
VERTEX
  8
LAYER_7
 10
138.5111
 20
-3.8447
 42
-0.1051928432
  0
VERTEX
  8
LAYER_7
 10
138.5331
 20
-3.9536
  0
VERTEX
  8
LAYER_7
 10
138.5163
 20
-4.0415
  0
VERTEX
  8
LAYER_7
 10
138.4694
 20
-4.11
  0
VERTEX
  8
LAYER_7
 10
138.3988
 20
-4.1565
  0
VERTEX
  8
LAYER_7
 10
138.3096
 20
-4.1785
  0
VERTEX
  8
LAYER_7
 10
138.5655
 20
-4.5957
  0
VERTEX
  8
LAYER_7
 10
138.4567
 20
-4.5957
  0
VERTEX
  8
LAYER_7
 10
138.2145
 20
-4.1861
  0
VERTEX
  8
LAYER_7
 10
138.0656
 20
-4.1861
  0
SEQEND
  0
POLYLINE
  8
LAYER_7
 40
0.05
 41
0.05
 66
1
 10
0
 20
0
 30
0
 70
1
  0
VERTEX
  8
LAYER_7
 10
138.0656
 20
-4.1093
  0
VERTEX
  8
LAYER_7
 10
138.2207
 20
-4.1093
 42
0.1560036385
  0
VERTEX
  8
LAYER_7
 10
138.3864
 20
-4.0707
 42
0.256718439
  0
VERTEX
  8
LAYER_7
 10
138.4446
 20
-3.9536
  0
VERTEX
  8
LAYER_7
 10
138.4281
 20
-3.8809
  0
VERTEX
  8
LAYER_7
 10
138.3836
 20
-3.8323
  0
VERTEX
  8
LAYER_7
 10
138.3147
 20
-3.8051
  0
VERTEX
  8
LAYER_7
 10
138.2245
 20
-3.7965
  0
VERTEX
  8
LAYER_7
 10
138.0656
 20
-3.7965
  0
SEQEND
  0
ENDBLK
  0
BLOCK
  8
LAYER_7
  2
AIGNBL07030018
 70
64
 10
0
 20
0
 30
0
  3
AIGNBL07030018
  0
POLYLINE
  8
LAYER_7
 40
0.05
 41
0.05
 66
1
 10
0
 20
0
 30
0
 70
1
  0
VERTEX
  8
LAYER_7
 10
139.7541
 20
-4.1576
 42
-0.09915680833
  0
VERTEX
  8
LAYER_7
 10
139.7196
 20
-4.3418
 42
-0.1002507449
  0
VERTEX
  8
LAYER_7
 10
139.6235
 20
-4.4872
 42
-0.09817592867
  0
VERTEX
  8
LAYER_7
 10
139.4792
 20
-4.583
 42
-0.09701762268
  0
VERTEX
  8
LAYER_7
 10
139.2976
 20
-4.6178
 42
-0.1005044879
  0
VERTEX
  8
LAYER_7
 10
139.1164
 20
-4.583
 42
-0.101043309
  0
VERTEX
  8
LAYER_7
 10
138.972
 20
-4.4872
 42
-0.1005637126
  0
VERTEX
  8
LAYER_7
 10
138.8763
 20
-4.3418
 42
-0.09607487332
  0
VERTEX
  8
LAYER_7
 10
138.8418
 20
-4.1576
 42
-0.1007736406
  0
VERTEX
  8
LAYER_7
 10
138.8763
 20
-3.9732
 42
-0.1017405254
  0
VERTEX
  8
LAYER_7
 10
138.972
 20
-3.8279
 42
-0.09844101569
  0
VERTEX
  8
LAYER_7
 10
139.1164
 20
-3.7321
 42
-0.09730113973
  0
VERTEX
  8
LAYER_7
 10
139.2976
 20
-3.6973
 42
-0.1002689506
  0
VERTEX
  8
LAYER_7
 10
139.4792
 20
-3.7321
 42
-0.1027545576
  0
VERTEX
  8
LAYER_7
 10
139.6235
 20
-3.8279
 42
-0.09614814713
  0
VERTEX
  8
LAYER_7
 10
139.7196
 20
-3.9732
 42
-0.09518668509
  0
SEQEND
  0
POLYLINE
  8
LAYER_7
 40
0.05
 41
0.05
 66
1
 10
0
 20
0
 30
0
 70
1
  0
VERTEX
  8
LAYER_7
 10
139.66
 20
-4.1582
 42
0.09061433698
  0
VERTEX
  8
LAYER_7
 10
139.6352
 20
-4.0125
 42
0.09836919047
  0
VERTEX
  8
LAYER_7
 10
139.5636
 20
-3.8909
 42
0.1015931446
  0
VERTEX
  8
LAYER_7
 10
139.4492
 20
-3.8078
 42
0.1060724797
  0
VERTEX
  8
LAYER_7
 10
139.2976
 20
-3.7765
 42
0.1141455391
  0
VERTEX
  8
LAYER_7
 10
139.1464
 20
-3.8078
 42
0.1055281049
  0
VERTEX
  8
LAYER_7
 10
139.0317
 20
-3.8909
 42
0.095177252
  0
VERTEX
  8
LAYER_7
 10
138.96
 20
-4.0125
 42
0.08415691518
  0
VERTEX
  8
LAYER_7
 10
138.9355
 20
-4.1582
 42
0.08886818036
  0
VERTEX
  8
LAYER_7
 10
138.96
 20
-4.304
 42
0.09765150327
  0
VERTEX
  8
LAYER_7
 10
139.0317
 20
-4.4252
 42
0.0995166294
  0
VERTEX
  8
LAYER_7
 10
139.1464
 20
-4.5075
 42
0.1065794205
  0
VERTEX
  8
LAYER_7
 10
139.2976
 20
-4.5386
 42
0.1160974191
  0
VERTEX
  8
LAYER_7
 10
139.4492
 20
-4.5075
 42
0.1037742872
  0
VERTEX
  8
LAYER_7
 10
139.5636
 20
-4.4252
 42
0.09853996684
  0
VERTEX
  8
LAYER_7
 10
139.6352
 20
-4.304
 42
0.08559935114
  0
SEQEND
  0
ENDBLK
  0
BLOCK
  8
LAYER_7
  2
AIGNBL07030019
 70
64
 10
0
 20
0
 30
0
  3
AIGNBL07030019
  0
POLYLINE
  8
LAYER_7
 40
0.05
 41
0.05
 66
1
 10
0
 20
0
 30
0
 70
1
  0
VERTEX
  8
LAYER_7
 10
140.9764
 20
-4.1576
 42
-0.1005156893
  0
VERTEX
  8
LAYER_7
 10
140.9416
 20
-4.3418
 42
-0.09814135571
  0
VERTEX
  8
LAYER_7
 10
140.8462
 20
-4.4872
 42
-0.09626167578
  0
VERTEX
  8
LAYER_7
 10
140.7011
 20
-4.583
 42
-0.09730113973
  0
VERTEX
  8
LAYER_7
 10
140.5199
 20
-4.6178
 42
-0.1010483144
  0
VERTEX
  8
LAYER_7
 10
140.3387
 20
-4.583
 42
-0.1015483086
  0
VERTEX
  8
LAYER_7
 10
140.194
 20
-4.4872
 42
-0.09705125056
  0
VERTEX
  8
LAYER_7
 10
140.0979
 20
-4.3418
 42
-0.09595480919
  0
VERTEX
  8
LAYER_7
 10
140.0635
 20
-4.1576
 42
-0.1009778383
  0
VERTEX
  8
LAYER_7
 10
140.0979
 20
-3.9732
 42
-0.1001858518
  0
VERTEX
  8
LAYER_7
 10
140.194
 20
-3.8279
 42
-0.09897696487
  0
VERTEX
  8
LAYER_7
 10
140.3387
 20
-3.7321
 42
-0.09743363976
  0
VERTEX
  8
LAYER_7
 10
140.5199
 20
-3.6973
 42
-0.1005044879
  0
VERTEX
  8
LAYER_7
 10
140.7011
 20
-3.7321
 42
-0.09855811897
  0
VERTEX
  8
LAYER_7
 10
140.8462
 20
-3.8279
 42
-0.09570246514
  0
VERTEX
  8
LAYER_7
 10
140.9416
 20
-3.9732
 42
-0.09626309093
  0
SEQEND
  0
POLYLINE
  8
LAYER_7
 40
0.05
 41
0.05
 66
1
 10
0
 20
0
 30
0
 70
1
  0
VERTEX
  8
LAYER_7
 10
140.8824
 20
-4.1582
 42
0.08713456795
  0
VERTEX
  8
LAYER_7
 10
140.8576
 20
-4.0125
 42
0.09738770282
  0
VERTEX
  8
LAYER_7
 10
140.7859
 20
-3.8909
 42
0.1017288255
  0
VERTEX
  8
LAYER_7
 10
140.6715
 20
-3.8078
 42
0.1057138949
  0
VERTEX
  8
LAYER_7
 10
140.5199
 20
-3.7765
 42
0.1140423269
  0
VERTEX
  8
LAYER_7
 10
140.3683
 20
-3.8078
 42
0.1049835418
  0
VERTEX
  8
LAYER_7
 10
140.254
 20
-3.8909
 42
0.09806626716
  0
VERTEX
  8
LAYER_7
 10
140.1823
 20
-4.0125
 42
0.08487390418
  0
VERTEX
  8
LAYER_7
 10
140.1575
 20
-4.1582
 42
0.08802482071
  0
VERTEX
  8
LAYER_7
 10
140.1823
 20
-4.304
 42
0.1001537592
  0
VERTEX
  8
LAYER_7
 10
140.254
 20
-4.4252
 42
0.09980276313
  0
VERTEX
  8
LAYER_7
 10
140.3683
 20
-4.5075
 42
0.1064312049
  0
VERTEX
  8
LAYER_7
 10
140.5199
 20
-4.5386
 42
0.1150208314
  0
VERTEX
  8
LAYER_7
 10
140.6715
 20
-4.5075
 42
0.1044169808
  0
VERTEX
  8
LAYER_7
 10
140.7859
 20
-4.4252
 42
0.0931574303
  0
VERTEX
  8
LAYER_7
 10
140.8576
 20
-4.304
 42
0.08489455374
  0
SEQEND
  0
ENDBLK
  0
BLOCK
  8
LAYER_7
  2
AIGNBL0703001A
 70
64
 10
0
 20
0
 30
0
  3
AIGNBL0703001A
  0
POLYLINE
  8
LAYER_7
 40
0.05
 41
0.05
 66
1
 10
0
 20
0
 30
0
 70
1
  0
VERTEX
  8
LAYER_7
 10
141.7653
 20
-4.4445
  0
VERTEX
  8
LAYER_7
 10
141.7667
 20
-4.4445
  0
VERTEX
  8
LAYER_7
 10
142.0596
 20
-3.72
  0
VERTEX
  8
LAYER_7
 10
142.196
 20
-3.72
  0
VERTEX
  8
LAYER_7
 10
142.196
 20
-4.5957
  0
VERTEX
  8
LAYER_7
 10
142.1068
 20
-4.5957
  0
VERTEX
  8
LAYER_7
 10
142.1068
 20
-3.8351
  0
VERTEX
  8
LAYER_7
 10
142.1043
 20
-3.8351
  0
VERTEX
  8
LAYER_7
 10
141.7877
 20
-4.5957
  0
VERTEX
  8
LAYER_7
 10
141.7409
 20
-4.5957
  0
VERTEX
  8
LAYER_7
 10
141.4239
 20
-3.8351
  0
VERTEX
  8
LAYER_7
 10
141.4215
 20
-3.8351
  0
VERTEX
  8
LAYER_7
 10
141.4215
 20
-4.5957
  0
VERTEX
  8
LAYER_7
 10
141.3326
 20
-4.5957
  0
VERTEX
  8
LAYER_7
 10
141.3326
 20
-3.72
  0
VERTEX
  8
LAYER_7
 10
141.4687
 20
-3.72
  0
SEQEND
  0
ENDBLK
  0
BLOCK
  8
LAYER_7
  2
AIGNBL0703001B
 70
64
 10
0
 20
0
 30
0
  3
AIGNBL0703001B
  0
POLYLINE
  8
LAYER_7
 40
0.05
 41
0.05
 66
1
 10
0
 20
0
 30
0
 70
1
  0
VERTEX
  8
LAYER_7
 10
143.1678
 20
-4.5162
  0
VERTEX
  8
LAYER_7
 10
143.6367
 20
-4.5162
  0
VERTEX
  8
LAYER_7
 10
143.6367
 20
-4.5957
  0
VERTEX
  8
LAYER_7
 10
143.0786
 20
-4.5957
  0
VERTEX
  8
LAYER_7
 10
143.0786
 20
-3.72
  0
VERTEX
  8
LAYER_7
 10
143.6219
 20
-3.72
  0
VERTEX
  8
LAYER_7
 10
143.6219
 20
-3.7989
  0
VERTEX
  8
LAYER_7
 10
143.1678
 20
-3.7989
  0
VERTEX
  8
LAYER_7
 10
143.1678
 20
-4.0993
  0
VERTEX
  8
LAYER_7
 10
143.5919
 20
-4.0993
  0
VERTEX
  8
LAYER_7
 10
143.5919
 20
-4.1785
  0
VERTEX
  8
LAYER_7
 10
143.1678
 20
-4.1785
  0
SEQEND
  0
ENDBLK
  0
BLOCK
  8
LAYER_7
  2
AIGNBL0703001C
 70
64
 10
0
 20
0
 30
0
  3
AIGNBL0703001C
  0
POLYLINE
  8
LAYER_7
 40
0.05
 41
0.05
 66
1
 10
0
 20
0
 30
0
 70
1
  0
VERTEX
  8
LAYER_7
 10
144.2685
 20
-4.0735
  0
VERTEX
  8
LAYER_7
 10
144.5076
 20
-3.72
  0
VERTEX
  8
LAYER_7
 10
144.6134
 20
-3.72
  0
VERTEX
  8
LAYER_7
 10
144.3233
 20
-4.1365
  0
VERTEX
  8
LAYER_7
 10
144.6447
 20
-4.5957
  0
VERTEX
  8
LAYER_7
 10
144.5335
 20
-4.5957
  0
VERTEX
  8
LAYER_7
 10
144.2661
 20
-4.2009
  0
VERTEX
  8
LAYER_7
 10
144.0002
 20
-4.5957
  0
VERTEX
  8
LAYER_7
 10
143.8889
 20
-4.5957
  0
VERTEX
  8
LAYER_7
 10
144.2106
 20
-4.1355
  0
VERTEX
  8
LAYER_7
 10
143.9175
 20
-3.72
  0
VERTEX
  8
LAYER_7
 10
144.0288
 20
-3.72
  0
SEQEND
  0
ENDBLK
  0
BLOCK
  8
LAYER_7
  2
AIGNBL0703001D
 70
64
 10
0
 20
0
 30
0
  3
AIGNBL0703001D
  0
POLYLINE
  8
LAYER_7
 40
0.05
 41
0.05
 66
1
 10
0
 20
0
 30
0
 70
1
  0
VERTEX
  8
LAYER_7
 10
144.9552
 20
-3.72
  0
VERTEX
  8
LAYER_7
 10
145.2028
 20
-3.72
  0
VERTEX
  8
LAYER_7
 10
145.3241
 20
-3.7338
  0
VERTEX
  8
LAYER_7
 10
145.4171
 20
-3.7775
 42
-0.1200340237
  0
VERTEX
  8
LAYER_7
 10
145.4774
 20
-3.8503
 42
-0.1008018243
  0
VERTEX
  8
LAYER_7
 10
145.4981
 20
-3.9536
 42
-0.1220863619
  0
VERTEX
  8
LAYER_7
 10
145.4767
 20
-4.0569
 42
-0.11472397
  0
VERTEX
  8
LAYER_7
 10
145.4161
 20
-4.13
 42
-0.08429664184
  0
VERTEX
  8
LAYER_7
 10
145.322
 20
-4.1737
  0
VERTEX
  8
LAYER_7
 10
145.2001
 20
-4.1885
  0
VERTEX
  8
LAYER_7
 10
145.0444
 20
-4.1885
  0
VERTEX
  8
LAYER_7
 10
145.0444
 20
-4.5957
  0
VERTEX
  8
LAYER_7
 10
144.9552
 20
-4.5957
  0
SEQEND
  0
POLYLINE
  8
LAYER_7
 40
0.05
 41
0.05
 66
1
 10
0
 20
0
 30
0
 70
1
  0
VERTEX
  8
LAYER_7
 10
145.0444
 20
-4.1131
  0
VERTEX
  8
LAYER_7
 10
145.1949
 20
-4.1131
 42
0.1719973382
  0
VERTEX
  8
LAYER_7
 10
145.3548
 20
-4.0724
 42
0.2424570955
  0
VERTEX
  8
LAYER_7
 10
145.4092
 20
-3.9536
 42
0.2614467224
  0
VERTEX
  8
LAYER_7
 10
145.353
 20
-3.8341
 42
0.1401513942
  0
VERTEX
  8
LAYER_7
 10
145.1949
 20
-3.7965
  0
VERTEX
  8
LAYER_7
 10
145.0444
 20
-3.7965
  0
SEQEND
  0
ENDBLK
  0
BLOCK
  8
LAYER_7
  2
AIGNBL0703001E
 70
64
 10
0
 20
0
 30
0
  3
AIGNBL0703001E
  0
POLYLINE
  8
LAYER_7
 40
0.05
 41
0.05
 66
1
 10
0
 20
0
 30
0
 70
1
  0
VERTEX
  8
LAYER_7
 10
145.9322
 20
-4.5162
  0
VERTEX
  8
LAYER_7
 10
146.401
 20
-4.5162
  0
VERTEX
  8
LAYER_7
 10
146.401
 20
-4.5957
  0
VERTEX
  8
LAYER_7
 10
145.8433
 20
-4.5957
  0
VERTEX
  8
LAYER_7
 10
145.8433
 20
-3.72
  0
VERTEX
  8
LAYER_7
 10
146.3862
 20
-3.72
  0
VERTEX
  8
LAYER_7
 10
146.3862
 20
-3.7989
  0
VERTEX
  8
LAYER_7
 10
145.9322
 20
-3.7989
  0
VERTEX
  8
LAYER_7
 10
145.9322
 20
-4.0993
  0
VERTEX
  8
LAYER_7
 10
146.3566
 20
-4.0993
  0
VERTEX
  8
LAYER_7
 10
146.3566
 20
-4.1785
  0
VERTEX
  8
LAYER_7
 10
145.9322
 20
-4.1785
  0
SEQEND
  0
ENDBLK
  0
BLOCK
  8
LAYER_7
  2
AIGNBL0703001F
 70
64
 10
0
 20
0
 30
0
  3
AIGNBL0703001F
  0
POLYLINE
  8
LAYER_7
 40
0.05
 41
0.05
 66
1
 10
0
 20
0
 30
0
 70
1
  0
VERTEX
  8
LAYER_7
 10
146.8351
 20
-4.5957
  0
VERTEX
  8
LAYER_7
 10
146.7462
 20
-4.5957
  0
VERTEX
  8
LAYER_7
 10
146.7462
 20
-3.72
  0
VERTEX
  8
LAYER_7
 10
147.0036
 20
-3.72
  0
VERTEX
  8
LAYER_7
 10
147.1228
 20
-3.7321
  0
VERTEX
  8
LAYER_7
 10
147.2182
 20
-3.7724
 42
-0.1251490281
  0
VERTEX
  8
LAYER_7
 10
147.2806
 20
-3.8447
 42
-0.1051928432
  0
VERTEX
  8
LAYER_7
 10
147.3026
 20
-3.9536
  0
VERTEX
  8
LAYER_7
 10
147.2857
 20
-4.0415
  0
VERTEX
  8
LAYER_7
 10
147.2385
 20
-4.11
  0
VERTEX
  8
LAYER_7
 10
147.1679
 20
-4.1565
  0
VERTEX
  8
LAYER_7
 10
147.0791
 20
-4.1785
  0
VERTEX
  8
LAYER_7
 10
147.335
 20
-4.5957
  0
VERTEX
  8
LAYER_7
 10
147.2262
 20
-4.5957
  0
VERTEX
  8
LAYER_7
 10
146.9836
 20
-4.1861
  0
VERTEX
  8
LAYER_7
 10
146.8351
 20
-4.1861
  0
SEQEND
  0
POLYLINE
  8
LAYER_7
 40
0.05
 41
0.05
 66
1
 10
0
 20
0
 30
0
 70
1
  0
VERTEX
  8
LAYER_7
 10
146.8351
 20
-4.1093
  0
VERTEX
  8
LAYER_7
 10
146.9898
 20
-4.1093
 42
0.1569755974
  0
VERTEX
  8
LAYER_7
 10
147.1559
 20
-4.0707
 42
0.2563621513
  0
VERTEX
  8
LAYER_7
 10
147.2137
 20
-3.9536
  0
VERTEX
  8
LAYER_7
 10
147.1979
 20
-3.8809
  0
VERTEX
  8
LAYER_7
 10
147.1531
 20
-3.8323
  0
VERTEX
  8
LAYER_7
 10
147.0839
 20
-3.8051
  0
VERTEX
  8
LAYER_7
 10
146.9936
 20
-3.7965
  0
VERTEX
  8
LAYER_7
 10
146.8351
 20
-3.7965
  0
SEQEND
  0
ENDBLK
  0
BLOCK
  8
LAYER_7
  2
AIGNBL07030020
 70
64
 10
0
 20
0
 30
0
  3
AIGNBL07030020
  0
POLYLINE
  8
LAYER_7
 40
0.05
 41
0.05
 66
1
 10
0
 20
0
 30
0
 70
1
  0
VERTEX
  8
LAYER_7
 10
147.7467
 20
-4.5957
  0
VERTEX
  8
LAYER_7
 10
147.6582
 20
-4.5957
  0
VERTEX
  8
LAYER_7
 10
147.6582
 20
-3.72
  0
VERTEX
  8
LAYER_7
 10
147.7467
 20
-3.72
  0
SEQEND
  0
ENDBLK
  0
BLOCK
  8
LAYER_7
  2
AIGNBL07030021
 70
64
 10
0
 20
0
 30
0
  3
AIGNBL07030021
  0
POLYLINE
  8
LAYER_7
 40
0.05
 41
0.05
 66
1
 10
0
 20
0
 30
0
 70
1
  0
VERTEX
  8
LAYER_7
 10
148.239
 20
-4.5162
  0
VERTEX
  8
LAYER_7
 10
148.7079
 20
-4.5162
  0
VERTEX
  8
LAYER_7
 10
148.7079
 20
-4.5957
  0
VERTEX
  8
LAYER_7
 10
148.1501
 20
-4.5957
  0
VERTEX
  8
LAYER_7
 10
148.1501
 20
-3.72
  0
VERTEX
  8
LAYER_7
 10
148.6931
 20
-3.72
  0
VERTEX
  8
LAYER_7
 10
148.6931
 20
-3.7989
  0
VERTEX
  8
LAYER_7
 10
148.239
 20
-3.7989
  0
VERTEX
  8
LAYER_7
 10
148.239
 20
-4.0993
  0
VERTEX
  8
LAYER_7
 10
148.6634
 20
-4.0993
  0
VERTEX
  8
LAYER_7
 10
148.6634
 20
-4.1785
  0
VERTEX
  8
LAYER_7
 10
148.239
 20
-4.1785
  0
SEQEND
  0
ENDBLK
  0
BLOCK
  8
LAYER_7
  2
AIGNBL07030022
 70
64
 10
0
 20
0
 30
0
  3
AIGNBL07030022
  0
POLYLINE
  8
LAYER_7
 40
0.05
 41
0.05
 66
1
 10
0
 20
0
 30
0
 70
1
  0
VERTEX
  8
LAYER_7
 10
149.6739
 20
-4.4655
  0
VERTEX
  8
LAYER_7
 10
149.6763
 20
-4.4655
  0
VERTEX
  8
LAYER_7
 10
149.6763
 20
-3.72
  0
VERTEX
  8
LAYER_7
 10
149.7655
 20
-3.72
  0
VERTEX
  8
LAYER_7
 10
149.7655
 20
-4.5957
  0
VERTEX
  8
LAYER_7
 10
149.6543
 20
-4.5957
  0
VERTEX
  8
LAYER_7
 10
149.1447
 20
-3.8423
  0
VERTEX
  8
LAYER_7
 10
149.142
 20
-3.8423
  0
VERTEX
  8
LAYER_7
 10
149.142
 20
-4.5957
  0
VERTEX
  8
LAYER_7
 10
149.0531
 20
-4.5957
  0
VERTEX
  8
LAYER_7
 10
149.0531
 20
-3.72
  0
VERTEX
  8
LAYER_7
 10
149.1644
 20
-3.72
  0
SEQEND
  0
ENDBLK
  0
BLOCK
  8
LAYER_7
  2
AIGNBL07030023
 70
64
 10
0
 20
0
 30
0
  3
AIGNBL07030023
  0
POLYLINE
  8
LAYER_7
 40
0.05
 41
0.05
 66
1
 10
0
 20
0
 30
0
 70
1
  0
VERTEX
  8
LAYER_7
 10
150.9062
 20
-4.4535
  0
VERTEX
  8
LAYER_7
 10
150.8521
 20
-4.5165
  0
VERTEX
  8
LAYER_7
 10
150.7791
 20
-4.5689
  0
VERTEX
  8
LAYER_7
 10
150.6874
 20
-4.6047
  0
VERTEX
  8
LAYER_7
 10
150.5782
 20
-4.6178
 42
-0.1000682052
  0
VERTEX
  8
LAYER_7
 10
150.3949
 20
-4.583
 42
-0.1034407441
  0
VERTEX
  8
LAYER_7
 10
150.2506
 20
-4.4872
 42
-0.1010263025
  0
VERTEX
  8
LAYER_7
 10
150.1559
 20
-4.3418
 42
-0.09559414111
  0
VERTEX
  8
LAYER_7
 10
150.1218
 20
-4.1576
 42
-0.1022637682
  0
VERTEX
  8
LAYER_7
 10
150.1565
 20
-3.9732
 42
-0.09995964721
  0
VERTEX
  8
LAYER_7
 10
150.252
 20
-3.8279
 42
-0.09773712273
  0
VERTEX
  8
LAYER_7
 10
150.3967
 20
-3.7321
 42
-0.09710431873
  0
VERTEX
  8
LAYER_7
 10
150.5782
 20
-3.6973
  0
VERTEX
  8
LAYER_7
 10
150.6726
 20
-3.7076
  0
VERTEX
  8
LAYER_7
 10
150.7601
 20
-3.7358
  0
VERTEX
  8
LAYER_7
 10
150.8342
 20
-3.7796
  0
VERTEX
  8
LAYER_7
 10
150.89
 20
-3.8372
  0
VERTEX
  8
LAYER_7
 10
150.816
 20
-3.8919
  0
VERTEX
  8
LAYER_7
 10
150.7791
 20
-3.8495
  0
VERTEX
  8
LAYER_7
 10
150.7253
 20
-3.8123
  0
VERTEX
  8
LAYER_7
 10
150.6578
 20
-3.7865
  0
VERTEX
  8
LAYER_7
 10
150.5793
 20
-3.7765
 42
0.113174973
  0
VERTEX
  8
LAYER_7
 10
150.4267
 20
-3.8075
 42
0.1043770607
  0
VERTEX
  8
LAYER_7
 10
150.3123
 20
-3.8905
 42
0.09614808583
  0
VERTEX
  8
LAYER_7
 10
150.2403
 20
-4.0121
 42
0.083796008
  0
VERTEX
  8
LAYER_7
 10
150.2158
 20
-4.1576
 42
0.09231692079
  0
VERTEX
  8
LAYER_7
 10
150.2413
 20
-4.3029
 42
0.09858996648
  0
VERTEX
  8
LAYER_7
 10
150.3136
 20
-4.4245
 42
0.1046808317
  0
VERTEX
  8
LAYER_7
 10
150.428
 20
-4.5075
 42
0.1066098621
  0
VERTEX
  8
LAYER_7
 10
150.5793
 20
-4.5386
 42
0.1119688629
  0
VERTEX
  8
LAYER_7
 10
150.7226
 20
-4.5075
 42
0.1360900407
  0
VERTEX
  8
LAYER_7
 10
150.8366
 20
-4.4087
  0
SEQEND
  0
ENDBLK
  0
BLOCK
  8
LAYER_7
  2
AIGNBL07030024
 70
64
 10
0
 20
0
 30
0
  3
AIGNBL07030024
  0
POLYLINE
  8
LAYER_7
 40
0.05
 41
0.05
 66
1
 10
0
 20
0
 30
0
 70
1
  0
VERTEX
  8
LAYER_7
 10
151.3189
 20
-4.5162
  0
VERTEX
  8
LAYER_7
 10
151.7878
 20
-4.5162
  0
VERTEX
  8
LAYER_7
 10
151.7878
 20
-4.5957
  0
VERTEX
  8
LAYER_7
 10
151.23
 20
-4.5957
  0
VERTEX
  8
LAYER_7
 10
151.23
 20
-3.72
  0
VERTEX
  8
LAYER_7
 10
151.773
 20
-3.72
  0
VERTEX
  8
LAYER_7
 10
151.773
 20
-3.7989
  0
VERTEX
  8
LAYER_7
 10
151.3189
 20
-3.7989
  0
VERTEX
  8
LAYER_7
 10
151.3189
 20
-4.0993
  0
VERTEX
  8
LAYER_7
 10
151.7434
 20
-4.0993
  0
VERTEX
  8
LAYER_7
 10
151.7434
 20
-4.1785
  0
VERTEX
  8
LAYER_7
 10
151.3189
 20
-4.1785
  0
SEQEND
  0
ENDBLK
  0
BLOCK
  8
LAYER_1
  2
AIGNBL01020004
 70
64
 10
0
 20
0
 30
0
  3
AIGNBL01020004
  0
POLYLINE
  8
LAYER_1
 40
0.1764
 41
0.1764
 66
1
 10
0
 20
0
 30
0
  0
VERTEX
  8
LAYER_1
 10
85.0342
 20
123.7739
  0
VERTEX
  8
LAYER_1
 10
84.292
 20
121.0039
  0
SEQEND
  0
POLYLINE
  8
LAYER_1
 40
0.1764
 41
0.1764
 66
1
 10
0
 20
0
 30
0
  0
VERTEX
  8
LAYER_1
 10
84.292
 20
123.7739
  0
VERTEX
  8
LAYER_1
 10
84.292
 20
121.0039
  0
VERTEX
  8
LAYER_1
 10
83.5497
 20
123.7739
  0
SEQEND
  0
ENDBLK
  0
BLOCK
  8
LAYER_1
  2
AIGNBL01020005
 70
64
 10
0
 20
0
 30
0
  3
AIGNBL01020005
  0
POLYLINE
  8
LAYER_1
 40
0.1764
 41
0.1764
 66
1
 10
0
 20
0
 30
0
  0
VERTEX
  8
LAYER_1
 10
83.5497
 20
130.7339
  0
VERTEX
  8
LAYER_1
 10
84.292
 20
133.5039
  0
SEQEND
  0
POLYLINE
  8
LAYER_1
 40
0.1764
 41
0.1764
 66
1
 10
0
 20
0
 30
0
  0
VERTEX
  8
LAYER_1
 10
84.292
 20
130.7339
  0
VERTEX
  8
LAYER_1
 10
84.292
 20
133.5039
  0
VERTEX
  8
LAYER_1
 10
85.0342
 20
130.7339
  0
SEQEND
  0
ENDBLK
  0
BLOCK
  8
LAYER_1
  2
AIGNBL01020006
 70
64
 10
0
 20
0
 30
0
  3
AIGNBL01020006
  0
POLYLINE
  8
LAYER_1
 40
0.7056
 41
0.7056
 66
1
 10
0
 20
0
 30
0
  0
VERTEX
  8
LAYER_1
 10
88.042
 20
121.0039
  0
SEQEND
  0
ENDBLK
  0
BLOCK
  8
LAYER_1
  2
AIGNBL01020007
 70
64
 10
0
 20
0
 30
0
  3
AIGNBL01020007
  0
POLYLINE
  8
LAYER_1
 40
0.7056
 41
0.7056
 66
1
 10
0
 20
0
 30
0
  0
VERTEX
  8
LAYER_1
 10
111.8842
 20
133.5039
  0
SEQEND
  0
ENDBLK
  0
BLOCK
  8
LAYER_1
  2
AIGNBL01020008
 70
64
 10
0
 20
0
 30
0
  3
AIGNBL01020008
  0
POLYLINE
  8
LAYER_1
 40
0.7056
 41
0.7056
 66
1
 10
0
 20
0
 30
0
  0
VERTEX
  8
LAYER_1
 10
84.292
 20
133.5039
  0
SEQEND
  0
ENDBLK
  0
BLOCK
  8
LAYER_1
  2
AIGNBL0102000A
 70
64
 10
0
 20
0
 30
0
  3
AIGNBL0102000A
  0
POLYLINE
  8
LAYER_1
 40
0.1764
 41
0.1764
 66
1
 10
0
 20
0
 30
0
  0
VERTEX
  8
LAYER_1
 10
113.772
 20
98.6595
  0
VERTEX
  8
LAYER_1
 10
116.542
 20
97.9173
  0
SEQEND
  0
POLYLINE
  8
LAYER_1
 40
0.1764
 41
0.1764
 66
1
 10
0
 20
0
 30
0
  0
VERTEX
  8
LAYER_1
 10
113.772
 20
97.9173
  0
VERTEX
  8
LAYER_1
 10
116.542
 20
97.9173
  0
VERTEX
  8
LAYER_1
 10
113.772
 20
97.1751
  0
SEQEND
  0
ENDBLK
  0
BLOCK
  8
LAYER_1
  2
AIGNBL0102000B
 70
64
 10
0
 20
0
 30
0
  3
AIGNBL0102000B
  0
POLYLINE
  8
LAYER_1
 40
0.1764
 41
0.1764
 66
1
 10
0
 20
0
 30
0
  0
VERTEX
  8
LAYER_1
 10
93.312
 20
97.1751
  0
VERTEX
  8
LAYER_1
 10
90.542
 20
97.9173
  0
SEQEND
  0
POLYLINE
  8
LAYER_1
 40
0.1764
 41
0.1764
 66
1
 10
0
 20
0
 30
0
  0
VERTEX
  8
LAYER_1
 10
93.312
 20
97.9173
  0
VERTEX
  8
LAYER_1
 10
90.542
 20
97.9173
  0
VERTEX
  8
LAYER_1
 10
93.312
 20
98.6595
  0
SEQEND
  0
ENDBLK
  0
BLOCK
  8
LAYER_1
  2
AIGNBL0102000C
 70
64
 10
0
 20
0
 30
0
  3
AIGNBL0102000C
  0
POLYLINE
  8
LAYER_1
 40
0.7056
 41
0.7056
 66
1
 10
0
 20
0
 30
0
  0
VERTEX
  8
LAYER_1
 10
116.542
 20
112.3789
  0
SEQEND
  0
ENDBLK
  0
BLOCK
  8
LAYER_1
  2
AIGNBL0102000D
 70
64
 10
0
 20
0
 30
0
  3
AIGNBL0102000D
  0
POLYLINE
  8
LAYER_1
 40
0.7056
 41
0.7056
 66
1
 10
0
 20
0
 30
0
  0
VERTEX
  8
LAYER_1
 10
90.542
 20
121.0039
  0
SEQEND
  0
ENDBLK
  0
BLOCK
  8
LAYER_1
  2
AIGNBL0102000E
 70
64
 10
0
 20
0
 30
0
  3
AIGNBL0102000E
  0
POLYLINE
  8
LAYER_1
 40
0.7056
 41
0.7056
 66
1
 10
0
 20
0
 30
0
  0
VERTEX
  8
LAYER_1
 10
90.542
 20
97.9173
  0
SEQEND
  0
ENDBLK
  0
BLOCK
  8
LAYER_1
  2
AIGNBL01020010
 70
64
 10
0
 20
0
 30
0
  3
AIGNBL01020010
  0
POLYLINE
  8
LAYER_1
 40
0.7056
 41
0.7056
 66
1
 10
0
 20
0
 30
0
  0
VERTEX
  8
LAYER_1
 10
154.292
 20
230.0257
  0
SEQEND
  0
ENDBLK
  0
BLOCK
  8
LAYER_1
  2
AIGNBL01020012
 70
64
 10
0
 20
0
 30
0
  3
AIGNBL01020012
  0
POLYLINE
  8
LAYER_1
 40
0.1764
 41
0.1764
 66
1
 10
0
 20
0
 30
0
  0
VERTEX
  8
LAYER_1
 10
110.522
 20
144.3961
  0
VERTEX
  8
LAYER_1
 10
113.292
 20
143.6539
  0
SEQEND
  0
POLYLINE
  8
LAYER_1
 40
0.1764
 41
0.1764
 66
1
 10
0
 20
0
 30
0
  0
VERTEX
  8
LAYER_1
 10
110.522
 20
143.6539
  0
VERTEX
  8
LAYER_1
 10
113.292
 20
143.6539
  0
VERTEX
  8
LAYER_1
 10
110.522
 20
142.9116
  0
SEQEND
  0
ENDBLK
  0
BLOCK
  8
LAYER_1
  2
AIGNBL01020013
 70
64
 10
0
 20
0
 30
0
  3
AIGNBL01020013
  0
POLYLINE
  8
LAYER_1
 40
0.1764
 41
0.1764
 66
1
 10
0
 20
0
 30
0
  0
VERTEX
  8
LAYER_1
 10
122.562
 20
142.9116
  0
VERTEX
  8
LAYER_1
 10
119.792
 20
143.6539
  0
SEQEND
  0
POLYLINE
  8
LAYER_1
 40
0.1764
 41
0.1764
 66
1
 10
0
 20
0
 30
0
  0
VERTEX
  8
LAYER_1
 10
122.562
 20
143.6539
  0
VERTEX
  8
LAYER_1
 10
119.792
 20
143.6539
  0
VERTEX
  8
LAYER_1
 10
122.562
 20
144.3961
  0
SEQEND
  0
ENDBLK
  0
BLOCK
  8
LAYER_1
  2
AIGNBL01020014
 70
64
 10
0
 20
0
 30
0
  3
AIGNBL01020014
  0
POLYLINE
  8
LAYER_1
 40
0.7056
 41
0.7056
 66
1
 10
0
 20
0
 30
0
  0
VERTEX
  8
LAYER_1
 10
113.292
 20
133.5039
  0
SEQEND
  0
ENDBLK
  0
BLOCK
  8
LAYER_1
  2
AIGNBL01020015
 70
64
 10
0
 20
0
 30
0
  3
AIGNBL01020015
  0
POLYLINE
  8
LAYER_1
 40
0.7056
 41
0.7056
 66
1
 10
0
 20
0
 30
0
  0
VERTEX
  8
LAYER_1
 10
119.792
 20
133.5039
  0
SEQEND
  0
ENDBLK
  0
BLOCK
  8
LAYER_1
  2
AIGNBL01020016
 70
64
 10
0
 20
0
 30
0
  3
AIGNBL01020016
  0
POLYLINE
  8
LAYER_1
 40
0.7056
 41
0.7056
 66
1
 10
0
 20
0
 30
0
  0
VERTEX
  8
LAYER_1
 10
119.792
 20
143.6539
  0
SEQEND
  0
ENDBLK
  0
BLOCK
  8
LAYER_1
  2
AIGNBL01020018
 70
64
 10
0
 20
0
 30
0
  3
AIGNBL01020018
  0
POLYLINE
  8
LAYER_1
 40
0.7056
 41
0.7056
 66
1
 10
0
 20
0
 30
0
  0
VERTEX
  8
LAYER_1
 10
154.292
 20
146.9006
  0
SEQEND
  0
ENDBLK
  0
BLOCK
  8
LAYER_1
  2
AIGNBL0102001A
 70
64
 10
0
 20
0
 30
0
  3
AIGNBL0102001A
  0
POLYLINE
  8
LAYER_1
 40
0.1764
 41
0.1764
 66
1
 10
0
 20
0
 30
0
  0
VERTEX
  8
LAYER_1
 10
180.2779
 20
133.2339
  0
VERTEX
  8
LAYER_1
 10
181.0201
 20
136.0039
  0
SEQEND
  0
POLYLINE
  8
LAYER_1
 40
0.1764
 41
0.1764
 66
1
 10
0
 20
0
 30
0
  0
VERTEX
  8
LAYER_1
 10
181.0201
 20
133.2339
  0
VERTEX
  8
LAYER_1
 10
181.0201
 20
136.0039
  0
VERTEX
  8
LAYER_1
 10
181.7623
 20
133.2339
  0
SEQEND
  0
ENDBLK
  0
BLOCK
  8
LAYER_1
  2
AIGNBL0102001B
 70
64
 10
0
 20
0
 30
0
  3
AIGNBL0102001B
  0
POLYLINE
  8
LAYER_1
 40
0.1764
 41
0.1764
 66
1
 10
0
 20
0
 30
0
  0
VERTEX
  8
LAYER_1
 10
181.7623
 20
108.7739
  0
VERTEX
  8
LAYER_1
 10
181.0201
 20
106.0039
  0
SEQEND
  0
POLYLINE
  8
LAYER_1
 40
0.1764
 41
0.1764
 66
1
 10
0
 20
0
 30
0
  0
VERTEX
  8
LAYER_1
 10
181.0201
 20
108.7739
  0
VERTEX
  8
LAYER_1
 10
181.0201
 20
106.0039
  0
VERTEX
  8
LAYER_1
 10
180.2779
 20
108.7739
  0
SEQEND
  0
ENDBLK
  0
BLOCK
  8
LAYER_1
  2
AIGNBL0102001C
 70
64
 10
0
 20
0
 30
0
  3
AIGNBL0102001C
  0
POLYLINE
  8
LAYER_1
 40
0.7056
 41
0.7056
 66
1
 10
0
 20
0
 30
0
  0
VERTEX
  8
LAYER_1
 10
154.292
 20
136.0039
  0
SEQEND
  0
ENDBLK
  0
BLOCK
  8
LAYER_1
  2
AIGNBL0102001D
 70
64
 10
0
 20
0
 30
0
  3
AIGNBL0102001D
  0
POLYLINE
  8
LAYER_1
 40
0.7056
 41
0.7056
 66
1
 10
0
 20
0
 30
0
  0
VERTEX
  8
LAYER_1
 10
154.292
 20
106.0039
  0
SEQEND
  0
ENDBLK
  0
BLOCK
  8
LAYER_1
  2
AIGNBL0102001E
 70
64
 10
0
 20
0
 30
0
  3
AIGNBL0102001E
  0
POLYLINE
  8
LAYER_1
 40
0.7056
 41
0.7056
 66
1
 10
0
 20
0
 30
0
  0
VERTEX
  8
LAYER_1
 10
181.0201
 20
106.0039
  0
SEQEND
  0
ENDBLK
  0
BLOCK
  8
LAYER_1
  2
AIGNBL01020021
 70
64
 10
0
 20
0
 30
0
  3
AIGNBL01020021
  0
POLYLINE
  8
LAYER_1
 40
0.1764
 41
0.1764
 66
1
 10
0
 20
0
 30
0
  0
VERTEX
  8
LAYER_1
 10
160.022
 20
98.6595
  0
VERTEX
  8
LAYER_1
 10
162.792
 20
97.9173
  0
SEQEND
  0
POLYLINE
  8
LAYER_1
 40
0.1764
 41
0.1764
 66
1
 10
0
 20
0
 30
0
  0
VERTEX
  8
LAYER_1
 10
160.022
 20
97.9173
  0
VERTEX
  8
LAYER_1
 10
162.792
 20
97.9173
  0
VERTEX
  8
LAYER_1
 10
160.022
 20
97.1751
  0
SEQEND
  0
ENDBLK
  0
BLOCK
  8
LAYER_1
  2
AIGNBL01020022
 70
64
 10
0
 20
0
 30
0
  3
AIGNBL01020022
  0
POLYLINE
  8
LAYER_1
 40
0.1764
 41
0.1764
 66
1
 10
0
 20
0
 30
0
  0
VERTEX
  8
LAYER_1
 10
119.312
 20
97.1751
  0
VERTEX
  8
LAYER_1
 10
116.542
 20
97.9173
  0
SEQEND
  0
POLYLINE
  8
LAYER_1
 40
0.1764
 41
0.1764
 66
1
 10
0
 20
0
 30
0
  0
VERTEX
  8
LAYER_1
 10
119.312
 20
97.9173
  0
VERTEX
  8
LAYER_1
 10
116.542
 20
97.9173
  0
VERTEX
  8
LAYER_1
 10
119.312
 20
98.6595
  0
SEQEND
  0
ENDBLK
  0
BLOCK
  8
LAYER_1
  2
AIGNBL01020023
 70
64
 10
0
 20
0
 30
0
  3
AIGNBL01020023
  0
POLYLINE
  8
LAYER_1
 40
0.7056
 41
0.7056
 66
1
 10
0
 20
0
 30
0
  0
VERTEX
  8
LAYER_1
 10
162.792
 20
116.6809
  0
SEQEND
  0
ENDBLK
  0
BLOCK
  8
LAYER_1
  2
AIGNBL01020024
 70
64
 10
0
 20
0
 30
0
  3
AIGNBL01020024
  0
POLYLINE
  8
LAYER_1
 40
0.7056
 41
0.7056
 66
1
 10
0
 20
0
 30
0
  0
VERTEX
  8
LAYER_1
 10
116.542
 20
112.3789
  0
SEQEND
  0
ENDBLK
  0
BLOCK
  8
LAYER_1
  2
AIGNBL01020025
 70
64
 10
0
 20
0
 30
0
  3
AIGNBL01020025
  0
POLYLINE
  8
LAYER_1
 40
0.7056
 41
0.7056
 66
1
 10
0
 20
0
 30
0
  0
VERTEX
  8
LAYER_1
 10
116.542
 20
97.9173
  0
SEQEND
  0
ENDBLK
  0
BLOCK
  8
LAYER_1
  2
AIGNBL01020027
 70
64
 10
0
 20
0
 30
0
  3
AIGNBL01020027
  0
POLYLINE
  8
LAYER_1
 40
0.1764
 41
0.1764
 66
1
 10
0
 20
0
 30
0
  0
VERTEX
  8
LAYER_1
 10
76.1897
 20
123.7739
  0
VERTEX
  8
LAYER_1
 10
75.4474
 20
121.0039
  0
SEQEND
  0
POLYLINE
  8
LAYER_1
 40
0.1764
 41
0.1764
 66
1
 10
0
 20
0
 30
0
  0
VERTEX
  8
LAYER_1
 10
75.4474
 20
123.7739
  0
VERTEX
  8
LAYER_1
 10
75.4474
 20
121.0039
  0
VERTEX
  8
LAYER_1
 10
74.7052
 20
123.7739
  0
SEQEND
  0
ENDBLK
  0
BLOCK
  8
LAYER_1
  2
AIGNBL01020028
 70
64
 10
0
 20
0
 30
0
  3
AIGNBL01020028
  0
POLYLINE
  8
LAYER_1
 40
0.1764
 41
0.1764
 66
1
 10
0
 20
0
 30
0
  0
VERTEX
  8
LAYER_1
 10
74.7052
 20
133.7339
  0
VERTEX
  8
LAYER_1
 10
75.4474
 20
136.5039
  0
SEQEND
  0
POLYLINE
  8
LAYER_1
 40
0.1764
 41
0.1764
 66
1
 10
0
 20
0
 30
0
  0
VERTEX
  8
LAYER_1
 10
75.4474
 20
133.7339
  0
VERTEX
  8
LAYER_1
 10
75.4474
 20
136.5039
  0
VERTEX
  8
LAYER_1
 10
76.1897
 20
133.7339
  0
SEQEND
  0
ENDBLK
  0
BLOCK
  8
LAYER_1
  2
AIGNBL01020029
 70
64
 10
0
 20
0
 30
0
  3
AIGNBL01020029
  0
POLYLINE
  8
LAYER_1
 40
0.7056
 41
0.7056
 66
1
 10
0
 20
0
 30
0
  0
VERTEX
  8
LAYER_1
 10
88.042
 20
121.0039
  0
SEQEND
  0
ENDBLK
  0
BLOCK
  8
LAYER_1
  2
AIGNBL0102002A
 70
64
 10
0
 20
0
 30
0
  3
AIGNBL0102002A
  0
POLYLINE
  8
LAYER_1
 40
0.7056
 41
0.7056
 66
1
 10
0
 20
0
 30
0
  0
VERTEX
  8
LAYER_1
 10
95.792
 20
136.5039
  0
SEQEND
  0
ENDBLK
  0
BLOCK
  8
LAYER_1
  2
AIGNBL0102002B
 70
64
 10
0
 20
0
 30
0
  3
AIGNBL0102002B
  0
POLYLINE
  8
LAYER_1
 40
0.7056
 41
0.7056
 66
1
 10
0
 20
0
 30
0
  0
VERTEX
  8
LAYER_1
 10
75.4474
 20
136.5039
  0
SEQEND
  0
ENDBLK
  0
BLOCK
  8
LAYER_7
  2
AIGNBL07020004
 70
64
 10
0
 20
0
 30
0
  3
AIGNBL07020004
  0
INSERT
  8
LAYER_7
  2
AIGNBL07030005
 10
0
 20
0
 30
0
  0
ENDBLK
  0
BLOCK
  8
LAYER_7
  2
AIGNBL0702000D
 70
64
 10
0
 20
0
 30
0
  3
AIGNBL0702000D
  0
INSERT
  8
LAYER_7
  2
AIGNBL0703000E
 10
0
 20
0
 30
0
  0
INSERT
  8
LAYER_7
  2
AIGNBL0703000F
 10
0
 20
0
 30
0
  0
INSERT
  8
LAYER_7
  2
AIGNBL07030010
 10
0
 20
0
 30
0
  0
INSERT
  8
LAYER_7
  2
AIGNBL07030011
 10
0
 20
0
 30
0
  0
INSERT
  8
LAYER_7
  2
AIGNBL07030012
 10
0
 20
0
 30
0
  0
INSERT
  8
LAYER_7
  2
AIGNBL07030013
 10
0
 20
0
 30
0
  0
INSERT
  8
LAYER_7
  2
AIGNBL07030014
 10
0
 20
0
 30
0
  0
INSERT
  8
LAYER_7
  2
AIGNBL07030015
 10
0
 20
0
 30
0
  0
INSERT
  8
LAYER_7
  2
AIGNBL07030016
 10
0
 20
0
 30
0
  0
INSERT
  8
LAYER_7
  2
AIGNBL07030017
 10
0
 20
0
 30
0
  0
INSERT
  8
LAYER_7
  2
AIGNBL07030018
 10
0
 20
0
 30
0
  0
INSERT
  8
LAYER_7
  2
AIGNBL07030019
 10
0
 20
0
 30
0
  0
INSERT
  8
LAYER_7
  2
AIGNBL0703001A
 10
0
 20
0
 30
0
  0
INSERT
  8
LAYER_7
  2
AIGNBL0703001B
 10
0
 20
0
 30
0
  0
INSERT
  8
LAYER_7
  2
AIGNBL0703001C
 10
0
 20
0
 30
0
  0
INSERT
  8
LAYER_7
  2
AIGNBL0703001D
 10
0
 20
0
 30
0
  0
INSERT
  8
LAYER_7
  2
AIGNBL0703001E
 10
0
 20
0
 30
0
  0
INSERT
  8
LAYER_7
  2
AIGNBL0703001F
 10
0
 20
0
 30
0
  0
INSERT
  8
LAYER_7
  2
AIGNBL07030020
 10
0
 20
0
 30
0
  0
INSERT
  8
LAYER_7
  2
AIGNBL07030021
 10
0
 20
0
 30
0
  0
INSERT
  8
LAYER_7
  2
AIGNBL07030022
 10
0
 20
0
 30
0
  0
INSERT
  8
LAYER_7
  2
AIGNBL07030023
 10
0
 20
0
 30
0
  0
INSERT
  8
LAYER_7
  2
AIGNBL07030024
 10
0
 20
0
 30
0
  0
ENDBLK
  0
BLOCK
  8
LAYER_1
  2
AIGNBL01010002
 70
64
 10
0
 20
0
 30
0
  3
AIGNBL01010002
  0
POLYLINE
  8
LAYER_1
 40
0.1764
 41
0.1764
 66
1
 10
0
 20
0
 30
0
  0
VERTEX
  8
LAYER_1
 10
124.2642
 20
132.1472
  0
VERTEX
  8
LAYER_1
 10
121.7807
 20
130.7134
  0
SEQEND
  0
POLYLINE
  8
LAYER_1
 40
0.1764
 41
0.1764
 66
1
 10
0
 20
0
 30
0
  0
VERTEX
  8
LAYER_1
 10
123.7394
 20
132.672
  0
VERTEX
  8
LAYER_1
 10
121.7807
 20
130.7134
  0
VERTEX
  8
LAYER_1
 10
123.2146
 20
133.1969
  0
SEQEND
  0
ENDBLK
  0
BLOCK
  8
LAYER_1
  2
AIGNBL01010003
 70
64
 10
0
 20
0
 30
0
  3
AIGNBL01010003
  0
POLYLINE
  8
LAYER_1
 40
0.1764
 41
0.1764
 66
1
 10
0
 20
0
 30
0
  0
VERTEX
  8
LAYER_1
 10
84.292
 20
121.0039
  0
VERTEX
  8
LAYER_1
 10
84.292
 20
133.5039
  0
SEQEND
  0
POLYLINE
  8
LAYER_1
 40
0.1764
 41
0.1764
 66
1
 10
0
 20
0
 30
0
  0
VERTEX
  8
LAYER_1
 10
86.542
 20
121.0039
  0
VERTEX
  8
LAYER_1
 10
82.792
 20
121.0039
  0
SEQEND
  0
POLYLINE
  8
LAYER_1
 40
0.1764
 41
0.1764
 66
1
 10
0
 20
0
 30
0
  0
VERTEX
  8
LAYER_1
 10
110.3842
 20
133.5039
  0
VERTEX
  8
LAYER_1
 10
82.792
 20
133.5039
  0
SEQEND
  0
INSERT
  8
LAYER_1
  2
AIGNBL01020004
 10
0
 20
0
 30
0
  0
INSERT
  8
LAYER_1
  2
AIGNBL01020005
 10
0
 20
0
 30
0
  0
TEXT
  8
LAYER_1
 10
82.9956
 20
129.2924
 11
82.9956
 21
129.2924
 40
3.9656
 41
0.5
 50
89.99999999
 72
1
  1
25.0
  0
INSERT
  8
LAYER_1
  2
AIGNBL01020006
 10
0
 20
0
 30
0
  0
INSERT
  8
LAYER_1
  2
AIGNBL01020007
 10
0
 20
0
 30
0
  0
INSERT
  8
LAYER_1
  2
AIGNBL01020008
 10
0
 20
0
 30
0
  0
ENDBLK
  0
BLOCK
  8
LAYER_1
  2
AIGNBL01010009
 70
64
 10
0
 20
0
 30
0
  3
AIGNBL01010009
  0
POLYLINE
  8
LAYER_1
 40
0.1764
 41
0.1764
 66
1
 10
0
 20
0
 30
0
  0
VERTEX
  8
LAYER_1
 10
116.542
 20
97.9173
  0
VERTEX
  8
LAYER_1
 10
90.542
 20
97.9173
  0
SEQEND
  0
POLYLINE
  8
LAYER_1
 40
0.1764
 41
0.1764
 66
1
 10
0
 20
0
 30
0
  0
VERTEX
  8
LAYER_1
 10
116.542
 20
110.8789
  0
VERTEX
  8
LAYER_1
 10
116.542
 20
96.4173
  0
SEQEND
  0
POLYLINE
  8
LAYER_1
 40
0.1764
 41
0.1764
 66
1
 10
0
 20
0
 30
0
  0
VERTEX
  8
LAYER_1
 10
90.542
 20
119.5039
  0
VERTEX
  8
LAYER_1
 10
90.542
 20
96.4173
  0
SEQEND
  0
INSERT
  8
LAYER_1
  2
AIGNBL0102000A
 10
0
 20
0
 30
0
  0
INSERT
  8
LAYER_1
  2
AIGNBL0102000B
 10
0
 20
0
 30
0
  0
TEXT
  8
LAYER_1
 10
105.5601
 20
99.2137
 11
105.5601
 21
99.2137
 40
3.9656
 41
0.5
 72
1
  1
(最大52.0)
  0
INSERT
  8
LAYER_1
  2
AIGNBL0102000C
 10
0
 20
0
 30
0
  0
INSERT
  8
LAYER_1
  2
AIGNBL0102000D
 10
0
 20
0
 30
0
  0
INSERT
  8
LAYER_1
  2
AIGNBL0102000E
 10
0
 20
0
 30
0
  0
ENDBLK
  0
BLOCK
  8
LAYER_1
  2
AIGNBL0101000F
 70
64
 10
0
 20
0
 30
0
  3
AIGNBL0101000F
  0
POLYLINE
  8
LAYER_1
 40
0.1764
 41
0.1764
 66
1
 10
0
 20
0
 30
0
 70
1
  0
VERTEX
  8
LAYER_1
 10
151.792
 20
231.4691
  0
VERTEX
  8
LAYER_1
 10
154.292
 20
230.0257
  0
VERTEX
  8
LAYER_1
 10
151.792
 20
228.5823
  0
SEQEND
  0
INSERT
  8
LAYER_1
  2
AIGNBL01020010
 10
0
 20
0
 30
0
  0
ENDBLK
  0
BLOCK
  8
LAYER_1
  2
AIGNBL01010011
 70
64
 10
0
 20
0
 30
0
  3
AIGNBL01010011
  0
POLYLINE
  8
LAYER_1
 40
0.1764
 41
0.1764
 66
1
 10
0
 20
0
 30
0
  0
VERTEX
  8
LAYER_1
 10
113.292
 20
135.0039
  0
VERTEX
  8
LAYER_1
 10
113.292
 20
145.1539
  0
SEQEND
  0
POLYLINE
  8
LAYER_1
 40
0.1764
 41
0.1764
 66
1
 10
0
 20
0
 30
0
  0
VERTEX
  8
LAYER_1
 10
119.792
 20
135.0039
  0
VERTEX
  8
LAYER_1
 10
119.792
 20
145.1539
  0
SEQEND
  0
POLYLINE
  8
LAYER_1
 40
0.1764
 41
0.1764
 66
1
 10
0
 20
0
 30
0
  0
VERTEX
  8
LAYER_1
 10
108.792
 20
143.6539
  0
VERTEX
  8
LAYER_1
 10
113.292
 20
143.6539
  0
VERTEX
  8
LAYER_1
 10
119.792
 20
143.6539
  0
SEQEND
  0
POLYLINE
  8
LAYER_1
 40
0.1764
 41
0.1764
 66
1
 10
0
 20
0
 30
0
  0
VERTEX
  8
LAYER_1
 10
124.292
 20
143.6539
  0
VERTEX
  8
LAYER_1
 10
119.792
 20
143.6539
  0
VERTEX
  8
LAYER_1
 10
141.2811
 20
143.6539
  0
SEQEND
  0
INSERT
  8
LAYER_1
  2
AIGNBL01020012
 10
0
 20
0
 30
0
  0
INSERT
  8
LAYER_1
  2
AIGNBL01020013
 10
0
 20
0
 30
0
  0
TEXT
  8
LAYER_1
 10
134.7472
 20
145.0505
 11
134.7472
 21
145.0505
 40
3.9656
 41
0.5
 72
1
  1
内径Φ13.0
  0
INSERT
  8
LAYER_1
  2
AIGNBL01020014
 10
0
 20
0
 30
0
  0
INSERT
  8
LAYER_1
  2
AIGNBL01020015
 10
0
 20
0
 30
0
  0
INSERT
  8
LAYER_1
  2
AIGNBL01020016
 10
0
 20
0
 30
0
  0
ENDBLK
  0
BLOCK
  8
LAYER_1
  2
AIGNBL01010017
 70
64
 10
0
 20
0
 30
0
  3
AIGNBL01010017
  0
POLYLINE
  8
LAYER_1
 40
0.1764
 41
0.1764
 66
1
 10
0
 20
0
 30
0
 70
1
  0
VERTEX
  8
LAYER_1
 10
151.792
 20
148.344
  0
VERTEX
  8
LAYER_1
 10
154.292
 20
146.9006
  0
VERTEX
  8
LAYER_1
 10
151.792
 20
145.4572
  0
SEQEND
  0
INSERT
  8
LAYER_1
  2
AIGNBL01020018
 10
0
 20
0
 30
0
  0
ENDBLK
  0
BLOCK
  8
LAYER_1
  2
AIGNBL01010019
 70
64
 10
0
 20
0
 30
0
  3
AIGNBL01010019
  0
POLYLINE
  8
LAYER_1
 40
0.1764
 41
0.1764
 66
1
 10
0
 20
0
 30
0
  0
VERTEX
  8
LAYER_1
 10
181.0201
 20
136.0039
  0
VERTEX
  8
LAYER_1
 10
181.0201
 20
106.0039
  0
SEQEND
  0
POLYLINE
  8
LAYER_1
 40
0.1764
 41
0.1764
 66
1
 10
0
 20
0
 30
0
  0
VERTEX
  8
LAYER_1
 10
155.792
 20
136.0039
  0
VERTEX
  8
LAYER_1
 10
182.5201
 20
136.0039
  0
SEQEND
  0
POLYLINE
  8
LAYER_1
 40
0.1764
 41
0.1764
 66
1
 10
0
 20
0
 30
0
  0
VERTEX
  8
LAYER_1
 10
155.792
 20
106.0039
  0
VERTEX
  8
LAYER_1
 10
182.5201
 20
106.0039
  0
SEQEND
  0
INSERT
  8
LAYER_1
  2
AIGNBL0102001A
 10
0
 20
0
 30
0
  0
INSERT
  8
LAYER_1
  2
AIGNBL0102001B
 10
0
 20
0
 30
0
  0
TEXT
  8
LAYER_1
 10
179.6235
 20
123.023
 11
179.6235
 21
123.023
 40
3.9656
 41
0.5
 50
89.99999999
 72
1
  1
Φ60.0
  0
INSERT
  8
LAYER_1
  2
AIGNBL0102001C
 10
0
 20
0
 30
0
  0
INSERT
  8
LAYER_1
  2
AIGNBL0102001D
 10
0
 20
0
 30
0
  0
INSERT
  8
LAYER_1
  2
AIGNBL0102001E
 10
0
 20
0
 30
0
  0
ENDBLK
  0
BLOCK
  8
LAYER_1
  2
AIGNBL0101001F
 70
64
 10
0
 20
0
 30
0
  3
AIGNBL0101001F
  0
POLYLINE
  8
LAYER_1
 40
0.1764
 41
0.1764
 66
1
 10
0
 20
0
 30
0
  0
VERTEX
  8
LAYER_1
 10
160.7623
 20
127.4919
  0
VERTEX
  8
LAYER_1
 10
158.2841
 20
126.049
  0
SEQEND
  0
POLYLINE
  8
LAYER_1
 40
0.1764
 41
0.1764
 66
1
 10
0
 20
0
 30
0
  0
VERTEX
  8
LAYER_1
 10
160.2355
 20
128.0148
  0
VERTEX
  8
LAYER_1
 10
158.2841
 20
126.049
  0
VERTEX
  8
LAYER_1
 10
159.7088
 20
128.5377
  0
SEQEND
  0
ENDBLK
  0
BLOCK
  8
LAYER_1
  2
AIGNBL01010020
 70
64
 10
0
 20
0
 30
0
  3
AIGNBL01010020
  0
POLYLINE
  8
LAYER_1
 40
0.1764
 41
0.1764
 66
1
 10
0
 20
0
 30
0
  0
VERTEX
  8
LAYER_1
 10
162.792
 20
97.9173
  0
VERTEX
  8
LAYER_1
 10
116.542
 20
97.9173
  0
SEQEND
  0
POLYLINE
  8
LAYER_1
 40
0.1764
 41
0.1764
 66
1
 10
0
 20
0
 30
0
  0
VERTEX
  8
LAYER_1
 10
162.792
 20
115.1809
  0
VERTEX
  8
LAYER_1
 10
162.792
 20
96.4173
  0
SEQEND
  0
POLYLINE
  8
LAYER_1
 40
0.1764
 41
0.1764
 66
1
 10
0
 20
0
 30
0
  0
VERTEX
  8
LAYER_1
 10
116.542
 20
110.8789
  0
VERTEX
  8
LAYER_1
 10
116.542
 20
96.4173
  0
SEQEND
  0
INSERT
  8
LAYER_1
  2
AIGNBL01020021
 10
0
 20
0
 30
0
  0
INSERT
  8
LAYER_1
  2
AIGNBL01020022
 10
0
 20
0
 30
0
  0
TEXT
  8
LAYER_1
 10
141.7098
 20
99.2137
 11
141.7098
 21
99.2137
 40
3.9656
 41
0.5
 72
1
  1
92.5
  0
INSERT
  8
LAYER_1
  2
AIGNBL01020023
 10
0
 20
0
 30
0
  0
INSERT
  8
LAYER_1
  2
AIGNBL01020024
 10
0
 20
0
 30
0
  0
INSERT
  8
LAYER_1
  2
AIGNBL01020025
 10
0
 20
0
 30
0
  0
ENDBLK
  0
BLOCK
  8
LAYER_1
  2
AIGNBL01010026
 70
64
 10
0
 20
0
 30
0
  3
AIGNBL01010026
  0
POLYLINE
  8
LAYER_1
 40
0.1764
 41
0.1764
 66
1
 10
0
 20
0
 30
0
  0
VERTEX
  8
LAYER_1
 10
75.4474
 20
121.0039
  0
VERTEX
  8
LAYER_1
 10
75.4474
 20
136.5039
  0
SEQEND
  0
POLYLINE
  8
LAYER_1
 40
0.1764
 41
0.1764
 66
1
 10
0
 20
0
 30
0
  0
VERTEX
  8
LAYER_1
 10
86.542
 20
121.0039
  0
VERTEX
  8
LAYER_1
 10
73.9474
 20
121.0039
  0
SEQEND
  0
POLYLINE
  8
LAYER_1
 40
0.1764
 41
0.1764
 66
1
 10
0
 20
0
 30
0
  0
VERTEX
  8
LAYER_1
 10
94.292
 20
136.5039
  0
VERTEX
  8
LAYER_1
 10
73.9474
 20
136.5039
  0
SEQEND
  0
INSERT
  8
LAYER_1
  2
AIGNBL01020027
 10
0
 20
0
 30
0
  0
INSERT
  8
LAYER_1
  2
AIGNBL01020028
 10
0
 20
0
 30
0
  0
TEXT
  8
LAYER_1
 10
74.1511
 20
130.7848
 11
74.1511
 21
130.7848
 40
3.9656
 41
0.5
 50
89.99999999
 72
1
  1
31.0
  0
INSERT
  8
LAYER_1
  2
AIGNBL01020029
 10
0
 20
0
 30
0
  0
INSERT
  8
LAYER_1
  2
AIGNBL0102002A
 10
0
 20
0
 30
0
  0
INSERT
  8
LAYER_1
  2
AIGNBL0102002B
 10
0
 20
0
 30
0
  0
ENDBLK
  0
BLOCK
  8
LAYER_7
  2
AIGNBL07010002
 70
64
 10
0
 20
0
 30
0
  3
AIGNBL07010002
  0
POLYLINE
  8
LAYER_7
 40
0.7056
 41
0.7056
 66
1
 10
0
 20
0
 30
0
 70
1
  0
VERTEX
  8
LAYER_7
 10
206.0763
 20
269.2235
  0
VERTEX
  8
LAYER_7
 10
206.0763
 20
-7.7766
  0
VERTEX
  8
LAYER_7
 10
16.0764
 20
-7.7766
  0
VERTEX
  8
LAYER_7
 10
16.0764
 20
269.2235
  0
SEQEND
  0
ENDBLK
  0
BLOCK
  8
LAYER_7
  2
AIGNBL07010003
 70
64
 10
0
 20
0
 30
0
  3
AIGNBL07010003
  0
INSERT
  8
LAYER_7
  2
AIGNBL07020004
 10
0
 20
0
 30
0
  0
INSERT
  8
LAYER_7
  2
AIGNBL0702000D
 10
0
 20
0
 30
0
  0
ENDBLK
  0
ENDSEC
  0
SECTION
  2
ENTITIES
  0
CIRCLE
  8
LAYER_1
 10
95.792
 20
121.0039
 40
3.5
  0
POLYLINE
  8
LAYER_1
 40
0.1764
 41
0.1764
 66
1
 10
0
 20
0
 30
0
 70
1
  0
VERTEX
  8
LAYER_1
 10
99.2094
 20
125.037
 42
-0.212281444
  0
VERTEX
  8
LAYER_1
 10
99.292
 20
124.8514
  0
VERTEX
  8
LAYER_1
 10
99.292
 20
117.1564
 42
-0.2122316494
  0
VERTEX
  8
LAYER_1
 10
99.2095
 20
116.9708
 42
0.2136602545
  0
VERTEX
  8
LAYER_1
 10
98.042
 20
114.3613
  0
VERTEX
  8
LAYER_1
 10
98.042
 20
112.996
 42
0.1528982795
  0
VERTEX
  8
LAYER_1
 10
98.667
 20
110.9999
 42
-0.1528883157
  0
VERTEX
  8
LAYER_1
 10
99.292
 20
109.0039
 42
-0.4142129777
  0
VERTEX
  8
LAYER_1
 10
95.792
 20
105.5039
 42
-0.4142208923
  0
VERTEX
  8
LAYER_1
 10
92.292
 20
109.0039
 42
-0.152892267
  0
VERTEX
  8
LAYER_1
 10
92.917
 20
110.9999
 42
0.1528943276
  0
VERTEX
  8
LAYER_1
 10
93.542
 20
112.996
  0
VERTEX
  8
LAYER_1
 10
93.542
 20
114.3611
 42
0.2136581099
  0
VERTEX
  8
LAYER_1
 10
92.373
 20
116.9721
 42
-0.2113890416
  0
VERTEX
  8
LAYER_1
 10
92.292
 20
117.1564
  0
VERTEX
  8
LAYER_1
 10
92.292
 20
124.8514
 42
-0.2121296239
  0
VERTEX
  8
LAYER_1
 10
92.3744
 20
125.0369
 42
0.2136600724
  0
VERTEX
  8
LAYER_1
 10
93.542
 20
127.6464
  0
VERTEX
  8
LAYER_1
 10
93.542
 20
129.0117
 42
0.1528946031
  0
VERTEX
  8
LAYER_1
 10
92.917
 20
131.0078
 42
-0.1528993754
  0
VERTEX
  8
LAYER_1
 10
92.292
 20
133.0039
 42
-0.414214147
  0
VERTEX
  8
LAYER_1
 10
95.792
 20
136.5039
 42
-0.4142062328
  0
VERTEX
  8
LAYER_1
 10
99.292
 20
133.0039
 42
-0.152895381
  0
VERTEX
  8
LAYER_1
 10
98.667
 20
131.0078
 42
0.1528985965
  0
VERTEX
  8
LAYER_1
 10
98.042
 20
129.0117
  0
VERTEX
  8
LAYER_1
 10
98.042
 20
127.6466
 42
0.2136617519
  0
SEQEND
  0
POLYLINE
  8
LAYER_1
 40
0.1764
 41
0.1764
 66
1
 10
0
 20
0
 30
0
  0
VERTEX
  8
LAYER_1
 10
90.792
 20
118.0039
  0
VERTEX
  8
LAYER_1
 10
92.292
 20
118.0039
  0
SEQEND
  0
POLYLINE
  8
LAYER_1
 40
0.1764
 41
0.1764
 66
1
 10
0
 20
0
 30
0
  0
VERTEX
  8
LAYER_1
 10
90.7518
 20
118.5039
  0
VERTEX
  8
LAYER_1
 10
92.292
 20
118.5039
  0
SEQEND
  0
POLYLINE
  8
LAYER_1
 40
0.1764
 41
0.1764
 66
1
 10
0
 20
0
 30
0
  0
VERTEX
  8
LAYER_1
 10
90.6759
 20
119.0039
  0
VERTEX
  8
LAYER_1
 10
92.292
 20
119.0039
  0
SEQEND
  0
POLYLINE
  8
LAYER_1
 40
0.1764
 41
0.1764
 66
1
 10
0
 20
0
 30
0
  0
VERTEX
  8
LAYER_1
 10
90.6171
 20
119.5039
  0
VERTEX
  8
LAYER_1
 10
92.292
 20
119.5039
  0
SEQEND
  0
POLYLINE
  8
LAYER_1
 40
0.1764
 41
0.1764
 66
1
 10
0
 20
0
 30
0
  0
VERTEX
  8
LAYER_1
 10
90.5753
 20
120.0039
  0
VERTEX
  8
LAYER_1
 10
92.292
 20
120.0039
  0
SEQEND
  0
POLYLINE
  8
LAYER_1
 40
0.1764
 41
0.1764
 66
1
 10
0
 20
0
 30
0
  0
VERTEX
  8
LAYER_1
 10
90.5503
 20
120.5039
  0
VERTEX
  8
LAYER_1
 10
92.292
 20
120.5039
  0
SEQEND
  0
POLYLINE
  8
LAYER_1
 40
0.1764
 41
0.1764
 66
1
 10
0
 20
0
 30
0
  0
VERTEX
  8
LAYER_1
 10
90.542
 20
121.0039
  0
VERTEX
  8
LAYER_1
 10
92.292
 20
121.0039
  0
SEQEND
  0
POLYLINE
  8
LAYER_1
 40
0.1764
 41
0.1764
 66
1
 10
0
 20
0
 30
0
  0
VERTEX
  8
LAYER_1
 10
90.5503
 20
121.5039
  0
VERTEX
  8
LAYER_1
 10
92.292
 20
121.5039
  0
SEQEND
  0
POLYLINE
  8
LAYER_1
 40
0.1764
 41
0.1764
 66
1
 10
0
 20
0
 30
0
  0
VERTEX
  8
LAYER_1
 10
90.5753
 20
122.0039
  0
VERTEX
  8
LAYER_1
 10
92.292
 20
122.0039
  0
SEQEND
  0
POLYLINE
  8
LAYER_1
 40
0.1764
 41
0.1764
 66
1
 10
0
 20
0
 30
0
  0
VERTEX
  8
LAYER_1
 10
90.6171
 20
122.5039
  0
VERTEX
  8
LAYER_1
 10
92.292
 20
122.5039
  0
SEQEND
  0
POLYLINE
  8
LAYER_1
 40
0.1764
 41
0.1764
 66
1
 10
0
 20
0
 30
0
  0
VERTEX
  8
LAYER_1
 10
90.6759
 20
123.0039
  0
VERTEX
  8
LAYER_1
 10
92.292
 20
123.0039
  0
SEQEND
  0
POLYLINE
  8
LAYER_1
 40
0.1764
 41
0.1764
 66
1
 10
0
 20
0
 30
0
  0
VERTEX
  8
LAYER_1
 10
90.7518
 20
123.5039
  0
VERTEX
  8
LAYER_1
 10
92.292
 20
123.5039
  0
SEQEND
  0
POLYLINE
  8
LAYER_1
 40
0.1764
 41
0.1764
 66
1
 10
0
 20
0
 30
0
  0
VERTEX
  8
LAYER_1
 10
90.792
 20
124.0039
  0
VERTEX
  8
LAYER_1
 10
92.292
 20
124.0039
  0
SEQEND
  0
POLYLINE
  8
LAYER_1
 40
0.1764
 41
0.1764
 66
1
 10
0
 20
0
 30
0
  0
VERTEX
  8
LAYER_1
 10
92.292
 20
124.5039
  0
VERTEX
  8
LAYER_1
 10
91.167
 20
124.5039
 42
0.4142168537
  0
VERTEX
  8
LAYER_1
 10
90.792
 20
124.1289
  0
VERTEX
  8
LAYER_1
 10
90.792
 20
123.731
 42
0.04573787245
  0
VERTEX
  8
LAYER_1
 10
90.542
 20
121.0039
 42
0.04573954535
  0
VERTEX
  8
LAYER_1
 10
90.792
 20
118.2767
  0
VERTEX
  8
LAYER_1
 10
90.792
 20
117.8789
 42
0.414279638
  0
VERTEX
  8
LAYER_1
 10
91.167
 20
117.5039
  0
VERTEX
  8
LAYER_1
 10
92.292
 20
117.5039
  0
SEQEND
  0
POLYLINE
  8
LAYER_1
 40
0.1764
 41
0.1764
 66
1
 10
0
 20
0
 30
0
  0
VERTEX
  8
LAYER_1
 10
99.292
 20
118.6289
  0
VERTEX
  8
LAYER_1
 10
103.292
 20
118.6289
  0
SEQEND
  0
POLYLINE
  8
LAYER_1
 40
0.1764
 41
0.1764
 66
1
 10
0
 20
0
 30
0
  0
VERTEX
  8
LAYER_1
 10
99.292
 20
123.3789
  0
VERTEX
  8
LAYER_1
 10
103.292
 20
123.3789
  0
SEQEND
  0
POLYLINE
  8
LAYER_1
 40
0.1764
 41
0.1764
 66
1
 10
0
 20
0
 30
0
  0
VERTEX
  8
LAYER_1
 10
129.292
 20
125.5007
  0
VERTEX
  8
LAYER_1
 10
129.7275
 20
125.5143
  0
VERTEX
  8
LAYER_1
 10
130.792
 20
126.1289
  0
SEQEND
  0
POLYLINE
  8
LAYER_1
 40
0.1764
 41
0.1764
 66
1
 10
0
 20
0
 30
0
  0
VERTEX
  8
LAYER_1
 10
129.292
 20
116.507
  0
VERTEX
  8
LAYER_1
 10
129.7275
 20
116.4934
  0
VERTEX
  8
LAYER_1
 10
130.792
 20
115.8789
  0
SEQEND
  0
POLYLINE
  8
LAYER_1
 40
0.1764
 41
0.1764
 66
1
 10
0
 20
0
 30
0
  0
VERTEX
  8
LAYER_1
 10
129.7275
 20
126.0956
  0
VERTEX
  8
LAYER_1
 10
129.7275
 20
115.9121
  0
SEQEND
  0
POLYLINE
  8
LAYER_1
 40
0.1764
 41
0.1764
 66
1
 10
0
 20
0
 30
0
  0
VERTEX
  8
LAYER_1
 10
154.292
 20
106.0039
  0
VERTEX
  8
LAYER_1
 10
152.792
 20
106.0039
 42
-0.2953122873
  0
VERTEX
  8
LAYER_1
 10
148.231
 20
108.955
  0
SEQEND
  0
POLYLINE
  8
LAYER_1
 40
0.1764
 41
0.1764
 66
1
 10
0
 20
0
 30
0
  0
VERTEX
  8
LAYER_1
 10
146.292
 20
115.8789
  0
VERTEX
  8
LAYER_1
 10
130.792
 20
115.8789
  0
VERTEX
  8
LAYER_1
 10
129.292
 20
115.9257
  0
SEQEND
  0
POLYLINE
  8
LAYER_1
 40
0.1764
 41
0.1764
 66
1
 10
0
 20
0
 30
0
  0
VERTEX
  8
LAYER_1
 10
162.792
 20
116.6809
  0
VERTEX
  8
LAYER_1
 10
156.792
 20
116.4934
  0
VERTEX
  8
LAYER_1
 10
155.7275
 20
115.8789
  0
SEQEND
  0
POLYLINE
  8
LAYER_1
 40
0.1764
 41
0.1764
 66
1
 10
0
 20
0
 30
0
  0
VERTEX
  8
LAYER_1
 10
154.292
 20
136.0039
  0
VERTEX
  8
LAYER_1
 10
152.792
 20
136.0039
 42
0.2953079963
  0
VERTEX
  8
LAYER_1
 10
148.231
 20
133.0528
  0
SEQEND
  0
POLYLINE
  8
LAYER_1
 40
0.1764
 41
0.1764
 66
1
 10
0
 20
0
 30
0
  0
VERTEX
  8
LAYER_1
 10
162.792
 20
125.3268
  0
VERTEX
  8
LAYER_1
 10
156.792
 20
125.5143
  0
VERTEX
  8
LAYER_1
 10
155.7275
 20
126.1289
  0
SEQEND
  0
POLYLINE
  8
LAYER_1
 40
0.1764
 41
0.1764
 66
1
 10
0
 20
0
 30
0
  0
VERTEX
  8
LAYER_1
 10
146.292
 20
126.1289
  0
VERTEX
  8
LAYER_1
 10
130.7918
 20
126.1289
  0
VERTEX
  8
LAYER_1
 10
129.292
 20
126.082
  0
SEQEND
  0
POLYLINE
  8
LAYER_1
 40
0.1764
 41
0.1764
 66
1
 10
0
 20
0
 30
0
  0
VERTEX
  8
LAYER_1
 10
148.2728
 20
133.1433
 42
0.07880253249
  0
VERTEX
  8
LAYER_1
 10
146.292
 20
126.3789
  0
VERTEX
  8
LAYER_1
 10
146.292
 20
115.6288
 42
0.0788027943
  0
VERTEX
  8
LAYER_1
 10
148.2728
 20
108.8644
  0
SEQEND
  0
POLYLINE
  8
LAYER_1
 40
0.1764
 41
0.1764
 66
1
 10
0
 20
0
 30
0
  0
VERTEX
  8
LAYER_1
 10
162.1919
 20
125.9268
  0
VERTEX
  8
LAYER_1
 10
162.792
 20
125.3268
  0
VERTEX
  8
LAYER_1
 10
162.792
 20
116.6809
  0
VERTEX
  8
LAYER_1
 10
162.1919
 20
116.0809
  0
SEQEND
  0
POLYLINE
  8
LAYER_1
 40
0.1764
 41
0.1764
 66
1
 10
0
 20
0
 30
0
  0
VERTEX
  8
LAYER_1
 10
154.292
 20
115.8789
  0
VERTEX
  8
LAYER_1
 10
155.7275
 20
115.8789
  0
VERTEX
  8
LAYER_1
 10
162.1919
 20
116.0809
  0
VERTEX
  8
LAYER_1
 10
162.1919
 20
125.9268
  0
VERTEX
  8
LAYER_1
 10
155.7275
 20
126.1289
  0
VERTEX
  8
LAYER_1
 10
154.292
 20
126.1289
  0
SEQEND
  0
POLYLINE
  8
LAYER_1
 40
0.1764
 41
0.1764
 66
1
 10
0
 20
0
 30
0
  0
VERTEX
  8
LAYER_1
 10
156.792
 20
126.0956
  0
VERTEX
  8
LAYER_1
 10
156.792
 20
115.9121
  0
SEQEND
  0
INSERT
  8
LAYER_1
  2
AIGNBL01010002
 10
0
 20
0
 30
0
  0
TEXT
  8
LAYER_1
 10
125.6671
 20
136.6462
 11
125.6671
 21
136.6462
 40
3.9656
 41
0.5
  1
G1/2
  0
POLYLINE
  8
LAYER_1
  6
AIGENLINE001
 40
0.1764
 41
0.1764
 66
1
 10
0
 20
0
 30
0
 70
128
  0
VERTEX
  8
LAYER_1
 10
116.542
 20
136.0039
  0
VERTEX
  8
LAYER_1
 10
116.542
 20
112.3789
  0
SEQEND
  0
POLYLINE
  8
LAYER_1
  6
AIGENLINE001
 40
0.1764
 41
0.1764
 66
1
 10
0
 20
0
 30
0
 70
128
  0
VERTEX
  8
LAYER_1
 10
165.292
 20
121.0039
  0
VERTEX
  8
LAYER_1
 10
88.042
 20
121.0039
  0
SEQEND
  0
POLYLINE
  8
LAYER_1
 40
0.1764
 41
0.1764
 66
1
 10
0
 20
0
 30
0
  0
VERTEX
  8
LAYER_1
 10
110.496
 20
115.0039
  0
VERTEX
  8
LAYER_1
 10
109.792
 20
115.4104
  0
VERTEX
  8
LAYER_1
 10
109.292
 20
115.4104
  0
SEQEND
  0
POLYLINE
  8
LAYER_1
 40
0.1764
 41
0.1764
 66
1
 10
0
 20
0
 30
0
  0
VERTEX
  8
LAYER_1
 10
109.792
 20
115.0039
  0
VERTEX
  8
LAYER_1
 10
109.792
 20
127.0039
  0
SEQEND
  0
POLYLINE
  8
LAYER_1
 40
0.1764
 41
0.1764
 66
1
 10
0
 20
0
 30
0
  0
VERTEX
  8
LAYER_1
 10
110.496
 20
127.0039
  0
VERTEX
  8
LAYER_1
 10
109.792
 20
126.5974
  0
VERTEX
  8
LAYER_1
 10
109.292
 20
126.5974
  0
SEQEND
  0
POLYLINE
  8
LAYER_1
 40
0.1764
 41
0.1764
 66
1
 10
0
 20
0
 30
0
  0
VERTEX
  8
LAYER_1
 10
121.7807
 20
128.5039
  0
VERTEX
  8
LAYER_1
 10
121.1997
 20
129.5102
  0
VERTEX
  8
LAYER_1
 10
121.1997
 20
133.5039
  0
SEQEND
  0
POLYLINE
  8
LAYER_1
 40
0.1764
 41
0.1764
 66
1
 10
0
 20
0
 30
0
  0
VERTEX
  8
LAYER_1
 10
121.7807
 20
129.5102
  0
VERTEX
  8
LAYER_1
 10
111.3032
 20
129.5102
  0
SEQEND
  0
POLYLINE
  8
LAYER_1
 40
0.1764
 41
0.1764
 66
1
 10
0
 20
0
 30
0
  0
VERTEX
  8
LAYER_1
 10
111.3032
 20
128.5039
  0
VERTEX
  8
LAYER_1
 10
111.8842
 20
129.5102
  0
VERTEX
  8
LAYER_1
 10
111.8842
 20
133.5039
  0
SEQEND
  0
POLYLINE
  8
LAYER_1
 40
0.1764
 41
0.1764
 66
1
 10
0
 20
0
 30
0
  0
VERTEX
  8
LAYER_1
 10
126.5781
 20
117.3233
  0
VERTEX
  8
LAYER_1
 10
126.5569
 20
117.3148
 42
0.0335111005
  0
VERTEX
  8
LAYER_1
 10
123.6415
 20
116.0668
 42
0.2186642033
  0
VERTEX
  8
LAYER_1
 10
123.0817
 20
115.522
 42
0.3021064629
  0
VERTEX
  8
LAYER_1
 10
123.4149
 20
115.0408
 42
0.05484044127
  0
VERTEX
  8
LAYER_1
 10
125.581
 20
114.0395
  0
VERTEX
  8
LAYER_1
 10
126.4633
 20
113.6881
  0
SEQEND
  0
POLYLINE
  8
LAYER_1
 40
0.1764
 41
0.1764
 66
1
 10
0
 20
0
 30
0
  0
VERTEX
  8
LAYER_1
 10
128.542
 20
113.6426
 42
0.1878543793
  0
VERTEX
  8
LAYER_1
 10
129.005
 20
113.8273
 42
0.1503165606
  0
VERTEX
  8
LAYER_1
 10
129.2635
 20
114.2716
 42
0.06019433774
  0
VERTEX
  8
LAYER_1
 10
129.292
 20
114.5087
  0
SEQEND
  0
POLYLINE
  8
LAYER_1
 40
0.1764
 41
0.1764
 66
1
 10
0
 20
0
 30
0
  0
VERTEX
  8
LAYER_1
 10
129.292
 20
127.4991
 42
0.1532601221
  0
VERTEX
  8
LAYER_1
 10
129.1207
 20
128.0499
 42
0.1582979796
  0
VERTEX
  8
LAYER_1
 10
128.7384
 20
128.3351
 42
0.07592494793
  0
VERTEX
  8
LAYER_1
 10
128.542
 20
128.3651
  0
SEQEND
  0
POLYLINE
  8
LAYER_1
 40
0.1764
 41
0.1764
 66
1
 10
0
 20
0
 30
0
  0
VERTEX
  8
LAYER_1
 10
121.7807
 20
132.9229
  0
VERTEX
  8
LAYER_1
 10
121.1997
 20
133.5039
  0
VERTEX
  8
LAYER_1
 10
111.8842
 20
133.5039
  0
VERTEX
  8
LAYER_1
 10
111.3032
 20
132.9229
  0
SEQEND
  0
POLYLINE
  8
LAYER_1
 40
0.1764
 41
0.1764
 66
1
 10
0
 20
0
 30
0
  0
VERTEX
  8
LAYER_1
 10
121.7807
 20
128.5039
  0
VERTEX
  8
LAYER_1
 10
121.7807
 20
132.9229
  0
VERTEX
  8
LAYER_1
 10
111.3032
 20
132.9229
  0
VERTEX
  8
LAYER_1
 10
111.3032
 20
128.5039
  0
SEQEND
  0
POLYLINE
  8
LAYER_1
 40
0.1764
 41
0.1764
 66
1
 10
0
 20
0
 30
0
  0
VERTEX
  8
LAYER_1
 10
109.292
 20
115.0039
  0
VERTEX
  8
LAYER_1
 10
110.496
 20
115.0039
  0
SEQEND
  0
POLYLINE
  8
LAYER_1
 40
0.1764
 41
0.1764
 66
1
 10
0
 20
0
 30
0
  0
VERTEX
  8
LAYER_1
 10
110.496
 20
127.0039
  0
VERTEX
  8
LAYER_1
 10
109.292
 20
127.0039
  0
SEQEND
  0
POLYLINE
  8
LAYER_1
 40
0.1764
 41
0.1764
 66
1
 10
0
 20
0
 30
0
  0
VERTEX
  8
LAYER_1
 10
128.542
 20
128.3651
  0
VERTEX
  8
LAYER_1
 10
126.7206
 20
128.3651
 42
0.0937908018
  0
VERTEX
  8
LAYER_1
 10
126.4483
 20
128.3139
  0
SEQEND
  0
POLYLINE
  8
LAYER_1
 40
0.1764
 41
0.1764
 66
1
 10
0
 20
0
 30
0
  0
VERTEX
  8
LAYER_1
 10
129.292
 20
127.4991
  0
VERTEX
  8
LAYER_1
 10
129.292
 20
124.2515
  0
VERTEX
  8
LAYER_1
 10
129.292
 20
117.7563
  0
VERTEX
  8
LAYER_1
 10
129.292
 20
114.5087
  0
SEQEND
  0
POLYLINE
  8
LAYER_1
 40
0.1764
 41
0.1764
 66
1
 10
0
 20
0
 30
0
  0
VERTEX
  8
LAYER_1
 10
128.542
 20
117.3233
  0
VERTEX
  8
LAYER_1
 10
126.5781
 20
117.3233
  0
VERTEX
  8
LAYER_1
 10
126.0478
 20
117.7445
 42
-0.04404568959
  0
VERTEX
  8
LAYER_1
 10
123.6397
 20
119.8367
 42
-0.2101801836
  0
VERTEX
  8
LAYER_1
 10
123.0817
 20
121.078
 42
-0.1739630964
  0
VERTEX
  8
LAYER_1
 10
123.7929
 20
122.347
 42
-0.03256861627
  0
VERTEX
  8
LAYER_1
 10
126.5776
 20
124.6841
  0
VERTEX
  8
LAYER_1
 10
126.5781
 20
124.6845
  0
SEQEND
  0
POLYLINE
  8
LAYER_1
 40
0.1764
 41
0.1764
 66
1
 10
0
 20
0
 30
0
  0
VERTEX
  8
LAYER_1
 10
128.542
 20
124.6845
  0
VERTEX
  8
LAYER_1
 10
126.5781
 20
124.6845
  0
VERTEX
  8
LAYER_1
 10
125.6392
 20
125.058
 42
-0.05345971042
  0
VERTEX
  8
LAYER_1
 10
123.4241
 20
126.0762
 42
-0.2970000243
  0
VERTEX
  8
LAYER_1
 10
123.0809
 20
126.5579
 42
-0.2258748224
  0
VERTEX
  8
LAYER_1
 10
123.6109
 20
127.0909
 42
-0.03550384509
  0
VERTEX
  8
LAYER_1
 10
126.432
 20
128.3074
  0
VERTEX
  8
LAYER_1
 10
126.4501
 20
128.3146
 42
-0.04783250764
  0
VERTEX
  8
LAYER_1
 10
123.2575
 20
127.4105
 42
-0.04498332224
  0
VERTEX
  8
LAYER_1
 10
123.0345
 20
127.3904
 42
-0.3829668299
  0
VERTEX
  8
LAYER_1
 10
121.7918
 20
128.5059
  0
VERTEX
  8
LAYER_1
 10
121.6837
 20
128.5039
  0
VERTEX
  8
LAYER_1
 10
111.292
 20
128.5039
  0
VERTEX
  8
LAYER_1
 10
111.292
 20
128.377
 42
-0.3090118459
  0
VERTEX
  8
LAYER_1
 10
110.4947
 20
127.2137
  0
VERTEX
  8
LAYER_1
 10
110.496
 20
126.7992
  0
VERTEX
  8
LAYER_1
 10
110.496
 20
114.8789
  0
VERTEX
  8
LAYER_1
 10
120.142
 20
114.8789
 42
-0.0931407277
  0
VERTEX
  8
LAYER_1
 10
126.4483
 20
113.6938
 42
0.09387552928
  0
VERTEX
  8
LAYER_1
 10
126.7206
 20
113.6426
  0
VERTEX
  8
LAYER_1
 10
128.542
 20
113.6426
  0
SEQEND
  0
POLYLINE
  8
LAYER_1
 40
0.1764
 41
0.1764
 66
1
 10
0
 20
0
 30
0
 70
1
  0
VERTEX
  8
LAYER_1
 10
105.6211
 20
121.0039
  0
VERTEX
  8
LAYER_1
 10
105.6211
 20
121.0087
  0
VERTEX
  8
LAYER_1
 10
105.6211
 20
121.0087
 42
-0.214256061
  0
VERTEX
  8
LAYER_1
 10
106.4758
 20
123.2839
 42
-0.1989608462
  0
VERTEX
  8
LAYER_1
 10
107.3522
 20
123.6007
 42
-0.1989439579
  0
VERTEX
  8
LAYER_1
 10
108.1958
 20
123.205
 42
-0.216747593
  0
VERTEX
  8
LAYER_1
 10
108.9443
 20
120.6046
 42
-0.2150797848
  0
VERTEX
  8
LAYER_1
 10
108.0077
 20
118.6458
 42
-0.1989613167
  0
VERTEX
  8
LAYER_1
 10
107.0835
 20
118.426
 42
-0.1989784653
  0
VERTEX
  8
LAYER_1
 10
106.2746
 20
118.9243
 42
-0.1752761906
  0
VERTEX
  8
LAYER_1
 10
105.6186
 20
121.0666
  0
SEQEND
  0
POLYLINE
  8
LAYER_1
 40
0.1764
 41
0.1764
 66
1
 10
0
 20
0
 30
0
 70
1
  0
VERTEX
  8
LAYER_1
 10
107.292
 20
125.334
  0
VERTEX
  8
LAYER_1
 10
107.2888
 20
125.334
  0
VERTEX
  8
LAYER_1
 10
107.2888
 20
125.334
 42
-0.3177308316
  0
VERTEX
  8
LAYER_1
 10
105.6724
 20
126.3039
 42
-0.1989802566
  0
VERTEX
  8
LAYER_1
 10
105.8187
 20
127.2516
 42
-0.1989894281
  0
VERTEX
  8
LAYER_1
 10
106.5925
 20
127.818
 42
-0.3104557465
  0
VERTEX
  8
LAYER_1
 10
108.7489
 20
127.2823
 42
-0.1989414639
  0
VERTEX
  8
LAYER_1
 10
108.9456
 20
126.4481
 42
-0.1989310802
  0
VERTEX
  8
LAYER_1
 10
108.4948
 20
125.7192
 42
-0.1700950452
  0
VERTEX
  8
LAYER_1
 10
107.2617
 20
125.333
  0
SEQEND
  0
POLYLINE
  8
LAYER_1
 40
0.1764
 41
0.1764
 66
1
 10
0
 20
0
 30
0
 70
1
  0
VERTEX
  8
LAYER_1
 10
107.292
 20
116.6737
 42
0.4138465957
  0
VERTEX
  8
LAYER_1
 10
106.6752
 20
116.0578
 42
0.4138642554
  0
VERTEX
  8
LAYER_1
 10
107.2904
 20
115.4402
 42
0.4138207571
  0
VERTEX
  8
LAYER_1
 10
107.9087
 20
116.0546
 42
0.4138505879
  0
VERTEX
  8
LAYER_1
 10
107.2951
 20
116.6737
 42
-0.3177333803
  0
VERTEX
  8
LAYER_1
 10
108.9115
 20
115.7038
 42
-0.1989813519
  0
VERTEX
  8
LAYER_1
 10
108.7652
 20
114.7561
 42
-0.1989889297
  0
VERTEX
  8
LAYER_1
 10
107.9914
 20
114.1897
 42
-0.3104643179
  0
VERTEX
  8
LAYER_1
 10
105.835
 20
114.7255
 42
-0.1989207393
  0
VERTEX
  8
LAYER_1
 10
105.6383
 20
115.5596
 42
-0.1989307371
  0
VERTEX
  8
LAYER_1
 10
106.0891
 20
116.2885
 42
-0.170095666
  0
VERTEX
  8
LAYER_1
 10
107.3222
 20
116.6747
  0
VERTEX
  8
LAYER_1
 10
107.3218
 20
116.6747
  0
SEQEND
  0
POLYLINE
  8
LAYER_1
 40
0.1764
 41
0.1764
 66
1
 10
0
 20
0
 30
0
  0
VERTEX
  8
LAYER_1
 10
103.542
 20
117.7539
  0
VERTEX
  8
LAYER_1
 10
103.292
 20
117.7539
  0
VERTEX
  8
LAYER_1
 10
103.292
 20
124.2539
  0
VERTEX
  8
LAYER_1
 10
103.542
 20
124.2539
  0
VERTEX
  8
LAYER_1
 10
103.542
 20
117.7539
 42
0.117366001
  0
VERTEX
  8
LAYER_1
 10
105.292
 20
114.7539
 42
0.1813380397
  0
VERTEX
  8
LAYER_1
 10
107.292
 20
114.0039
 42
0.1813361608
  0
VERTEX
  8
LAYER_1
 10
109.292
 20
114.7539
  0
VERTEX
  8
LAYER_1
 10
109.292
 20
127.2539
 42
0.1813311031
  0
VERTEX
  8
LAYER_1
 10
107.292
 20
128.0039
 42
0.1813330383
  0
VERTEX
  8
LAYER_1
 10
105.292
 20
127.2539
 42
0.1173652944
  0
VERTEX
  8
LAYER_1
 10
103.542
 20
124.2539
  0
SEQEND
  0
INSERT
  8
LAYER_1
  2
AIGNBL01010003
 10
0
 20
0
 30
0
  0
INSERT
  8
LAYER_1
  2
AIGNBL01010009
 10
0
 20
0
 30
0
  0
POLYLINE
  8
LAYER_1
  6
AIGENLINE001
 40
0.1764
 41
0.1764
 66
1
 10
0
 20
0
 30
0
 70
128
  0
VERTEX
  8
LAYER_1
 10
165.6674
 20
205.7315
  0
VERTEX
  8
LAYER_1
 10
88.3316
 20
205.7315
  0
SEQEND
  0
POLYLINE
  8
LAYER_1
 40
0.1764
 41
0.1764
 66
1
 10
0
 20
0
 30
0
  0
VERTEX
  8
LAYER_1
 10
103.542
 20
208.9815
  0
VERTEX
  8
LAYER_1
 10
103.542
 20
202.4815
  0
SEQEND
  0
POLYLINE
  8
LAYER_1
 40
0.1764
 41
0.1764
 66
1
 10
0
 20
0
 30
0
 70
1
  0
VERTEX
  8
LAYER_1
 10
123.0786
 20
212.1065
 42
-0.04248881976
  0
VERTEX
  8
LAYER_1
 10
120.142
 20
211.8565
  0
VERTEX
  8
LAYER_1
 10
110.496
 20
211.8565
  0
VERTEX
  8
LAYER_1
 10
110.496
 20
205.7315
  0
VERTEX
  8
LAYER_1
 10
110.496
 20
199.6065
  0
VERTEX
  8
LAYER_1
 10
120.142
 20
199.6065
 42
-0.04248866233
  0
VERTEX
  8
LAYER_1
 10
123.0786
 20
199.3565
  0
VERTEX
  8
LAYER_1
 10
128.542
 20
199.3565
 42
0.4142084887
  0
VERTEX
  8
LAYER_1
 10
129.292
 20
200.1065
  0
VERTEX
  8
LAYER_1
 10
129.292
 20
211.3565
 42
0.4141832645
  0
VERTEX
  8
LAYER_1
 10
128.542
 20
212.1065
  0
SEQEND
  0
POLYLINE
  8
LAYER_1
 40
0.1764
 41
0.1764
 66
1
 10
0
 20
0
 30
0
  0
VERTEX
  8
LAYER_1
 10
110.496
 20
211.7315
  0
VERTEX
  8
LAYER_1
 10
109.292
 20
211.7315
  0
SEQEND
  0
POLYLINE
  8
LAYER_1
 40
0.1764
 41
0.1764
 66
1
 10
0
 20
0
 30
0
  0
VERTEX
  8
LAYER_1
 10
109.292
 20
199.7315
  0
VERTEX
  8
LAYER_1
 10
110.496
 20
199.7315
  0
SEQEND
  0
POLYLINE
  8
LAYER_1
 40
0.1764
 41
0.1764
 66
1
 10
0
 20
0
 30
0
  0
VERTEX
  8
LAYER_1
 10
109.292
 20
211.325
  0
VERTEX
  8
LAYER_1
 10
109.792
 20
211.325
  0
VERTEX
  8
LAYER_1
 10
110.496
 20
211.7315
  0
SEQEND
  0
POLYLINE
  8
LAYER_1
 40
0.1764
 41
0.1764
 66
1
 10
0
 20
0
 30
0
  0
VERTEX
  8
LAYER_1
 10
109.792
 20
199.7315
  0
VERTEX
  8
LAYER_1
 10
109.792
 20
211.7315
  0
SEQEND
  0
POLYLINE
  8
LAYER_1
 40
0.1764
 41
0.1764
 66
1
 10
0
 20
0
 30
0
  0
VERTEX
  8
LAYER_1
 10
109.292
 20
200.138
  0
VERTEX
  8
LAYER_1
 10
109.792
 20
200.138
  0
VERTEX
  8
LAYER_1
 10
110.496
 20
199.7315
  0
SEQEND
  0
POLYLINE
  8
LAYER_1
 40
0.1764
 41
0.1764
 66
1
 10
0
 20
0
 30
0
  0
VERTEX
  8
LAYER_1
 10
129.7275
 20
210.8232
  0
VERTEX
  8
LAYER_1
 10
129.7275
 20
200.6397
  0
SEQEND
  0
POLYLINE
  8
LAYER_1
 40
0.1764
 41
0.1764
 66
1
 10
0
 20
0
 30
0
  0
VERTEX
  8
LAYER_1
 10
129.292
 20
200.6533
  0
VERTEX
  8
LAYER_1
 10
130.792
 20
200.6065
  0
VERTEX
  8
LAYER_1
 10
146.292
 20
200.6065
  0
SEQEND
  0
POLYLINE
  8
LAYER_1
 40
0.1764
 41
0.1764
 66
1
 10
0
 20
0
 30
0
  0
VERTEX
  8
LAYER_1
 10
130.792
 20
200.6065
  0
VERTEX
  8
LAYER_1
 10
129.7275
 20
201.221
  0
VERTEX
  8
LAYER_1
 10
129.292
 20
201.2346
  0
SEQEND
  0
POLYLINE
  8
LAYER_1
 40
0.1764
 41
0.1764
 66
1
 10
0
 20
0
 30
0
  0
VERTEX
  8
LAYER_1
 10
129.292
 20
210.8096
  0
VERTEX
  8
LAYER_1
 10
130.792
 20
210.8565
  0
VERTEX
  8
LAYER_1
 10
146.292
 20
210.8565
  0
SEQEND
  0
POLYLINE
  8
LAYER_1
 40
0.1764
 41
0.1764
 66
1
 10
0
 20
0
 30
0
  0
VERTEX
  8
LAYER_1
 10
130.792
 20
210.8565
  0
VERTEX
  8
LAYER_1
 10
129.7275
 20
210.2419
  0
VERTEX
  8
LAYER_1
 10
129.292
 20
210.2283
  0
SEQEND
  0
POLYLINE
  8
LAYER_1
  6
AIGENLINE001
 40
0.1764
 41
0.1764
 66
1
 10
0
 20
0
 30
0
 70
128
  0
VERTEX
  8
LAYER_1
 10
116.542
 20
215.3649
  0
VERTEX
  8
LAYER_1
 10
116.542
 20
196.1332
  0
SEQEND
  0
POLYLINE
  8
LAYER_1
 40
0.1764
 41
0.1764
 66
1
 10
0
 20
0
 30
0
  0
VERTEX
  8
LAYER_1
 10
126.5781
 20
212.1064
  0
VERTEX
  8
LAYER_1
 10
124.9402
 20
210.9698
  0
SEQEND
  0
POLYLINE
  8
LAYER_1
 40
0.1764
 41
0.1764
 66
1
 10
0
 20
0
 30
0
  0
VERTEX
  8
LAYER_1
 10
105.892
 20
202.7315
 42
0.07708905295
  0
VERTEX
  8
LAYER_1
 10
106.073
 20
201.5399
 42
0.08540498014
  0
VERTEX
  8
LAYER_1
 10
106.4945
 20
200.7282
 42
0.111852162
  0
VERTEX
  8
LAYER_1
 10
106.9992
 20
200.3181
 42
0.1057483007
  0
VERTEX
  8
LAYER_1
 10
107.392
 20
200.2315
 42
0.1540621932
  0
VERTEX
  8
LAYER_1
 10
107.959
 20
200.4163
 42
0.1103877957
  0
VERTEX
  8
LAYER_1
 10
108.4399
 20
200.9427
 42
0.08419199519
  0
VERTEX
  8
LAYER_1
 10
108.7946
 20
201.8433
 42
0.05644629039
  0
VERTEX
  8
LAYER_1
 10
108.892
 20
202.7315
  0
SEQEND
  0
POLYLINE
  8
LAYER_1
 40
0.1764
 41
0.1764
 66
1
 10
0
 20
0
 30
0
  0
VERTEX
  8
LAYER_1
 10
108.892
 20
202.7315
 42
0.09542159969
  0
VERTEX
  8
LAYER_1
 10
108.711
 20
203.6848
 42
0.09684833173
  0
VERTEX
  8
LAYER_1
 10
108.2895
 20
204.3342
 42
0.1183312406
  0
VERTEX
  8
LAYER_1
 10
107.7307
 20
204.6803
 42
0.07484528183
  0
VERTEX
  8
LAYER_1
 10
107.392
 20
204.7315
 42
0.1380389411
  0
VERTEX
  8
LAYER_1
 10
106.7747
 20
204.5548
 42
0.1138258884
  0
VERTEX
  8
LAYER_1
 10
106.2696
 20
204.0584
 42
0.09354449217
  0
VERTEX
  8
LAYER_1
 10
105.9541
 20
203.3027
 42
0.05499313482
  0
VERTEX
  8
LAYER_1
 10
105.892
 20
202.7315
  0
SEQEND
  0
POLYLINE
  8
LAYER_1
 40
0.1764
 41
0.1764
 66
1
 10
0
 20
0
 30
0
  0
VERTEX
  8
LAYER_1
 10
105.892
 20
208.7315
 42
0.09541122662
  0
VERTEX
  8
LAYER_1
 10
106.073
 20
207.7782
 42
0.09685949526
  0
VERTEX
  8
LAYER_1
 10
106.4945
 20
207.1288
 42
0.1183421585
  0
VERTEX
  8
LAYER_1
 10
107.0532
 20
206.7827
 42
0.07483453079
  0
VERTEX
  8
LAYER_1
 10
107.392
 20
206.7315
 42
0.1380334154
  0
VERTEX
  8
LAYER_1
 10
108.0093
 20
206.9082
 42
0.1138215294
  0
VERTEX
  8
LAYER_1
 10
108.5143
 20
207.4046
 42
0.09354991855
  0
VERTEX
  8
LAYER_1
 10
108.8299
 20
208.1603
 42
0.05499759319
  0
VERTEX
  8
LAYER_1
 10
108.892
 20
208.7315
  0
SEQEND
  0
POLYLINE
  8
LAYER_1
 40
0.1764
 41
0.1764
 66
1
 10
0
 20
0
 30
0
  0
VERTEX
  8
LAYER_1
 10
108.892
 20
208.7315
 42
0.07709636042
  0
VERTEX
  8
LAYER_1
 10
108.711
 20
209.9231
 42
0.08540187075
  0
VERTEX
  8
LAYER_1
 10
108.2895
 20
210.7348
 42
0.1118430048
  0
VERTEX
  8
LAYER_1
 10
107.7848
 20
211.1449
 42
0.1057520201
  0
VERTEX
  8
LAYER_1
 10
107.392
 20
211.2315
 42
0.154056955
  0
VERTEX
  8
LAYER_1
 10
106.825
 20
211.0467
 42
0.1103966234
  0
VERTEX
  8
LAYER_1
 10
106.3441
 20
210.5203
 42
0.08419379199
  0
VERTEX
  8
LAYER_1
 10
105.9894
 20
209.6197
 42
0.05644071256
  0
VERTEX
  8
LAYER_1
 10
105.892
 20
208.7315
  0
SEQEND
  0
POLYLINE
  8
LAYER_1
 40
0.1764
 41
0.1764
 66
1
 10
0
 20
0
 30
0
 70
1
  0
VERTEX
  8
LAYER_1
 10
103.542
 20
208.9815
 42
-0.1293286406
  0
VERTEX
  8
LAYER_1
 10
105.5419
 20
212.2315
  0
VERTEX
  8
LAYER_1
 10
109.292
 20
212.2315
  0
VERTEX
  8
LAYER_1
 10
109.292
 20
199.2315
  0
VERTEX
  8
LAYER_1
 10
105.5419
 20
199.2315
 42
-0.1293292246
  0
VERTEX
  8
LAYER_1
 10
103.542
 20
202.4815
  0
VERTEX
  8
LAYER_1
 10
103.292
 20
202.4815
  0
VERTEX
  8
LAYER_1
 10
103.292
 20
208.9815
  0
SEQEND
  0
POLYLINE
  8
LAYER_1
 40
0.1764
 41
0.1764
 66
1
 10
0
 20
0
 30
0
  0
VERTEX
  8
LAYER_1
 10
154.292
 20
220.7315
  0
VERTEX
  8
LAYER_1
 10
152.792
 20
220.7315
 42
0.295308393
  0
VERTEX
  8
LAYER_1
 10
148.231
 20
217.7804
  0
SEQEND
  0
POLYLINE
  8
LAYER_1
 40
0.1764
 41
0.1764
 66
1
 10
0
 20
0
 30
0
  0
VERTEX
  8
LAYER_1
 10
148.2728
 20
193.592
 42
-0.07880364878
  0
VERTEX
  8
LAYER_1
 10
146.292
 20
200.3565
  0
VERTEX
  8
LAYER_1
 10
146.292
 20
211.1065
 42
-0.07880255047
  0
VERTEX
  8
LAYER_1
 10
148.2728
 20
217.8709
  0
SEQEND
  0
POLYLINE
  8
LAYER_1
 40
0.1764
 41
0.1764
 66
1
 10
0
 20
0
 30
0
  0
VERTEX
  8
LAYER_1
 10
156.792
 20
210.8232
  0
VERTEX
  8
LAYER_1
 10
156.792
 20
200.6397
  0
SEQEND
  0
POLYLINE
  8
LAYER_1
 40
0.1764
 41
0.1764
 66
1
 10
0
 20
0
 30
0
  0
VERTEX
  8
LAYER_1
 10
155.7275
 20
210.8565
  0
VERTEX
  8
LAYER_1
 10
156.7919
 20
210.2419
  0
VERTEX
  8
LAYER_1
 10
162.792
 20
210.0544
  0
SEQEND
  0
POLYLINE
  8
LAYER_1
 40
0.1764
 41
0.1764
 66
1
 10
0
 20
0
 30
0
  0
VERTEX
  8
LAYER_1
 10
162.1919
 20
200.8085
  0
VERTEX
  8
LAYER_1
 10
162.7919
 20
201.4085
  0
VERTEX
  8
LAYER_1
 10
162.792
 20
210.0544
  0
VERTEX
  8
LAYER_1
 10
162.1919
 20
210.6544
  0
SEQEND
  0
POLYLINE
  8
LAYER_1
 40
0.1764
 41
0.1764
 66
1
 10
0
 20
0
 30
0
  0
VERTEX
  8
LAYER_1
 10
154.292
 20
200.6065
  0
VERTEX
  8
LAYER_1
 10
155.7275
 20
200.6065
  0
VERTEX
  8
LAYER_1
 10
162.1919
 20
200.8085
  0
VERTEX
  8
LAYER_1
 10
162.1919
 20
210.6545
  0
VERTEX
  8
LAYER_1
 10
155.7275
 20
210.8565
  0
VERTEX
  8
LAYER_1
 10
154.292
 20
210.8565
  0
SEQEND
  0
POLYLINE
  8
LAYER_1
 40
0.1764
 41
0.1764
 66
1
 10
0
 20
0
 30
0
  0
VERTEX
  8
LAYER_1
 10
155.7275
 20
200.6065
  0
VERTEX
  8
LAYER_1
 10
156.792
 20
201.221
  0
VERTEX
  8
LAYER_1
 10
162.792
 20
201.4085
  0
SEQEND
  0
POLYLINE
  8
LAYER_1
 40
0.1764
 41
0.1764
 66
1
 10
0
 20
0
 30
0
  0
VERTEX
  8
LAYER_1
 10
124.9402
 20
206.8681
  0
VERTEX
  8
LAYER_1
 10
126.5781
 20
205.7315
  0
SEQEND
  0
POLYLINE
  8
LAYER_1
 40
0.1764
 41
0.1764
 66
1
 10
0
 20
0
 30
0
  0
VERTEX
  8
LAYER_1
 10
124.9402
 20
206.8681
  0
VERTEX
  8
LAYER_1
 10
124.9303
 20
206.8752
  0
VERTEX
  8
LAYER_1
 10
124.9303
 20
206.8752
 42
-0.09217768827
  0
VERTEX
  8
LAYER_1
 10
123.2375
 20
208.4023
 42
-0.1388984869
  0
VERTEX
  8
LAYER_1
 10
123.0786
 20
208.919
 42
-0.1388958317
  0
VERTEX
  8
LAYER_1
 10
123.2375
 20
209.4357
 42
-0.09217486701
  0
VERTEX
  8
LAYER_1
 10
124.9303
 20
210.9627
  0
VERTEX
  8
LAYER_1
 10
124.9402
 20
210.9698
  0
SEQEND
  0
POLYLINE
  8
LAYER_1
 40
0.1764
 41
0.1764
 66
1
 10
0
 20
0
 30
0
  0
VERTEX
  8
LAYER_1
 10
124.9402
 20
200.4931
  0
VERTEX
  8
LAYER_1
 10
126.5781
 20
199.3565
  0
SEQEND
  0
POLYLINE
  8
LAYER_1
 40
0.1764
 41
0.1764
 66
1
 10
0
 20
0
 30
0
  0
VERTEX
  8
LAYER_1
 10
124.9402
 20
204.5948
  0
VERTEX
  8
LAYER_1
 10
124.9303
 20
204.5877
 42
0.09217486701
  0
VERTEX
  8
LAYER_1
 10
123.2375
 20
203.0607
 42
0.1388958319
  0
VERTEX
  8
LAYER_1
 10
123.0786
 20
202.544
 42
0.1388984867
  0
VERTEX
  8
LAYER_1
 10
123.2375
 20
202.0273
 42
0.09217768827
  0
VERTEX
  8
LAYER_1
 10
124.9303
 20
200.5002
  0
VERTEX
  8
LAYER_1
 10
124.9303
 20
200.5002
  0
VERTEX
  8
LAYER_1
 10
124.9402
 20
200.4931
  0
SEQEND
  0
POLYLINE
  8
LAYER_1
 40
0.1764
 41
0.1764
 66
1
 10
0
 20
0
 30
0
  0
VERTEX
  8
LAYER_1
 10
126.5781
 20
205.7314
  0
VERTEX
  8
LAYER_1
 10
124.9402
 20
204.5948
  0
SEQEND
  0
CIRCLE
  8
LAYER_1
 10
116.542
 20
205.7315
 40
5.2388
  0
CIRCLE
  8
LAYER_1
 10
116.542
 20
205.7315
 40
4.6578
  0
CIRCLE
  8
LAYER_1
 10
116.542
 20
205.7315
 40
3.25
  0
POLYLINE
  8
LAYER_1
 40
0.1764
 41
0.1764
 66
1
 10
0
 20
0
 30
0
  0
VERTEX
  8
LAYER_1
 10
99.292
 20
203.3565
  0
VERTEX
  8
LAYER_1
 10
103.292
 20
203.3565
  0
SEQEND
  0
POLYLINE
  8
LAYER_1
 40
0.1764
 41
0.1764
 66
1
 10
0
 20
0
 30
0
  0
VERTEX
  8
LAYER_1
 10
99.292
 20
208.1065
  0
VERTEX
  8
LAYER_1
 10
103.292
 20
208.1065
  0
SEQEND
  0
POLYLINE
  8
LAYER_1
 40
0.1764
 41
0.1764
 66
1
 10
0
 20
0
 30
0
  0
VERTEX
  8
LAYER_1
 10
92.292
 20
202.2315
  0
VERTEX
  8
LAYER_1
 10
91.167
 20
202.2315
 42
-0.4142732961
  0
VERTEX
  8
LAYER_1
 10
90.792
 20
202.6065
  0
VERTEX
  8
LAYER_1
 10
90.792
 20
203.0043
 42
-0.0457395356
  0
VERTEX
  8
LAYER_1
 10
90.542
 20
205.7315
 42
-0.04573952473
  0
VERTEX
  8
LAYER_1
 10
90.792
 20
208.4587
  0
VERTEX
  8
LAYER_1
 10
90.792
 20
208.8565
 42
-0.4142231037
  0
VERTEX
  8
LAYER_1
 10
91.167
 20
209.2315
  0
VERTEX
  8
LAYER_1
 10
92.292
 20
209.2315
  0
SEQEND
  0
POLYLINE
  8
LAYER_1
 40
0.1764
 41
0.1764
 66
1
 10
0
 20
0
 30
0
  0
VERTEX
  8
LAYER_1
 10
90.792
 20
208.7315
  0
VERTEX
  8
LAYER_1
 10
92.292
 20
208.7315
  0
SEQEND
  0
POLYLINE
  8
LAYER_1
 40
0.1764
 41
0.1764
 66
1
 10
0
 20
0
 30
0
  0
VERTEX
  8
LAYER_1
 10
90.7518
 20
208.2315
  0
VERTEX
  8
LAYER_1
 10
92.292
 20
208.2315
  0
SEQEND
  0
POLYLINE
  8
LAYER_1
 40
0.1764
 41
0.1764
 66
1
 10
0
 20
0
 30
0
  0
VERTEX
  8
LAYER_1
 10
90.6759
 20
207.7315
  0
VERTEX
  8
LAYER_1
 10
92.292
 20
207.7315
  0
SEQEND
  0
POLYLINE
  8
LAYER_1
 40
0.1764
 41
0.1764
 66
1
 10
0
 20
0
 30
0
  0
VERTEX
  8
LAYER_1
 10
90.6171
 20
207.2315
  0
VERTEX
  8
LAYER_1
 10
92.292
 20
207.2315
  0
SEQEND
  0
POLYLINE
  8
LAYER_1
 40
0.1764
 41
0.1764
 66
1
 10
0
 20
0
 30
0
  0
VERTEX
  8
LAYER_1
 10
90.5753
 20
206.7315
  0
VERTEX
  8
LAYER_1
 10
92.292
 20
206.7315
  0
SEQEND
  0
POLYLINE
  8
LAYER_1
 40
0.1764
 41
0.1764
 66
1
 10
0
 20
0
 30
0
  0
VERTEX
  8
LAYER_1
 10
90.5503
 20
206.2315
  0
VERTEX
  8
LAYER_1
 10
92.292
 20
206.2315
  0
SEQEND
  0
POLYLINE
  8
LAYER_1
 40
0.1764
 41
0.1764
 66
1
 10
0
 20
0
 30
0
  0
VERTEX
  8
LAYER_1
 10
90.542
 20
205.7315
  0
VERTEX
  8
LAYER_1
 10
92.292
 20
205.7315
  0
SEQEND
  0
POLYLINE
  8
LAYER_1
 40
0.1764
 41
0.1764
 66
1
 10
0
 20
0
 30
0
  0
VERTEX
  8
LAYER_1
 10
90.5503
 20
205.2315
  0
VERTEX
  8
LAYER_1
 10
92.292
 20
205.2315
  0
SEQEND
  0
POLYLINE
  8
LAYER_1
 40
0.1764
 41
0.1764
 66
1
 10
0
 20
0
 30
0
  0
VERTEX
  8
LAYER_1
 10
90.5753
 20
204.7315
  0
VERTEX
  8
LAYER_1
 10
92.292
 20
204.7315
  0
SEQEND
  0
POLYLINE
  8
LAYER_1
 40
0.1764
 41
0.1764
 66
1
 10
0
 20
0
 30
0
  0
VERTEX
  8
LAYER_1
 10
90.6171
 20
204.2315
  0
VERTEX
  8
LAYER_1
 10
92.292
 20
204.2315
  0
SEQEND
  0
POLYLINE
  8
LAYER_1
 40
0.1764
 41
0.1764
 66
1
 10
0
 20
0
 30
0
  0
VERTEX
  8
LAYER_1
 10
90.6759
 20
203.7315
  0
VERTEX
  8
LAYER_1
 10
92.292
 20
203.7315
  0
SEQEND
  0
POLYLINE
  8
LAYER_1
 40
0.1764
 41
0.1764
 66
1
 10
0
 20
0
 30
0
  0
VERTEX
  8
LAYER_1
 10
90.7518
 20
203.2315
  0
VERTEX
  8
LAYER_1
 10
92.292
 20
203.2315
  0
SEQEND
  0
POLYLINE
  8
LAYER_1
 40
0.1764
 41
0.1764
 66
1
 10
0
 20
0
 30
0
  0
VERTEX
  8
LAYER_1
 10
90.792
 20
202.7315
  0
VERTEX
  8
LAYER_1
 10
92.292
 20
202.7315
  0
SEQEND
  0
CIRCLE
  8
LAYER_1
 10
95.792
 20
205.7315
 40
3.5
  0
POLYLINE
  8
LAYER_1
 40
0.1764
 41
0.1764
 66
1
 10
0
 20
0
 30
0
 70
1
  0
VERTEX
  8
LAYER_1
 10
99.2109
 20
209.7632
 42
-0.2136571245
  0
VERTEX
  8
LAYER_1
 10
98.042
 20
212.3742
  0
VERTEX
  8
LAYER_1
 10
98.042
 20
213.7393
 42
-0.1528986279
  0
VERTEX
  8
LAYER_1
 10
98.667
 20
215.7354
 42
0.1528952766
  0
VERTEX
  8
LAYER_1
 10
99.292
 20
217.7315
 42
0.4142069023
  0
VERTEX
  8
LAYER_1
 10
95.792
 20
221.2315
 42
0.4142148165
  0
VERTEX
  8
LAYER_1
 10
92.292
 20
217.7315
 42
0.1528992109
  0
VERTEX
  8
LAYER_1
 10
92.917
 20
215.7354
 42
-0.1528946945
  0
VERTEX
  8
LAYER_1
 10
93.542
 20
213.7393
  0
VERTEX
  8
LAYER_1
 10
93.542
 20
212.374
 42
-0.2136598725
  0
VERTEX
  8
LAYER_1
 10
92.3744
 20
209.7645
 42
0.2121323826
  0
VERTEX
  8
LAYER_1
 10
92.292
 20
209.579
  0
VERTEX
  8
LAYER_1
 10
92.292
 20
201.884
 42
0.2124499009
  0
VERTEX
  8
LAYER_1
 10
92.3746
 20
201.6983
 42
-0.2136574848
  0
VERTEX
  8
LAYER_1
 10
93.542
 20
199.0888
  0
VERTEX
  8
LAYER_1
 10
93.542
 20
197.7236
 42
-0.1528882279
  0
VERTEX
  8
LAYER_1
 10
92.917
 20
195.7276
 42
0.1528983668
  0
VERTEX
  8
LAYER_1
 10
92.292
 20
193.7315
 42
0.4142202228
  0
VERTEX
  8
LAYER_1
 10
95.792
 20
190.2315
 42
0.4142123082
  0
VERTEX
  8
LAYER_1
 10
99.292
 20
193.7315
 42
0.1528944334
  0
VERTEX
  8
LAYER_1
 10
98.667
 20
195.7276
 42
-0.1528921618
  0
VERTEX
  8
LAYER_1
 10
98.042
 20
197.7236
  0
VERTEX
  8
LAYER_1
 10
98.042
 20
199.0887
 42
-0.2136643922
  0
VERTEX
  8
LAYER_1
 10
99.211
 20
201.6998
 42
0.2111528345
  0
VERTEX
  8
LAYER_1
 10
99.292
 20
201.884
  0
VERTEX
  8
LAYER_1
 10
99.292
 20
209.579
 42
0.2112899567
  0
SEQEND
  0
POLYLINE
  8
LAYER_1
  6
AIGENLINE001
 40
0.1764
 41
0.1764
 66
1
 10
0
 20
0
 30
0
 70
128
  0
VERTEX
  8
LAYER_1
 10
62.6907
 20
121.0039
  0
VERTEX
  8
LAYER_1
 10
27.4259
 20
121.0039
  0
SEQEND
  0
CIRCLE
  8
LAYER_1
 10
45.1417
 20
121.0039
 40
4.25
  0
CIRCLE
  8
LAYER_1
 10
45.1417
 20
121.0039
 40
3.5
  0
POLYLINE
  8
LAYER_1
 40
0.1764
 41
0.1764
 66
1
 10
0
 20
0
 30
0
  0
VERTEX
  8
LAYER_1
 10
42.8831
 20
126.8315
 42
0.2108548964
  0
VERTEX
  8
LAYER_1
 10
39.3143
 20
123.2628
  0
SEQEND
  0
POLYLINE
  8
LAYER_1
  6
AIGENLINE001
 40
0.1764
 41
0.1764
 66
1
 10
0
 20
0
 30
0
 70
128
  0
VERTEX
  8
LAYER_1
 10
45.1417
 20
138.7531
  0
VERTEX
  8
LAYER_1
 10
45.1417
 20
103.1735
  0
SEQEND
  0
POLYLINE
  8
LAYER_1
 40
0.1764
 41
0.1764
 66
1
 10
0
 20
0
 30
0
  0
VERTEX
  8
LAYER_1
 10
39.3141
 20
118.7452
 42
0.21088585
  0
VERTEX
  8
LAYER_1
 10
42.8835
 20
115.1761
  0
SEQEND
  0
POLYLINE
  8
LAYER_1
 40
0.1764
 41
0.1764
 66
1
 10
0
 20
0
 30
0
  0
VERTEX
  8
LAYER_1
 10
50.9692
 20
123.2628
 42
0.2108415434
  0
VERTEX
  8
LAYER_1
 10
47.4007
 20
126.8314
  0
SEQEND
  0
POLYLINE
  8
LAYER_1
 40
0.1764
 41
0.1764
 66
1
 10
0
 20
0
 30
0
  0
VERTEX
  8
LAYER_1
 10
47.4007
 20
115.1764
 42
0.2108748825
  0
VERTEX
  8
LAYER_1
 10
50.9695
 20
118.7457
  0
SEQEND
  0
POLYLINE
  8
LAYER_1
 40
0.1764
 41
0.1764
 66
1
 10
0
 20
0
 30
0
  0
VERTEX
  8
LAYER_1
 10
47.3917
 20
114.5039
  0
VERTEX
  8
LAYER_1
 10
47.7391
 20
114.5036
 42
0.07197166963
  0
VERTEX
  8
LAYER_1
 10
49.4751
 20
115.5064
  0
VERTEX
  8
LAYER_1
 10
49.5681
 20
115.6705
  0
VERTEX
  8
LAYER_1
 10
51.3483
 20
118.7539
  0
SEQEND
  0
POLYLINE
  8
LAYER_1
 40
0.1764
 41
0.1764
 66
1
 10
0
 20
0
 30
0
  0
VERTEX
  8
LAYER_1
 10
42.8917
 20
114.5039
  0
VERTEX
  8
LAYER_1
 10
42.5442
 20
114.5037
 42
-0.07185885747
  0
VERTEX
  8
LAYER_1
 10
40.8107
 20
115.5046
  0
VERTEX
  8
LAYER_1
 10
39.6508
 20
117.5145
  0
VERTEX
  8
LAYER_1
 10
38.9352
 20
118.7539
  0
SEQEND
  0
POLYLINE
  8
LAYER_1
 40
0.1764
 41
0.1764
 66
1
 10
0
 20
0
 30
0
  0
VERTEX
  8
LAYER_1
 10
38.9352
 20
123.2539
  0
VERTEX
  8
LAYER_1
 10
39.6508
 20
124.4932
  0
VERTEX
  8
LAYER_1
 10
40.811
 20
126.5034
 42
-0.0718680459
  0
VERTEX
  8
LAYER_1
 10
42.5448
 20
127.5043
  0
VERTEX
  8
LAYER_1
 10
42.8917
 20
127.5039
  0
SEQEND
  0
POLYLINE
  8
LAYER_1
 40
0.1764
 41
0.1764
 66
1
 10
0
 20
0
 30
0
  0
VERTEX
  8
LAYER_1
 10
51.3483
 20
123.2539
  0
VERTEX
  8
LAYER_1
 10
49.5681
 20
126.3373
  0
VERTEX
  8
LAYER_1
 10
49.4721
 20
126.5037
 42
0.07183873496
  0
VERTEX
  8
LAYER_1
 10
47.739
 20
127.5042
  0
VERTEX
  8
LAYER_1
 10
47.3917
 20
127.5039
  0
SEQEND
  0
POLYLINE
  8
LAYER_1
 40
0.1764
 41
0.1764
 66
1
 10
0
 20
0
 30
0
  0
VERTEX
  8
LAYER_1
 10
30.2772
 20
118.9929
 42
0.07574487036
  0
VERTEX
  8
LAYER_1
 10
31.5327
 20
114.7241
 42
0.05272020249
  0
VERTEX
  8
LAYER_1
 10
33.17
 20
112.0068
 42
0.1389592967
  0
VERTEX
  8
LAYER_1
 10
39.8439
 20
106.9785
 42
0.05494856342
  0
VERTEX
  8
LAYER_1
 10
42.9756
 20
106.1611
 42
0.002664792361
  0
VERTEX
  8
LAYER_1
 10
43.1307
 20
106.1393
  0
SEQEND
  0
POLYLINE
  8
LAYER_1
 40
0.1764
 41
0.1764
 66
1
 10
0
 20
0
 30
0
 70
1
  0
VERTEX
  8
LAYER_1
 10
41.7979
 20
117.4678
  0
VERTEX
  8
LAYER_1
 10
41.6074
 20
117.6583
 42
0.2062550181
  0
VERTEX
  8
LAYER_1
 10
39.0638
 20
118.7539
  0
VERTEX
  8
LAYER_1
 10
37.1339
 20
118.7539
 42
0.1528951312
  0
VERTEX
  8
LAYER_1
 10
35.1378
 20
118.1289
 42
-0.1528987741
  0
VERTEX
  8
LAYER_1
 10
33.1417
 20
117.5039
 42
-0.4142123563
  0
VERTEX
  8
LAYER_1
 10
29.6417
 20
121.0039
 42
-0.4142069504
  0
VERTEX
  8
LAYER_1
 10
33.1417
 20
124.5039
 42
-0.1528960895
  0
VERTEX
  8
LAYER_1
 10
35.1378
 20
123.8789
 42
0.1528978149
  0
VERTEX
  8
LAYER_1
 10
37.1339
 20
123.2539
  0
VERTEX
  8
LAYER_1
 10
39.0623
 20
123.2539
  0
VERTEX
  8
LAYER_1
 10
39.0639
 20
123.2539
 42
0.2060028884
  0
VERTEX
  8
LAYER_1
 10
41.6053
 20
124.3473
  0
VERTEX
  8
LAYER_1
 10
41.7976
 20
124.5397
 42
0.2062210117
  0
VERTEX
  8
LAYER_1
 10
42.8921
 20
127.0814
  0
VERTEX
  8
LAYER_1
 10
42.8917
 20
129.0117
 42
0.1528986132
  0
VERTEX
  8
LAYER_1
 10
42.2667
 20
131.0078
 42
-0.1528952921
  0
VERTEX
  8
LAYER_1
 10
41.6417
 20
133.0039
 42
-0.4142069504
  0
VERTEX
  8
LAYER_1
 10
45.1417
 20
136.5039
 42
-0.4142147684
  0
VERTEX
  8
LAYER_1
 10
48.6417
 20
133.0039
 42
-0.1528991954
  0
VERTEX
  8
LAYER_1
 10
48.0167
 20
131.0078
 42
0.1528947091
  0
VERTEX
  8
LAYER_1
 10
47.3917
 20
129.0117
  0
VERTEX
  8
LAYER_1
 10
47.3917
 20
127.0834
  0
VERTEX
  8
LAYER_1
 10
47.3917
 20
127.0817
 42
0.206003688
  0
VERTEX
  8
LAYER_1
 10
48.4852
 20
124.5403
  0
VERTEX
  8
LAYER_1
 10
48.6787
 20
124.3469
 42
0.2061403308
  0
VERTEX
  8
LAYER_1
 10
51.2196
 20
123.2539
  0
VERTEX
  8
LAYER_1
 10
51.2213
 20
123.2539
  0
VERTEX
  8
LAYER_1
 10
53.1496
 20
123.2539
 42
0.1528977384
  0
VERTEX
  8
LAYER_1
 10
55.1457
 20
123.8789
 42
-0.152888857
  0
VERTEX
  8
LAYER_1
 10
57.1417
 20
124.5039
 42
-0.4142147684
  0
VERTEX
  8
LAYER_1
 10
60.6417
 20
121.0039
 42
-0.4142201747
  0
VERTEX
  8
LAYER_1
 10
57.1417
 20
117.5039
 42
-0.1528915585
  0
VERTEX
  8
LAYER_1
 10
55.1457
 20
118.1289
 42
0.1528950362
  0
VERTEX
  8
LAYER_1
 10
53.1496
 20
118.7539
  0
VERTEX
  8
LAYER_1
 10
51.22
 20
118.7539
 42
0.2062995252
  0
VERTEX
  8
LAYER_1
 10
48.6758
 20
117.6583
  0
VERTEX
  8
LAYER_1
 10
48.4847
 20
117.467
 42
0.2061414348
  0
VERTEX
  8
LAYER_1
 10
47.3917
 20
114.926
  0
VERTEX
  8
LAYER_1
 10
47.3917
 20
114.9243
  0
VERTEX
  8
LAYER_1
 10
47.3917
 20
112.996
 42
0.1528882519
  0
VERTEX
  8
LAYER_1
 10
48.0167
 20
111
 42
-0.1528983433
  0
VERTEX
  8
LAYER_1
 10
48.6417
 20
109.0039
 42
-0.4142201747
  0
VERTEX
  8
LAYER_1
 10
45.1417
 20
105.5039
 42
-0.4142123563
  0
VERTEX
  8
LAYER_1
 10
41.6417
 20
109.0039
 42
-0.1528944573
  0
VERTEX
  8
LAYER_1
 10
42.2667
 20
111
 42
0.1528921373
  0
VERTEX
  8
LAYER_1
 10
42.8917
 20
112.996
  0
VERTEX
  8
LAYER_1
 10
42.8917
 20
114.9256
 42
0.2062655543
  0
SEQEND
  0
POLYLINE
  8
LAYER_1
 40
0.1764
 41
0.1764
 66
1
 10
0
 20
0
 30
0
  0
VERTEX
  8
LAYER_1
 10
43.1307
 20
135.8684
 42
0.0757454893
  0
VERTEX
  8
LAYER_1
 10
38.8619
 20
134.6129
 42
0.0527201424
  0
VERTEX
  8
LAYER_1
 10
36.1447
 20
132.9756
 42
0.1389585821
  0
VERTEX
  8
LAYER_1
 10
31.1164
 20
126.3017
 42
0.05494843831
  0
VERTEX
  8
LAYER_1
 10
30.299
 20
123.17
 42
0.002664791608
  0
VERTEX
  8
LAYER_1
 10
30.2772
 20
123.0149
  0
SEQEND
  0
POLYLINE
  8
LAYER_1
 40
0.1764
 41
0.1764
 66
1
 10
0
 20
0
 30
0
  0
VERTEX
  8
LAYER_1
 10
60.0063
 20
123.0149
 42
0.0757454893
  0
VERTEX
  8
LAYER_1
 10
58.7508
 20
127.2837
 42
0.0527201424
  0
VERTEX
  8
LAYER_1
 10
57.1135
 20
130.0009
 42
0.1389585821
  0
VERTEX
  8
LAYER_1
 10
50.4396
 20
135.0292
 42
0.05494843831
  0
VERTEX
  8
LAYER_1
 10
47.3079
 20
135.8466
 42
0.002664791607
  0
VERTEX
  8
LAYER_1
 10
47.1528
 20
135.8684
  0
SEQEND
  0
POLYLINE
  8
LAYER_1
 40
0.1764
 41
0.1764
 66
1
 10
0
 20
0
 30
0
  0
VERTEX
  8
LAYER_1
 10
47.1527
 20
106.1393
 42
0.07574501634
  0
VERTEX
  8
LAYER_1
 10
51.4215
 20
107.3948
 42
0.05272049537
  0
VERTEX
  8
LAYER_1
 10
54.1388
 20
109.0321
 42
0.1389601453
  0
VERTEX
  8
LAYER_1
 10
59.1671
 20
115.7061
 42
0.05494823514
  0
VERTEX
  8
LAYER_1
 10
59.9845
 20
118.8378
 42
0.002664762533
  0
VERTEX
  8
LAYER_1
 10
60.0063
 20
118.9929
  0
SEQEND
  0
POLYLINE
  8
LAYER_1
 40
0.1764
 41
0.1764
 66
1
 10
0
 20
0
 30
0
  0
VERTEX
  8
LAYER_1
 10
42.8561
 20
129.5102
  0
VERTEX
  8
LAYER_1
 10
39.903
 20
129.5102
  0
SEQEND
  0
POLYLINE
  8
LAYER_1
 40
0.1764
 41
0.1764
 66
1
 10
0
 20
0
 30
0
  0
VERTEX
  8
LAYER_1
 10
41.6776
 20
133.5039
  0
VERTEX
  8
LAYER_1
 10
40.484
 20
133.5039
  0
VERTEX
  8
LAYER_1
 10
39.903
 20
132.9229
  0
SEQEND
  0
POLYLINE
  8
LAYER_1
 40
0.1764
 41
0.1764
 66
1
 10
0
 20
0
 30
0
  0
VERTEX
  8
LAYER_1
 10
40.484
 20
133.5039
  0
VERTEX
  8
LAYER_1
 10
40.484
 20
129.5102
  0
VERTEX
  8
LAYER_1
 10
39.903
 20
128.5039
  0
SEQEND
  0
POLYLINE
  8
LAYER_1
 40
0.1764
 41
0.1764
 66
1
 10
0
 20
0
 30
0
  0
VERTEX
  8
LAYER_1
 10
39.903
 20
128.5039
  0
VERTEX
  8
LAYER_1
 10
39.903
 20
132.9229
  0
VERTEX
  8
LAYER_1
 10
41.6427
 20
132.9229
  0
SEQEND
  0
POLYLINE
  8
LAYER_1
 40
0.1764
 41
0.1764
 66
1
 10
0
 20
0
 30
0
  0
VERTEX
  8
LAYER_1
 10
39.0167
 20
127.1864
 42
0.3271828894
  0
VERTEX
  8
LAYER_1
 10
39.8917
 20
128.3772
  0
VERTEX
  8
LAYER_1
 10
39.8917
 20
128.5039
  0
VERTEX
  8
LAYER_1
 10
42.8547
 20
128.5039
  0
SEQEND
  0
POLYLINE
  8
LAYER_1
 40
0.1764
 41
0.1764
 66
1
 10
0
 20
0
 30
0
  0
VERTEX
  8
LAYER_1
 10
41.8591
 20
127.1864
  0
VERTEX
  8
LAYER_1
 10
39.0167
 20
127.1864
  0
VERTEX
  8
LAYER_1
 10
39.0167
 20
123.3951
  0
SEQEND
  0
POLYLINE
  8
LAYER_1
 40
0.1764
 41
0.1764
 66
1
 10
0
 20
0
 30
0
  0
VERTEX
  8
LAYER_1
 10
47.4274
 20
129.5102
  0
VERTEX
  8
LAYER_1
 10
50.3805
 20
129.5102
  0
SEQEND
  0
POLYLINE
  8
LAYER_1
 40
0.1764
 41
0.1764
 66
1
 10
0
 20
0
 30
0
  0
VERTEX
  8
LAYER_1
 10
48.6408
 20
132.9229
  0
VERTEX
  8
LAYER_1
 10
50.3805
 20
132.9229
  0
SEQEND
  0
POLYLINE
  8
LAYER_1
 40
0.1764
 41
0.1764
 66
1
 10
0
 20
0
 30
0
  0
VERTEX
  8
LAYER_1
 10
51.2667
 20
127.1864
 42
-0.3271631847
  0
VERTEX
  8
LAYER_1
 10
50.3917
 20
128.3772
  0
VERTEX
  8
LAYER_1
 10
50.3917
 20
128.5039
  0
VERTEX
  8
LAYER_1
 10
47.4288
 20
128.5039
  0
SEQEND
  0
POLYLINE
  8
LAYER_1
 40
0.1764
 41
0.1764
 66
1
 10
0
 20
0
 30
0
  0
VERTEX
  8
LAYER_1
 10
50.3805
 20
128.5039
  0
VERTEX
  8
LAYER_1
 10
50.3805
 20
132.9229
  0
VERTEX
  8
LAYER_1
 10
49.7995
 20
133.5039
  0
VERTEX
  8
LAYER_1
 10
48.6058
 20
133.5039
  0
SEQEND
  0
POLYLINE
  8
LAYER_1
 40
0.1764
 41
0.1764
 66
1
 10
0
 20
0
 30
0
  0
VERTEX
  8
LAYER_1
 10
50.3805
 20
128.5039
  0
VERTEX
  8
LAYER_1
 10
49.7995
 20
129.5102
  0
VERTEX
  8
LAYER_1
 10
49.7995
 20
133.5039
  0
SEQEND
  0
POLYLINE
  8
LAYER_1
 40
0.1764
 41
0.1764
 66
1
 10
0
 20
0
 30
0
  0
VERTEX
  8
LAYER_1
 10
51.2667
 20
123.3951
  0
VERTEX
  8
LAYER_1
 10
51.2667
 20
127.1864
  0
VERTEX
  8
LAYER_1
 10
48.4244
 20
127.1864
  0
SEQEND
  0
TEXT
  8
LAYER_1
 10
150.5422
 20
235.0616
 11
150.5422
 21
235.0616
 40
5.5657
 41
0.5
  1
ＷＬ
  0
POLYLINE
  8
LAYER_1
 40
0.1764
 41
0.1764
 66
1
 10
0
 20
0
 30
0
  0
VERTEX
  8
LAYER_1
 10
154.292
 20
233.2315
  0
VERTEX
  8
LAYER_1
 10
154.292
 20
220.7315
  0
VERTEX
  8
LAYER_1
 10
154.292
 20
190.7315
  0
SEQEND
  0
INSERT
  8
LAYER_1
  2
AIGNBL0101000F
 10
0
 20
0
 30
0
  0
POLYLINE
  8
LAYER_1
 40
0.1764
 41
0.1764
 66
1
 10
0
 20
0
 30
0
  0
VERTEX
  8
LAYER_1
 10
154.292
 20
178.2315
  0
VERTEX
  8
LAYER_1
 10
154.292
 20
190.7315
  0
VERTEX
  8
LAYER_1
 10
152.792
 20
190.7315
 42
-0.2953119402
  0
VERTEX
  8
LAYER_1
 10
148.231
 20
193.6826
  0
SEQEND
  0
INSERT
  8
LAYER_1
  2
AIGNBL01010011
 10
0
 20
0
 30
0
  0
TEXT
  8
LAYER_1
 10
150.9483
 20
149.9069
 11
150.9483
 21
149.9069
 40
6.3449
 41
0.5
  1
WL
  0
POLYLINE
  8
LAYER_1
 40
0.1764
 41
0.1764
 66
1
 10
0
 20
0
 30
0
  0
VERTEX
  8
LAYER_1
 10
154.292
 20
101.4637
  0
VERTEX
  8
LAYER_1
 10
154.292
 20
148.5039
  0
SEQEND
  0
INSERT
  8
LAYER_1
  2
AIGNBL01010017
 10
0
 20
0
 30
0
  0
INSERT
  8
LAYER_1
  2
AIGNBL01010019
 10
0
 20
0
 30
0
  0
INSERT
  8
LAYER_1
  2
AIGNBL0101001F
 10
0
 20
0
 30
0
  0
TEXT
  8
LAYER_1
 10
163.5377
 20
132.0041
 11
163.5377
 21
132.0041
 40
3.9656
 41
0.5
  1
R1/2
  0
INSERT
  8
LAYER_1
  2
AIGNBL01010020
 10
0
 20
0
 30
0
  0
INSERT
  8
LAYER_1
  2
AIGNBL01010026
 10
0
 20
0
 30
0
  0
TEXT
  8
LAYER_1
 10
153.6725
 20
23.2884
 11
153.6725
 21
23.2884
 40
3.1177
 41
0.5
  1
（　）内寸法は参考寸法
  0
TEXT
  8
LAYER_7
 10
18.4399
 20
5.4632
 11
18.4399
 21
5.4632
 40
3.2995
 41
0.5
  1
仕様
  0
POLYLINE
  8
LAYER_7
 40
0.3528
 41
0.3528
 66
1
 10
0
 20
0
 30
0
  0
VERTEX
  8
LAYER_7
 10
205.0762
 20
10.8455
  0
VERTEX
  8
LAYER_7
 10
17.0763
 20
10.8455
  0
SEQEND
  0
INSERT
  8
LAYER_7
  2
AIGNBL07010002
 10
0
 20
0
 30
0
  0
POLYLINE
  8
LAYER_7
 40
0.3528
 41
0.3528
 66
1
 10
0
 20
0
 30
0
  0
VERTEX
  8
LAYER_7
 10
17.0763
 20
268.2234
  0
VERTEX
  8
LAYER_7
 10
17.0763
 20
-6.7769
  0
VERTEX
  8
LAYER_7
 10
205.0762
 20
-6.7769
  0
VERTEX
  8
LAYER_7
 10
205.0762
 20
268.2234
  0
VERTEX
  8
LAYER_7
 10
17.0763
 20
268.2234
  0
SEQEND
  0
POLYLINE
  8
LAYER_7
 40
0.3528
 41
0.3528
 66
1
 10
0
 20
0
 30
0
  0
VERTEX
  8
LAYER_7
 10
205.0762
 20
19.3546
  0
VERTEX
  8
LAYER_7
 10
17.0763
 20
19.3546
  0
SEQEND
  0
POLYLINE
  8
LAYER_7
 40
0.3528
 41
0.3528
 66
1
 10
0
 20
0
 30
0
  0
VERTEX
  8
LAYER_7
 10
205.0762
 20
2.3365
  0
VERTEX
  8
LAYER_7
 10
127.3025
 20
2.3365
  0
SEQEND
  0
TEXT
  8
LAYER_7
 10
157.5084
 20
4.6123
 11
157.5084
 21
4.6123
 40
3.7615
 41
0.5
  1
-
  0
TEXT
  8
LAYER_7
 10
152.2167
 20
8.3692
 11
152.2167
 21
8.3692
 40
2.1997
 41
0.5
  1
縮尺
  0
POLYLINE
  8
LAYER_7
 40
0.3528
 41
0.3528
 66
1
 10
0
 20
0
 30
0
  0
VERTEX
  8
LAYER_7
 10
150.6885
 20
2.3365
  0
VERTEX
  8
LAYER_7
 10
150.6885
 20
10.8455
  0
SEQEND
  0
TEXT
  8
LAYER_7
 10
128.0011
 20
16.8782
 11
128.0011
 21
16.8782
 40
2.1997
 41
0.5
  1
品番
  0
TEXT
  8
LAYER_7
 10
18.2332
 20
16.8782
 11
18.2332
 21
16.8782
 40
2.1997
 41
0.5
  1
品名
  0
TEXT
  8
LAYER_7
 10
128.0011
 20
8.3692
 11
128.0011
 21
8.3692
 40
2.1997
 41
0.5
  1
重量
  0
TEXT
  8
LAYER_7
 10
135.5345
 20
13.0462
 11
135.5345
 21
13.0462
 40
5.9385
 41
0.5
  1
Y705-643-13
  0
TEXT
  8
LAYER_7
 10
133.3138
 20
4.6123
 11
133.3138
 21
4.6123
 40
3.7615
 41
0.5
  1
-
  0
POLYLINE
  8
LAYER_7
 40
0.3528
 41
0.3528
 66
1
 10
0
 20
0
 30
0
  0
VERTEX
  8
LAYER_7
 10
127.3025
 20
-6.1512
  0
VERTEX
  8
LAYER_7
 10
127.3025
 20
19.3546
  0
SEQEND
  0
TEXT
  8
LAYER_7
 10
24.4163
 20
13.7859
 11
24.4163
 21
13.7859
 40
3.6373
 41
0.5
  1
アングル止水栓
  0
TEXT
  8
LAYER_7
 10
29.012
 20
6.2546
 11
29.012
 21
6.2546
 40
3.258
 41
0.5
  1
●JIS
  0
TEXT
  8
LAYER_7
 10
191.6644
 20
22.153
 11
191.6644
 21
22.153
 40
2.9618
 41
0.5
  1
単位：mm
  0
TEXT
  8
LAYER_7
 10
192.6441
 20
263.5136
 11
192.6441
 21
263.5136
 40
2.0732
 41
0.5
  1
201207RT
  0
TEXT
  8
LAYER_7
 10
154.3861
 20
-1.5679
 11
154.3861
 21
-1.5679
 40
2.8694
 41
0.5
  1
●TEL 0120-65-1232●FAX 06-6532-1580
  0
TEXT
  8
LAYER_7
 10
154.3861
 20
-4.5472
 11
154.3861
 21
-4.5472
 40
2.8694
 41
0.5
  1
hits@hiratatile.co.jp
  0
INSERT
  8
LAYER_7
  2
AIGNBL07010003
 10
0
 20
0
 30
0
  0
ENDSEC
  0
EOF
