  0
SECTION
  2
HEADER
  9
$ACADVER
  1
AC1009
  9
$LUNITS
 70
2
  9
$LUPREC
 70
4
  9
$LTSCALE
 40
1.0
  9
$EXTMIN
 10
-30.3177
 20
33.3285
 30
0
  9
$EXTMAX
 10
251.6749
 20
230.337
 30
0
  0
ENDSEC
  0
SECTION
  2
TABLES
  0
TABLE
  2
LTYPE
 70
256
  0
LTYPE
  2
AIGENLINE001
 70
64
  3
generate AI->DXF Converter
 72
65
 73
4
 40
25.3924
 49
15.8703
 49
-3.1741
 49
3.1741
 49
-3.1741
  0
ENDTAB
  0
TABLE
  2
LAYER
 70
5
  0
LAYER
  2
LAYER_1
 70
64
 62
7
  6
CONTINUOUS
  0
LAYER
  2
LAYER_2
 70
64
 62
7
  6
CONTINUOUS
  0
LAYER
  2
LAYER_3
 70
64
 62
7
  6
CONTINUOUS
  0
LAYER
  2
LAYER_4
 70
64
 62
7
  6
CONTINUOUS
  0
LAYER
  2
LAYER_5
 70
64
 62
7
  6
CONTINUOUS
  0
ENDTAB
  0
TABLE
  2
STYLE
 70
6
  0
STYLE
  2
STANDARD
 70
0
 40
0
 50
0
 71
0
 41
0
 42
0
  3
TXT
  4
BIGFONT
  0
ENDTAB
  0
ENDSEC
  0
SECTION
  2
BLOCKS
  0
BLOCK
  8
LAYER_1
  2
AIGNBL01040029
 70
64
 10
0
 20
0
 30
0
  3
AIGNBL01040029
  0
POLYLINE
  8
LAYER_1
 40
0.1058
 41
0.1058
 66
1
 10
0
 20
0
 30
0
  0
VERTEX
  8
LAYER_1
 10
81.7435
 20
114.5775
  0
VERTEX
  8
LAYER_1
 10
80.3554
 20
114.951
  0
SEQEND
  0
ENDBLK
  0
BLOCK
  8
LAYER_1
  2
AIGNBL0104002A
 70
64
 10
0
 20
0
 30
0
  3
AIGNBL0104002A
  0
POLYLINE
  8
LAYER_1
 40
0.1058
 41
0.1058
 66
1
 10
0
 20
0
 30
0
  0
VERTEX
  8
LAYER_1
 10
80.3554
 20
114.951
  0
VERTEX
  8
LAYER_1
 10
81.7435
 20
115.322
  0
SEQEND
  0
ENDBLK
  0
BLOCK
  8
LAYER_1
  2
AIGNBL0104002B
 70
64
 10
0
 20
0
 30
0
  3
AIGNBL0104002B
  0
POLYLINE
  8
LAYER_1
 40
0.1058
 41
0.1058
 66
1
 10
0
 20
0
 30
0
  0
VERTEX
  8
LAYER_1
 10
80.3554
 20
114.951
  0
VERTEX
  8
LAYER_1
 10
81.7435
 20
114.951
  0
SEQEND
  0
ENDBLK
  0
BLOCK
  8
LAYER_1
  2
AIGNBL0104002D
 70
64
 10
0
 20
0
 30
0
  3
AIGNBL0104002D
  0
POLYLINE
  8
LAYER_1
 40
0.1058
 41
0.1058
 66
1
 10
0
 20
0
 30
0
  0
VERTEX
  8
LAYER_1
 10
75.7088
 20
115.322
  0
VERTEX
  8
LAYER_1
 10
77.0969
 20
114.951
  0
SEQEND
  0
ENDBLK
  0
BLOCK
  8
LAYER_1
  2
AIGNBL0104002E
 70
64
 10
0
 20
0
 30
0
  3
AIGNBL0104002E
  0
POLYLINE
  8
LAYER_1
 40
0.1058
 41
0.1058
 66
1
 10
0
 20
0
 30
0
  0
VERTEX
  8
LAYER_1
 10
77.0969
 20
114.951
  0
VERTEX
  8
LAYER_1
 10
75.7088
 20
114.5775
  0
SEQEND
  0
ENDBLK
  0
BLOCK
  8
LAYER_1
  2
AIGNBL0104002F
 70
64
 10
0
 20
0
 30
0
  3
AIGNBL0104002F
  0
POLYLINE
  8
LAYER_1
 40
0.1058
 41
0.1058
 66
1
 10
0
 20
0
 30
0
  0
VERTEX
  8
LAYER_1
 10
77.0969
 20
114.951
  0
VERTEX
  8
LAYER_1
 10
75.7088
 20
114.951
  0
SEQEND
  0
ENDBLK
  0
BLOCK
  8
LAYER_1
  2
AIGNBL01040039
 70
64
 10
0
 20
0
 30
0
  3
AIGNBL01040039
  0
POLYLINE
  8
LAYER_1
 40
0.1058
 41
0.1058
 66
1
 10
0
 20
0
 30
0
  0
VERTEX
  8
LAYER_1
 10
115.8871
 20
166.8046
  0
VERTEX
  8
LAYER_1
 10
114.499
 20
167.1772
  0
SEQEND
  0
ENDBLK
  0
BLOCK
  8
LAYER_1
  2
AIGNBL0104003A
 70
64
 10
0
 20
0
 30
0
  3
AIGNBL0104003A
  0
POLYLINE
  8
LAYER_1
 40
0.1058
 41
0.1058
 66
1
 10
0
 20
0
 30
0
  0
VERTEX
  8
LAYER_1
 10
114.499
 20
167.1772
  0
VERTEX
  8
LAYER_1
 10
115.8871
 20
167.5482
  0
SEQEND
  0
ENDBLK
  0
BLOCK
  8
LAYER_1
  2
AIGNBL0104003B
 70
64
 10
0
 20
0
 30
0
  3
AIGNBL0104003B
  0
POLYLINE
  8
LAYER_1
 40
0.1058
 41
0.1058
 66
1
 10
0
 20
0
 30
0
  0
VERTEX
  8
LAYER_1
 10
114.499
 20
167.1772
  0
VERTEX
  8
LAYER_1
 10
115.8871
 20
167.1772
  0
SEQEND
  0
ENDBLK
  0
BLOCK
  8
LAYER_1
  2
AIGNBL0104003D
 70
64
 10
0
 20
0
 30
0
  3
AIGNBL0104003D
  0
POLYLINE
  8
LAYER_1
 40
0.1058
 41
0.1058
 66
1
 10
0
 20
0
 30
0
  0
VERTEX
  8
LAYER_1
 10
143.3612
 20
167.5482
  0
VERTEX
  8
LAYER_1
 10
144.7486
 20
167.1772
  0
SEQEND
  0
ENDBLK
  0
BLOCK
  8
LAYER_1
  2
AIGNBL0104003E
 70
64
 10
0
 20
0
 30
0
  3
AIGNBL0104003E
  0
POLYLINE
  8
LAYER_1
 40
0.1058
 41
0.1058
 66
1
 10
0
 20
0
 30
0
  0
VERTEX
  8
LAYER_1
 10
144.7486
 20
167.1772
  0
VERTEX
  8
LAYER_1
 10
143.3612
 20
166.8046
  0
SEQEND
  0
ENDBLK
  0
BLOCK
  8
LAYER_1
  2
AIGNBL0104003F
 70
64
 10
0
 20
0
 30
0
  3
AIGNBL0104003F
  0
POLYLINE
  8
LAYER_1
 40
0.1058
 41
0.1058
 66
1
 10
0
 20
0
 30
0
  0
VERTEX
  8
LAYER_1
 10
144.7486
 20
167.1772
  0
VERTEX
  8
LAYER_1
 10
143.3612
 20
167.1772
  0
SEQEND
  0
ENDBLK
  0
BLOCK
  8
LAYER_1
  2
AIGNBL01040224
 70
64
 10
0
 20
0
 30
0
  3
AIGNBL01040224
  0
POLYLINE
  8
LAYER_1
 40
0.1058
 41
0.1058
 66
1
 10
0
 20
0
 30
0
  0
VERTEX
  8
LAYER_1
 10
92.1561
 20
203.0128
  0
VERTEX
  8
LAYER_1
 10
92.5271
 20
204.401
  0
SEQEND
  0
ENDBLK
  0
BLOCK
  8
LAYER_1
  2
AIGNBL01040225
 70
64
 10
0
 20
0
 30
0
  3
AIGNBL01040225
  0
POLYLINE
  8
LAYER_1
 40
0.1058
 41
0.1058
 66
1
 10
0
 20
0
 30
0
  0
VERTEX
  8
LAYER_1
 10
92.5271
 20
204.401
  0
VERTEX
  8
LAYER_1
 10
92.8997
 20
203.0128
  0
SEQEND
  0
ENDBLK
  0
BLOCK
  8
LAYER_1
  2
AIGNBL01040226
 70
64
 10
0
 20
0
 30
0
  3
AIGNBL01040226
  0
POLYLINE
  8
LAYER_1
 40
0.1058
 41
0.1058
 66
1
 10
0
 20
0
 30
0
  0
VERTEX
  8
LAYER_1
 10
92.5271
 20
204.401
  0
VERTEX
  8
LAYER_1
 10
92.5271
 20
203.0128
  0
SEQEND
  0
ENDBLK
  0
BLOCK
  8
LAYER_1
  2
AIGNBL01040228
 70
64
 10
0
 20
0
 30
0
  3
AIGNBL01040228
  0
POLYLINE
  8
LAYER_1
 40
0.1058
 41
0.1058
 66
1
 10
0
 20
0
 30
0
  0
VERTEX
  8
LAYER_1
 10
92.8997
 20
196.8302
  0
VERTEX
  8
LAYER_1
 10
92.5271
 20
195.442
  0
SEQEND
  0
ENDBLK
  0
BLOCK
  8
LAYER_1
  2
AIGNBL01040229
 70
64
 10
0
 20
0
 30
0
  3
AIGNBL01040229
  0
POLYLINE
  8
LAYER_1
 40
0.1058
 41
0.1058
 66
1
 10
0
 20
0
 30
0
  0
VERTEX
  8
LAYER_1
 10
92.5271
 20
195.442
  0
VERTEX
  8
LAYER_1
 10
92.1561
 20
196.8302
  0
SEQEND
  0
ENDBLK
  0
BLOCK
  8
LAYER_1
  2
AIGNBL0104022A
 70
64
 10
0
 20
0
 30
0
  3
AIGNBL0104022A
  0
POLYLINE
  8
LAYER_1
 40
0.1058
 41
0.1058
 66
1
 10
0
 20
0
 30
0
  0
VERTEX
  8
LAYER_1
 10
92.5271
 20
195.442
  0
VERTEX
  8
LAYER_1
 10
92.5271
 20
196.8302
  0
SEQEND
  0
ENDBLK
  0
BLOCK
  8
LAYER_1
  2
AIGNBL01040234
 70
64
 10
0
 20
0
 30
0
  3
AIGNBL01040234
  0
POLYLINE
  8
LAYER_1
 40
0.1058
 41
0.1058
 66
1
 10
0
 20
0
 30
0
  0
VERTEX
  8
LAYER_1
 10
118.6586
 20
161.978
  0
VERTEX
  8
LAYER_1
 10
117.2705
 20
162.3507
  0
SEQEND
  0
ENDBLK
  0
BLOCK
  8
LAYER_1
  2
AIGNBL01040235
 70
64
 10
0
 20
0
 30
0
  3
AIGNBL01040235
  0
POLYLINE
  8
LAYER_1
 40
0.1058
 41
0.1058
 66
1
 10
0
 20
0
 30
0
  0
VERTEX
  8
LAYER_1
 10
117.2705
 20
162.3507
  0
VERTEX
  8
LAYER_1
 10
118.6586
 20
162.7225
  0
SEQEND
  0
ENDBLK
  0
BLOCK
  8
LAYER_1
  2
AIGNBL01040236
 70
64
 10
0
 20
0
 30
0
  3
AIGNBL01040236
  0
POLYLINE
  8
LAYER_1
 40
0.1058
 41
0.1058
 66
1
 10
0
 20
0
 30
0
  0
VERTEX
  8
LAYER_1
 10
117.2705
 20
162.3507
  0
VERTEX
  8
LAYER_1
 10
118.6586
 20
162.3507
  0
SEQEND
  0
ENDBLK
  0
BLOCK
  8
LAYER_1
  2
AIGNBL01040238
 70
64
 10
0
 20
0
 30
0
  3
AIGNBL01040238
  0
POLYLINE
  8
LAYER_1
 40
0.1058
 41
0.1058
 66
1
 10
0
 20
0
 30
0
  0
VERTEX
  8
LAYER_1
 10
143.3612
 20
162.7225
  0
VERTEX
  8
LAYER_1
 10
144.7486
 20
162.3507
  0
SEQEND
  0
ENDBLK
  0
BLOCK
  8
LAYER_1
  2
AIGNBL01040239
 70
64
 10
0
 20
0
 30
0
  3
AIGNBL01040239
  0
POLYLINE
  8
LAYER_1
 40
0.1058
 41
0.1058
 66
1
 10
0
 20
0
 30
0
  0
VERTEX
  8
LAYER_1
 10
144.7486
 20
162.3507
  0
VERTEX
  8
LAYER_1
 10
143.3612
 20
161.978
  0
SEQEND
  0
ENDBLK
  0
BLOCK
  8
LAYER_1
  2
AIGNBL0104023A
 70
64
 10
0
 20
0
 30
0
  3
AIGNBL0104023A
  0
POLYLINE
  8
LAYER_1
 40
0.1058
 41
0.1058
 66
1
 10
0
 20
0
 30
0
  0
VERTEX
  8
LAYER_1
 10
144.7486
 20
162.3507
  0
VERTEX
  8
LAYER_1
 10
143.3612
 20
162.3507
  0
SEQEND
  0
ENDBLK
  0
BLOCK
  8
LAYER_1
  2
AIGNBL01040244
 70
64
 10
0
 20
0
 30
0
  3
AIGNBL01040244
  0
POLYLINE
  8
LAYER_1
 40
0.1058
 41
0.1058
 66
1
 10
0
 20
0
 30
0
  0
VERTEX
  8
LAYER_1
 10
158.9497
 20
156.8861
  0
VERTEX
  8
LAYER_1
 10
159.3232
 20
158.275
  0
SEQEND
  0
ENDBLK
  0
BLOCK
  8
LAYER_1
  2
AIGNBL01040245
 70
64
 10
0
 20
0
 30
0
  3
AIGNBL01040245
  0
POLYLINE
  8
LAYER_1
 40
0.1058
 41
0.1058
 66
1
 10
0
 20
0
 30
0
  0
VERTEX
  8
LAYER_1
 10
159.3232
 20
158.275
  0
VERTEX
  8
LAYER_1
 10
159.6942
 20
156.8861
  0
SEQEND
  0
ENDBLK
  0
BLOCK
  8
LAYER_1
  2
AIGNBL01040246
 70
64
 10
0
 20
0
 30
0
  3
AIGNBL01040246
  0
POLYLINE
  8
LAYER_1
 40
0.1058
 41
0.1058
 66
1
 10
0
 20
0
 30
0
  0
VERTEX
  8
LAYER_1
 10
159.3232
 20
158.275
  0
VERTEX
  8
LAYER_1
 10
159.3232
 20
156.8861
  0
SEQEND
  0
ENDBLK
  0
BLOCK
  8
LAYER_1
  2
AIGNBL01040248
 70
64
 10
0
 20
0
 30
0
  3
AIGNBL01040248
  0
POLYLINE
  8
LAYER_1
 40
0.1058
 41
0.1058
 66
1
 10
0
 20
0
 30
0
  0
VERTEX
  8
LAYER_1
 10
159.6942
 20
135.6058
  0
VERTEX
  8
LAYER_1
 10
159.3232
 20
134.2169
  0
SEQEND
  0
ENDBLK
  0
BLOCK
  8
LAYER_1
  2
AIGNBL01040249
 70
64
 10
0
 20
0
 30
0
  3
AIGNBL01040249
  0
POLYLINE
  8
LAYER_1
 40
0.1058
 41
0.1058
 66
1
 10
0
 20
0
 30
0
  0
VERTEX
  8
LAYER_1
 10
159.3232
 20
134.2169
  0
VERTEX
  8
LAYER_1
 10
158.9497
 20
135.6058
  0
SEQEND
  0
ENDBLK
  0
BLOCK
  8
LAYER_1
  2
AIGNBL0104024A
 70
64
 10
0
 20
0
 30
0
  3
AIGNBL0104024A
  0
POLYLINE
  8
LAYER_1
 40
0.1058
 41
0.1058
 66
1
 10
0
 20
0
 30
0
  0
VERTEX
  8
LAYER_1
 10
159.3232
 20
134.2169
  0
VERTEX
  8
LAYER_1
 10
159.3232
 20
135.6058
  0
SEQEND
  0
ENDBLK
  0
BLOCK
  8
LAYER_1
  2
AIGNBL01040254
 70
64
 10
0
 20
0
 30
0
  3
AIGNBL01040254
  0
POLYLINE
  8
LAYER_1
 40
0.1058
 41
0.1058
 66
1
 10
0
 20
0
 30
0
  0
VERTEX
  8
LAYER_1
 10
158.9497
 20
132.8288
  0
VERTEX
  8
LAYER_1
 10
159.3232
 20
134.2169
  0
SEQEND
  0
ENDBLK
  0
BLOCK
  8
LAYER_1
  2
AIGNBL01040255
 70
64
 10
0
 20
0
 30
0
  3
AIGNBL01040255
  0
POLYLINE
  8
LAYER_1
 40
0.1058
 41
0.1058
 66
1
 10
0
 20
0
 30
0
  0
VERTEX
  8
LAYER_1
 10
159.3232
 20
134.2169
  0
VERTEX
  8
LAYER_1
 10
159.6942
 20
132.8288
  0
SEQEND
  0
ENDBLK
  0
BLOCK
  8
LAYER_1
  2
AIGNBL01040256
 70
64
 10
0
 20
0
 30
0
  3
AIGNBL01040256
  0
POLYLINE
  8
LAYER_1
 40
0.1058
 41
0.1058
 66
1
 10
0
 20
0
 30
0
  0
VERTEX
  8
LAYER_1
 10
159.3232
 20
134.2169
  0
VERTEX
  8
LAYER_1
 10
159.3232
 20
132.8288
  0
SEQEND
  0
ENDBLK
  0
BLOCK
  8
LAYER_1
  2
AIGNBL01040258
 70
64
 10
0
 20
0
 30
0
  3
AIGNBL01040258
  0
POLYLINE
  8
LAYER_1
 40
0.1058
 41
0.1058
 66
1
 10
0
 20
0
 30
0
  0
VERTEX
  8
LAYER_1
 10
159.6942
 20
123.075
  0
VERTEX
  8
LAYER_1
 10
159.3232
 20
121.6877
  0
SEQEND
  0
ENDBLK
  0
BLOCK
  8
LAYER_1
  2
AIGNBL01040259
 70
64
 10
0
 20
0
 30
0
  3
AIGNBL01040259
  0
POLYLINE
  8
LAYER_1
 40
0.1058
 41
0.1058
 66
1
 10
0
 20
0
 30
0
  0
VERTEX
  8
LAYER_1
 10
159.3232
 20
121.6877
  0
VERTEX
  8
LAYER_1
 10
158.9497
 20
123.075
  0
SEQEND
  0
ENDBLK
  0
BLOCK
  8
LAYER_1
  2
AIGNBL0104025A
 70
64
 10
0
 20
0
 30
0
  3
AIGNBL0104025A
  0
POLYLINE
  8
LAYER_1
 40
0.1058
 41
0.1058
 66
1
 10
0
 20
0
 30
0
  0
VERTEX
  8
LAYER_1
 10
159.3232
 20
121.6877
  0
VERTEX
  8
LAYER_1
 10
159.3232
 20
123.075
  0
SEQEND
  0
ENDBLK
  0
BLOCK
  8
LAYER_1
  2
AIGNBL0104026D
 70
64
 10
0
 20
0
 30
0
  3
AIGNBL0104026D
  0
POLYLINE
  8
LAYER_1
 40
0.1058
 41
0.1058
 66
1
 10
0
 20
0
 30
0
  0
VERTEX
  8
LAYER_1
 10
136.5068
 20
136.5127
  0
VERTEX
  8
LAYER_1
 10
137.8958
 20
136.1392
  0
SEQEND
  0
ENDBLK
  0
BLOCK
  8
LAYER_1
  2
AIGNBL0104026E
 70
64
 10
0
 20
0
 30
0
  3
AIGNBL0104026E
  0
POLYLINE
  8
LAYER_1
 40
0.1058
 41
0.1058
 66
1
 10
0
 20
0
 30
0
  0
VERTEX
  8
LAYER_1
 10
137.8958
 20
136.1392
  0
VERTEX
  8
LAYER_1
 10
136.5068
 20
135.7682
  0
SEQEND
  0
ENDBLK
  0
BLOCK
  8
LAYER_1
  2
AIGNBL0104026F
 70
64
 10
0
 20
0
 30
0
  3
AIGNBL0104026F
  0
POLYLINE
  8
LAYER_1
 40
0.1058
 41
0.1058
 66
1
 10
0
 20
0
 30
0
  0
VERTEX
  8
LAYER_1
 10
137.8958
 20
136.1392
  0
VERTEX
  8
LAYER_1
 10
136.5068
 20
136.1392
  0
SEQEND
  0
ENDBLK
  0
BLOCK
  8
LAYER_1
  2
AIGNBL01040271
 70
64
 10
0
 20
0
 30
0
  3
AIGNBL01040271
  0
POLYLINE
  8
LAYER_1
 40
0.1058
 41
0.1058
 66
1
 10
0
 20
0
 30
0
  0
VERTEX
  8
LAYER_1
 10
152.991
 20
135.7682
  0
VERTEX
  8
LAYER_1
 10
151.6036
 20
136.1392
  0
SEQEND
  0
ENDBLK
  0
BLOCK
  8
LAYER_1
  2
AIGNBL01040272
 70
64
 10
0
 20
0
 30
0
  3
AIGNBL01040272
  0
POLYLINE
  8
LAYER_1
 40
0.1058
 41
0.1058
 66
1
 10
0
 20
0
 30
0
  0
VERTEX
  8
LAYER_1
 10
151.6036
 20
136.1392
  0
VERTEX
  8
LAYER_1
 10
152.991
 20
136.5127
  0
SEQEND
  0
ENDBLK
  0
BLOCK
  8
LAYER_1
  2
AIGNBL01040273
 70
64
 10
0
 20
0
 30
0
  3
AIGNBL01040273
  0
POLYLINE
  8
LAYER_1
 40
0.1058
 41
0.1058
 66
1
 10
0
 20
0
 30
0
  0
VERTEX
  8
LAYER_1
 10
151.6036
 20
136.1392
  0
VERTEX
  8
LAYER_1
 10
152.991
 20
136.1392
  0
SEQEND
  0
ENDBLK
  0
BLOCK
  8
LAYER_1
  2
AIGNBL0104027C
 70
64
 10
0
 20
0
 30
0
  3
AIGNBL0104027C
  0
POLYLINE
  8
LAYER_1
 40
0.1058
 41
0.1058
 66
1
 10
0
 20
0
 30
0
  0
VERTEX
  8
LAYER_1
 10
111.8515
 20
135.6058
  0
VERTEX
  8
LAYER_1
 10
111.4805
 20
134.2169
  0
SEQEND
  0
ENDBLK
  0
BLOCK
  8
LAYER_1
  2
AIGNBL0104027D
 70
64
 10
0
 20
0
 30
0
  3
AIGNBL0104027D
  0
POLYLINE
  8
LAYER_1
 40
0.1058
 41
0.1058
 66
1
 10
0
 20
0
 30
0
  0
VERTEX
  8
LAYER_1
 10
111.4805
 20
134.2169
  0
VERTEX
  8
LAYER_1
 10
111.1078
 20
135.6058
  0
SEQEND
  0
ENDBLK
  0
BLOCK
  8
LAYER_1
  2
AIGNBL0104027E
 70
64
 10
0
 20
0
 30
0
  3
AIGNBL0104027E
  0
POLYLINE
  8
LAYER_1
 40
0.1058
 41
0.1058
 66
1
 10
0
 20
0
 30
0
  0
VERTEX
  8
LAYER_1
 10
111.4805
 20
134.2169
  0
VERTEX
  8
LAYER_1
 10
111.4805
 20
135.6058
  0
SEQEND
  0
ENDBLK
  0
BLOCK
  8
LAYER_1
  2
AIGNBL01040280
 70
64
 10
0
 20
0
 30
0
  3
AIGNBL01040280
  0
POLYLINE
  8
LAYER_1
 40
0.1058
 41
0.1058
 66
1
 10
0
 20
0
 30
0
  0
VERTEX
  8
LAYER_1
 10
111.1078
 20
141.1289
  0
VERTEX
  8
LAYER_1
 10
111.4805
 20
142.517
  0
SEQEND
  0
ENDBLK
  0
BLOCK
  8
LAYER_1
  2
AIGNBL01040281
 70
64
 10
0
 20
0
 30
0
  3
AIGNBL01040281
  0
POLYLINE
  8
LAYER_1
 40
0.1058
 41
0.1058
 66
1
 10
0
 20
0
 30
0
  0
VERTEX
  8
LAYER_1
 10
111.4805
 20
142.517
  0
VERTEX
  8
LAYER_1
 10
111.8515
 20
141.1289
  0
SEQEND
  0
ENDBLK
  0
BLOCK
  8
LAYER_1
  2
AIGNBL01040282
 70
64
 10
0
 20
0
 30
0
  3
AIGNBL01040282
  0
POLYLINE
  8
LAYER_1
 40
0.1058
 41
0.1058
 66
1
 10
0
 20
0
 30
0
  0
VERTEX
  8
LAYER_1
 10
111.4805
 20
142.517
  0
VERTEX
  8
LAYER_1
 10
111.4805
 20
141.1289
  0
SEQEND
  0
ENDBLK
  0
BLOCK
  8
LAYER_1
  2
AIGNBL0104028F
 70
64
 10
0
 20
0
 30
0
  3
AIGNBL0104028F
  0
POLYLINE
  8
LAYER_1
 40
0.1058
 41
0.1058
 66
1
 10
0
 20
0
 30
0
  0
VERTEX
  8
LAYER_1
 10
83.2467
 20
124.4616
  0
VERTEX
  8
LAYER_1
 10
81.8594
 20
124.8343
  0
SEQEND
  0
ENDBLK
  0
BLOCK
  8
LAYER_1
  2
AIGNBL01040290
 70
64
 10
0
 20
0
 30
0
  3
AIGNBL01040290
  0
POLYLINE
  8
LAYER_1
 40
0.1058
 41
0.1058
 66
1
 10
0
 20
0
 30
0
  0
VERTEX
  8
LAYER_1
 10
81.8594
 20
124.8343
  0
VERTEX
  8
LAYER_1
 10
83.2467
 20
125.2053
  0
SEQEND
  0
ENDBLK
  0
BLOCK
  8
LAYER_1
  2
AIGNBL01040291
 70
64
 10
0
 20
0
 30
0
  3
AIGNBL01040291
  0
POLYLINE
  8
LAYER_1
 40
0.1058
 41
0.1058
 66
1
 10
0
 20
0
 30
0
  0
VERTEX
  8
LAYER_1
 10
81.8594
 20
124.8343
  0
VERTEX
  8
LAYER_1
 10
83.2467
 20
124.8343
  0
SEQEND
  0
ENDBLK
  0
BLOCK
  8
LAYER_1
  2
AIGNBL01040293
 70
64
 10
0
 20
0
 30
0
  3
AIGNBL01040293
  0
POLYLINE
  8
LAYER_1
 40
0.1058
 41
0.1058
 66
1
 10
0
 20
0
 30
0
  0
VERTEX
  8
LAYER_1
 10
74.2047
 20
125.2053
  0
VERTEX
  8
LAYER_1
 10
75.5936
 20
124.8343
  0
SEQEND
  0
ENDBLK
  0
BLOCK
  8
LAYER_1
  2
AIGNBL01040294
 70
64
 10
0
 20
0
 30
0
  3
AIGNBL01040294
  0
POLYLINE
  8
LAYER_1
 40
0.1058
 41
0.1058
 66
1
 10
0
 20
0
 30
0
  0
VERTEX
  8
LAYER_1
 10
75.5936
 20
124.8343
  0
VERTEX
  8
LAYER_1
 10
74.2047
 20
124.4616
  0
SEQEND
  0
ENDBLK
  0
BLOCK
  8
LAYER_1
  2
AIGNBL01040295
 70
64
 10
0
 20
0
 30
0
  3
AIGNBL01040295
  0
POLYLINE
  8
LAYER_1
 40
0.1058
 41
0.1058
 66
1
 10
0
 20
0
 30
0
  0
VERTEX
  8
LAYER_1
 10
75.5936
 20
124.8343
  0
VERTEX
  8
LAYER_1
 10
74.2047
 20
124.8343
  0
SEQEND
  0
ENDBLK
  0
BLOCK
  8
LAYER_1
  2
AIGNBL010402A2
 70
64
 10
0
 20
0
 30
0
  3
AIGNBL010402A2
  0
POLYLINE
  8
LAYER_1
 40
0.1058
 41
0.1058
 66
1
 10
0
 20
0
 30
0
  0
VERTEX
  8
LAYER_1
 10
82.9965
 20
110.5067
  0
VERTEX
  8
LAYER_1
 10
81.6076
 20
110.8793
  0
SEQEND
  0
ENDBLK
  0
BLOCK
  8
LAYER_1
  2
AIGNBL010402A3
 70
64
 10
0
 20
0
 30
0
  3
AIGNBL010402A3
  0
POLYLINE
  8
LAYER_1
 40
0.1058
 41
0.1058
 66
1
 10
0
 20
0
 30
0
  0
VERTEX
  8
LAYER_1
 10
81.6076
 20
110.8793
  0
VERTEX
  8
LAYER_1
 10
82.9965
 20
111.2511
  0
SEQEND
  0
ENDBLK
  0
BLOCK
  8
LAYER_1
  2
AIGNBL010402A4
 70
64
 10
0
 20
0
 30
0
  3
AIGNBL010402A4
  0
POLYLINE
  8
LAYER_1
 40
0.1058
 41
0.1058
 66
1
 10
0
 20
0
 30
0
  0
VERTEX
  8
LAYER_1
 10
81.6076
 20
110.8793
  0
VERTEX
  8
LAYER_1
 10
82.9965
 20
110.8793
  0
SEQEND
  0
ENDBLK
  0
BLOCK
  8
LAYER_1
  2
AIGNBL010402A6
 70
64
 10
0
 20
0
 30
0
  3
AIGNBL010402A6
  0
POLYLINE
  8
LAYER_1
 40
0.1058
 41
0.1058
 66
1
 10
0
 20
0
 30
0
  0
VERTEX
  8
LAYER_1
 10
74.4566
 20
111.2511
  0
VERTEX
  8
LAYER_1
 10
75.8439
 20
110.8793
  0
SEQEND
  0
ENDBLK
  0
BLOCK
  8
LAYER_1
  2
AIGNBL010402A7
 70
64
 10
0
 20
0
 30
0
  3
AIGNBL010402A7
  0
POLYLINE
  8
LAYER_1
 40
0.1058
 41
0.1058
 66
1
 10
0
 20
0
 30
0
  0
VERTEX
  8
LAYER_1
 10
75.8439
 20
110.8793
  0
VERTEX
  8
LAYER_1
 10
74.4566
 20
110.5067
  0
SEQEND
  0
ENDBLK
  0
BLOCK
  8
LAYER_1
  2
AIGNBL010402A8
 70
64
 10
0
 20
0
 30
0
  3
AIGNBL010402A8
  0
POLYLINE
  8
LAYER_1
 40
0.1058
 41
0.1058
 66
1
 10
0
 20
0
 30
0
  0
VERTEX
  8
LAYER_1
 10
75.8439
 20
110.8793
  0
VERTEX
  8
LAYER_1
 10
74.4566
 20
110.8793
  0
SEQEND
  0
ENDBLK
  0
BLOCK
  8
LAYER_5
  2
AIGNBL05040006
 70
64
 10
0
 20
0
 30
0
  3
AIGNBL05040006
  0
POLYLINE
  8
LAYER_5
 40
0.05
 41
0.05
 66
1
 10
0
 20
0
 30
0
 70
1
  0
VERTEX
  8
LAYER_5
 10
146.7545
 20
39.1418
  0
VERTEX
  8
LAYER_5
 10
146.2656
 20
37.9567
  0
VERTEX
  8
LAYER_5
 10
145.6376
 20
37.9567
  0
VERTEX
  8
LAYER_5
 10
147.2372
 20
41.7225
  0
VERTEX
  8
LAYER_5
 10
147.9703
 20
41.7225
  0
VERTEX
  8
LAYER_5
 10
149.5768
 20
37.9567
  0
VERTEX
  8
LAYER_5
 10
148.9267
 20
37.9567
  0
VERTEX
  8
LAYER_5
 10
148.424
 20
39.1418
  0
SEQEND
  0
POLYLINE
  8
LAYER_5
 40
0.05
 41
0.05
 66
1
 10
0
 20
0
 30
0
 70
1
  0
VERTEX
  8
LAYER_5
 10
148.2983
 20
39.5207
  0
VERTEX
  8
LAYER_5
 10
147.8373
 20
40.6056
 42
-0.02317247198
  0
VERTEX
  8
LAYER_5
 10
147.5927
 20
41.2926
  0
VERTEX
  8
LAYER_5
 10
147.5789
 20
41.2926
 42
-0.02064481114
  0
VERTEX
  8
LAYER_5
 10
147.3412
 20
40.6101
  0
VERTEX
  8
LAYER_5
 10
146.8806
 20
39.5207
  0
SEQEND
  0
ENDBLK
  0
BLOCK
  8
LAYER_5
  2
AIGNBL05040007
 70
64
 10
0
 20
0
 30
0
  3
AIGNBL05040007
  0
POLYLINE
  8
LAYER_5
 40
0.05
 41
0.05
 66
1
 10
0
 20
0
 30
0
 70
1
  0
VERTEX
  8
LAYER_5
 10
153.942
 20
37.4034
 42
-0.01520763512
  0
VERTEX
  8
LAYER_5
 10
152.1399
 20
37.8395
 42
0.09160443264
  0
VERTEX
  8
LAYER_5
 10
151.8533
 20
37.895
 42
-0.09256808484
  0
VERTEX
  8
LAYER_5
 10
150.8994
 20
38.0977
 42
-0.09799469934
  0
VERTEX
  8
LAYER_5
 10
150.2621
 20
38.5324
 42
-0.1630918382
  0
VERTEX
  8
LAYER_5
 10
149.7964
 20
39.5259
 42
-0.0316951694
  0
VERTEX
  8
LAYER_5
 10
149.7793
 20
39.7998
 42
-0.1055313794
  0
VERTEX
  8
LAYER_5
 10
149.9533
 20
40.6417
 42
-0.1619874109
  0
VERTEX
  8
LAYER_5
 10
150.7418
 20
41.4867
 42
-0.09224146328
  0
VERTEX
  8
LAYER_5
 10
151.5409
 20
41.7524
 42
-0.03717154931
  0
VERTEX
  8
LAYER_5
 10
151.9725
 20
41.7838
 42
-0.09530639066
  0
VERTEX
  8
LAYER_5
 10
152.9361
 20
41.6062
 42
-0.1001950085
  0
VERTEX
  8
LAYER_5
 10
153.5732
 20
41.1834
 42
-0.1611155306
  0
VERTEX
  8
LAYER_5
 10
154.0599
 20
40.1825
 42
-0.03590167283
  0
VERTEX
  8
LAYER_5
 10
154.0815
 20
39.8784
 42
-0.1066761192
  0
VERTEX
  8
LAYER_5
 10
153.9051
 20
39.0236
 42
-0.2183970027
  0
VERTEX
  8
LAYER_5
 10
152.7953
 20
38.0897
 42
-0.006706711403
  0
VERTEX
  8
LAYER_5
 10
152.7407
 20
38.0738
  0
VERTEX
  8
LAYER_5
 10
152.7407
 20
38.0514
 42
0.01533555045
  0
VERTEX
  8
LAYER_5
 10
154.117
 20
37.8113
  0
SEQEND
  0
POLYLINE
  8
LAYER_5
 40
0.05
 41
0.05
 66
1
 10
0
 20
0
 30
0
 70
1
  0
VERTEX
  8
LAYER_5
 10
153.4394
 20
39.857
 42
0.1175610784
  0
VERTEX
  8
LAYER_5
 10
153.257
 20
40.6254
 42
0.1170135141
  0
VERTEX
  8
LAYER_5
 10
152.8315
 20
41.1234
 42
0.1200044572
  0
VERTEX
  8
LAYER_5
 10
152.2186
 20
41.3675
 42
0.03774262044
  0
VERTEX
  8
LAYER_5
 10
151.9511
 20
41.3873
 42
0.1153139376
  0
VERTEX
  8
LAYER_5
 10
151.2089
 20
41.2226
 42
0.1853550912
  0
VERTEX
  8
LAYER_5
 10
150.5507
 20
40.4882
 42
0.09859892291
  0
VERTEX
  8
LAYER_5
 10
150.4287
 20
39.8122
 42
0.1178359247
  0
VERTEX
  8
LAYER_5
 10
150.5964
 20
39.0734
 42
0.2866694251
  0
VERTEX
  8
LAYER_5
 10
151.9232
 20
38.2912
 42
0.1188197759
  0
VERTEX
  8
LAYER_5
 10
152.6722
 20
38.4633
 42
0.1796740134
  0
VERTEX
  8
LAYER_5
 10
153.3126
 20
39.18
 42
0.09850052237
  0
SEQEND
  0
ENDBLK
  0
BLOCK
  8
LAYER_5
  2
AIGNBL05040008
 70
64
 10
0
 20
0
 30
0
  3
AIGNBL05040008
  0
POLYLINE
  8
LAYER_5
 40
0.05
 41
0.05
 66
1
 10
0
 20
0
 30
0
 70
1
  0
VERTEX
  8
LAYER_5
 10
155.4089
 20
41.7225
  0
VERTEX
  8
LAYER_5
 10
155.4089
 20
39.4932
 42
0.1220213404
  0
VERTEX
  8
LAYER_5
 10
155.569
 20
38.7775
 42
0.2218709818
  0
VERTEX
  8
LAYER_5
 10
156.2104
 20
38.3206
 42
0.05223876895
  0
VERTEX
  8
LAYER_5
 10
156.5055
 20
38.2912
 42
0.1302821267
  0
VERTEX
  8
LAYER_5
 10
157.1748
 20
38.452
 42
0.1509367336
  0
VERTEX
  8
LAYER_5
 10
157.526
 20
38.8454
 42
0.1174732039
  0
VERTEX
  8
LAYER_5
 10
157.651
 20
39.4932
  0
VERTEX
  8
LAYER_5
 10
157.651
 20
41.7225
  0
VERTEX
  8
LAYER_5
 10
158.2656
 20
41.7225
  0
VERTEX
  8
LAYER_5
 10
158.2656
 20
39.5266
 42
-0.1106199636
  0
VERTEX
  8
LAYER_5
 10
158.0961
 20
38.708
 42
-0.1822316276
  0
VERTEX
  8
LAYER_5
 10
157.4057
 20
38.0637
 42
-0.09768689614
  0
VERTEX
  8
LAYER_5
 10
156.6028
 20
37.8972
 42
-0.01000776787
  0
VERTEX
  8
LAYER_5
 10
156.4845
 20
37.895
 42
-0.09899539667
  0
VERTEX
  8
LAYER_5
 10
155.612
 20
38.0554
 42
-0.120955925
  0
VERTEX
  8
LAYER_5
 10
155.1093
 20
38.4366
 42
-0.1193006487
  0
VERTEX
  8
LAYER_5
 10
154.8407
 20
39.0316
 42
-0.05319923583
  0
VERTEX
  8
LAYER_5
 10
154.7943
 20
39.5045
  0
VERTEX
  8
LAYER_5
 10
154.7943
 20
41.7225
  0
SEQEND
  0
ENDBLK
  0
BLOCK
  8
LAYER_5
  2
AIGNBL05040009
 70
64
 10
0
 20
0
 30
0
  3
AIGNBL05040009
  0
POLYLINE
  8
LAYER_5
 40
0.05
 41
0.05
 66
1
 10
0
 20
0
 30
0
 70
1
  0
VERTEX
  8
LAYER_5
 10
160.0119
 20
39.1418
  0
VERTEX
  8
LAYER_5
 10
159.5227
 20
37.9567
  0
VERTEX
  8
LAYER_5
 10
158.8947
 20
37.9567
  0
VERTEX
  8
LAYER_5
 10
160.4939
 20
41.7225
  0
VERTEX
  8
LAYER_5
 10
161.227
 20
41.7225
  0
VERTEX
  8
LAYER_5
 10
162.8335
 20
37.9567
  0
VERTEX
  8
LAYER_5
 10
162.1841
 20
37.9567
  0
VERTEX
  8
LAYER_5
 10
161.6814
 20
39.1418
  0
SEQEND
  0
POLYLINE
  8
LAYER_5
 40
0.05
 41
0.05
 66
1
 10
0
 20
0
 30
0
 70
1
  0
VERTEX
  8
LAYER_5
 10
161.5553
 20
39.5207
  0
VERTEX
  8
LAYER_5
 10
161.094
 20
40.6056
 42
-0.02227599701
  0
VERTEX
  8
LAYER_5
 10
160.8494
 20
41.2926
  0
VERTEX
  8
LAYER_5
 10
160.8357
 20
41.2926
 42
-0.0208222547
  0
VERTEX
  8
LAYER_5
 10
160.5983
 20
40.6101
  0
VERTEX
  8
LAYER_5
 10
160.1373
 20
39.5207
  0
SEQEND
  0
ENDBLK
  0
BLOCK
  8
LAYER_5
  2
AIGNBL0504000A
 70
64
 10
0
 20
0
 30
0
  3
AIGNBL0504000A
  0
POLYLINE
  8
LAYER_5
 40
0.05
 41
0.05
 66
1
 10
0
 20
0
 30
0
 70
1
  0
VERTEX
  8
LAYER_5
 10
163.8742
 20
41.6777
 42
-0.03334485223
  0
VERTEX
  8
LAYER_5
 10
165.0411
 20
41.7508
 42
-0.08844478427
  0
VERTEX
  8
LAYER_5
 10
166.0871
 20
41.5858
 42
-0.06037505309
  0
VERTEX
  8
LAYER_5
 10
166.3609
 20
41.4379
 42
-0.2472514979
  0
VERTEX
  8
LAYER_5
 10
166.7726
 20
40.6497
 42
-0.1483298328
  0
VERTEX
  8
LAYER_5
 10
166.6029
 20
40.0554
 42
-0.07223194904
  0
VERTEX
  8
LAYER_5
 10
166.4095
 20
39.8456
 42
-0.1209372404
  0
VERTEX
  8
LAYER_5
 10
165.7228
 20
39.517
 42
-0.06224269186
  0
VERTEX
  8
LAYER_5
 10
164.9708
 20
39.4319
 42
-0.05738783264
  0
VERTEX
  8
LAYER_5
 10
164.4823
 20
39.4653
  0
VERTEX
  8
LAYER_5
 10
164.4823
 20
37.9567
  0
VERTEX
  8
LAYER_5
 10
163.8742
 20
37.9567
  0
SEQEND
  0
POLYLINE
  8
LAYER_5
 40
0.05
 41
0.05
 66
1
 10
0
 20
0
 30
0
 70
1
  0
VERTEX
  8
LAYER_5
 10
164.4823
 20
39.8622
 42
0.05012782438
  0
VERTEX
  8
LAYER_5
 10
164.9846
 20
39.8229
 42
0.1135299982
  0
VERTEX
  8
LAYER_5
 10
165.7697
 20
39.9822
 42
0.1653556145
  0
VERTEX
  8
LAYER_5
 10
166.1074
 20
40.3302
 42
0.1044590446
  0
VERTEX
  8
LAYER_5
 10
166.1656
 20
40.6273
 42
0.2826437488
  0
VERTEX
  8
LAYER_5
 10
165.8147
 20
41.2103
 42
0.0629694601
  0
VERTEX
  8
LAYER_5
 10
165.549
 20
41.3107
 42
0.06259589917
  0
VERTEX
  8
LAYER_5
 10
165.0552
 20
41.3649
 42
0.05192366909
  0
VERTEX
  8
LAYER_5
 10
164.4823
 20
41.3257
  0
SEQEND
  0
ENDBLK
  0
BLOCK
  8
LAYER_5
  2
AIGNBL0504000B
 70
64
 10
0
 20
0
 30
0
  3
AIGNBL0504000B
  0
POLYLINE
  8
LAYER_5
 40
0.05
 41
0.05
 66
1
 10
0
 20
0
 30
0
 70
1
  0
VERTEX
  8
LAYER_5
 10
168.3246
 20
41.4207
 42
-0.3048675751
  0
VERTEX
  8
LAYER_5
 10
168.1582
 20
41.1661
 42
-0.1151020929
  0
VERTEX
  8
LAYER_5
 10
167.9329
 20
41.1189
 42
-0.2442513348
  0
VERTEX
  8
LAYER_5
 10
167.6028
 20
41.2794
 42
-0.1394546152
  0
VERTEX
  8
LAYER_5
 10
167.5626
 20
41.4207
 42
-0.287439772
  0
VERTEX
  8
LAYER_5
 10
167.7346
 20
41.6803
 42
-0.1179404017
  0
VERTEX
  8
LAYER_5
 10
167.9467
 20
41.7277
 42
-0.2416274379
  0
VERTEX
  8
LAYER_5
 10
168.2814
 20
41.5719
 42
-0.1426378456
  0
SEQEND
  0
POLYLINE
  8
LAYER_5
 40
0.05
 41
0.05
 66
1
 10
0
 20
0
 30
0
 70
1
  0
VERTEX
  8
LAYER_5
 10
167.639
 20
37.9567
  0
VERTEX
  8
LAYER_5
 10
167.639
 20
40.6607
  0
VERTEX
  8
LAYER_5
 10
168.2537
 20
40.6607
  0
VERTEX
  8
LAYER_5
 10
168.2537
 20
37.9567
  0
SEQEND
  0
ENDBLK
  0
BLOCK
  8
LAYER_5
  2
AIGNBL0504000C
 70
64
 10
0
 20
0
 30
0
  3
AIGNBL0504000C
  0
POLYLINE
  8
LAYER_5
 40
0.05
 41
0.05
 66
1
 10
0
 20
0
 30
0
 70
1
  0
VERTEX
  8
LAYER_5
 10
170.1254
 20
39.1418
  0
VERTEX
  8
LAYER_5
 10
169.6372
 20
37.9567
  0
VERTEX
  8
LAYER_5
 10
169.0081
 20
37.9567
  0
VERTEX
  8
LAYER_5
 10
170.6077
 20
41.7225
  0
VERTEX
  8
LAYER_5
 10
171.3415
 20
41.7225
  0
VERTEX
  8
LAYER_5
 10
172.9479
 20
37.9567
  0
VERTEX
  8
LAYER_5
 10
172.2982
 20
37.9567
  0
VERTEX
  8
LAYER_5
 10
171.7955
 20
39.1418
  0
SEQEND
  0
POLYLINE
  8
LAYER_5
 40
0.05
 41
0.05
 66
1
 10
0
 20
0
 30
0
 70
1
  0
VERTEX
  8
LAYER_5
 10
171.6695
 20
39.5207
  0
VERTEX
  8
LAYER_5
 10
171.2085
 20
40.6056
 42
-0.02430767271
  0
VERTEX
  8
LAYER_5
 10
170.9646
 20
41.2926
  0
VERTEX
  8
LAYER_5
 10
170.9498
 20
41.2926
 42
-0.02034719794
  0
VERTEX
  8
LAYER_5
 10
170.7128
 20
40.6101
  0
VERTEX
  8
LAYER_5
 10
170.2518
 20
39.5207
  0
SEQEND
  0
ENDBLK
  0
BLOCK
  8
LAYER_1
  2
AIGNBL01030020
 70
64
 10
0
 20
0
 30
0
  3
AIGNBL01030020
  0
POLYLINE
  8
LAYER_1
 40
0.1058
 41
0.1058
 66
1
 10
0
 20
0
 30
0
  0
VERTEX
  8
LAYER_1
 10
76.1261
 20
142.1764
  0
SEQEND
  0
POLYLINE
  8
LAYER_1
 40
0.1058
 41
0.1058
 66
1
 10
0
 20
0
 30
0
  0
VERTEX
  8
LAYER_1
 10
76.534
 20
141.8757
  0
SEQEND
  0
POLYLINE
  8
LAYER_1
 40
0.1058
 41
0.1058
 66
1
 10
0
 20
0
 30
0
  0
VERTEX
  8
LAYER_1
 10
77.0434
 20
141.6757
  0
SEQEND
  0
POLYLINE
  8
LAYER_1
 40
0.1058
 41
0.1058
 66
1
 10
0
 20
0
 30
0
  0
VERTEX
  8
LAYER_1
 10
77.6159
 20
141.5398
  0
SEQEND
  0
POLYLINE
  8
LAYER_1
 40
0.1058
 41
0.1058
 66
1
 10
0
 20
0
 30
0
  0
VERTEX
  8
LAYER_1
 10
78.2508
 20
141.4647
  0
SEQEND
  0
POLYLINE
  8
LAYER_1
 40
0.1058
 41
0.1058
 66
1
 10
0
 20
0
 30
0
  0
VERTEX
  8
LAYER_1
 10
78.9488
 20
141.4551
  0
SEQEND
  0
POLYLINE
  8
LAYER_1
 40
0.1058
 41
0.1058
 66
1
 10
0
 20
0
 30
0
  0
VERTEX
  8
LAYER_1
 10
79.7245
 20
141.5214
  0
SEQEND
  0
POLYLINE
  8
LAYER_1
 40
0.1058
 41
0.1058
 66
1
 10
0
 20
0
 30
0
  0
VERTEX
  8
LAYER_1
 10
80.6704
 20
141.7589
  0
SEQEND
  0
POLYLINE
  8
LAYER_1
 40
0.1058
 41
0.1058
 66
1
 10
0
 20
0
 30
0
  0
VERTEX
  8
LAYER_1
 10
81.4716
 20
142.5601
  0
SEQEND
  0
POLYLINE
  8
LAYER_1
 40
0.1058
 41
0.1058
 66
1
 10
0
 20
0
 30
0
  0
VERTEX
  8
LAYER_1
 10
76.9481
 20
141.7046
  0
SEQEND
  0
POLYLINE
  8
LAYER_1
 40
0.1058
 41
0.1058
 66
1
 10
0
 20
0
 30
0
  0
VERTEX
  8
LAYER_1
 10
77.8565
 20
141.5071
  0
SEQEND
  0
POLYLINE
  8
LAYER_1
 40
0.1058
 41
0.1058
 66
1
 10
0
 20
0
 30
0
  0
VERTEX
  8
LAYER_1
 10
78.621
 20
141.4502
  0
SEQEND
  0
POLYLINE
  8
LAYER_1
 40
0.1058
 41
0.1058
 66
1
 10
0
 20
0
 30
0
  0
VERTEX
  8
LAYER_1
 10
79.3079
 20
141.4727
  0
SEQEND
  0
POLYLINE
  8
LAYER_1
 40
0.1058
 41
0.1058
 66
1
 10
0
 20
0
 30
0
  0
VERTEX
  8
LAYER_1
 10
79.9299
 20
141.5606
  0
SEQEND
  0
POLYLINE
  8
LAYER_1
 40
0.1058
 41
0.1058
 66
1
 10
0
 20
0
 30
0
  0
VERTEX
  8
LAYER_1
 10
80.4945
 20
141.7029
  0
SEQEND
  0
POLYLINE
  8
LAYER_1
 40
0.1058
 41
0.1058
 66
1
 10
0
 20
0
 30
0
  0
VERTEX
  8
LAYER_1
 10
80.9958
 20
141.9125
  0
SEQEND
  0
POLYLINE
  8
LAYER_1
 40
0.1058
 41
0.1058
 66
1
 10
0
 20
0
 30
0
  0
VERTEX
  8
LAYER_1
 10
81.3772
 20
142.2395
  0
SEQEND
  0
ENDBLK
  0
BLOCK
  8
LAYER_1
  2
AIGNBL01030022
 70
64
 10
0
 20
0
 30
0
  3
AIGNBL01030022
  0
POLYLINE
  8
LAYER_1
 40
0.1058
 41
0.1058
 66
1
 10
0
 20
0
 30
0
  0
VERTEX
  8
LAYER_1
 10
80.3554
 20
114.951
  0
VERTEX
  8
LAYER_1
 10
77.0969
 20
114.951
  0
SEQEND
  0
ENDBLK
  0
BLOCK
  8
LAYER_1
  2
AIGNBL01030023
 70
64
 10
0
 20
0
 30
0
  3
AIGNBL01030023
  0
POLYLINE
  8
LAYER_1
 40
0.1058
 41
0.1058
 66
1
 10
0
 20
0
 30
0
  0
VERTEX
  8
LAYER_1
 10
89.2943
 20
114.951
  0
VERTEX
  8
LAYER_1
 10
80.3554
 20
114.951
  0
SEQEND
  0
ENDBLK
  0
BLOCK
  8
LAYER_1
  2
AIGNBL01030024
 70
64
 10
0
 20
0
 30
0
  3
AIGNBL01030024
  0
POLYLINE
  8
LAYER_1
 40
0.1058
 41
0.1058
 66
1
 10
0
 20
0
 30
0
  0
VERTEX
  8
LAYER_1
 10
80.3554
 20
119.0322
  0
VERTEX
  8
LAYER_1
 10
80.3554
 20
114.1977
  0
SEQEND
  0
ENDBLK
  0
BLOCK
  8
LAYER_1
  2
AIGNBL01030025
 70
64
 10
0
 20
0
 30
0
  3
AIGNBL01030025
  0
POLYLINE
  8
LAYER_1
 40
0.1058
 41
0.1058
 66
1
 10
0
 20
0
 30
0
  0
VERTEX
  8
LAYER_1
 10
77.0969
 20
119.0322
  0
VERTEX
  8
LAYER_1
 10
77.0969
 20
114.1977
  0
SEQEND
  0
ENDBLK
  0
BLOCK
  8
LAYER_1
  2
AIGNBL01030026
 70
64
 10
0
 20
0
 30
0
  3
AIGNBL01030026
  0
POLYLINE
  8
LAYER_1
 40
0.1058
 41
0.1058
 66
1
 10
0
 20
0
 30
0
  0
VERTEX
  8
LAYER_1
 10
80.3554
 20
114.951
  0
VERTEX
  8
LAYER_1
 10
83.537
 20
114.951
  0
SEQEND
  0
ENDBLK
  0
BLOCK
  8
LAYER_1
  2
AIGNBL01030027
 70
64
 10
0
 20
0
 30
0
  3
AIGNBL01030027
  0
POLYLINE
  8
LAYER_1
 40
0.1058
 41
0.1058
 66
1
 10
0
 20
0
 30
0
  0
VERTEX
  8
LAYER_1
 10
77.0969
 20
114.951
  0
VERTEX
  8
LAYER_1
 10
73.9144
 20
114.951
  0
SEQEND
  0
ENDBLK
  0
BLOCK
  8
LAYER_1
  2
AIGNBL01030028
 70
64
 10
0
 20
0
 30
0
  3
AIGNBL01030028
  0
INSERT
  8
LAYER_1
  2
AIGNBL01040029
 10
0
 20
0
 30
0
  0
INSERT
  8
LAYER_1
  2
AIGNBL0104002A
 10
0
 20
0
 30
0
  0
INSERT
  8
LAYER_1
  2
AIGNBL0104002B
 10
0
 20
0
 30
0
  0
ENDBLK
  0
BLOCK
  8
LAYER_1
  2
AIGNBL0103002C
 70
64
 10
0
 20
0
 30
0
  3
AIGNBL0103002C
  0
INSERT
  8
LAYER_1
  2
AIGNBL0104002D
 10
0
 20
0
 30
0
  0
INSERT
  8
LAYER_1
  2
AIGNBL0104002E
 10
0
 20
0
 30
0
  0
INSERT
  8
LAYER_1
  2
AIGNBL0104002F
 10
0
 20
0
 30
0
  0
ENDBLK
  0
BLOCK
  8
LAYER_1
  2
AIGNBL01030030
 70
64
 10
0
 20
0
 30
0
  3
AIGNBL01030030
  0
TEXT
  8
LAYER_1
 10
82.5347
 20
116.3562
 11
82.5347
 21
116.3562
 40
4.0657
 41
0.5
  1
"13
  0
ENDBLK
  0
BLOCK
  8
LAYER_1
  2
AIGNBL01030031
 70
64
 10
0
 20
0
 30
0
  3
AIGNBL01030031
  0
POLYLINE
  8
LAYER_1
 40
0.1058
 41
0.1058
 66
1
 10
0
 20
0
 30
0
  0
VERTEX
  8
LAYER_1
 10
80.3554
 20
119.7847
  0
SEQEND
  0
ENDBLK
  0
BLOCK
  8
LAYER_1
  2
AIGNBL01030032
 70
64
 10
0
 20
0
 30
0
  3
AIGNBL01030032
  0
POLYLINE
  8
LAYER_1
 40
0.1058
 41
0.1058
 66
1
 10
0
 20
0
 30
0
  0
VERTEX
  8
LAYER_1
 10
77.0969
 20
119.7847
  0
SEQEND
  0
ENDBLK
  0
BLOCK
  8
LAYER_1
  2
AIGNBL01030033
 70
64
 10
0
 20
0
 30
0
  3
AIGNBL01030033
  0
POLYLINE
  8
LAYER_1
 40
0.1058
 41
0.1058
 66
1
 10
0
 20
0
 30
0
  0
VERTEX
  8
LAYER_1
 10
77.0969
 20
114.951
  0
SEQEND
  0
ENDBLK
  0
BLOCK
  8
LAYER_1
  2
AIGNBL01030035
 70
64
 10
0
 20
0
 30
0
  3
AIGNBL01030035
  0
POLYLINE
  8
LAYER_1
 40
0.1058
 41
0.1058
 66
1
 10
0
 20
0
 30
0
  0
VERTEX
  8
LAYER_1
 10
114.499
 20
167.1772
  0
VERTEX
  8
LAYER_1
 10
144.7486
 20
167.1772
  0
SEQEND
  0
ENDBLK
  0
BLOCK
  8
LAYER_1
  2
AIGNBL01030036
 70
64
 10
0
 20
0
 30
0
  3
AIGNBL01030036
  0
POLYLINE
  8
LAYER_1
 40
0.1058
 41
0.1058
 66
1
 10
0
 20
0
 30
0
  0
VERTEX
  8
LAYER_1
 10
114.499
 20
146.8461
  0
VERTEX
  8
LAYER_1
 10
114.499
 20
167.928
  0
SEQEND
  0
ENDBLK
  0
BLOCK
  8
LAYER_1
  2
AIGNBL01030037
 70
64
 10
0
 20
0
 30
0
  3
AIGNBL01030037
  0
POLYLINE
  8
LAYER_1
 40
0.1058
 41
0.1058
 66
1
 10
0
 20
0
 30
0
  0
VERTEX
  8
LAYER_1
 10
144.7486
 20
163.1023
  0
VERTEX
  8
LAYER_1
 10
144.7486
 20
167.928
  0
SEQEND
  0
ENDBLK
  0
BLOCK
  8
LAYER_1
  2
AIGNBL01030038
 70
64
 10
0
 20
0
 30
0
  3
AIGNBL01030038
  0
INSERT
  8
LAYER_1
  2
AIGNBL01040039
 10
0
 20
0
 30
0
  0
INSERT
  8
LAYER_1
  2
AIGNBL0104003A
 10
0
 20
0
 30
0
  0
INSERT
  8
LAYER_1
  2
AIGNBL0104003B
 10
0
 20
0
 30
0
  0
ENDBLK
  0
BLOCK
  8
LAYER_1
  2
AIGNBL0103003C
 70
64
 10
0
 20
0
 30
0
  3
AIGNBL0103003C
  0
INSERT
  8
LAYER_1
  2
AIGNBL0104003D
 10
0
 20
0
 30
0
  0
INSERT
  8
LAYER_1
  2
AIGNBL0104003E
 10
0
 20
0
 30
0
  0
INSERT
  8
LAYER_1
  2
AIGNBL0104003F
 10
0
 20
0
 30
0
  0
ENDBLK
  0
BLOCK
  8
LAYER_1
  2
AIGNBL01030040
 70
64
 10
0
 20
0
 30
0
  3
AIGNBL01030040
  0
TEXT
  8
LAYER_1
 10
124.5201
 20
167.4958
 11
124.5201
 21
167.4958
 40
4.0657
 41
0.5
  1
121
  0
ENDBLK
  0
BLOCK
  8
LAYER_1
  2
AIGNBL01030041
 70
64
 10
0
 20
0
 30
0
  3
AIGNBL01030041
  0
POLYLINE
  8
LAYER_1
 40
0.1058
 41
0.1058
 66
1
 10
0
 20
0
 30
0
  0
VERTEX
  8
LAYER_1
 10
114.499
 20
146.0944
  0
SEQEND
  0
ENDBLK
  0
BLOCK
  8
LAYER_1
  2
AIGNBL01030042
 70
64
 10
0
 20
0
 30
0
  3
AIGNBL01030042
  0
POLYLINE
  8
LAYER_1
 40
0.1058
 41
0.1058
 66
1
 10
0
 20
0
 30
0
  0
VERTEX
  8
LAYER_1
 10
144.7486
 20
162.3507
  0
SEQEND
  0
ENDBLK
  0
BLOCK
  8
LAYER_1
  2
AIGNBL01030043
 70
64
 10
0
 20
0
 30
0
  3
AIGNBL01030043
  0
POLYLINE
  8
LAYER_1
 40
0.1058
 41
0.1058
 66
1
 10
0
 20
0
 30
0
  0
VERTEX
  8
LAYER_1
 10
144.7486
 20
167.1772
  0
SEQEND
  0
ENDBLK
  0
BLOCK
  8
LAYER_1
  2
AIGNBL01030220
 70
64
 10
0
 20
0
 30
0
  3
AIGNBL01030220
  0
POLYLINE
  8
LAYER_1
 40
0.1058
 41
0.1058
 66
1
 10
0
 20
0
 30
0
  0
VERTEX
  8
LAYER_1
 10
92.5271
 20
204.401
  0
VERTEX
  8
LAYER_1
 10
92.5271
 20
195.442
  0
SEQEND
  0
ENDBLK
  0
BLOCK
  8
LAYER_1
  2
AIGNBL01030221
 70
64
 10
0
 20
0
 30
0
  3
AIGNBL01030221
  0
POLYLINE
  8
LAYER_1
 40
0.1058
 41
0.1058
 66
1
 10
0
 20
0
 30
0
  0
VERTEX
  8
LAYER_1
 10
79.4773
 20
204.401
  0
VERTEX
  8
LAYER_1
 10
93.2788
 20
204.401
  0
SEQEND
  0
ENDBLK
  0
BLOCK
  8
LAYER_1
  2
AIGNBL01030222
 70
64
 10
0
 20
0
 30
0
  3
AIGNBL01030222
  0
POLYLINE
  8
LAYER_1
 40
0.1058
 41
0.1058
 66
1
 10
0
 20
0
 30
0
  0
VERTEX
  8
LAYER_1
 10
89.1879
 20
195.442
  0
VERTEX
  8
LAYER_1
 10
93.2788
 20
195.442
  0
SEQEND
  0
ENDBLK
  0
BLOCK
  8
LAYER_1
  2
AIGNBL01030223
 70
64
 10
0
 20
0
 30
0
  3
AIGNBL01030223
  0
INSERT
  8
LAYER_1
  2
AIGNBL01040224
 10
0
 20
0
 30
0
  0
INSERT
  8
LAYER_1
  2
AIGNBL01040225
 10
0
 20
0
 30
0
  0
INSERT
  8
LAYER_1
  2
AIGNBL01040226
 10
0
 20
0
 30
0
  0
ENDBLK
  0
BLOCK
  8
LAYER_1
  2
AIGNBL01030227
 70
64
 10
0
 20
0
 30
0
  3
AIGNBL01030227
  0
INSERT
  8
LAYER_1
  2
AIGNBL01040228
 10
0
 20
0
 30
0
  0
INSERT
  8
LAYER_1
  2
AIGNBL01040229
 10
0
 20
0
 30
0
  0
INSERT
  8
LAYER_1
  2
AIGNBL0104022A
 10
0
 20
0
 30
0
  0
ENDBLK
  0
BLOCK
  8
LAYER_1
  2
AIGNBL0103022B
 70
64
 10
0
 20
0
 30
0
  3
AIGNBL0103022B
  0
TEXT
  8
LAYER_1
 10
97.6669
 20
196.394
 11
97.6669
 21
196.394
 40
4.0657
 41
0.5
 50
89.99999999
  1
35.5
  0
ENDBLK
  0
BLOCK
  8
LAYER_1
  2
AIGNBL0103022C
 70
64
 10
0
 20
0
 30
0
  3
AIGNBL0103022C
  0
POLYLINE
  8
LAYER_1
 40
0.1058
 41
0.1058
 66
1
 10
0
 20
0
 30
0
  0
VERTEX
  8
LAYER_1
 10
78.7257
 20
204.401
  0
SEQEND
  0
ENDBLK
  0
BLOCK
  8
LAYER_1
  2
AIGNBL0103022D
 70
64
 10
0
 20
0
 30
0
  3
AIGNBL0103022D
  0
POLYLINE
  8
LAYER_1
 40
0.1058
 41
0.1058
 66
1
 10
0
 20
0
 30
0
  0
VERTEX
  8
LAYER_1
 10
88.4371
 20
195.442
  0
SEQEND
  0
ENDBLK
  0
BLOCK
  8
LAYER_1
  2
AIGNBL0103022E
 70
64
 10
0
 20
0
 30
0
  3
AIGNBL0103022E
  0
POLYLINE
  8
LAYER_1
 40
0.1058
 41
0.1058
 66
1
 10
0
 20
0
 30
0
  0
VERTEX
  8
LAYER_1
 10
92.5271
 20
195.442
  0
SEQEND
  0
ENDBLK
  0
BLOCK
  8
LAYER_1
  2
AIGNBL01030230
 70
64
 10
0
 20
0
 30
0
  3
AIGNBL01030230
  0
POLYLINE
  8
LAYER_1
 40
0.1058
 41
0.1058
 66
1
 10
0
 20
0
 30
0
  0
VERTEX
  8
LAYER_1
 10
117.2705
 20
162.3507
  0
VERTEX
  8
LAYER_1
 10
144.7486
 20
162.3507
  0
SEQEND
  0
ENDBLK
  0
BLOCK
  8
LAYER_1
  2
AIGNBL01030231
 70
64
 10
0
 20
0
 30
0
  3
AIGNBL01030231
  0
POLYLINE
  8
LAYER_1
 40
0.1058
 41
0.1058
 66
1
 10
0
 20
0
 30
0
  0
VERTEX
  8
LAYER_1
 10
117.2705
 20
143.2686
  0
VERTEX
  8
LAYER_1
 10
117.2705
 20
163.1023
  0
SEQEND
  0
ENDBLK
  0
BLOCK
  8
LAYER_1
  2
AIGNBL01030232
 70
64
 10
0
 20
0
 30
0
  3
AIGNBL01030232
  0
POLYLINE
  8
LAYER_1
 40
0.1058
 41
0.1058
 66
1
 10
0
 20
0
 30
0
  0
VERTEX
  8
LAYER_1
 10
144.7486
 20
160.2796
  0
VERTEX
  8
LAYER_1
 10
144.7486
 20
163.1023
  0
SEQEND
  0
ENDBLK
  0
BLOCK
  8
LAYER_1
  2
AIGNBL01030233
 70
64
 10
0
 20
0
 30
0
  3
AIGNBL01030233
  0
INSERT
  8
LAYER_1
  2
AIGNBL01040234
 10
0
 20
0
 30
0
  0
INSERT
  8
LAYER_1
  2
AIGNBL01040235
 10
0
 20
0
 30
0
  0
INSERT
  8
LAYER_1
  2
AIGNBL01040236
 10
0
 20
0
 30
0
  0
ENDBLK
  0
BLOCK
  8
LAYER_1
  2
AIGNBL01030237
 70
64
 10
0
 20
0
 30
0
  3
AIGNBL01030237
  0
INSERT
  8
LAYER_1
  2
AIGNBL01040238
 10
0
 20
0
 30
0
  0
INSERT
  8
LAYER_1
  2
AIGNBL01040239
 10
0
 20
0
 30
0
  0
INSERT
  8
LAYER_1
  2
AIGNBL0104023A
 10
0
 20
0
 30
0
  0
ENDBLK
  0
BLOCK
  8
LAYER_1
  2
AIGNBL0103023B
 70
64
 10
0
 20
0
 30
0
  3
AIGNBL0103023B
  0
TEXT
  8
LAYER_1
 10
125.73
 20
162.6699
 11
125.73
 21
162.6699
 40
4.0657
 41
0.5
  1
110
  0
ENDBLK
  0
BLOCK
  8
LAYER_1
  2
AIGNBL0103023C
 70
64
 10
0
 20
0
 30
0
  3
AIGNBL0103023C
  0
POLYLINE
  8
LAYER_1
 40
0.1058
 41
0.1058
 66
1
 10
0
 20
0
 30
0
  0
VERTEX
  8
LAYER_1
 10
117.2705
 20
142.517
  0
SEQEND
  0
ENDBLK
  0
BLOCK
  8
LAYER_1
  2
AIGNBL0103023D
 70
64
 10
0
 20
0
 30
0
  3
AIGNBL0103023D
  0
POLYLINE
  8
LAYER_1
 40
0.1058
 41
0.1058
 66
1
 10
0
 20
0
 30
0
  0
VERTEX
  8
LAYER_1
 10
144.7486
 20
159.5281
  0
SEQEND
  0
ENDBLK
  0
BLOCK
  8
LAYER_1
  2
AIGNBL0103023E
 70
64
 10
0
 20
0
 30
0
  3
AIGNBL0103023E
  0
POLYLINE
  8
LAYER_1
 40
0.1058
 41
0.1058
 66
1
 10
0
 20
0
 30
0
  0
VERTEX
  8
LAYER_1
 10
144.7486
 20
162.3507
  0
SEQEND
  0
ENDBLK
  0
BLOCK
  8
LAYER_1
  2
AIGNBL01030240
 70
64
 10
0
 20
0
 30
0
  3
AIGNBL01030240
  0
POLYLINE
  8
LAYER_1
 40
0.1058
 41
0.1058
 66
1
 10
0
 20
0
 30
0
  0
VERTEX
  8
LAYER_1
 10
159.3232
 20
158.275
  0
VERTEX
  8
LAYER_1
 10
159.3232
 20
134.2169
  0
SEQEND
  0
ENDBLK
  0
BLOCK
  8
LAYER_1
  2
AIGNBL01030241
 70
64
 10
0
 20
0
 30
0
  3
AIGNBL01030241
  0
POLYLINE
  8
LAYER_1
 40
0.1058
 41
0.1058
 66
1
 10
0
 20
0
 30
0
  0
VERTEX
  8
LAYER_1
 10
145.501
 20
158.275
  0
VERTEX
  8
LAYER_1
 10
160.074
 20
158.275
  0
SEQEND
  0
ENDBLK
  0
BLOCK
  8
LAYER_1
  2
AIGNBL01030242
 70
64
 10
0
 20
0
 30
0
  3
AIGNBL01030242
  0
POLYLINE
  8
LAYER_1
 40
0.1058
 41
0.1058
 66
1
 10
0
 20
0
 30
0
  0
VERTEX
  8
LAYER_1
 10
152.105
 20
134.2169
  0
VERTEX
  8
LAYER_1
 10
160.074
 20
134.2169
  0
SEQEND
  0
ENDBLK
  0
BLOCK
  8
LAYER_1
  2
AIGNBL01030243
 70
64
 10
0
 20
0
 30
0
  3
AIGNBL01030243
  0
INSERT
  8
LAYER_1
  2
AIGNBL01040244
 10
0
 20
0
 30
0
  0
INSERT
  8
LAYER_1
  2
AIGNBL01040245
 10
0
 20
0
 30
0
  0
INSERT
  8
LAYER_1
  2
AIGNBL01040246
 10
0
 20
0
 30
0
  0
ENDBLK
  0
BLOCK
  8
LAYER_1
  2
AIGNBL01030247
 70
64
 10
0
 20
0
 30
0
  3
AIGNBL01030247
  0
INSERT
  8
LAYER_1
  2
AIGNBL01040248
 10
0
 20
0
 30
0
  0
INSERT
  8
LAYER_1
  2
AIGNBL01040249
 10
0
 20
0
 30
0
  0
INSERT
  8
LAYER_1
  2
AIGNBL0104024A
 10
0
 20
0
 30
0
  0
ENDBLK
  0
BLOCK
  8
LAYER_1
  2
AIGNBL0103024B
 70
64
 10
0
 20
0
 30
0
  3
AIGNBL0103024B
  0
TEXT
  8
LAYER_1
 10
159.0029
 20
142.2991
 11
159.0029
 21
142.2991
 40
4.0657
 41
0.5
 50
89.99999999
  1
97
  0
ENDBLK
  0
BLOCK
  8
LAYER_1
  2
AIGNBL0103024C
 70
64
 10
0
 20
0
 30
0
  3
AIGNBL0103024C
  0
POLYLINE
  8
LAYER_1
 40
0.1058
 41
0.1058
 66
1
 10
0
 20
0
 30
0
  0
VERTEX
  8
LAYER_1
 10
144.7486
 20
158.275
  0
SEQEND
  0
ENDBLK
  0
BLOCK
  8
LAYER_1
  2
AIGNBL0103024D
 70
64
 10
0
 20
0
 30
0
  3
AIGNBL0103024D
  0
POLYLINE
  8
LAYER_1
 40
0.1058
 41
0.1058
 66
1
 10
0
 20
0
 30
0
  0
VERTEX
  8
LAYER_1
 10
151.3534
 20
134.2169
  0
SEQEND
  0
ENDBLK
  0
BLOCK
  8
LAYER_1
  2
AIGNBL0103024E
 70
64
 10
0
 20
0
 30
0
  3
AIGNBL0103024E
  0
POLYLINE
  8
LAYER_1
 40
0.1058
 41
0.1058
 66
1
 10
0
 20
0
 30
0
  0
VERTEX
  8
LAYER_1
 10
159.3232
 20
134.2169
  0
SEQEND
  0
ENDBLK
  0
BLOCK
  8
LAYER_1
  2
AIGNBL01030250
 70
64
 10
0
 20
0
 30
0
  3
AIGNBL01030250
  0
POLYLINE
  8
LAYER_1
 40
0.1058
 41
0.1058
 66
1
 10
0
 20
0
 30
0
  0
VERTEX
  8
LAYER_1
 10
159.3232
 20
134.2169
  0
VERTEX
  8
LAYER_1
 10
159.3232
 20
121.6877
  0
SEQEND
  0
ENDBLK
  0
BLOCK
  8
LAYER_1
  2
AIGNBL01030251
 70
64
 10
0
 20
0
 30
0
  3
AIGNBL01030251
  0
POLYLINE
  8
LAYER_1
 40
0.1058
 41
0.1058
 66
1
 10
0
 20
0
 30
0
  0
VERTEX
  8
LAYER_1
 10
105.6416
 20
134.2169
  0
VERTEX
  8
LAYER_1
 10
160.074
 20
134.2169
  0
SEQEND
  0
ENDBLK
  0
BLOCK
  8
LAYER_1
  2
AIGNBL01030252
 70
64
 10
0
 20
0
 30
0
  3
AIGNBL01030252
  0
POLYLINE
  8
LAYER_1
 40
0.1058
 41
0.1058
 66
1
 10
0
 20
0
 30
0
  0
VERTEX
  8
LAYER_1
 10
148.1261
 20
121.6877
  0
VERTEX
  8
LAYER_1
 10
160.074
 20
121.6877
  0
SEQEND
  0
ENDBLK
  0
BLOCK
  8
LAYER_1
  2
AIGNBL01030253
 70
64
 10
0
 20
0
 30
0
  3
AIGNBL01030253
  0
INSERT
  8
LAYER_1
  2
AIGNBL01040254
 10
0
 20
0
 30
0
  0
INSERT
  8
LAYER_1
  2
AIGNBL01040255
 10
0
 20
0
 30
0
  0
INSERT
  8
LAYER_1
  2
AIGNBL01040256
 10
0
 20
0
 30
0
  0
ENDBLK
  0
BLOCK
  8
LAYER_1
  2
AIGNBL01030257
 70
64
 10
0
 20
0
 30
0
  3
AIGNBL01030257
  0
INSERT
  8
LAYER_1
  2
AIGNBL01040258
 10
0
 20
0
 30
0
  0
INSERT
  8
LAYER_1
  2
AIGNBL01040259
 10
0
 20
0
 30
0
  0
INSERT
  8
LAYER_1
  2
AIGNBL0104025A
 10
0
 20
0
 30
0
  0
ENDBLK
  0
BLOCK
  8
LAYER_1
  2
AIGNBL0103025B
 70
64
 10
0
 20
0
 30
0
  3
AIGNBL0103025B
  0
TEXT
  8
LAYER_1
 10
159.0029
 20
123.8589
 11
159.0029
 21
123.8589
 40
4.0657
 41
0.5
 50
89.99999999
  1
50
  0
ENDBLK
  0
BLOCK
  8
LAYER_1
  2
AIGNBL0103025C
 70
64
 10
0
 20
0
 30
0
  3
AIGNBL0103025C
  0
POLYLINE
  8
LAYER_1
 40
0.1058
 41
0.1058
 66
1
 10
0
 20
0
 30
0
  0
VERTEX
  8
LAYER_1
 10
151.3534
 20
134.2169
  0
SEQEND
  0
ENDBLK
  0
BLOCK
  8
LAYER_1
  2
AIGNBL0103025D
 70
64
 10
0
 20
0
 30
0
  3
AIGNBL0103025D
  0
POLYLINE
  8
LAYER_1
 40
0.1058
 41
0.1058
 66
1
 10
0
 20
0
 30
0
  0
VERTEX
  8
LAYER_1
 10
147.3753
 20
121.6877
  0
SEQEND
  0
ENDBLK
  0
BLOCK
  8
LAYER_1
  2
AIGNBL0103025E
 70
64
 10
0
 20
0
 30
0
  3
AIGNBL0103025E
  0
POLYLINE
  8
LAYER_1
 40
0.1058
 41
0.1058
 66
1
 10
0
 20
0
 30
0
  0
VERTEX
  8
LAYER_1
 10
159.3232
 20
121.6877
  0
SEQEND
  0
ENDBLK
  0
BLOCK
  8
LAYER_1
  2
AIGNBL01030266
 70
64
 10
0
 20
0
 30
0
  3
AIGNBL01030266
  0
POLYLINE
  8
LAYER_1
 40
0.1058
 41
0.1058
 66
1
 10
0
 20
0
 30
0
  0
VERTEX
  8
LAYER_1
 10
137.8958
 20
136.1392
  0
VERTEX
  8
LAYER_1
 10
151.6036
 20
136.1392
  0
SEQEND
  0
ENDBLK
  0
BLOCK
  8
LAYER_1
  2
AIGNBL01030267
 70
64
 10
0
 20
0
 30
0
  3
AIGNBL01030267
  0
POLYLINE
  8
LAYER_1
 40
0.1058
 41
0.1058
 66
1
 10
0
 20
0
 30
0
  0
VERTEX
  8
LAYER_1
 10
130.0116
 20
136.1392
  0
VERTEX
  8
LAYER_1
 10
137.8958
 20
136.1392
  0
SEQEND
  0
ENDBLK
  0
BLOCK
  8
LAYER_1
  2
AIGNBL01030268
 70
64
 10
0
 20
0
 30
0
  3
AIGNBL01030268
  0
POLYLINE
  8
LAYER_1
 40
0.1058
 41
0.1058
 66
1
 10
0
 20
0
 30
0
  0
VERTEX
  8
LAYER_1
 10
137.8958
 20
135.2197
  0
VERTEX
  8
LAYER_1
 10
137.8958
 20
136.8916
  0
SEQEND
  0
ENDBLK
  0
BLOCK
  8
LAYER_1
  2
AIGNBL01030269
 70
64
 10
0
 20
0
 30
0
  3
AIGNBL01030269
  0
POLYLINE
  8
LAYER_1
 40
0.1058
 41
0.1058
 66
1
 10
0
 20
0
 30
0
  0
VERTEX
  8
LAYER_1
 10
151.6036
 20
135.2197
  0
VERTEX
  8
LAYER_1
 10
151.6036
 20
136.8916
  0
SEQEND
  0
ENDBLK
  0
BLOCK
  8
LAYER_1
  2
AIGNBL0103026A
 70
64
 10
0
 20
0
 30
0
  3
AIGNBL0103026A
  0
POLYLINE
  8
LAYER_1
 40
0.1058
 41
0.1058
 66
1
 10
0
 20
0
 30
0
  0
VERTEX
  8
LAYER_1
 10
137.8958
 20
136.1392
  0
VERTEX
  8
LAYER_1
 10
134.7117
 20
136.1392
  0
SEQEND
  0
ENDBLK
  0
BLOCK
  8
LAYER_1
  2
AIGNBL0103026B
 70
64
 10
0
 20
0
 30
0
  3
AIGNBL0103026B
  0
POLYLINE
  8
LAYER_1
 40
0.1058
 41
0.1058
 66
1
 10
0
 20
0
 30
0
  0
VERTEX
  8
LAYER_1
 10
151.6036
 20
136.1392
  0
VERTEX
  8
LAYER_1
 10
154.7861
 20
136.1392
  0
SEQEND
  0
ENDBLK
  0
BLOCK
  8
LAYER_1
  2
AIGNBL0103026C
 70
64
 10
0
 20
0
 30
0
  3
AIGNBL0103026C
  0
INSERT
  8
LAYER_1
  2
AIGNBL0104026D
 10
0
 20
0
 30
0
  0
INSERT
  8
LAYER_1
  2
AIGNBL0104026E
 10
0
 20
0
 30
0
  0
INSERT
  8
LAYER_1
  2
AIGNBL0104026F
 10
0
 20
0
 30
0
  0
ENDBLK
  0
BLOCK
  8
LAYER_1
  2
AIGNBL01030270
 70
64
 10
0
 20
0
 30
0
  3
AIGNBL01030270
  0
INSERT
  8
LAYER_1
  2
AIGNBL01040271
 10
0
 20
0
 30
0
  0
INSERT
  8
LAYER_1
  2
AIGNBL01040272
 10
0
 20
0
 30
0
  0
INSERT
  8
LAYER_1
  2
AIGNBL01040273
 10
0
 20
0
 30
0
  0
ENDBLK
  0
BLOCK
  8
LAYER_1
  2
AIGNBL01030274
 70
64
 10
0
 20
0
 30
0
  3
AIGNBL01030274
  0
TEXT
  8
LAYER_1
 10
127.3134
 20
136.8965
 11
127.3134
 21
136.8965
 40
4.0657
 41
0.5
  1
"55
  0
ENDBLK
  0
BLOCK
  8
LAYER_1
  2
AIGNBL01030275
 70
64
 10
0
 20
0
 30
0
  3
AIGNBL01030275
  0
POLYLINE
  8
LAYER_1
 40
0.1058
 41
0.1058
 66
1
 10
0
 20
0
 30
0
  0
VERTEX
  8
LAYER_1
 10
137.8958
 20
134.468
  0
SEQEND
  0
ENDBLK
  0
BLOCK
  8
LAYER_1
  2
AIGNBL01030276
 70
64
 10
0
 20
0
 30
0
  3
AIGNBL01030276
  0
POLYLINE
  8
LAYER_1
 40
0.1058
 41
0.1058
 66
1
 10
0
 20
0
 30
0
  0
VERTEX
  8
LAYER_1
 10
151.6036
 20
134.468
  0
SEQEND
  0
ENDBLK
  0
BLOCK
  8
LAYER_1
  2
AIGNBL01030277
 70
64
 10
0
 20
0
 30
0
  3
AIGNBL01030277
  0
POLYLINE
  8
LAYER_1
 40
0.1058
 41
0.1058
 66
1
 10
0
 20
0
 30
0
  0
VERTEX
  8
LAYER_1
 10
151.6036
 20
136.1392
  0
SEQEND
  0
ENDBLK
  0
BLOCK
  8
LAYER_1
  2
AIGNBL01030279
 70
64
 10
0
 20
0
 30
0
  3
AIGNBL01030279
  0
POLYLINE
  8
LAYER_1
 40
0.1058
 41
0.1058
 66
1
 10
0
 20
0
 30
0
  0
VERTEX
  8
LAYER_1
 10
111.4805
 20
134.2169
  0
VERTEX
  8
LAYER_1
 10
111.4805
 20
142.517
  0
SEQEND
  0
ENDBLK
  0
BLOCK
  8
LAYER_1
  2
AIGNBL0103027A
 70
64
 10
0
 20
0
 30
0
  3
AIGNBL0103027A
  0
POLYLINE
  8
LAYER_1
 40
0.1058
 41
0.1058
 66
1
 10
0
 20
0
 30
0
  0
VERTEX
  8
LAYER_1
 10
116.5188
 20
142.517
  0
VERTEX
  8
LAYER_1
 10
110.728
 20
142.517
  0
SEQEND
  0
ENDBLK
  0
BLOCK
  8
LAYER_1
  2
AIGNBL0103027B
 70
64
 10
0
 20
0
 30
0
  3
AIGNBL0103027B
  0
INSERT
  8
LAYER_1
  2
AIGNBL0104027C
 10
0
 20
0
 30
0
  0
INSERT
  8
LAYER_1
  2
AIGNBL0104027D
 10
0
 20
0
 30
0
  0
INSERT
  8
LAYER_1
  2
AIGNBL0104027E
 10
0
 20
0
 30
0
  0
ENDBLK
  0
BLOCK
  8
LAYER_1
  2
AIGNBL0103027F
 70
64
 10
0
 20
0
 30
0
  3
AIGNBL0103027F
  0
INSERT
  8
LAYER_1
  2
AIGNBL01040280
 10
0
 20
0
 30
0
  0
INSERT
  8
LAYER_1
  2
AIGNBL01040281
 10
0
 20
0
 30
0
  0
INSERT
  8
LAYER_1
  2
AIGNBL01040282
 10
0
 20
0
 30
0
  0
ENDBLK
  0
BLOCK
  8
LAYER_1
  2
AIGNBL01030283
 70
64
 10
0
 20
0
 30
0
  3
AIGNBL01030283
  0
TEXT
  8
LAYER_1
 10
110.9822
 20
136.2412
 11
110.9822
 21
136.2412
 40
4.0657
 41
0.5
 50
89.99999999
  1
33
  0
ENDBLK
  0
BLOCK
  8
LAYER_1
  2
AIGNBL01030284
 70
64
 10
0
 20
0
 30
0
  3
AIGNBL01030284
  0
POLYLINE
  8
LAYER_1
 40
0.1058
 41
0.1058
 66
1
 10
0
 20
0
 30
0
  0
VERTEX
  8
LAYER_1
 10
138.1445
 20
134.2169
  0
SEQEND
  0
ENDBLK
  0
BLOCK
  8
LAYER_1
  2
AIGNBL01030285
 70
64
 10
0
 20
0
 30
0
  3
AIGNBL01030285
  0
POLYLINE
  8
LAYER_1
 40
0.1058
 41
0.1058
 66
1
 10
0
 20
0
 30
0
  0
VERTEX
  8
LAYER_1
 10
117.2705
 20
142.517
  0
SEQEND
  0
ENDBLK
  0
BLOCK
  8
LAYER_1
  2
AIGNBL01030286
 70
64
 10
0
 20
0
 30
0
  3
AIGNBL01030286
  0
POLYLINE
  8
LAYER_1
 40
0.1058
 41
0.1058
 66
1
 10
0
 20
0
 30
0
  0
VERTEX
  8
LAYER_1
 10
111.4805
 20
142.517
  0
SEQEND
  0
ENDBLK
  0
BLOCK
  8
LAYER_1
  2
AIGNBL01030288
 70
64
 10
0
 20
0
 30
0
  3
AIGNBL01030288
  0
POLYLINE
  8
LAYER_1
 40
0.1058
 41
0.1058
 66
1
 10
0
 20
0
 30
0
  0
VERTEX
  8
LAYER_1
 10
81.8594
 20
124.8343
  0
VERTEX
  8
LAYER_1
 10
75.5936
 20
124.8343
  0
SEQEND
  0
ENDBLK
  0
BLOCK
  8
LAYER_1
  2
AIGNBL01030289
 70
64
 10
0
 20
0
 30
0
  3
AIGNBL01030289
  0
POLYLINE
  8
LAYER_1
 40
0.1058
 41
0.1058
 66
1
 10
0
 20
0
 30
0
  0
VERTEX
  8
LAYER_1
 10
94.339
 20
124.8343
  0
VERTEX
  8
LAYER_1
 10
81.8594
 20
124.8343
  0
SEQEND
  0
ENDBLK
  0
BLOCK
  8
LAYER_1
  2
AIGNBL0103028A
 70
64
 10
0
 20
0
 30
0
  3
AIGNBL0103028A
  0
POLYLINE
  8
LAYER_1
 40
0.1058
 41
0.1058
 66
1
 10
0
 20
0
 30
0
  0
VERTEX
  8
LAYER_1
 10
81.8594
 20
126.5694
  0
VERTEX
  8
LAYER_1
 10
81.8594
 20
124.0809
  0
SEQEND
  0
ENDBLK
  0
BLOCK
  8
LAYER_1
  2
AIGNBL0103028B
 70
64
 10
0
 20
0
 30
0
  3
AIGNBL0103028B
  0
POLYLINE
  8
LAYER_1
 40
0.1058
 41
0.1058
 66
1
 10
0
 20
0
 30
0
  0
VERTEX
  8
LAYER_1
 10
75.5936
 20
126.5694
  0
VERTEX
  8
LAYER_1
 10
75.5936
 20
124.0809
  0
SEQEND
  0
ENDBLK
  0
BLOCK
  8
LAYER_1
  2
AIGNBL0103028C
 70
64
 10
0
 20
0
 30
0
  3
AIGNBL0103028C
  0
POLYLINE
  8
LAYER_1
 40
0.1058
 41
0.1058
 66
1
 10
0
 20
0
 30
0
  0
VERTEX
  8
LAYER_1
 10
81.8594
 20
124.8343
  0
VERTEX
  8
LAYER_1
 10
85.0411
 20
124.8343
  0
SEQEND
  0
ENDBLK
  0
BLOCK
  8
LAYER_1
  2
AIGNBL0103028D
 70
64
 10
0
 20
0
 30
0
  3
AIGNBL0103028D
  0
POLYLINE
  8
LAYER_1
 40
0.1058
 41
0.1058
 66
1
 10
0
 20
0
 30
0
  0
VERTEX
  8
LAYER_1
 10
75.5936
 20
124.8343
  0
VERTEX
  8
LAYER_1
 10
72.4111
 20
124.8343
  0
SEQEND
  0
ENDBLK
  0
BLOCK
  8
LAYER_1
  2
AIGNBL0103028E
 70
64
 10
0
 20
0
 30
0
  3
AIGNBL0103028E
  0
INSERT
  8
LAYER_1
  2
AIGNBL0104028F
 10
0
 20
0
 30
0
  0
INSERT
  8
LAYER_1
  2
AIGNBL01040290
 10
0
 20
0
 30
0
  0
INSERT
  8
LAYER_1
  2
AIGNBL01040291
 10
0
 20
0
 30
0
  0
ENDBLK
  0
BLOCK
  8
LAYER_1
  2
AIGNBL01030292
 70
64
 10
0
 20
0
 30
0
  3
AIGNBL01030292
  0
INSERT
  8
LAYER_1
  2
AIGNBL01040293
 10
0
 20
0
 30
0
  0
INSERT
  8
LAYER_1
  2
AIGNBL01040294
 10
0
 20
0
 30
0
  0
INSERT
  8
LAYER_1
  2
AIGNBL01040295
 10
0
 20
0
 30
0
  0
ENDBLK
  0
BLOCK
  8
LAYER_1
  2
AIGNBL01030296
 70
64
 10
0
 20
0
 30
0
  3
AIGNBL01030296
  0
TEXT
  8
LAYER_1
 10
85.2081
 20
126.4007
 11
85.2081
 21
126.4007
 40
4.0657
 41
0.5
  1
六角対辺25
  0
ENDBLK
  0
BLOCK
  8
LAYER_1
  2
AIGNBL01030297
 70
64
 10
0
 20
0
 30
0
  3
AIGNBL01030297
  0
POLYLINE
  8
LAYER_1
 40
0.1058
 41
0.1058
 66
1
 10
0
 20
0
 30
0
  0
VERTEX
  8
LAYER_1
 10
81.8594
 20
127.3226
  0
SEQEND
  0
ENDBLK
  0
BLOCK
  8
LAYER_1
  2
AIGNBL01030298
 70
64
 10
0
 20
0
 30
0
  3
AIGNBL01030298
  0
POLYLINE
  8
LAYER_1
 40
0.1058
 41
0.1058
 66
1
 10
0
 20
0
 30
0
  0
VERTEX
  8
LAYER_1
 10
75.5936
 20
127.3226
  0
SEQEND
  0
ENDBLK
  0
BLOCK
  8
LAYER_1
  2
AIGNBL01030299
 70
64
 10
0
 20
0
 30
0
  3
AIGNBL01030299
  0
POLYLINE
  8
LAYER_1
 40
0.1058
 41
0.1058
 66
1
 10
0
 20
0
 30
0
  0
VERTEX
  8
LAYER_1
 10
75.5936
 20
124.8343
  0
SEQEND
  0
ENDBLK
  0
BLOCK
  8
LAYER_1
  2
AIGNBL0103029B
 70
64
 10
0
 20
0
 30
0
  3
AIGNBL0103029B
  0
POLYLINE
  8
LAYER_1
 40
0.1058
 41
0.1058
 66
1
 10
0
 20
0
 30
0
  0
VERTEX
  8
LAYER_1
 10
81.6076
 20
110.8793
  0
VERTEX
  8
LAYER_1
 10
75.8439
 20
110.8793
  0
SEQEND
  0
ENDBLK
  0
BLOCK
  8
LAYER_1
  2
AIGNBL0103029C
 70
64
 10
0
 20
0
 30
0
  3
AIGNBL0103029C
  0
POLYLINE
  8
LAYER_1
 40
0.1058
 41
0.1058
 66
1
 10
0
 20
0
 30
0
  0
VERTEX
  8
LAYER_1
 10
94.9508
 20
110.8793
  0
VERTEX
  8
LAYER_1
 10
81.6076
 20
110.8793
  0
SEQEND
  0
ENDBLK
  0
BLOCK
  8
LAYER_1
  2
AIGNBL0103029D
 70
64
 10
0
 20
0
 30
0
  3
AIGNBL0103029D
  0
POLYLINE
  8
LAYER_1
 40
0.1058
 41
0.1058
 66
1
 10
0
 20
0
 30
0
  0
VERTEX
  8
LAYER_1
 10
81.6076
 20
119.0825
  0
VERTEX
  8
LAYER_1
 10
81.6076
 20
110.1285
  0
SEQEND
  0
ENDBLK
  0
BLOCK
  8
LAYER_1
  2
AIGNBL0103029E
 70
64
 10
0
 20
0
 30
0
  3
AIGNBL0103029E
  0
POLYLINE
  8
LAYER_1
 40
0.1058
 41
0.1058
 66
1
 10
0
 20
0
 30
0
  0
VERTEX
  8
LAYER_1
 10
75.8439
 20
119.0825
  0
VERTEX
  8
LAYER_1
 10
75.8439
 20
110.1285
  0
SEQEND
  0
ENDBLK
  0
BLOCK
  8
LAYER_1
  2
AIGNBL0103029F
 70
64
 10
0
 20
0
 30
0
  3
AIGNBL0103029F
  0
POLYLINE
  8
LAYER_1
 40
0.1058
 41
0.1058
 66
1
 10
0
 20
0
 30
0
  0
VERTEX
  8
LAYER_1
 10
81.6076
 20
110.8793
  0
VERTEX
  8
LAYER_1
 10
84.7908
 20
110.8793
  0
SEQEND
  0
ENDBLK
  0
BLOCK
  8
LAYER_1
  2
AIGNBL010302A0
 70
64
 10
0
 20
0
 30
0
  3
AIGNBL010302A0
  0
POLYLINE
  8
LAYER_1
 40
0.1058
 41
0.1058
 66
1
 10
0
 20
0
 30
0
  0
VERTEX
  8
LAYER_1
 10
75.8439
 20
110.8793
  0
VERTEX
  8
LAYER_1
 10
72.6622
 20
110.8793
  0
SEQEND
  0
ENDBLK
  0
BLOCK
  8
LAYER_1
  2
AIGNBL010302A1
 70
64
 10
0
 20
0
 30
0
  3
AIGNBL010302A1
  0
INSERT
  8
LAYER_1
  2
AIGNBL010402A2
 10
0
 20
0
 30
0
  0
INSERT
  8
LAYER_1
  2
AIGNBL010402A3
 10
0
 20
0
 30
0
  0
INSERT
  8
LAYER_1
  2
AIGNBL010402A4
 10
0
 20
0
 30
0
  0
ENDBLK
  0
BLOCK
  8
LAYER_1
  2
AIGNBL010302A5
 70
64
 10
0
 20
0
 30
0
  3
AIGNBL010302A5
  0
INSERT
  8
LAYER_1
  2
AIGNBL010402A6
 10
0
 20
0
 30
0
  0
INSERT
  8
LAYER_1
  2
AIGNBL010402A7
 10
0
 20
0
 30
0
  0
INSERT
  8
LAYER_1
  2
AIGNBL010402A8
 10
0
 20
0
 30
0
  0
ENDBLK
  0
BLOCK
  8
LAYER_1
  2
AIGNBL010302A9
 70
64
 10
0
 20
0
 30
0
  3
AIGNBL010302A9
  0
TEXT
  8
LAYER_1
 10
83.9183
 20
106.7147
 11
83.9183
 21
106.7147
 40
4.0657
 41
0.5
  1
六角対辺23
  0
ENDBLK
  0
BLOCK
  8
LAYER_1
  2
AIGNBL010302AA
 70
64
 10
0
 20
0
 30
0
  3
AIGNBL010302AA
  0
POLYLINE
  8
LAYER_1
 40
0.1058
 41
0.1058
 66
1
 10
0
 20
0
 30
0
  0
VERTEX
  8
LAYER_1
 10
81.6076
 20
119.8334
  0
SEQEND
  0
ENDBLK
  0
BLOCK
  8
LAYER_1
  2
AIGNBL010302AB
 70
64
 10
0
 20
0
 30
0
  3
AIGNBL010302AB
  0
POLYLINE
  8
LAYER_1
 40
0.1058
 41
0.1058
 66
1
 10
0
 20
0
 30
0
  0
VERTEX
  8
LAYER_1
 10
75.8439
 20
119.8334
  0
SEQEND
  0
ENDBLK
  0
BLOCK
  8
LAYER_1
  2
AIGNBL010302AC
 70
64
 10
0
 20
0
 30
0
  3
AIGNBL010302AC
  0
POLYLINE
  8
LAYER_1
 40
0.1058
 41
0.1058
 66
1
 10
0
 20
0
 30
0
  0
VERTEX
  8
LAYER_1
 10
75.8439
 20
110.8793
  0
SEQEND
  0
ENDBLK
  0
BLOCK
  8
LAYER_5
  2
AIGNBL05030005
 70
64
 10
0
 20
0
 30
0
  3
AIGNBL05030005
  0
INSERT
  8
LAYER_5
  2
AIGNBL05040006
 10
0
 20
0
 30
0
  0
INSERT
  8
LAYER_5
  2
AIGNBL05040007
 10
0
 20
0
 30
0
  0
INSERT
  8
LAYER_5
  2
AIGNBL05040008
 10
0
 20
0
 30
0
  0
INSERT
  8
LAYER_5
  2
AIGNBL05040009
 10
0
 20
0
 30
0
  0
INSERT
  8
LAYER_5
  2
AIGNBL0504000A
 10
0
 20
0
 30
0
  0
INSERT
  8
LAYER_5
  2
AIGNBL0504000B
 10
0
 20
0
 30
0
  0
INSERT
  8
LAYER_5
  2
AIGNBL0504000C
 10
0
 20
0
 30
0
  0
ENDBLK
  0
BLOCK
  8
LAYER_5
  2
AIGNBL0503000E
 70
64
 10
0
 20
0
 30
0
  3
AIGNBL0503000E
  0
POLYLINE
  8
LAYER_5
 40
0.05
 41
0.05
 66
1
 10
0
 20
0
 30
0
 70
1
  0
VERTEX
  8
LAYER_5
 10
145.7475
 20
36.0574
  0
VERTEX
  8
LAYER_5
 10
146.3008
 20
36.0574
  0
VERTEX
  8
LAYER_5
 10
146.3008
 20
35.9637
  0
VERTEX
  8
LAYER_5
 10
145.6424
 20
35.9637
  0
VERTEX
  8
LAYER_5
 10
145.6424
 20
36.9969
  0
VERTEX
  8
LAYER_5
 10
146.2832
 20
36.9969
  0
VERTEX
  8
LAYER_5
 10
146.2832
 20
36.9035
  0
VERTEX
  8
LAYER_5
 10
145.7475
 20
36.9035
  0
VERTEX
  8
LAYER_5
 10
145.7475
 20
36.549
  0
VERTEX
  8
LAYER_5
 10
146.2481
 20
36.549
  0
VERTEX
  8
LAYER_5
 10
146.2481
 20
36.4557
  0
VERTEX
  8
LAYER_5
 10
145.7475
 20
36.4557
  0
SEQEND
  0
ENDBLK
  0
BLOCK
  8
LAYER_5
  2
AIGNBL0503000F
 70
64
 10
0
 20
0
 30
0
  3
AIGNBL0503000F
  0
POLYLINE
  8
LAYER_5
 40
0.05
 41
0.05
 66
1
 10
0
 20
0
 30
0
 70
1
  0
VERTEX
  8
LAYER_5
 10
147.4404
 20
36.117
  0
VERTEX
  8
LAYER_5
 10
147.4432
 20
36.117
  0
VERTEX
  8
LAYER_5
 10
147.4432
 20
36.9969
  0
VERTEX
  8
LAYER_5
 10
147.5483
 20
36.9969
  0
VERTEX
  8
LAYER_5
 10
147.5483
 20
35.9637
  0
VERTEX
  8
LAYER_5
 10
147.4174
 20
35.9637
  0
VERTEX
  8
LAYER_5
 10
146.8162
 20
36.8525
  0
VERTEX
  8
LAYER_5
 10
146.8127
 20
36.8525
  0
VERTEX
  8
LAYER_5
 10
146.8127
 20
35.9637
  0
VERTEX
  8
LAYER_5
 10
146.708
 20
35.9637
  0
VERTEX
  8
LAYER_5
 10
146.708
 20
36.9969
  0
VERTEX
  8
LAYER_5
 10
146.8393
 20
36.9969
  0
SEQEND
  0
ENDBLK
  0
BLOCK
  8
LAYER_5
  2
AIGNBL05030010
 70
64
 10
0
 20
0
 30
0
  3
AIGNBL05030010
  0
POLYLINE
  8
LAYER_5
 40
0.05
 41
0.05
 66
1
 10
0
 20
0
 30
0
 70
1
  0
VERTEX
  8
LAYER_5
 10
148.0213
 20
36.1756
 42
0.1557655154
  0
VERTEX
  8
LAYER_5
 10
148.0757
 20
36.0725
 42
0.1918235184
  0
VERTEX
  8
LAYER_5
 10
148.1891
 20
36.0309
  0
VERTEX
  8
LAYER_5
 10
148.2783
 20
36.0505
  0
VERTEX
  8
LAYER_5
 10
148.3344
 20
36.1039
  0
VERTEX
  8
LAYER_5
 10
148.3634
 20
36.1804
  0
VERTEX
  8
LAYER_5
 10
148.3717
 20
36.27
  0
VERTEX
  8
LAYER_5
 10
148.3717
 20
36.9969
  0
VERTEX
  8
LAYER_5
 10
148.4767
 20
36.9969
  0
VERTEX
  8
LAYER_5
 10
148.4767
 20
36.2614
  0
VERTEX
  8
LAYER_5
 10
148.4654
 20
36.1535
 42
-0.0973308998
  0
VERTEX
  8
LAYER_5
 10
148.424
 20
36.0485
 42
-0.1149355521
  0
VERTEX
  8
LAYER_5
 10
148.3393
 20
35.9689
 42
-0.1249341208
  0
VERTEX
  8
LAYER_5
 10
148.2004
 20
35.9375
 42
-0.1793665557
  0
VERTEX
  8
LAYER_5
 10
148.0158
 20
35.9974
 42
-0.1772363953
  0
VERTEX
  8
LAYER_5
 10
147.9234
 20
36.149
  0
SEQEND
  0
ENDBLK
  0
BLOCK
  8
LAYER_5
  2
AIGNBL05030011
 70
64
 10
0
 20
0
 30
0
  3
AIGNBL05030011
  0
POLYLINE
  8
LAYER_5
 40
0.05
 41
0.05
 66
1
 10
0
 20
0
 30
0
 70
1
  0
VERTEX
  8
LAYER_5
 10
149.965
 20
36.4805
 42
-0.1019307791
  0
VERTEX
  8
LAYER_5
 10
149.924
 20
36.2631
 42
-0.1000112985
  0
VERTEX
  8
LAYER_5
 10
149.8113
 20
36.0915
 42
-0.09646612644
  0
VERTEX
  8
LAYER_5
 10
149.6405
 20
35.9785
 42
-0.09758594962
  0
VERTEX
  8
LAYER_5
 10
149.4265
 20
35.9375
 42
-0.1000844711
  0
VERTEX
  8
LAYER_5
 10
149.2129
 20
35.9785
 42
-0.09954994557
  0
VERTEX
  8
LAYER_5
 10
149.042
 20
36.0915
 42
-0.09699237735
  0
VERTEX
  8
LAYER_5
 10
148.9287
 20
36.2631
 42
-0.09653980076
  0
VERTEX
  8
LAYER_5
 10
148.8881
 20
36.4805
 42
-0.1004051845
  0
VERTEX
  8
LAYER_5
 10
148.9287
 20
36.6978
 42
-0.0998654539
  0
VERTEX
  8
LAYER_5
 10
149.042
 20
36.8694
 42
-0.09851519288
  0
VERTEX
  8
LAYER_5
 10
149.2129
 20
36.9824
 42
-0.09768823248
  0
VERTEX
  8
LAYER_5
 10
149.4265
 20
37.0234
 42
-0.1000514256
  0
VERTEX
  8
LAYER_5
 10
149.6405
 20
36.9824
 42
-0.09863053528
  0
VERTEX
  8
LAYER_5
 10
149.8113
 20
36.8694
 42
-0.09807107579
  0
VERTEX
  8
LAYER_5
 10
149.924
 20
36.6978
 42
-0.0978256893
  0
SEQEND
  0
POLYLINE
  8
LAYER_5
 40
0.05
 41
0.05
 66
1
 10
0
 20
0
 30
0
 70
1
  0
VERTEX
  8
LAYER_5
 10
149.8541
 20
36.4798
 42
0.08634913196
  0
VERTEX
  8
LAYER_5
 10
149.8251
 20
36.6517
 42
0.09649608129
  0
VERTEX
  8
LAYER_5
 10
149.7404
 20
36.795
 42
0.1032857511
  0
VERTEX
  8
LAYER_5
 10
149.6053
 20
36.8932
 42
0.1061320656
  0
VERTEX
  8
LAYER_5
 10
149.4265
 20
36.93
 42
0.1115874499
  0
VERTEX
  8
LAYER_5
 10
149.2478
 20
36.8932
 42
0.1058584166
  0
VERTEX
  8
LAYER_5
 10
149.113
 20
36.795
 42
0.09787799956
  0
VERTEX
  8
LAYER_5
 10
149.0283
 20
36.6517
 42
0.08491464556
  0
VERTEX
  8
LAYER_5
 10
148.999
 20
36.4798
 42
0.08693146424
  0
VERTEX
  8
LAYER_5
 10
149.0283
 20
36.3079
 42
0.1009797617
  0
VERTEX
  8
LAYER_5
 10
149.113
 20
36.1649
 42
0.09998489394
  0
VERTEX
  8
LAYER_5
 10
149.2478
 20
36.0674
 42
0.1061678446
  0
VERTEX
  8
LAYER_5
 10
149.4265
 20
36.0309
 42
0.1126980581
  0
VERTEX
  8
LAYER_5
 10
149.6053
 20
36.0674
 42
0.1036982708
  0
VERTEX
  8
LAYER_5
 10
149.7404
 20
36.1649
 42
0.09370250368
  0
VERTEX
  8
LAYER_5
 10
149.8251
 20
36.3079
 42
0.08466662837
  0
SEQEND
  0
ENDBLK
  0
BLOCK
  8
LAYER_5
  2
AIGNBL05030012
 70
64
 10
0
 20
0
 30
0
  3
AIGNBL05030012
  0
POLYLINE
  8
LAYER_5
 40
0.05
 41
0.05
 66
1
 10
0
 20
0
 30
0
 70
1
  0
VERTEX
  8
LAYER_5
 10
150.7398
 20
35.9637
  0
VERTEX
  8
LAYER_5
 10
150.6351
 20
35.9637
  0
VERTEX
  8
LAYER_5
 10
150.6351
 20
36.4091
  0
VERTEX
  8
LAYER_5
 10
150.2482
 20
36.9969
  0
VERTEX
  8
LAYER_5
 10
150.3795
 20
36.9969
  0
VERTEX
  8
LAYER_5
 10
150.6905
 20
36.4967
  0
VERTEX
  8
LAYER_5
 10
151.0041
 20
36.9969
  0
VERTEX
  8
LAYER_5
 10
151.1263
 20
36.9969
  0
VERTEX
  8
LAYER_5
 10
150.7398
 20
36.4091
  0
SEQEND
  0
ENDBLK
  0
BLOCK
  8
LAYER_5
  2
AIGNBL05030013
 70
64
 10
0
 20
0
 30
0
  3
AIGNBL05030013
  0
POLYLINE
  8
LAYER_5
 40
0.05
 41
0.05
 66
1
 10
0
 20
0
 30
0
 70
1
  0
VERTEX
  8
LAYER_5
 10
152.0314
 20
36.9969
  0
VERTEX
  8
LAYER_5
 10
152.339
 20
36.9969
  0
VERTEX
  8
LAYER_5
 10
152.4575
 20
36.9845
  0
VERTEX
  8
LAYER_5
 10
152.5643
 20
36.9421
 42
-0.1168262011
  0
VERTEX
  8
LAYER_5
 10
152.6422
 20
36.8611
 42
-0.1230288266
  0
VERTEX
  8
LAYER_5
 10
152.6718
 20
36.733
 42
-0.1795449175
  0
VERTEX
  8
LAYER_5
 10
152.6219
 20
36.5907
 42
-0.170141964
  0
VERTEX
  8
LAYER_5
 10
152.4885
 20
36.5111
  0
VERTEX
  8
LAYER_5
 10
152.4885
 20
36.5084
 42
-0.1719890535
  0
VERTEX
  8
LAYER_5
 10
152.6553
 20
36.4302
 42
-0.2018462152
  0
VERTEX
  8
LAYER_5
 10
152.7214
 20
36.2496
 42
-0.1247085485
  0
VERTEX
  8
LAYER_5
 10
152.6942
 20
36.1325
 42
-0.1153486961
  0
VERTEX
  8
LAYER_5
 10
152.6181
 20
36.0419
 42
-0.08656795839
  0
VERTEX
  8
LAYER_5
 10
152.4972
 20
35.9844
 42
-0.06557363107
  0
VERTEX
  8
LAYER_5
 10
152.3373
 20
35.9637
  0
VERTEX
  8
LAYER_5
 10
152.0314
 20
35.9637
  0
SEQEND
  0
POLYLINE
  8
LAYER_5
 40
0.05
 41
0.05
 66
1
 10
0
 20
0
 30
0
 70
1
  0
VERTEX
  8
LAYER_5
 10
152.1364
 20
36.5445
  0
VERTEX
  8
LAYER_5
 10
152.348
 20
36.5445
  0
VERTEX
  8
LAYER_5
 10
152.4248
 20
36.5535
  0
VERTEX
  8
LAYER_5
 10
152.4951
 20
36.5831
  0
VERTEX
  8
LAYER_5
 10
152.5471
 20
36.6396
 42
0.1162126025
  0
VERTEX
  8
LAYER_5
 10
152.5668
 20
36.7258
  0
VERTEX
  8
LAYER_5
 10
152.5471
 20
36.8095
  0
VERTEX
  8
LAYER_5
 10
152.494
 20
36.8656
  0
VERTEX
  8
LAYER_5
 10
152.4152
 20
36.897
  0
VERTEX
  8
LAYER_5
 10
152.3187
 20
36.9066
  0
VERTEX
  8
LAYER_5
 10
152.1364
 20
36.9066
  0
SEQEND
  0
POLYLINE
  8
LAYER_5
 40
0.05
 41
0.05
 66
1
 10
0
 20
0
 30
0
 70
1
  0
VERTEX
  8
LAYER_5
 10
152.1364
 20
36.0543
  0
VERTEX
  8
LAYER_5
 10
152.3321
 20
36.0543
  0
VERTEX
  8
LAYER_5
 10
152.4406
 20
36.0653
  0
VERTEX
  8
LAYER_5
 10
152.5313
 20
36.1001
 42
0.1172546835
  0
VERTEX
  8
LAYER_5
 10
152.5929
 20
36.1632
 42
0.1286243504
  0
VERTEX
  8
LAYER_5
 10
152.6164
 20
36.2559
 42
0.2498669706
  0
VERTEX
  8
LAYER_5
 10
152.5471
 20
36.4081
 42
0.1538083763
  0
VERTEX
  8
LAYER_5
 10
152.3511
 20
36.4584
  0
VERTEX
  8
LAYER_5
 10
152.1364
 20
36.4584
  0
SEQEND
  0
ENDBLK
  0
BLOCK
  8
LAYER_5
  2
AIGNBL05030014
 70
64
 10
0
 20
0
 30
0
  3
AIGNBL05030014
  0
POLYLINE
  8
LAYER_5
 40
0.05
 41
0.05
 66
1
 10
0
 20
0
 30
0
 70
1
  0
VERTEX
  8
LAYER_5
 10
153.1534
 20
35.9637
  0
VERTEX
  8
LAYER_5
 10
153.038
 20
35.9637
  0
VERTEX
  8
LAYER_5
 10
153.4849
 20
36.9969
  0
VERTEX
  8
LAYER_5
 10
153.5872
 20
36.9969
  0
VERTEX
  8
LAYER_5
 10
154.0306
 20
35.9637
  0
VERTEX
  8
LAYER_5
 10
153.9138
 20
35.9637
  0
VERTEX
  8
LAYER_5
 10
153.7997
 20
36.2352
  0
VERTEX
  8
LAYER_5
 10
153.2657
 20
36.2352
  0
SEQEND
  0
POLYLINE
  8
LAYER_5
 40
0.05
 41
0.05
 66
1
 10
0
 20
0
 30
0
 70
1
  0
VERTEX
  8
LAYER_5
 10
153.305
 20
36.3316
  0
VERTEX
  8
LAYER_5
 10
153.7604
 20
36.3316
  0
VERTEX
  8
LAYER_5
 10
153.5327
 20
36.8804
  0
SEQEND
  0
ENDBLK
  0
BLOCK
  8
LAYER_5
  2
AIGNBL05030015
 70
64
 10
0
 20
0
 30
0
  3
AIGNBL05030015
  0
POLYLINE
  8
LAYER_5
 40
0.05
 41
0.05
 66
1
 10
0
 20
0
 30
0
 70
1
  0
VERTEX
  8
LAYER_5
 10
154.7151
 20
35.9637
  0
VERTEX
  8
LAYER_5
 10
154.61
 20
35.9637
  0
VERTEX
  8
LAYER_5
 10
154.61
 20
36.9035
  0
VERTEX
  8
LAYER_5
 10
154.2638
 20
36.9035
  0
VERTEX
  8
LAYER_5
 10
154.2638
 20
36.9969
  0
VERTEX
  8
LAYER_5
 10
155.0606
 20
36.9969
  0
VERTEX
  8
LAYER_5
 10
155.0606
 20
36.9035
  0
VERTEX
  8
LAYER_5
 10
154.7151
 20
36.9035
  0
SEQEND
  0
ENDBLK
  0
BLOCK
  8
LAYER_5
  2
AIGNBL05030016
 70
64
 10
0
 20
0
 30
0
  3
AIGNBL05030016
  0
POLYLINE
  8
LAYER_5
 40
0.05
 41
0.05
 66
1
 10
0
 20
0
 30
0
 70
1
  0
VERTEX
  8
LAYER_5
 10
155.4169
 20
36.9969
  0
VERTEX
  8
LAYER_5
 10
155.5216
 20
36.9969
  0
VERTEX
  8
LAYER_5
 10
155.5216
 20
36.549
  0
VERTEX
  8
LAYER_5
 10
156.0852
 20
36.549
  0
VERTEX
  8
LAYER_5
 10
156.0852
 20
36.9969
  0
VERTEX
  8
LAYER_5
 10
156.1903
 20
36.9969
  0
VERTEX
  8
LAYER_5
 10
156.1903
 20
35.9637
  0
VERTEX
  8
LAYER_5
 10
156.0852
 20
35.9637
  0
VERTEX
  8
LAYER_5
 10
156.0852
 20
36.4529
  0
VERTEX
  8
LAYER_5
 10
155.5216
 20
36.4529
  0
VERTEX
  8
LAYER_5
 10
155.5216
 20
35.9637
  0
VERTEX
  8
LAYER_5
 10
155.4169
 20
35.9637
  0
SEQEND
  0
ENDBLK
  0
BLOCK
  8
LAYER_5
  2
AIGNBL05030017
 70
64
 10
0
 20
0
 30
0
  3
AIGNBL05030017
  0
POLYLINE
  8
LAYER_5
 40
0.05
 41
0.05
 66
1
 10
0
 20
0
 30
0
 70
1
  0
VERTEX
  8
LAYER_5
 10
156.7708
 20
35.9637
  0
VERTEX
  8
LAYER_5
 10
156.6657
 20
35.9637
  0
VERTEX
  8
LAYER_5
 10
156.6657
 20
36.9969
  0
VERTEX
  8
LAYER_5
 10
156.9696
 20
36.9969
  0
VERTEX
  8
LAYER_5
 10
157.1101
 20
36.9824
 42
-0.1032885834
  0
VERTEX
  8
LAYER_5
 10
157.2228
 20
36.9349
 42
-0.1280591957
  0
VERTEX
  8
LAYER_5
 10
157.2962
 20
36.8494
 42
-0.1078860225
  0
VERTEX
  8
LAYER_5
 10
157.3223
 20
36.7213
  0
VERTEX
  8
LAYER_5
 10
157.3024
 20
36.6176
  0
VERTEX
  8
LAYER_5
 10
157.2469
 20
36.5366
  0
VERTEX
  8
LAYER_5
 10
157.1635
 20
36.4818
  0
VERTEX
  8
LAYER_5
 10
157.0585
 20
36.4557
  0
VERTEX
  8
LAYER_5
 10
157.3606
 20
35.9637
  0
VERTEX
  8
LAYER_5
 10
157.2321
 20
35.9637
  0
VERTEX
  8
LAYER_5
 10
156.9461
 20
36.4467
  0
VERTEX
  8
LAYER_5
 10
156.7708
 20
36.4467
  0
SEQEND
  0
POLYLINE
  8
LAYER_5
 40
0.05
 41
0.05
 66
1
 10
0
 20
0
 30
0
 70
1
  0
VERTEX
  8
LAYER_5
 10
156.7708
 20
36.5373
  0
VERTEX
  8
LAYER_5
 10
156.9534
 20
36.5373
 42
0.153451873
  0
VERTEX
  8
LAYER_5
 10
157.1491
 20
36.5831
 42
0.2580279849
  0
VERTEX
  8
LAYER_5
 10
157.2176
 20
36.7213
  0
VERTEX
  8
LAYER_5
 10
157.1983
 20
36.8071
  0
VERTEX
  8
LAYER_5
 10
157.146
 20
36.8643
  0
VERTEX
  8
LAYER_5
 10
157.0643
 20
36.8963
  0
VERTEX
  8
LAYER_5
 10
156.9578
 20
36.9066
  0
VERTEX
  8
LAYER_5
 10
156.7708
 20
36.9066
  0
SEQEND
  0
ENDBLK
  0
BLOCK
  8
LAYER_5
  2
AIGNBL05030018
 70
64
 10
0
 20
0
 30
0
  3
AIGNBL05030018
  0
POLYLINE
  8
LAYER_5
 40
0.05
 41
0.05
 66
1
 10
0
 20
0
 30
0
 70
1
  0
VERTEX
  8
LAYER_5
 10
158.7627
 20
36.4805
 42
-0.09904480664
  0
VERTEX
  8
LAYER_5
 10
158.7221
 20
36.2631
 42
-0.09984043552
  0
VERTEX
  8
LAYER_5
 10
158.6087
 20
36.0915
 42
-0.09841590082
  0
VERTEX
  8
LAYER_5
 10
158.4382
 20
35.9785
 42
-0.09758412454
  0
VERTEX
  8
LAYER_5
 10
158.2243
 20
35.9375
 42
-0.09999517154
  0
VERTEX
  8
LAYER_5
 10
158.0103
 20
35.9785
 42
-0.09953435427
  0
VERTEX
  8
LAYER_5
 10
157.8398
 20
36.0915
 42
-0.09853706159
  0
VERTEX
  8
LAYER_5
 10
157.7268
 20
36.2631
 42
-0.09653980076
  0
VERTEX
  8
LAYER_5
 10
157.6862
 20
36.4805
 42
-0.1004051845
  0
VERTEX
  8
LAYER_5
 10
157.7268
 20
36.6978
 42
-0.1008040346
  0
VERTEX
  8
LAYER_5
 10
157.8398
 20
36.8694
 42
-0.09763764092
  0
VERTEX
  8
LAYER_5
 10
158.0103
 20
36.9824
 42
-0.09752919603
  0
VERTEX
  8
LAYER_5
 10
158.2243
 20
37.0234
 42
-0.1000174927
  0
VERTEX
  8
LAYER_5
 10
158.4382
 20
36.9824
 42
-0.1009762109
  0
VERTEX
  8
LAYER_5
 10
158.6087
 20
36.8694
 42
-0.09735230618
  0
VERTEX
  8
LAYER_5
 10
158.7221
 20
36.6978
 42
-0.09580191209
  0
SEQEND
  0
POLYLINE
  8
LAYER_5
 40
0.05
 41
0.05
 66
1
 10
0
 20
0
 30
0
 70
1
  0
VERTEX
  8
LAYER_5
 10
158.6518
 20
36.4798
 42
0.08852014676
  0
VERTEX
  8
LAYER_5
 10
158.6225
 20
36.6517
 42
0.09973444611
  0
VERTEX
  8
LAYER_5
 10
158.5378
 20
36.795
 42
0.1024799068
  0
VERTEX
  8
LAYER_5
 10
158.4031
 20
36.8932
 42
0.1060321998
  0
VERTEX
  8
LAYER_5
 10
158.2243
 20
36.93
 42
0.1116325688
  0
VERTEX
  8
LAYER_5
 10
158.0455
 20
36.8932
 42
0.1060506217
  0
VERTEX
  8
LAYER_5
 10
157.9104
 20
36.795
 42
0.09526104957
  0
VERTEX
  8
LAYER_5
 10
157.8257
 20
36.6517
 42
0.08422602157
  0
VERTEX
  8
LAYER_5
 10
157.7968
 20
36.4798
 42
0.0876992245
  0
VERTEX
  8
LAYER_5
 10
157.8257
 20
36.3079
 42
0.09826867926
  0
VERTEX
  8
LAYER_5
 10
157.9104
 20
36.1649
 42
0.09965756504
  0
VERTEX
  8
LAYER_5
 10
158.0455
 20
36.0674
 42
0.1061654103
  0
VERTEX
  8
LAYER_5
 10
158.2243
 20
36.0309
 42
0.1124388132
  0
VERTEX
  8
LAYER_5
 10
158.4031
 20
36.0674
 42
0.1029122982
  0
VERTEX
  8
LAYER_5
 10
158.5378
 20
36.1649
 42
0.09882210045
  0
VERTEX
  8
LAYER_5
 10
158.6225
 20
36.3079
 42
0.08589740831
  0
SEQEND
  0
ENDBLK
  0
BLOCK
  8
LAYER_5
  2
AIGNBL05030019
 70
64
 10
0
 20
0
 30
0
  3
AIGNBL05030019
  0
POLYLINE
  8
LAYER_5
 40
0.05
 41
0.05
 66
1
 10
0
 20
0
 30
0
 70
1
  0
VERTEX
  8
LAYER_5
 10
160.2045
 20
36.4805
 42
-0.1019307791
  0
VERTEX
  8
LAYER_5
 10
160.1635
 20
36.2631
 42
-0.09929652324
  0
VERTEX
  8
LAYER_5
 10
160.0509
 20
36.0915
 42
-0.09710469009
  0
VERTEX
  8
LAYER_5
 10
159.88
 20
35.9785
 42
-0.09758412454
  0
VERTEX
  8
LAYER_5
 10
159.6661
 20
35.9375
 42
-0.1005051182
  0
VERTEX
  8
LAYER_5
 10
159.4524
 20
35.9785
 42
-0.1009789173
  0
VERTEX
  8
LAYER_5
 10
159.2816
 20
36.0915
 42
-0.09724598852
  0
VERTEX
  8
LAYER_5
 10
159.1682
 20
36.2631
 42
-0.09653980076
  0
VERTEX
  8
LAYER_5
 10
159.1276
 20
36.4805
 42
-0.1004051845
  0
VERTEX
  8
LAYER_5
 10
159.1682
 20
36.6978
 42
-0.1001669327
  0
VERTEX
  8
LAYER_5
 10
159.2816
 20
36.8694
 42
-0.09846843416
  0
VERTEX
  8
LAYER_5
 10
159.4524
 20
36.9824
 42
-0.09783444074
  0
VERTEX
  8
LAYER_5
 10
159.6661
 20
37.0234
 42
-0.1000174927
  0
VERTEX
  8
LAYER_5
 10
159.88
 20
36.9824
 42
-0.098457988
  0
VERTEX
  8
LAYER_5
 10
160.0509
 20
36.8694
 42
-0.09762598086
  0
VERTEX
  8
LAYER_5
 10
160.1635
 20
36.6978
 42
-0.0978256893
  0
SEQEND
  0
POLYLINE
  8
LAYER_5
 40
0.05
 41
0.05
 66
1
 10
0
 20
0
 30
0
 70
1
  0
VERTEX
  8
LAYER_5
 10
160.0936
 20
36.4798
 42
0.08653869446
  0
VERTEX
  8
LAYER_5
 10
160.0647
 20
36.6517
 42
0.09689814906
  0
VERTEX
  8
LAYER_5
 10
159.9799
 20
36.795
 42
0.1032857511
  0
VERTEX
  8
LAYER_5
 10
159.8448
 20
36.8932
 42
0.1061350344
  0
VERTEX
  8
LAYER_5
 10
159.6661
 20
36.93
 42
0.1114208933
  0
VERTEX
  8
LAYER_5
 10
159.4872
 20
36.8932
 42
0.1056595975
  0
VERTEX
  8
LAYER_5
 10
159.3525
 20
36.795
 42
0.09787799956
  0
VERTEX
  8
LAYER_5
 10
159.2678
 20
36.6517
 42
0.08491464556
  0
VERTEX
  8
LAYER_5
 10
159.2385
 20
36.4798
 42
0.08693146424
  0
VERTEX
  8
LAYER_5
 10
159.2678
 20
36.3079
 42
0.1009797617
  0
VERTEX
  8
LAYER_5
 10
159.3525
 20
36.1649
 42
0.09978391674
  0
VERTEX
  8
LAYER_5
 10
159.4872
 20
36.0674
 42
0.1060616244
  0
VERTEX
  8
LAYER_5
 10
159.6661
 20
36.0309
 42
0.1126531325
  0
VERTEX
  8
LAYER_5
 10
159.8448
 20
36.0674
 42
0.1036982708
  0
VERTEX
  8
LAYER_5
 10
159.9799
 20
36.1649
 42
0.09401062747
  0
VERTEX
  8
LAYER_5
 10
160.0647
 20
36.3079
 42
0.0844927763
  0
SEQEND
  0
ENDBLK
  0
BLOCK
  8
LAYER_5
  2
AIGNBL0503001A
 70
64
 10
0
 20
0
 30
0
  3
AIGNBL0503001A
  0
POLYLINE
  8
LAYER_5
 40
0.05
 41
0.05
 66
1
 10
0
 20
0
 30
0
 70
1
  0
VERTEX
  8
LAYER_5
 10
161.1354
 20
36.1418
  0
VERTEX
  8
LAYER_5
 10
161.1371
 20
36.1418
  0
VERTEX
  8
LAYER_5
 10
161.4826
 20
36.9969
  0
VERTEX
  8
LAYER_5
 10
161.6435
 20
36.9969
  0
VERTEX
  8
LAYER_5
 10
161.6435
 20
35.9637
  0
VERTEX
  8
LAYER_5
 10
161.5381
 20
35.9637
  0
VERTEX
  8
LAYER_5
 10
161.5381
 20
36.8611
  0
VERTEX
  8
LAYER_5
 10
161.5354
 20
36.8611
  0
VERTEX
  8
LAYER_5
 10
161.1619
 20
35.9637
  0
VERTEX
  8
LAYER_5
 10
161.1064
 20
35.9637
  0
VERTEX
  8
LAYER_5
 10
160.7326
 20
36.8611
  0
VERTEX
  8
LAYER_5
 10
160.7299
 20
36.8611
  0
VERTEX
  8
LAYER_5
 10
160.7299
 20
35.9637
  0
VERTEX
  8
LAYER_5
 10
160.6248
 20
35.9637
  0
VERTEX
  8
LAYER_5
 10
160.6248
 20
36.9969
  0
VERTEX
  8
LAYER_5
 10
160.7853
 20
36.9969
  0
SEQEND
  0
ENDBLK
  0
BLOCK
  8
LAYER_5
  2
AIGNBL0503001B
 70
64
 10
0
 20
0
 30
0
  3
AIGNBL0503001B
  0
POLYLINE
  8
LAYER_5
 40
0.05
 41
0.05
 66
1
 10
0
 20
0
 30
0
 70
1
  0
VERTEX
  8
LAYER_5
 10
162.79
 20
36.0574
  0
VERTEX
  8
LAYER_5
 10
163.3433
 20
36.0574
  0
VERTEX
  8
LAYER_5
 10
163.3433
 20
35.9637
  0
VERTEX
  8
LAYER_5
 10
162.685
 20
35.9637
  0
VERTEX
  8
LAYER_5
 10
162.685
 20
36.9969
  0
VERTEX
  8
LAYER_5
 10
163.3258
 20
36.9969
  0
VERTEX
  8
LAYER_5
 10
163.3258
 20
36.9035
  0
VERTEX
  8
LAYER_5
 10
162.79
 20
36.9035
  0
VERTEX
  8
LAYER_5
 10
162.79
 20
36.549
  0
VERTEX
  8
LAYER_5
 10
163.2906
 20
36.549
  0
VERTEX
  8
LAYER_5
 10
163.2906
 20
36.4557
  0
VERTEX
  8
LAYER_5
 10
162.79
 20
36.4557
  0
SEQEND
  0
ENDBLK
  0
BLOCK
  8
LAYER_5
  2
AIGNBL0503001C
 70
64
 10
0
 20
0
 30
0
  3
AIGNBL0503001C
  0
POLYLINE
  8
LAYER_5
 40
0.05
 41
0.05
 66
1
 10
0
 20
0
 30
0
 70
1
  0
VERTEX
  8
LAYER_5
 10
164.0885
 20
36.5797
  0
VERTEX
  8
LAYER_5
 10
164.3707
 20
36.9969
  0
VERTEX
  8
LAYER_5
 10
164.4957
 20
36.9969
  0
VERTEX
  8
LAYER_5
 10
164.1533
 20
36.5053
  0
VERTEX
  8
LAYER_5
 10
164.5326
 20
35.9637
  0
VERTEX
  8
LAYER_5
 10
164.4013
 20
35.9637
  0
VERTEX
  8
LAYER_5
 10
164.0858
 20
36.4295
  0
VERTEX
  8
LAYER_5
 10
163.7722
 20
35.9637
  0
VERTEX
  8
LAYER_5
 10
163.6407
 20
35.9637
  0
VERTEX
  8
LAYER_5
 10
164.0203
 20
36.5066
  0
VERTEX
  8
LAYER_5
 10
163.6744
 20
36.9969
  0
VERTEX
  8
LAYER_5
 10
163.806
 20
36.9969
  0
SEQEND
  0
ENDBLK
  0
BLOCK
  8
LAYER_5
  2
AIGNBL0503001D
 70
64
 10
0
 20
0
 30
0
  3
AIGNBL0503001D
  0
POLYLINE
  8
LAYER_5
 40
0.05
 41
0.05
 66
1
 10
0
 20
0
 30
0
 70
1
  0
VERTEX
  8
LAYER_5
 10
164.8988
 20
36.9969
  0
VERTEX
  8
LAYER_5
 10
165.1909
 20
36.9969
  0
VERTEX
  8
LAYER_5
 10
165.3339
 20
36.9804
 42
-0.104160294
  0
VERTEX
  8
LAYER_5
 10
165.4438
 20
36.929
 42
-0.1209616443
  0
VERTEX
  8
LAYER_5
 10
165.5148
 20
36.8429
 42
-0.1032545831
  0
VERTEX
  8
LAYER_5
 10
165.5392
 20
36.7213
 42
-0.1239274235
  0
VERTEX
  8
LAYER_5
 10
165.5141
 20
36.5993
 42
-0.1163667494
  0
VERTEX
  8
LAYER_5
 10
165.4424
 20
36.5132
 42
-0.08715194998
  0
VERTEX
  8
LAYER_5
 10
165.3315
 20
36.4615
 42
-0.06075348808
  0
VERTEX
  8
LAYER_5
 10
165.1878
 20
36.444
  0
VERTEX
  8
LAYER_5
 10
165.0039
 20
36.444
  0
VERTEX
  8
LAYER_5
 10
165.0039
 20
35.9637
  0
VERTEX
  8
LAYER_5
 10
164.8988
 20
35.9637
  0
SEQEND
  0
POLYLINE
  8
LAYER_5
 40
0.05
 41
0.05
 66
1
 10
0
 20
0
 30
0
 70
1
  0
VERTEX
  8
LAYER_5
 10
165.0039
 20
36.5328
  0
VERTEX
  8
LAYER_5
 10
165.1816
 20
36.5328
 42
0.1694225951
  0
VERTEX
  8
LAYER_5
 10
165.3701
 20
36.581
 42
0.2442570363
  0
VERTEX
  8
LAYER_5
 10
165.4345
 20
36.7213
 42
0.2590967024
  0
VERTEX
  8
LAYER_5
 10
165.368
 20
36.8622
 42
0.143072224
  0
VERTEX
  8
LAYER_5
 10
165.1816
 20
36.9066
  0
VERTEX
  8
LAYER_5
 10
165.0039
 20
36.9066
  0
SEQEND
  0
ENDBLK
  0
BLOCK
  8
LAYER_5
  2
AIGNBL0503001E
 70
64
 10
0
 20
0
 30
0
  3
AIGNBL0503001E
  0
POLYLINE
  8
LAYER_5
 40
0.05
 41
0.05
 66
1
 10
0
 20
0
 30
0
 70
1
  0
VERTEX
  8
LAYER_5
 10
166.0515
 20
36.0574
  0
VERTEX
  8
LAYER_5
 10
166.6048
 20
36.0574
  0
VERTEX
  8
LAYER_5
 10
166.6048
 20
35.9637
  0
VERTEX
  8
LAYER_5
 10
165.9465
 20
35.9637
  0
VERTEX
  8
LAYER_5
 10
165.9465
 20
36.9969
  0
VERTEX
  8
LAYER_5
 10
166.5872
 20
36.9969
  0
VERTEX
  8
LAYER_5
 10
166.5872
 20
36.9035
  0
VERTEX
  8
LAYER_5
 10
166.0515
 20
36.9035
  0
VERTEX
  8
LAYER_5
 10
166.0515
 20
36.549
  0
VERTEX
  8
LAYER_5
 10
166.5521
 20
36.549
  0
VERTEX
  8
LAYER_5
 10
166.5521
 20
36.4557
  0
VERTEX
  8
LAYER_5
 10
166.0515
 20
36.4557
  0
SEQEND
  0
ENDBLK
  0
BLOCK
  8
LAYER_5
  2
AIGNBL0503001F
 70
64
 10
0
 20
0
 30
0
  3
AIGNBL0503001F
  0
POLYLINE
  8
LAYER_5
 40
0.05
 41
0.05
 66
1
 10
0
 20
0
 30
0
 70
1
  0
VERTEX
  8
LAYER_5
 10
167.1168
 20
35.9637
  0
VERTEX
  8
LAYER_5
 10
167.0117
 20
35.9637
  0
VERTEX
  8
LAYER_5
 10
167.0117
 20
36.9969
  0
VERTEX
  8
LAYER_5
 10
167.3155
 20
36.9969
  0
VERTEX
  8
LAYER_5
 10
167.4561
 20
36.9824
 42
-0.1039428931
  0
VERTEX
  8
LAYER_5
 10
167.5687
 20
36.9349
 42
-0.1259973384
  0
VERTEX
  8
LAYER_5
 10
167.6425
 20
36.8494
 42
-0.1064650891
  0
VERTEX
  8
LAYER_5
 10
167.6683
 20
36.7213
  0
VERTEX
  8
LAYER_5
 10
167.6483
 20
36.6176
  0
VERTEX
  8
LAYER_5
 10
167.5929
 20
36.5366
  0
VERTEX
  8
LAYER_5
 10
167.5095
 20
36.4818
  0
VERTEX
  8
LAYER_5
 10
167.4044
 20
36.4557
  0
VERTEX
  8
LAYER_5
 10
167.7066
 20
35.9637
  0
VERTEX
  8
LAYER_5
 10
167.578
 20
35.9637
  0
VERTEX
  8
LAYER_5
 10
167.2921
 20
36.4467
  0
VERTEX
  8
LAYER_5
 10
167.1168
 20
36.4467
  0
SEQEND
  0
POLYLINE
  8
LAYER_5
 40
0.05
 41
0.05
 66
1
 10
0
 20
0
 30
0
 70
1
  0
VERTEX
  8
LAYER_5
 10
167.1168
 20
36.5373
  0
VERTEX
  8
LAYER_5
 10
167.2994
 20
36.5373
 42
0.1542400453
  0
VERTEX
  8
LAYER_5
 10
167.495
 20
36.5831
 42
0.2583775622
  0
VERTEX
  8
LAYER_5
 10
167.5636
 20
36.7213
  0
VERTEX
  8
LAYER_5
 10
167.5446
 20
36.8071
  0
VERTEX
  8
LAYER_5
 10
167.4919
 20
36.8643
  0
VERTEX
  8
LAYER_5
 10
167.4103
 20
36.8963
  0
VERTEX
  8
LAYER_5
 10
167.3038
 20
36.9066
  0
VERTEX
  8
LAYER_5
 10
167.1168
 20
36.9066
  0
SEQEND
  0
ENDBLK
  0
BLOCK
  8
LAYER_5
  2
AIGNBL05030020
 70
64
 10
0
 20
0
 30
0
  3
AIGNBL05030020
  0
POLYLINE
  8
LAYER_5
 40
0.05
 41
0.05
 66
1
 10
0
 20
0
 30
0
 70
1
  0
VERTEX
  8
LAYER_5
 10
168.1923
 20
35.9637
  0
VERTEX
  8
LAYER_5
 10
168.0876
 20
35.9637
  0
VERTEX
  8
LAYER_5
 10
168.0876
 20
36.9969
  0
VERTEX
  8
LAYER_5
 10
168.1923
 20
36.9969
  0
SEQEND
  0
ENDBLK
  0
BLOCK
  8
LAYER_5
  2
AIGNBL05030021
 70
64
 10
0
 20
0
 30
0
  3
AIGNBL05030021
  0
POLYLINE
  8
LAYER_5
 40
0.05
 41
0.05
 66
1
 10
0
 20
0
 30
0
 70
1
  0
VERTEX
  8
LAYER_5
 10
168.7732
 20
36.0574
  0
VERTEX
  8
LAYER_5
 10
169.3261
 20
36.0574
  0
VERTEX
  8
LAYER_5
 10
169.3261
 20
35.9637
  0
VERTEX
  8
LAYER_5
 10
168.6681
 20
35.9637
  0
VERTEX
  8
LAYER_5
 10
168.6681
 20
36.9969
  0
VERTEX
  8
LAYER_5
 10
169.3089
 20
36.9969
  0
VERTEX
  8
LAYER_5
 10
169.3089
 20
36.9035
  0
VERTEX
  8
LAYER_5
 10
168.7732
 20
36.9035
  0
VERTEX
  8
LAYER_5
 10
168.7732
 20
36.549
  0
VERTEX
  8
LAYER_5
 10
169.2737
 20
36.549
  0
VERTEX
  8
LAYER_5
 10
169.2737
 20
36.4557
  0
VERTEX
  8
LAYER_5
 10
168.7732
 20
36.4557
  0
SEQEND
  0
ENDBLK
  0
BLOCK
  8
LAYER_5
  2
AIGNBL05030022
 70
64
 10
0
 20
0
 30
0
  3
AIGNBL05030022
  0
POLYLINE
  8
LAYER_5
 40
0.05
 41
0.05
 66
1
 10
0
 20
0
 30
0
 70
1
  0
VERTEX
  8
LAYER_5
 10
170.4661
 20
36.117
  0
VERTEX
  8
LAYER_5
 10
170.4689
 20
36.117
  0
VERTEX
  8
LAYER_5
 10
170.4689
 20
36.9969
  0
VERTEX
  8
LAYER_5
 10
170.5739
 20
36.9969
  0
VERTEX
  8
LAYER_5
 10
170.5739
 20
35.9637
  0
VERTEX
  8
LAYER_5
 10
170.4426
 20
35.9637
  0
VERTEX
  8
LAYER_5
 10
169.8415
 20
36.8525
  0
VERTEX
  8
LAYER_5
 10
169.8384
 20
36.8525
  0
VERTEX
  8
LAYER_5
 10
169.8384
 20
35.9637
  0
VERTEX
  8
LAYER_5
 10
169.7333
 20
35.9637
  0
VERTEX
  8
LAYER_5
 10
169.7333
 20
36.9969
  0
VERTEX
  8
LAYER_5
 10
169.8649
 20
36.9969
  0
SEQEND
  0
ENDBLK
  0
BLOCK
  8
LAYER_5
  2
AIGNBL05030023
 70
64
 10
0
 20
0
 30
0
  3
AIGNBL05030023
  0
POLYLINE
  8
LAYER_5
 40
0.05
 41
0.05
 66
1
 10
0
 20
0
 30
0
 70
1
  0
VERTEX
  8
LAYER_5
 10
171.9196
 20
36.1315
  0
VERTEX
  8
LAYER_5
 10
171.8558
 20
36.0571
  0
VERTEX
  8
LAYER_5
 10
171.7697
 20
35.9954
  0
VERTEX
  8
LAYER_5
 10
171.6615
 20
35.953
  0
VERTEX
  8
LAYER_5
 10
171.5327
 20
35.9375
 42
-0.0997799169
  0
VERTEX
  8
LAYER_5
 10
171.3167
 20
35.9785
 42
-0.102530266
  0
VERTEX
  8
LAYER_5
 10
171.1461
 20
36.0915
 42
-0.09968794278
  0
VERTEX
  8
LAYER_5
 10
171.0345
 20
36.2631
 42
-0.09630702324
  0
VERTEX
  8
LAYER_5
 10
170.9942
 20
36.4805
 42
-0.1018981748
  0
VERTEX
  8
LAYER_5
 10
171.0352
 20
36.6978
 42
-0.09989904409
  0
VERTEX
  8
LAYER_5
 10
171.1479
 20
36.8694
 42
-0.09694965588
  0
VERTEX
  8
LAYER_5
 10
171.3187
 20
36.9824
 42
-0.09744116728
  0
VERTEX
  8
LAYER_5
 10
171.5327
 20
37.0234
  0
VERTEX
  8
LAYER_5
 10
171.6443
 20
37.0114
  0
VERTEX
  8
LAYER_5
 10
171.7473
 20
36.9779
  0
VERTEX
  8
LAYER_5
 10
171.8348
 20
36.9263
  0
VERTEX
  8
LAYER_5
 10
171.9006
 20
36.8584
  0
VERTEX
  8
LAYER_5
 10
171.8131
 20
36.794
  0
VERTEX
  8
LAYER_5
 10
171.7697
 20
36.8439
  0
VERTEX
  8
LAYER_5
 10
171.7063
 20
36.8877
  0
VERTEX
  8
LAYER_5
 10
171.6267
 20
36.9183
  0
VERTEX
  8
LAYER_5
 10
171.5341
 20
36.93
 42
0.1106055686
  0
VERTEX
  8
LAYER_5
 10
171.3539
 20
36.8935
 42
0.1037389517
  0
VERTEX
  8
LAYER_5
 10
171.2188
 20
36.7954
 42
0.09534605581
  0
VERTEX
  8
LAYER_5
 10
171.1341
 20
36.652
 42
0.08447361069
  0
VERTEX
  8
LAYER_5
 10
171.1052
 20
36.4805
 42
0.09038739564
  0
VERTEX
  8
LAYER_5
 10
171.1351
 20
36.3089
 42
0.09795352863
  0
VERTEX
  8
LAYER_5
 10
171.2205
 20
36.1656
 42
0.1034747097
  0
VERTEX
  8
LAYER_5
 10
171.3556
 20
36.0674
 42
0.1064777274
  0
VERTEX
  8
LAYER_5
 10
171.5341
 20
36.0309
 42
0.1092499226
  0
VERTEX
  8
LAYER_5
 10
171.7032
 20
36.0674
 42
0.1370031249
  0
VERTEX
  8
LAYER_5
 10
171.8376
 20
36.1842
  0
SEQEND
  0
ENDBLK
  0
BLOCK
  8
LAYER_5
  2
AIGNBL05030024
 70
64
 10
0
 20
0
 30
0
  3
AIGNBL05030024
  0
POLYLINE
  8
LAYER_5
 40
0.05
 41
0.05
 66
1
 10
0
 20
0
 30
0
 70
1
  0
VERTEX
  8
LAYER_5
 10
172.4067
 20
36.0574
  0
VERTEX
  8
LAYER_5
 10
172.96
 20
36.0574
  0
VERTEX
  8
LAYER_5
 10
172.96
 20
35.9637
  0
VERTEX
  8
LAYER_5
 10
172.3016
 20
35.9637
  0
VERTEX
  8
LAYER_5
 10
172.3016
 20
36.9969
  0
VERTEX
  8
LAYER_5
 10
172.9424
 20
36.9969
  0
VERTEX
  8
LAYER_5
 10
172.9424
 20
36.9035
  0
VERTEX
  8
LAYER_5
 10
172.4067
 20
36.9035
  0
VERTEX
  8
LAYER_5
 10
172.4067
 20
36.549
  0
VERTEX
  8
LAYER_5
 10
172.9073
 20
36.549
  0
VERTEX
  8
LAYER_5
 10
172.9073
 20
36.4557
  0
VERTEX
  8
LAYER_5
 10
172.4067
 20
36.4557
  0
SEQEND
  0
ENDBLK
  0
BLOCK
  8
LAYER_1
  2
AIGNBL01020003
 70
64
 10
0
 20
0
 30
0
  3
AIGNBL01020003
  0
POLYLINE
  8
LAYER_1
 40
0.1058
 41
0.1058
 66
1
 10
0
 20
0
 30
0
  0
VERTEX
  8
LAYER_1
 10
77.1513
 20
198.6453
 42
0.1659949917
  0
VERTEX
  8
LAYER_1
 10
75.5232
 20
197.0173
  0
SEQEND
  0
ENDBLK
  0
BLOCK
  8
LAYER_1
  2
AIGNBL01020004
 70
64
 10
0
 20
0
 30
0
  3
AIGNBL01020004
  0
POLYLINE
  8
LAYER_1
 40
0.1058
 41
0.1058
 66
1
 10
0
 20
0
 30
0
  0
VERTEX
  8
LAYER_1
 10
77.3615
 20
199.2131
 42
0.2224084425
  0
VERTEX
  8
LAYER_1
 10
74.9563
 20
196.8078
  0
SEQEND
  0
ENDBLK
  0
BLOCK
  8
LAYER_1
  2
AIGNBL01020005
 70
64
 10
0
 20
0
 30
0
  3
AIGNBL01020005
  0
POLYLINE
  8
LAYER_1
 40
0.1058
 41
0.1058
 66
1
 10
0
 20
0
 30
0
  0
VERTEX
  8
LAYER_1
 10
81.9298
 20
197.0173
 42
0.1657534945
  0
VERTEX
  8
LAYER_1
 10
80.301
 20
198.6453
  0
SEQEND
  0
ENDBLK
  0
BLOCK
  8
LAYER_1
  2
AIGNBL01020006
 70
64
 10
0
 20
0
 30
0
  3
AIGNBL01020006
  0
POLYLINE
  8
LAYER_1
 40
0.1058
 41
0.1058
 66
1
 10
0
 20
0
 30
0
  0
VERTEX
  8
LAYER_1
 10
82.4967
 20
196.8078
 42
0.2220907616
  0
VERTEX
  8
LAYER_1
 10
80.0906
 20
199.2131
  0
SEQEND
  0
ENDBLK
  0
BLOCK
  8
LAYER_1
  2
AIGNBL01020007
 70
64
 10
0
 20
0
 30
0
  3
AIGNBL01020007
  0
POLYLINE
  8
LAYER_1
 40
0.1058
 41
0.1058
 66
1
 10
0
 20
0
 30
0
  0
VERTEX
  8
LAYER_1
 10
80.301
 20
192.2388
 42
0.1652905646
  0
VERTEX
  8
LAYER_1
 10
81.9298
 20
193.8668
  0
SEQEND
  0
ENDBLK
  0
BLOCK
  8
LAYER_1
  2
AIGNBL01020008
 70
64
 10
0
 20
0
 30
0
  3
AIGNBL01020008
  0
POLYLINE
  8
LAYER_1
 40
0.1058
 41
0.1058
 66
1
 10
0
 20
0
 30
0
  0
VERTEX
  8
LAYER_1
 10
80.0906
 20
191.6727
 42
0.222549601
  0
VERTEX
  8
LAYER_1
 10
82.4967
 20
194.0779
  0
SEQEND
  0
ENDBLK
  0
BLOCK
  8
LAYER_1
  2
AIGNBL01020009
 70
64
 10
0
 20
0
 30
0
  3
AIGNBL01020009
  0
POLYLINE
  8
LAYER_1
 40
0.1058
 41
0.1058
 66
1
 10
0
 20
0
 30
0
  0
VERTEX
  8
LAYER_1
 10
74.9315
 20
175.1598
  0
VERTEX
  8
LAYER_1
 10
74.9036
 20
175.6923
  0
SEQEND
  0
ENDBLK
  0
BLOCK
  8
LAYER_1
  2
AIGNBL0102000A
 70
64
 10
0
 20
0
 30
0
  3
AIGNBL0102000A
  0
POLYLINE
  8
LAYER_1
 40
0.1058
 41
0.1058
 66
1
 10
0
 20
0
 30
0
  0
VERTEX
  8
LAYER_1
 10
82.5207
 20
175.1606
  0
VERTEX
  8
LAYER_1
 10
82.5487
 20
175.6867
  0
SEQEND
  0
ENDBLK
  0
BLOCK
  8
LAYER_1
  2
AIGNBL0102000B
 70
64
 10
0
 20
0
 30
0
  3
AIGNBL0102000B
  0
POLYLINE
  8
LAYER_1
 40
0.1058
 41
0.1058
 66
1
 10
0
 20
0
 30
0
  0
VERTEX
  8
LAYER_1
 10
121.6948
 20
142.8624
  0
VERTEX
  8
LAYER_1
 10
114.5517
 20
145.8706
  0
SEQEND
  0
ENDBLK
  0
BLOCK
  8
LAYER_1
  2
AIGNBL0102000C
 70
64
 10
0
 20
0
 30
0
  3
AIGNBL0102000C
  0
POLYLINE
  8
LAYER_1
 40
0.1058
 41
0.1058
 66
1
 10
0
 20
0
 30
0
  0
VERTEX
  8
LAYER_1
 10
75.5232
 20
193.8668
 42
0.1655323394
  0
VERTEX
  8
LAYER_1
 10
77.1513
 20
192.2388
  0
SEQEND
  0
ENDBLK
  0
BLOCK
  8
LAYER_1
  2
AIGNBL0102000D
 70
64
 10
0
 20
0
 30
0
  3
AIGNBL0102000D
  0
POLYLINE
  8
LAYER_1
 40
0.1058
 41
0.1058
 66
1
 10
0
 20
0
 30
0
  0
VERTEX
  8
LAYER_1
 10
74.9563
 20
194.0779
 42
0.222866964
  0
VERTEX
  8
LAYER_1
 10
77.3615
 20
191.6727
  0
SEQEND
  0
ENDBLK
  0
BLOCK
  8
LAYER_1
  2
AIGNBL0102000E
 70
64
 10
0
 20
0
 30
0
  3
AIGNBL0102000E
  0
POLYLINE
  8
LAYER_1
 40
0.1058
 41
0.1058
 66
1
 10
0
 20
0
 30
0
  0
VERTEX
  8
LAYER_1
 10
141.1806
 20
146.7565
  0
VERTEX
  8
LAYER_1
 10
148.318
 20
146.7565
  0
SEQEND
  0
ENDBLK
  0
BLOCK
  8
LAYER_1
  2
AIGNBL0102000F
 70
64
 10
0
 20
0
 30
0
  3
AIGNBL0102000F
  0
POLYLINE
  8
LAYER_1
 40
0.1058
 41
0.1058
 66
1
 10
0
 20
0
 30
0
  0
VERTEX
  8
LAYER_1
 10
147.9814
 20
145.2436
  0
VERTEX
  8
LAYER_1
 10
148.2972
 20
145.2436
  0
SEQEND
  0
ENDBLK
  0
BLOCK
  8
LAYER_1
  2
AIGNBL01020010
 70
64
 10
0
 20
0
 30
0
  3
AIGNBL01020010
  0
POLYLINE
  8
LAYER_1
 40
0.1058
 41
0.1058
 66
1
 10
0
 20
0
 30
0
  0
VERTEX
  8
LAYER_1
 10
148.2972
 20
145.2436
 42
0.137968031
  0
VERTEX
  8
LAYER_1
 10
148.366
 20
145.2644
  0
SEQEND
  0
ENDBLK
  0
BLOCK
  8
LAYER_1
  2
AIGNBL01020011
 70
64
 10
0
 20
0
 30
0
  3
AIGNBL01020011
  0
POLYLINE
  8
LAYER_1
 40
0.1058
 41
0.1058
 66
1
 10
0
 20
0
 30
0
  0
VERTEX
  8
LAYER_1
 10
148.3316
 20
146.7485
  0
VERTEX
  8
LAYER_1
 10
148.334
 20
146.7485
  0
SEQEND
  0
ENDBLK
  0
BLOCK
  8
LAYER_1
  2
AIGNBL01020012
 70
64
 10
0
 20
0
 30
0
  3
AIGNBL01020012
  0
POLYLINE
  8
LAYER_1
 40
0.1058
 41
0.1058
 66
1
 10
0
 20
0
 30
0
  0
VERTEX
  8
LAYER_1
 10
148.2557
 20
146.8621
 42
0.2609416672
  0
VERTEX
  8
LAYER_1
 10
148.318
 20
146.7565
  0
SEQEND
  0
ENDBLK
  0
BLOCK
  8
LAYER_1
  2
AIGNBL01020013
 70
64
 10
0
 20
0
 30
0
  3
AIGNBL01020013
  0
POLYLINE
  8
LAYER_1
 40
0.1058
 41
0.1058
 66
1
 10
0
 20
0
 30
0
  0
VERTEX
  8
LAYER_1
 10
148.366
 20
145.2644
 42
0.3923580734
  0
VERTEX
  8
LAYER_1
 10
148.6131
 20
146.4799
 42
0.1146799828
  0
VERTEX
  8
LAYER_1
 10
148.318
 20
146.7565
  0
SEQEND
  0
ENDBLK
  0
BLOCK
  8
LAYER_1
  2
AIGNBL01020014
 70
64
 10
0
 20
0
 30
0
  3
AIGNBL01020014
  0
POLYLINE
  8
LAYER_1
 40
0.1058
 41
0.1058
 66
1
 10
0
 20
0
 30
0
  0
VERTEX
  8
LAYER_1
 10
147.1649
 20
151.3135
 42
0.2751625918
  0
VERTEX
  8
LAYER_1
 10
147.053
 20
151.3831
  0
SEQEND
  0
ENDBLK
  0
BLOCK
  8
LAYER_1
  2
AIGNBL01020015
 70
64
 10
0
 20
0
 30
0
  3
AIGNBL01020015
  0
POLYLINE
  8
LAYER_1
 40
0.1058
 41
0.1058
 66
1
 10
0
 20
0
 30
0
  0
VERTEX
  8
LAYER_1
 10
148.2557
 20
146.8621
 42
0.1103304703
  0
VERTEX
  8
LAYER_1
 10
147.1649
 20
151.3135
  0
SEQEND
  0
ENDBLK
  0
BLOCK
  8
LAYER_1
  2
AIGNBL01020016
 70
64
 10
0
 20
0
 30
0
  3
AIGNBL01020016
  0
POLYLINE
  8
LAYER_1
 40
0.1058
 41
0.1058
 66
1
 10
0
 20
0
 30
0
  0
VERTEX
  8
LAYER_1
 10
144.7486
 20
151.3831
  0
VERTEX
  8
LAYER_1
 10
147.053
 20
151.3831
  0
SEQEND
  0
ENDBLK
  0
BLOCK
  8
LAYER_1
  2
AIGNBL01020017
 70
64
 10
0
 20
0
 30
0
  3
AIGNBL01020017
  0
POLYLINE
  8
LAYER_1
 40
0.1058
 41
0.1058
 66
1
 10
0
 20
0
 30
0
  0
VERTEX
  8
LAYER_1
 10
141.1319
 20
145.2644
  0
VERTEX
  8
LAYER_1
 10
141.2014
 20
145.2436
  0
SEQEND
  0
ENDBLK
  0
BLOCK
  8
LAYER_1
  2
AIGNBL01020018
 70
64
 10
0
 20
0
 30
0
  3
AIGNBL01020018
  0
POLYLINE
  8
LAYER_1
 40
0.1058
 41
0.1058
 66
1
 10
0
 20
0
 30
0
  0
VERTEX
  8
LAYER_1
 10
141.5093
 20
145.2436
  0
VERTEX
  8
LAYER_1
 10
141.2014
 20
145.2436
  0
SEQEND
  0
ENDBLK
  0
BLOCK
  8
LAYER_1
  2
AIGNBL01020019
 70
64
 10
0
 20
0
 30
0
  3
AIGNBL01020019
  0
POLYLINE
  8
LAYER_1
 40
0.1058
 41
0.1058
 66
1
 10
0
 20
0
 30
0
  0
VERTEX
  8
LAYER_1
 10
141.1663
 20
146.7485
  0
VERTEX
  8
LAYER_1
 10
141.1646
 20
146.7485
  0
SEQEND
  0
ENDBLK
  0
BLOCK
  8
LAYER_1
  2
AIGNBL0102001A
 70
64
 10
0
 20
0
 30
0
  3
AIGNBL0102001A
  0
POLYLINE
  8
LAYER_1
 40
0.1058
 41
0.1058
 66
1
 10
0
 20
0
 30
0
  0
VERTEX
  8
LAYER_1
 10
141.1806
 20
146.7565
 42
0.2567803438
  0
VERTEX
  8
LAYER_1
 10
141.2422
 20
146.8621
  0
SEQEND
  0
ENDBLK
  0
BLOCK
  8
LAYER_1
  2
AIGNBL0102001B
 70
64
 10
0
 20
0
 30
0
  3
AIGNBL0102001B
  0
POLYLINE
  8
LAYER_1
 40
0.1058
 41
0.1058
 66
1
 10
0
 20
0
 30
0
  0
VERTEX
  8
LAYER_1
 10
141.1806
 20
146.7565
 42
0.4141723389
  0
VERTEX
  8
LAYER_1
 10
140.8559
 20
145.5587
 42
0.116965042
  0
VERTEX
  8
LAYER_1
 10
141.1319
 20
145.2644
  0
SEQEND
  0
ENDBLK
  0
BLOCK
  8
LAYER_1
  2
AIGNBL0102001C
 70
64
 10
0
 20
0
 30
0
  3
AIGNBL0102001C
  0
POLYLINE
  8
LAYER_1
 40
0.1058
 41
0.1058
 66
1
 10
0
 20
0
 30
0
  0
VERTEX
  8
LAYER_1
 10
142.4457
 20
151.3831
 42
0.2753816259
  0
VERTEX
  8
LAYER_1
 10
142.3329
 20
151.3135
  0
SEQEND
  0
ENDBLK
  0
BLOCK
  8
LAYER_1
  2
AIGNBL0102001D
 70
64
 10
0
 20
0
 30
0
  3
AIGNBL0102001D
  0
POLYLINE
  8
LAYER_1
 40
0.1058
 41
0.1058
 66
1
 10
0
 20
0
 30
0
  0
VERTEX
  8
LAYER_1
 10
142.3329
 20
151.3135
 42
0.1100619271
  0
VERTEX
  8
LAYER_1
 10
141.2422
 20
146.8621
  0
SEQEND
  0
ENDBLK
  0
BLOCK
  8
LAYER_1
  2
AIGNBL0102001E
 70
64
 10
0
 20
0
 30
0
  3
AIGNBL0102001E
  0
POLYLINE
  8
LAYER_1
 40
0.1058
 41
0.1058
 66
1
 10
0
 20
0
 30
0
  0
VERTEX
  8
LAYER_1
 10
142.4457
 20
151.3831
  0
VERTEX
  8
LAYER_1
 10
144.7486
 20
151.3831
  0
SEQEND
  0
ENDBLK
  0
BLOCK
  8
LAYER_1
  2
AIGNBL0102001F
 70
64
 10
0
 20
0
 30
0
  3
AIGNBL0102001F
  0
POLYLINE
  8
LAYER_1
 40
0.05
 41
0.05
 66
1
 10
0
 20
0
 30
0
 70
1
  0
VERTEX
  8
LAYER_1
 10
81.482
 20
142.517
 42
-0.2110308995
  0
VERTEX
  8
LAYER_1
 10
81.2908
 20
142.1242
 42
-0.05789697016
  0
VERTEX
  8
LAYER_1
 10
81.0478
 20
141.9397
 42
-0.04324486383
  0
VERTEX
  8
LAYER_1
 10
80.6748
 20
141.7597
 42
-0.06666611655
  0
VERTEX
  8
LAYER_1
 10
79.513
 20
141.4905
 42
-0.02873667289
  0
VERTEX
  8
LAYER_1
 10
78.7257
 20
141.4462
 42
-0.0585762075
  0
VERTEX
  8
LAYER_1
 10
77.24
 20
141.6148
 42
-0.07813700199
  0
VERTEX
  8
LAYER_1
 10
76.3345
 20
141.9838
 42
-0.1484702618
  0
VERTEX
  8
LAYER_1
 10
75.9915
 20
142.3805
 42
-0.07993424365
  0
VERTEX
  8
LAYER_1
 10
75.9694
 20
142.517
 42
-0.211267199
  0
VERTEX
  8
LAYER_1
 10
76.1606
 20
142.909
 42
-0.05780239778
  0
VERTEX
  8
LAYER_1
 10
76.4036
 20
143.0933
 42
-0.04316867258
  0
VERTEX
  8
LAYER_1
 10
76.7767
 20
143.2732
 42
-0.06660827001
  0
VERTEX
  8
LAYER_1
 10
77.9385
 20
143.5425
 42
-0.02876384349
  0
VERTEX
  8
LAYER_1
 10
78.7257
 20
143.5868
 42
-0.0586054446
  0
VERTEX
  8
LAYER_1
 10
80.2114
 20
143.4181
 42
-0.07802688038
  0
VERTEX
  8
LAYER_1
 10
81.1169
 20
143.0492
 42
-0.1483164577
  0
VERTEX
  8
LAYER_1
 10
81.4599
 20
142.6531
 42
-0.08011718119
  0
VERTEX
  8
LAYER_1
 10
81.482
 20
142.517
 42
-0.2110308995
  0
VERTEX
  8
LAYER_1
 10
81.2908
 20
142.1242
 42
-0.05789697016
  0
VERTEX
  8
LAYER_1
 10
81.0478
 20
141.9397
 42
-0.04324486383
  0
VERTEX
  8
LAYER_1
 10
80.6748
 20
141.7597
 42
-0.06666611655
  0
VERTEX
  8
LAYER_1
 10
79.513
 20
141.4905
 42
-0.02873667289
  0
VERTEX
  8
LAYER_1
 10
78.7257
 20
141.4462
 42
-0.0585762075
  0
VERTEX
  8
LAYER_1
 10
77.24
 20
141.6148
 42
-0.07813700199
  0
VERTEX
  8
LAYER_1
 10
76.3345
 20
141.9838
 42
-0.1484702618
  0
VERTEX
  8
LAYER_1
 10
75.9915
 20
142.3805
 42
-0.07993424365
  0
VERTEX
  8
LAYER_1
 10
75.9694
 20
142.517
 42
-0.211267199
  0
VERTEX
  8
LAYER_1
 10
76.1606
 20
142.909
 42
-0.05780239778
  0
VERTEX
  8
LAYER_1
 10
76.4036
 20
143.0933
 42
-0.04316867258
  0
VERTEX
  8
LAYER_1
 10
76.7767
 20
143.2732
 42
-0.06660827001
  0
VERTEX
  8
LAYER_1
 10
77.9385
 20
143.5425
 42
-0.02876384349
  0
VERTEX
  8
LAYER_1
 10
78.7257
 20
143.5868
 42
-0.0586054446
  0
VERTEX
  8
LAYER_1
 10
80.2114
 20
143.4181
 42
-0.07802688038
  0
VERTEX
  8
LAYER_1
 10
81.1169
 20
143.0492
 42
-0.1483164577
  0
VERTEX
  8
LAYER_1
 10
81.4599
 20
142.6531
 42
-0.08011718119
  0
SEQEND
  0
INSERT
  8
LAYER_1
  2
AIGNBL01030020
 10
0
 20
0
 30
0
  0
ENDBLK
  0
BLOCK
  8
LAYER_1
  2
AIGNBL01020021
 70
64
 10
0
 20
0
 30
0
  3
AIGNBL01020021
  0
INSERT
  8
LAYER_1
  2
AIGNBL01030022
 10
0
 20
0
 30
0
  0
INSERT
  8
LAYER_1
  2
AIGNBL01030023
 10
0
 20
0
 30
0
  0
INSERT
  8
LAYER_1
  2
AIGNBL01030024
 10
0
 20
0
 30
0
  0
INSERT
  8
LAYER_1
  2
AIGNBL01030025
 10
0
 20
0
 30
0
  0
INSERT
  8
LAYER_1
  2
AIGNBL01030026
 10
0
 20
0
 30
0
  0
INSERT
  8
LAYER_1
  2
AIGNBL01030027
 10
0
 20
0
 30
0
  0
INSERT
  8
LAYER_1
  2
AIGNBL01030028
 10
0
 20
0
 30
0
  0
INSERT
  8
LAYER_1
  2
AIGNBL0103002C
 10
0
 20
0
 30
0
  0
INSERT
  8
LAYER_1
  2
AIGNBL01030030
 10
0
 20
0
 30
0
  0
INSERT
  8
LAYER_1
  2
AIGNBL01030031
 10
0
 20
0
 30
0
  0
INSERT
  8
LAYER_1
  2
AIGNBL01030032
 10
0
 20
0
 30
0
  0
INSERT
  8
LAYER_1
  2
AIGNBL01030033
 10
0
 20
0
 30
0
  0
ENDBLK
  0
BLOCK
  8
LAYER_1
  2
AIGNBL01020034
 70
64
 10
0
 20
0
 30
0
  3
AIGNBL01020034
  0
INSERT
  8
LAYER_1
  2
AIGNBL01030035
 10
0
 20
0
 30
0
  0
INSERT
  8
LAYER_1
  2
AIGNBL01030036
 10
0
 20
0
 30
0
  0
INSERT
  8
LAYER_1
  2
AIGNBL01030037
 10
0
 20
0
 30
0
  0
INSERT
  8
LAYER_1
  2
AIGNBL01030038
 10
0
 20
0
 30
0
  0
INSERT
  8
LAYER_1
  2
AIGNBL0103003C
 10
0
 20
0
 30
0
  0
INSERT
  8
LAYER_1
  2
AIGNBL01030040
 10
0
 20
0
 30
0
  0
INSERT
  8
LAYER_1
  2
AIGNBL01030041
 10
0
 20
0
 30
0
  0
INSERT
  8
LAYER_1
  2
AIGNBL01030042
 10
0
 20
0
 30
0
  0
INSERT
  8
LAYER_1
  2
AIGNBL01030043
 10
0
 20
0
 30
0
  0
ENDBLK
  0
BLOCK
  8
LAYER_1
  2
AIGNBL01020044
 70
64
 10
0
 20
0
 30
0
  3
AIGNBL01020044
  0
POLYLINE
  8
LAYER_1
  6
AIGENLINE001
 40
0.1058
 41
0.1058
 66
1
 10
0
 20
0
 30
0
 70
128
  0
VERTEX
  8
LAYER_1
 10
68.5154
 20
195.442
  0
VERTEX
  8
LAYER_1
 10
88.9376
 20
195.442
  0
SEQEND
  0
ENDBLK
  0
BLOCK
  8
LAYER_1
  2
AIGNBL01020045
 70
64
 10
0
 20
0
 30
0
  3
AIGNBL01020045
  0
POLYLINE
  8
LAYER_1
  6
AIGENLINE001
 40
0.1058
 41
0.1058
 66
1
 10
0
 20
0
 30
0
 70
128
  0
VERTEX
  8
LAYER_1
 10
116.7843
 20
141.3615
  0
VERTEX
  8
LAYER_1
 10
118.5467
 20
145.5475
  0
SEQEND
  0
ENDBLK
  0
BLOCK
  8
LAYER_1
  2
AIGNBL01020046
 70
64
 10
0
 20
0
 30
0
  3
AIGNBL01020046
  0
POLYLINE
  8
LAYER_1
 40
0.1058
 41
0.1058
 66
1
 10
0
 20
0
 30
0
  0
VERTEX
  8
LAYER_1
 10
141.4909
 20
145.2436
  0
VERTEX
  8
LAYER_1
 10
148.0069
 20
145.2436
  0
SEQEND
  0
ENDBLK
  0
BLOCK
  8
LAYER_1
  2
AIGNBL01020047
 70
64
 10
0
 20
0
 30
0
  3
AIGNBL01020047
  0
POLYLINE
  8
LAYER_1
 40
0.1058
 41
0.1058
 66
1
 10
0
 20
0
 30
0
  0
VERTEX
  8
LAYER_1
 10
146.4749
 20
152.2115
 42
0.1449177841
  0
VERTEX
  8
LAYER_1
 10
146.3533
 20
151.7989
  0
SEQEND
  0
ENDBLK
  0
BLOCK
  8
LAYER_1
  2
AIGNBL01020048
 70
64
 10
0
 20
0
 30
0
  3
AIGNBL01020048
  0
POLYLINE
  8
LAYER_1
 40
0.1058
 41
0.1058
 66
1
 10
0
 20
0
 30
0
  0
VERTEX
  8
LAYER_1
 10
146.3533
 20
151.7989
  0
VERTEX
  8
LAYER_1
 10
146.3533
 20
151.3831
  0
SEQEND
  0
ENDBLK
  0
BLOCK
  8
LAYER_1
  2
AIGNBL01020049
 70
64
 10
0
 20
0
 30
0
  3
AIGNBL01020049
  0
POLYLINE
  8
LAYER_1
 40
0.1058
 41
0.1058
 66
1
 10
0
 20
0
 30
0
  0
VERTEX
  8
LAYER_1
 10
144.7486
 20
152.01
  0
VERTEX
  8
LAYER_1
 10
143.1453
 20
152.01
  0
SEQEND
  0
ENDBLK
  0
BLOCK
  8
LAYER_1
  2
AIGNBL0102004A
 70
64
 10
0
 20
0
 30
0
  3
AIGNBL0102004A
  0
POLYLINE
  8
LAYER_1
 40
0.1058
 41
0.1058
 66
1
 10
0
 20
0
 30
0
  0
VERTEX
  8
LAYER_1
 10
144.7486
 20
152.01
  0
VERTEX
  8
LAYER_1
 10
146.3533
 20
152.01
  0
SEQEND
  0
ENDBLK
  0
BLOCK
  8
LAYER_1
  2
AIGNBL0102004B
 70
64
 10
0
 20
0
 30
0
  3
AIGNBL0102004B
  0
POLYLINE
  8
LAYER_1
 40
0.1058
 41
0.1058
 66
1
 10
0
 20
0
 30
0
  0
VERTEX
  8
LAYER_1
 10
143.1453
 20
151.7989
  0
VERTEX
  8
LAYER_1
 10
143.1453
 20
151.3831
  0
SEQEND
  0
ENDBLK
  0
BLOCK
  8
LAYER_1
  2
AIGNBL0102004C
 70
64
 10
0
 20
0
 30
0
  3
AIGNBL0102004C
  0
POLYLINE
  8
LAYER_1
 40
0.1058
 41
0.1058
 66
1
 10
0
 20
0
 30
0
  0
VERTEX
  8
LAYER_1
 10
143.1453
 20
151.7989
 42
0.1450341257
  0
VERTEX
  8
LAYER_1
 10
143.0229
 20
152.2115
  0
SEQEND
  0
ENDBLK
  0
BLOCK
  8
LAYER_1
  2
AIGNBL0102004D
 70
64
 10
0
 20
0
 30
0
  3
AIGNBL0102004D
  0
POLYLINE
  8
LAYER_1
 40
0.1058
 41
0.1058
 66
1
 10
0
 20
0
 30
0
  0
VERTEX
  8
LAYER_1
 10
147.2545
 20
157.6489
 42
0.249902062
  0
VERTEX
  8
LAYER_1
 10
142.2433
 20
157.6489
  0
SEQEND
  0
ENDBLK
  0
BLOCK
  8
LAYER_1
  2
AIGNBL0102004E
 70
64
 10
0
 20
0
 30
0
  3
AIGNBL0102004E
  0
POLYLINE
  8
LAYER_1
 40
0.1058
 41
0.1058
 66
1
 10
0
 20
0
 30
0
  0
VERTEX
  8
LAYER_1
 10
142.2433
 20
157.6489
  0
VERTEX
  8
LAYER_1
 10
142.2433
 20
157.2723
  0
SEQEND
  0
ENDBLK
  0
BLOCK
  8
LAYER_1
  2
AIGNBL0102004F
 70
64
 10
0
 20
0
 30
0
  3
AIGNBL0102004F
  0
POLYLINE
  8
LAYER_1
 40
0.1058
 41
0.1058
 66
1
 10
0
 20
0
 30
0
  0
VERTEX
  8
LAYER_1
 10
144.7486
 20
157.6489
  0
VERTEX
  8
LAYER_1
 10
142.2433
 20
157.6489
  0
SEQEND
  0
ENDBLK
  0
BLOCK
  8
LAYER_1
  2
AIGNBL01020050
 70
64
 10
0
 20
0
 30
0
  3
AIGNBL01020050
  0
POLYLINE
  8
LAYER_1
 40
0.1058
 41
0.1058
 66
1
 10
0
 20
0
 30
0
  0
VERTEX
  8
LAYER_1
 10
142.3145
 20
157.2723
 42
0.2288104268
  0
VERTEX
  8
LAYER_1
 10
142.0162
 20
157.126
  0
SEQEND
  0
ENDBLK
  0
BLOCK
  8
LAYER_1
  2
AIGNBL01020051
 70
64
 10
0
 20
0
 30
0
  3
AIGNBL01020051
  0
POLYLINE
  8
LAYER_1
 40
0.1058
 41
0.1058
 66
1
 10
0
 20
0
 30
0
  0
VERTEX
  8
LAYER_1
 10
147.4816
 20
157.126
 42
0.2293742461
  0
VERTEX
  8
LAYER_1
 10
147.1834
 20
157.2723
  0
SEQEND
  0
ENDBLK
  0
BLOCK
  8
LAYER_1
  2
AIGNBL01020052
 70
64
 10
0
 20
0
 30
0
  3
AIGNBL01020052
  0
POLYLINE
  8
LAYER_1
 40
0.1058
 41
0.1058
 66
1
 10
0
 20
0
 30
0
  0
VERTEX
  8
LAYER_1
 10
147.2545
 20
157.6489
  0
VERTEX
  8
LAYER_1
 10
147.2545
 20
157.2723
  0
SEQEND
  0
ENDBLK
  0
BLOCK
  8
LAYER_1
  2
AIGNBL01020053
 70
64
 10
0
 20
0
 30
0
  3
AIGNBL01020053
  0
POLYLINE
  8
LAYER_1
 40
0.1058
 41
0.1058
 66
1
 10
0
 20
0
 30
0
  0
VERTEX
  8
LAYER_1
 10
144.7486
 20
157.6489
  0
VERTEX
  8
LAYER_1
 10
147.2545
 20
157.6489
  0
SEQEND
  0
ENDBLK
  0
BLOCK
  8
LAYER_1
  2
AIGNBL01020054
 70
64
 10
0
 20
0
 30
0
  3
AIGNBL01020054
  0
POLYLINE
  8
LAYER_1
 40
0.1058
 41
0.1058
 66
1
 10
0
 20
0
 30
0
 70
1
  0
VERTEX
  8
LAYER_1
 10
146.6284
 20
155.1421
 42
0.4142094661
  0
VERTEX
  8
LAYER_1
 10
144.7486
 20
157.0212
 42
0.4142206416
  0
VERTEX
  8
LAYER_1
 10
142.8702
 20
155.1421
 42
0.4142176575
  0
VERTEX
  8
LAYER_1
 10
144.7486
 20
153.263
 42
0.4142064847
  0
SEQEND
  0
ENDBLK
  0
BLOCK
  8
LAYER_1
  2
AIGNBL01020055
 70
64
 10
0
 20
0
 30
0
  3
AIGNBL01020055
  0
POLYLINE
  8
LAYER_1
 40
0.1058
 41
0.1058
 66
1
 10
0
 20
0
 30
0
  0
VERTEX
  8
LAYER_1
 10
138.5683
 20
156.7933
 42
0.1782702161
  0
VERTEX
  8
LAYER_1
 10
140.8016
 20
156.4655
  0
SEQEND
  0
ENDBLK
  0
BLOCK
  8
LAYER_1
  2
AIGNBL01020056
 70
64
 10
0
 20
0
 30
0
  3
AIGNBL01020056
  0
POLYLINE
  8
LAYER_1
 40
0.1058
 41
0.1058
 66
1
 10
0
 20
0
 30
0
  0
VERTEX
  8
LAYER_1
 10
140.8016
 20
153.8188
 42
0.1782710428
  0
VERTEX
  8
LAYER_1
 10
138.5683
 20
153.4925
  0
SEQEND
  0
ENDBLK
  0
BLOCK
  8
LAYER_1
  2
AIGNBL01020057
 70
64
 10
0
 20
0
 30
0
  3
AIGNBL01020057
  0
POLYLINE
  8
LAYER_1
 40
0.1058
 41
0.1058
 66
1
 10
0
 20
0
 30
0
  0
VERTEX
  8
LAYER_1
 10
140.8016
 20
156.4655
 42
0.2111749211
  0
VERTEX
  8
LAYER_1
 10
142.0162
 20
157.126
  0
SEQEND
  0
ENDBLK
  0
BLOCK
  8
LAYER_1
  2
AIGNBL01020058
 70
64
 10
0
 20
0
 30
0
  3
AIGNBL01020058
  0
POLYLINE
  8
LAYER_1
 40
0.1058
 41
0.1058
 66
1
 10
0
 20
0
 30
0
  0
VERTEX
  8
LAYER_1
 10
144.7486
 20
157.2723
  0
VERTEX
  8
LAYER_1
 10
142.3145
 20
157.2723
  0
SEQEND
  0
ENDBLK
  0
BLOCK
  8
LAYER_1
  2
AIGNBL01020059
 70
64
 10
0
 20
0
 30
0
  3
AIGNBL01020059
  0
POLYLINE
  8
LAYER_1
 40
0.1058
 41
0.1058
 66
1
 10
0
 20
0
 30
0
  0
VERTEX
  8
LAYER_1
 10
147.4816
 20
157.126
 42
0.2111722829
  0
VERTEX
  8
LAYER_1
 10
148.6962
 20
156.4655
  0
SEQEND
  0
ENDBLK
  0
BLOCK
  8
LAYER_1
  2
AIGNBL0102005A
 70
64
 10
0
 20
0
 30
0
  3
AIGNBL0102005A
  0
POLYLINE
  8
LAYER_1
 40
0.1058
 41
0.1058
 66
1
 10
0
 20
0
 30
0
  0
VERTEX
  8
LAYER_1
 10
150.9304
 20
153.4925
 42
0.1781962818
  0
VERTEX
  8
LAYER_1
 10
148.6962
 20
153.8188
  0
SEQEND
  0
ENDBLK
  0
BLOCK
  8
LAYER_1
  2
AIGNBL0102005B
 70
64
 10
0
 20
0
 30
0
  3
AIGNBL0102005B
  0
POLYLINE
  8
LAYER_1
 40
0.1058
 41
0.1058
 66
1
 10
0
 20
0
 30
0
  0
VERTEX
  8
LAYER_1
 10
148.6962
 20
156.4655
 42
0.1781954552
  0
VERTEX
  8
LAYER_1
 10
150.9304
 20
156.7933
  0
SEQEND
  0
ENDBLK
  0
BLOCK
  8
LAYER_1
  2
AIGNBL0102005C
 70
64
 10
0
 20
0
 30
0
  3
AIGNBL0102005C
  0
POLYLINE
  8
LAYER_1
 40
0.1058
 41
0.1058
 66
1
 10
0
 20
0
 30
0
  0
VERTEX
  8
LAYER_1
 10
144.7486
 20
157.2723
  0
VERTEX
  8
LAYER_1
 10
147.1834
 20
157.2723
  0
SEQEND
  0
ENDBLK
  0
BLOCK
  8
LAYER_1
  2
AIGNBL0102005D
 70
64
 10
0
 20
0
 30
0
  3
AIGNBL0102005D
  0
POLYLINE
  8
LAYER_1
 40
0.1058
 41
0.1058
 66
1
 10
0
 20
0
 30
0
  0
VERTEX
  8
LAYER_1
 10
150.9304
 20
153.4925
 42
0.3937250374
  0
VERTEX
  8
LAYER_1
 10
153.4795
 20
154.2441
 42
0.4144213342
  0
VERTEX
  8
LAYER_1
 10
152.7271
 20
156.7933
 42
0.2549843383
  0
VERTEX
  8
LAYER_1
 10
150.9304
 20
156.7933
  0
SEQEND
  0
ENDBLK
  0
BLOCK
  8
LAYER_1
  2
AIGNBL0102005E
 70
64
 10
0
 20
0
 30
0
  3
AIGNBL0102005E
  0
POLYLINE
  8
LAYER_1
 40
0.1058
 41
0.1058
 66
1
 10
0
 20
0
 30
0
  0
VERTEX
  8
LAYER_1
 10
148.6962
 20
153.8188
 42
0.1854255856
  0
VERTEX
  8
LAYER_1
 10
146.4749
 20
152.2115
  0
SEQEND
  0
ENDBLK
  0
BLOCK
  8
LAYER_1
  2
AIGNBL0102005F
 70
64
 10
0
 20
0
 30
0
  3
AIGNBL0102005F
  0
POLYLINE
  8
LAYER_1
 40
0.1058
 41
0.1058
 66
1
 10
0
 20
0
 30
0
  0
VERTEX
  8
LAYER_1
 10
143.0229
 20
152.2115
 42
0.1854251121
  0
VERTEX
  8
LAYER_1
 10
140.8016
 20
153.8188
  0
SEQEND
  0
ENDBLK
  0
BLOCK
  8
LAYER_1
  2
AIGNBL01020060
 70
64
 10
0
 20
0
 30
0
  3
AIGNBL01020060
  0
POLYLINE
  8
LAYER_1
 40
0.1058
 41
0.1058
 66
1
 10
0
 20
0
 30
0
  0
VERTEX
  8
LAYER_1
 10
138.5683
 20
156.7933
 42
0.4139049819
  0
VERTEX
  8
LAYER_1
 10
136.0191
 20
156.0409
 42
0.4145355977
  0
VERTEX
  8
LAYER_1
 10
136.7708
 20
153.4925
 42
0.2547943192
  0
VERTEX
  8
LAYER_1
 10
138.5683
 20
153.4925
  0
SEQEND
  0
ENDBLK
  0
BLOCK
  8
LAYER_1
  2
AIGNBL01020061
 70
64
 10
0
 20
0
 30
0
  3
AIGNBL01020061
  0
POLYLINE
  8
LAYER_1
 40
0.1058
 41
0.1058
 66
1
 10
0
 20
0
 30
0
  0
VERTEX
  8
LAYER_1
 10
142.4936
 20
157.6489
  0
VERTEX
  8
LAYER_1
 10
142.4936
 20
157.2723
  0
SEQEND
  0
ENDBLK
  0
BLOCK
  8
LAYER_1
  2
AIGNBL01020062
 70
64
 10
0
 20
0
 30
0
  3
AIGNBL01020062
  0
POLYLINE
  8
LAYER_1
 40
0.1058
 41
0.1058
 66
1
 10
0
 20
0
 30
0
  0
VERTEX
  8
LAYER_1
 10
142.7439
 20
157.6489
  0
VERTEX
  8
LAYER_1
 10
142.7439
 20
157.2723
  0
SEQEND
  0
ENDBLK
  0
BLOCK
  8
LAYER_1
  2
AIGNBL01020063
 70
64
 10
0
 20
0
 30
0
  3
AIGNBL01020063
  0
POLYLINE
  8
LAYER_1
 40
0.1058
 41
0.1058
 66
1
 10
0
 20
0
 30
0
  0
VERTEX
  8
LAYER_1
 10
142.9949
 20
157.6489
  0
VERTEX
  8
LAYER_1
 10
142.9949
 20
157.2723
  0
SEQEND
  0
ENDBLK
  0
BLOCK
  8
LAYER_1
  2
AIGNBL01020064
 70
64
 10
0
 20
0
 30
0
  3
AIGNBL01020064
  0
POLYLINE
  8
LAYER_1
 40
0.1058
 41
0.1058
 66
1
 10
0
 20
0
 30
0
  0
VERTEX
  8
LAYER_1
 10
143.2461
 20
157.6489
  0
VERTEX
  8
LAYER_1
 10
143.2461
 20
157.2723
  0
SEQEND
  0
ENDBLK
  0
BLOCK
  8
LAYER_1
  2
AIGNBL01020065
 70
64
 10
0
 20
0
 30
0
  3
AIGNBL01020065
  0
POLYLINE
  8
LAYER_1
 40
0.1058
 41
0.1058
 66
1
 10
0
 20
0
 30
0
  0
VERTEX
  8
LAYER_1
 10
143.4964
 20
157.6489
  0
VERTEX
  8
LAYER_1
 10
143.4964
 20
157.2723
  0
SEQEND
  0
ENDBLK
  0
BLOCK
  8
LAYER_1
  2
AIGNBL01020066
 70
64
 10
0
 20
0
 30
0
  3
AIGNBL01020066
  0
POLYLINE
  8
LAYER_1
 40
0.1058
 41
0.1058
 66
1
 10
0
 20
0
 30
0
  0
VERTEX
  8
LAYER_1
 10
143.7466
 20
157.6489
  0
VERTEX
  8
LAYER_1
 10
143.7466
 20
157.2723
  0
SEQEND
  0
ENDBLK
  0
BLOCK
  8
LAYER_1
  2
AIGNBL01020067
 70
64
 10
0
 20
0
 30
0
  3
AIGNBL01020067
  0
POLYLINE
  8
LAYER_1
 40
0.1058
 41
0.1058
 66
1
 10
0
 20
0
 30
0
  0
VERTEX
  8
LAYER_1
 10
143.9969
 20
157.6489
  0
VERTEX
  8
LAYER_1
 10
143.9969
 20
157.2723
  0
SEQEND
  0
ENDBLK
  0
BLOCK
  8
LAYER_1
  2
AIGNBL01020068
 70
64
 10
0
 20
0
 30
0
  3
AIGNBL01020068
  0
POLYLINE
  8
LAYER_1
 40
0.1058
 41
0.1058
 66
1
 10
0
 20
0
 30
0
  0
VERTEX
  8
LAYER_1
 10
144.2471
 20
157.6489
  0
VERTEX
  8
LAYER_1
 10
144.2471
 20
157.2723
  0
SEQEND
  0
ENDBLK
  0
BLOCK
  8
LAYER_1
  2
AIGNBL01020069
 70
64
 10
0
 20
0
 30
0
  3
AIGNBL01020069
  0
POLYLINE
  8
LAYER_1
 40
0.1058
 41
0.1058
 66
1
 10
0
 20
0
 30
0
  0
VERTEX
  8
LAYER_1
 10
144.4983
 20
157.6489
  0
VERTEX
  8
LAYER_1
 10
144.4983
 20
157.2723
  0
SEQEND
  0
ENDBLK
  0
BLOCK
  8
LAYER_1
  2
AIGNBL0102006A
 70
64
 10
0
 20
0
 30
0
  3
AIGNBL0102006A
  0
POLYLINE
  8
LAYER_1
 40
0.1058
 41
0.1058
 66
1
 10
0
 20
0
 30
0
  0
VERTEX
  8
LAYER_1
 10
144.7486
 20
157.6489
  0
VERTEX
  8
LAYER_1
 10
144.7486
 20
157.2723
  0
SEQEND
  0
ENDBLK
  0
BLOCK
  8
LAYER_1
  2
AIGNBL0102006B
 70
64
 10
0
 20
0
 30
0
  3
AIGNBL0102006B
  0
POLYLINE
  8
LAYER_1
 40
0.1058
 41
0.1058
 66
1
 10
0
 20
0
 30
0
  0
VERTEX
  8
LAYER_1
 10
145.0004
 20
157.6489
  0
VERTEX
  8
LAYER_1
 10
145.0004
 20
157.2723
  0
SEQEND
  0
ENDBLK
  0
BLOCK
  8
LAYER_1
  2
AIGNBL0102006C
 70
64
 10
0
 20
0
 30
0
  3
AIGNBL0102006C
  0
POLYLINE
  8
LAYER_1
 40
0.1058
 41
0.1058
 66
1
 10
0
 20
0
 30
0
  0
VERTEX
  8
LAYER_1
 10
145.2507
 20
157.6489
  0
VERTEX
  8
LAYER_1
 10
145.2507
 20
157.2723
  0
SEQEND
  0
ENDBLK
  0
BLOCK
  8
LAYER_1
  2
AIGNBL0102006D
 70
64
 10
0
 20
0
 30
0
  3
AIGNBL0102006D
  0
POLYLINE
  8
LAYER_1
 40
0.1058
 41
0.1058
 66
1
 10
0
 20
0
 30
0
  0
VERTEX
  8
LAYER_1
 10
145.501
 20
157.6489
  0
VERTEX
  8
LAYER_1
 10
145.501
 20
157.2723
  0
SEQEND
  0
ENDBLK
  0
BLOCK
  8
LAYER_1
  2
AIGNBL0102006E
 70
64
 10
0
 20
0
 30
0
  3
AIGNBL0102006E
  0
POLYLINE
  8
LAYER_1
 40
0.1058
 41
0.1058
 66
1
 10
0
 20
0
 30
0
  0
VERTEX
  8
LAYER_1
 10
145.7513
 20
157.6489
  0
VERTEX
  8
LAYER_1
 10
145.7513
 20
157.2723
  0
SEQEND
  0
ENDBLK
  0
BLOCK
  8
LAYER_1
  2
AIGNBL0102006F
 70
64
 10
0
 20
0
 30
0
  3
AIGNBL0102006F
  0
POLYLINE
  8
LAYER_1
 40
0.1058
 41
0.1058
 66
1
 10
0
 20
0
 30
0
  0
VERTEX
  8
LAYER_1
 10
146.0023
 20
157.6489
  0
VERTEX
  8
LAYER_1
 10
146.0023
 20
157.2723
  0
SEQEND
  0
ENDBLK
  0
BLOCK
  8
LAYER_1
  2
AIGNBL01020070
 70
64
 10
0
 20
0
 30
0
  3
AIGNBL01020070
  0
POLYLINE
  8
LAYER_1
 40
0.1058
 41
0.1058
 66
1
 10
0
 20
0
 30
0
  0
VERTEX
  8
LAYER_1
 10
146.2526
 20
157.6489
  0
VERTEX
  8
LAYER_1
 10
146.2526
 20
157.2723
  0
SEQEND
  0
ENDBLK
  0
BLOCK
  8
LAYER_1
  2
AIGNBL01020071
 70
64
 10
0
 20
0
 30
0
  3
AIGNBL01020071
  0
POLYLINE
  8
LAYER_1
 40
0.1058
 41
0.1058
 66
1
 10
0
 20
0
 30
0
  0
VERTEX
  8
LAYER_1
 10
146.5037
 20
157.6489
  0
VERTEX
  8
LAYER_1
 10
146.5037
 20
157.2723
  0
SEQEND
  0
ENDBLK
  0
BLOCK
  8
LAYER_1
  2
AIGNBL01020072
 70
64
 10
0
 20
0
 30
0
  3
AIGNBL01020072
  0
POLYLINE
  8
LAYER_1
 40
0.1058
 41
0.1058
 66
1
 10
0
 20
0
 30
0
  0
VERTEX
  8
LAYER_1
 10
146.7532
 20
157.6489
  0
VERTEX
  8
LAYER_1
 10
146.7532
 20
157.2723
  0
SEQEND
  0
ENDBLK
  0
BLOCK
  8
LAYER_1
  2
AIGNBL01020073
 70
64
 10
0
 20
0
 30
0
  3
AIGNBL01020073
  0
POLYLINE
  8
LAYER_1
 40
0.1058
 41
0.1058
 66
1
 10
0
 20
0
 30
0
  0
VERTEX
  8
LAYER_1
 10
147.0042
 20
157.6489
  0
VERTEX
  8
LAYER_1
 10
147.0042
 20
157.2723
  0
SEQEND
  0
ENDBLK
  0
BLOCK
  8
LAYER_1
  2
AIGNBL01020074
 70
64
 10
0
 20
0
 30
0
  3
AIGNBL01020074
  0
POLYLINE
  8
LAYER_1
 40
0.1058
 41
0.1058
 66
1
 10
0
 20
0
 30
0
  0
VERTEX
  8
LAYER_1
 10
142.4152
 20
128.5748
  0
VERTEX
  8
LAYER_1
 10
142.4152
 20
129.9102
  0
SEQEND
  0
ENDBLK
  0
BLOCK
  8
LAYER_1
  2
AIGNBL01020075
 70
64
 10
0
 20
0
 30
0
  3
AIGNBL01020075
  0
POLYLINE
  8
LAYER_1
 40
0.1058
 41
0.1058
 66
1
 10
0
 20
0
 30
0
  0
VERTEX
  8
LAYER_1
 10
142.4152
 20
130.2124
  0
VERTEX
  8
LAYER_1
 10
142.4152
 20
131.2104
  0
SEQEND
  0
ENDBLK
  0
BLOCK
  8
LAYER_1
  2
AIGNBL01020076
 70
64
 10
0
 20
0
 30
0
  3
AIGNBL01020076
  0
POLYLINE
  8
LAYER_1
 40
0.1058
 41
0.1058
 66
1
 10
0
 20
0
 30
0
  0
VERTEX
  8
LAYER_1
 10
142.4152
 20
131.4606
  0
VERTEX
  8
LAYER_1
 10
142.4152
 20
132.7136
  0
SEQEND
  0
ENDBLK
  0
BLOCK
  8
LAYER_1
  2
AIGNBL01020077
 70
64
 10
0
 20
0
 30
0
  3
AIGNBL01020077
  0
POLYLINE
  8
LAYER_1
 40
0.1058
 41
0.1058
 66
1
 10
0
 20
0
 30
0
  0
VERTEX
  8
LAYER_1
 10
142.4152
 20
132.9648
  0
VERTEX
  8
LAYER_1
 10
142.4152
 20
133.7132
  0
SEQEND
  0
ENDBLK
  0
BLOCK
  8
LAYER_1
  2
AIGNBL01020078
 70
64
 10
0
 20
0
 30
0
  3
AIGNBL01020078
  0
POLYLINE
  8
LAYER_1
 40
0.1058
 41
0.1058
 66
1
 10
0
 20
0
 30
0
  0
VERTEX
  8
LAYER_1
 10
142.1234
 20
133.7132
  0
VERTEX
  8
LAYER_1
 10
147.3753
 20
133.7132
  0
SEQEND
  0
ENDBLK
  0
BLOCK
  8
LAYER_1
  2
AIGNBL01020079
 70
64
 10
0
 20
0
 30
0
  3
AIGNBL01020079
  0
POLYLINE
  8
LAYER_1
 40
0.1058
 41
0.1058
 66
1
 10
0
 20
0
 30
0
  0
VERTEX
  8
LAYER_1
 10
142.1234
 20
134.2169
  0
VERTEX
  8
LAYER_1
 10
142.4152
 20
133.7132
  0
SEQEND
  0
ENDBLK
  0
BLOCK
  8
LAYER_1
  2
AIGNBL0102007A
 70
64
 10
0
 20
0
 30
0
  3
AIGNBL0102007A
  0
POLYLINE
  8
LAYER_1
 40
0.1058
 41
0.1058
 66
1
 10
0
 20
0
 30
0
  0
VERTEX
  8
LAYER_1
 10
142.4152
 20
122.7864
  0
VERTEX
  8
LAYER_1
 10
142.4152
 20
127.3226
  0
SEQEND
  0
ENDBLK
  0
BLOCK
  8
LAYER_1
  2
AIGNBL0102007B
 70
64
 10
0
 20
0
 30
0
  3
AIGNBL0102007B
  0
POLYLINE
  8
LAYER_1
 40
0.1058
 41
0.1058
 66
1
 10
0
 20
0
 30
0
  0
VERTEX
  8
LAYER_1
 10
148.0789
 20
122.5409
 42
0.1244057182
  0
VERTEX
  8
LAYER_1
 10
147.3769
 20
122.7864
  0
SEQEND
  0
ENDBLK
  0
BLOCK
  8
LAYER_1
  2
AIGNBL0102007C
 70
64
 10
0
 20
0
 30
0
  3
AIGNBL0102007C
  0
POLYLINE
  8
LAYER_1
 40
0.1058
 41
0.1058
 66
1
 10
0
 20
0
 30
0
  0
VERTEX
  8
LAYER_1
 10
148.0789
 20
122.5409
 42
0.2945834861
  0
VERTEX
  8
LAYER_1
 10
146.4149
 20
122.5409
  0
SEQEND
  0
ENDBLK
  0
BLOCK
  8
LAYER_1
  2
AIGNBL0102007D
 70
64
 10
0
 20
0
 30
0
  3
AIGNBL0102007D
  0
POLYLINE
  8
LAYER_1
 40
0.1058
 41
0.1058
 66
1
 10
0
 20
0
 30
0
  0
VERTEX
  8
LAYER_1
 10
148.0789
 20
122.5409
  0
VERTEX
  8
LAYER_1
 10
148.0789
 20
120.0413
  0
SEQEND
  0
ENDBLK
  0
BLOCK
  8
LAYER_1
  2
AIGNBL0102007E
 70
64
 10
0
 20
0
 30
0
  3
AIGNBL0102007E
  0
POLYLINE
  8
LAYER_1
 40
0.1058
 41
0.1058
 66
1
 10
0
 20
0
 30
0
  0
VERTEX
  8
LAYER_1
 10
146.4149
 20
122.5409
  0
VERTEX
  8
LAYER_1
 10
146.4149
 20
120.0349
  0
SEQEND
  0
ENDBLK
  0
BLOCK
  8
LAYER_1
  2
AIGNBL0102007F
 70
64
 10
0
 20
0
 30
0
  3
AIGNBL0102007F
  0
POLYLINE
  8
LAYER_1
 40
0.1058
 41
0.1058
 66
1
 10
0
 20
0
 30
0
  0
VERTEX
  8
LAYER_1
 10
146.4149
 20
120.0349
 42
0.3013879542
  0
VERTEX
  8
LAYER_1
 10
148.0789
 20
120.0349
  0
SEQEND
  0
ENDBLK
  0
BLOCK
  8
LAYER_1
  2
AIGNBL01020080
 70
64
 10
0
 20
0
 30
0
  3
AIGNBL01020080
  0
POLYLINE
  8
LAYER_1
 40
0.1058
 41
0.1058
 66
1
 10
0
 20
0
 30
0
  0
VERTEX
  8
LAYER_1
 10
147.2473
 20
119.7847
  0
VERTEX
  8
LAYER_1
 10
142.2553
 20
119.7847
  0
SEQEND
  0
ENDBLK
  0
BLOCK
  8
LAYER_1
  2
AIGNBL01020081
 70
64
 10
0
 20
0
 30
0
  3
AIGNBL01020081
  0
POLYLINE
  8
LAYER_1
 40
0.1058
 41
0.1058
 66
1
 10
0
 20
0
 30
0
  0
VERTEX
  8
LAYER_1
 10
143.0877
 20
120.0349
 42
0.1506870426
  0
VERTEX
  8
LAYER_1
 10
146.4149
 20
120.0349
  0
SEQEND
  0
ENDBLK
  0
BLOCK
  8
LAYER_1
  2
AIGNBL01020082
 70
64
 10
0
 20
0
 30
0
  3
AIGNBL01020082
  0
POLYLINE
  8
LAYER_1
 40
0.1058
 41
0.1058
 66
1
 10
0
 20
0
 30
0
  0
VERTEX
  8
LAYER_1
 10
141.4237
 20
120.0349
 42
0.3013879557
  0
VERTEX
  8
LAYER_1
 10
143.0877
 20
120.0349
  0
SEQEND
  0
ENDBLK
  0
BLOCK
  8
LAYER_1
  2
AIGNBL01020083
 70
64
 10
0
 20
0
 30
0
  3
AIGNBL01020083
  0
POLYLINE
  8
LAYER_1
 40
0.1058
 41
0.1058
 66
1
 10
0
 20
0
 30
0
  0
VERTEX
  8
LAYER_1
 10
141.4237
 20
122.5409
  0
VERTEX
  8
LAYER_1
 10
141.4237
 20
120.0349
  0
SEQEND
  0
ENDBLK
  0
BLOCK
  8
LAYER_1
  2
AIGNBL01020084
 70
64
 10
0
 20
0
 30
0
  3
AIGNBL01020084
  0
POLYLINE
  8
LAYER_1
 40
0.1058
 41
0.1058
 66
1
 10
0
 20
0
 30
0
  0
VERTEX
  8
LAYER_1
 10
142.1258
 20
122.7864
 42
0.1244882632
  0
VERTEX
  8
LAYER_1
 10
141.4237
 20
122.5409
  0
SEQEND
  0
ENDBLK
  0
BLOCK
  8
LAYER_1
  2
AIGNBL01020085
 70
64
 10
0
 20
0
 30
0
  3
AIGNBL01020085
  0
POLYLINE
  8
LAYER_1
 40
0.1058
 41
0.1058
 66
1
 10
0
 20
0
 30
0
  0
VERTEX
  8
LAYER_1
 10
147.3777
 20
122.7864
  0
VERTEX
  8
LAYER_1
 10
142.1258
 20
122.7864
  0
SEQEND
  0
ENDBLK
  0
BLOCK
  8
LAYER_1
  2
AIGNBL01020086
 70
64
 10
0
 20
0
 30
0
  3
AIGNBL01020086
  0
POLYLINE
  8
LAYER_1
 40
0.1058
 41
0.1058
 66
1
 10
0
 20
0
 30
0
  0
VERTEX
  8
LAYER_1
 10
143.0877
 20
122.5409
  0
VERTEX
  8
LAYER_1
 10
143.0877
 20
120.0349
  0
SEQEND
  0
ENDBLK
  0
BLOCK
  8
LAYER_1
  2
AIGNBL01020087
 70
64
 10
0
 20
0
 30
0
  3
AIGNBL01020087
  0
POLYLINE
  8
LAYER_1
 40
0.1058
 41
0.1058
 66
1
 10
0
 20
0
 30
0
  0
VERTEX
  8
LAYER_1
 10
146.4149
 20
122.5409
 42
0.1474189421
  0
VERTEX
  8
LAYER_1
 10
143.0877
 20
122.5409
  0
SEQEND
  0
ENDBLK
  0
BLOCK
  8
LAYER_1
  2
AIGNBL01020088
 70
64
 10
0
 20
0
 30
0
  3
AIGNBL01020088
  0
POLYLINE
  8
LAYER_1
 40
0.1058
 41
0.1058
 66
1
 10
0
 20
0
 30
0
  0
VERTEX
  8
LAYER_1
 10
143.0877
 20
122.5409
 42
0.2947636101
  0
VERTEX
  8
LAYER_1
 10
141.4237
 20
122.5409
  0
SEQEND
  0
ENDBLK
  0
BLOCK
  8
LAYER_1
  2
AIGNBL01020089
 70
64
 10
0
 20
0
 30
0
  3
AIGNBL01020089
  0
POLYLINE
  8
LAYER_1
 40
0.1058
 41
0.1058
 66
1
 10
0
 20
0
 30
0
  0
VERTEX
  8
LAYER_1
 10
147.3753
 20
127.3226
  0
VERTEX
  8
LAYER_1
 10
147.3753
 20
122.7864
  0
SEQEND
  0
ENDBLK
  0
BLOCK
  8
LAYER_1
  2
AIGNBL0102008A
 70
64
 10
0
 20
0
 30
0
  3
AIGNBL0102008A
  0
POLYLINE
  8
LAYER_1
 40
0.1058
 41
0.1058
 66
1
 10
0
 20
0
 30
0
  0
VERTEX
  8
LAYER_1
 10
147.3753
 20
129.9086
  0
VERTEX
  8
LAYER_1
 10
147.3753
 20
128.5748
  0
SEQEND
  0
ENDBLK
  0
BLOCK
  8
LAYER_1
  2
AIGNBL0102008B
 70
64
 10
0
 20
0
 30
0
  3
AIGNBL0102008B
  0
POLYLINE
  8
LAYER_1
 40
0.1058
 41
0.1058
 66
1
 10
0
 20
0
 30
0
  0
VERTEX
  8
LAYER_1
 10
147.3753
 20
131.2104
  0
VERTEX
  8
LAYER_1
 10
147.3753
 20
130.2124
  0
SEQEND
  0
ENDBLK
  0
BLOCK
  8
LAYER_1
  2
AIGNBL0102008C
 70
64
 10
0
 20
0
 30
0
  3
AIGNBL0102008C
  0
POLYLINE
  8
LAYER_1
 40
0.1058
 41
0.1058
 66
1
 10
0
 20
0
 30
0
  0
VERTEX
  8
LAYER_1
 10
147.3753
 20
132.7136
  0
VERTEX
  8
LAYER_1
 10
147.3753
 20
131.4606
  0
SEQEND
  0
ENDBLK
  0
BLOCK
  8
LAYER_1
  2
AIGNBL0102008D
 70
64
 10
0
 20
0
 30
0
  3
AIGNBL0102008D
  0
POLYLINE
  8
LAYER_1
 40
0.1058
 41
0.1058
 66
1
 10
0
 20
0
 30
0
  0
VERTEX
  8
LAYER_1
 10
142.1234
 20
128.5748
  0
VERTEX
  8
LAYER_1
 10
142.1234
 20
129.9102
  0
SEQEND
  0
ENDBLK
  0
BLOCK
  8
LAYER_1
  2
AIGNBL0102008E
 70
64
 10
0
 20
0
 30
0
  3
AIGNBL0102008E
  0
POLYLINE
  8
LAYER_1
 40
0.1058
 41
0.1058
 66
1
 10
0
 20
0
 30
0
  0
VERTEX
  8
LAYER_1
 10
142.1234
 20
130.2124
  0
VERTEX
  8
LAYER_1
 10
142.1234
 20
131.2104
  0
SEQEND
  0
ENDBLK
  0
BLOCK
  8
LAYER_1
  2
AIGNBL0102008F
 70
64
 10
0
 20
0
 30
0
  3
AIGNBL0102008F
  0
POLYLINE
  8
LAYER_1
 40
0.1058
 41
0.1058
 66
1
 10
0
 20
0
 30
0
  0
VERTEX
  8
LAYER_1
 10
142.1234
 20
131.4606
  0
VERTEX
  8
LAYER_1
 10
142.1234
 20
132.7136
  0
SEQEND
  0
ENDBLK
  0
BLOCK
  8
LAYER_1
  2
AIGNBL01020090
 70
64
 10
0
 20
0
 30
0
  3
AIGNBL01020090
  0
POLYLINE
  8
LAYER_1
 40
0.1058
 41
0.1058
 66
1
 10
0
 20
0
 30
0
  0
VERTEX
  8
LAYER_1
 10
142.1234
 20
132.9648
  0
VERTEX
  8
LAYER_1
 10
142.1234
 20
134.2169
  0
SEQEND
  0
ENDBLK
  0
BLOCK
  8
LAYER_1
  2
AIGNBL01020091
 70
64
 10
0
 20
0
 30
0
  3
AIGNBL01020091
  0
POLYLINE
  8
LAYER_1
 40
0.1058
 41
0.1058
 66
1
 10
0
 20
0
 30
0
  0
VERTEX
  8
LAYER_1
 10
142.9406
 20
128.5748
  0
VERTEX
  8
LAYER_1
 10
142.9406
 20
127.5729
  0
SEQEND
  0
ENDBLK
  0
BLOCK
  8
LAYER_1
  2
AIGNBL01020092
 70
64
 10
0
 20
0
 30
0
  3
AIGNBL01020092
  0
POLYLINE
  8
LAYER_1
 40
0.1058
 41
0.1058
 66
1
 10
0
 20
0
 30
0
  0
VERTEX
  8
LAYER_1
 10
141.1158
 20
127.5729
 42
0.1144592028
  0
VERTEX
  8
LAYER_1
 10
141.6165
 20
127.3226
  0
SEQEND
  0
ENDBLK
  0
BLOCK
  8
LAYER_1
  2
AIGNBL01020093
 70
64
 10
0
 20
0
 30
0
  3
AIGNBL01020093
  0
POLYLINE
  8
LAYER_1
 40
0.1058
 41
0.1058
 66
1
 10
0
 20
0
 30
0
  0
VERTEX
  8
LAYER_1
 10
141.1158
 20
127.5729
 42
0.275243992
  0
VERTEX
  8
LAYER_1
 10
142.9406
 20
127.5729
  0
SEQEND
  0
ENDBLK
  0
BLOCK
  8
LAYER_1
  2
AIGNBL01020094
 70
64
 10
0
 20
0
 30
0
  3
AIGNBL01020094
  0
POLYLINE
  8
LAYER_1
 40
0.1058
 41
0.1058
 66
1
 10
0
 20
0
 30
0
  0
VERTEX
  8
LAYER_1
 10
146.5572
 20
128.5748
  0
VERTEX
  8
LAYER_1
 10
146.5572
 20
127.5729
  0
SEQEND
  0
ENDBLK
  0
BLOCK
  8
LAYER_1
  2
AIGNBL01020095
 70
64
 10
0
 20
0
 30
0
  3
AIGNBL01020095
  0
POLYLINE
  8
LAYER_1
 40
0.1058
 41
0.1058
 66
1
 10
0
 20
0
 30
0
  0
VERTEX
  8
LAYER_1
 10
142.9406
 20
127.5729
 42
0.1389184581
  0
VERTEX
  8
LAYER_1
 10
146.5572
 20
127.5729
  0
SEQEND
  0
ENDBLK
  0
BLOCK
  8
LAYER_1
  2
AIGNBL01020096
 70
64
 10
0
 20
0
 30
0
  3
AIGNBL01020096
  0
POLYLINE
  8
LAYER_1
 40
0.1058
 41
0.1058
 66
1
 10
0
 20
0
 30
0
  0
VERTEX
  8
LAYER_1
 10
147.8814
 20
127.3226
  0
VERTEX
  8
LAYER_1
 10
141.6165
 20
127.3226
  0
SEQEND
  0
ENDBLK
  0
BLOCK
  8
LAYER_1
  2
AIGNBL01020097
 70
64
 10
0
 20
0
 30
0
  3
AIGNBL01020097
  0
POLYLINE
  8
LAYER_1
 40
0.1058
 41
0.1058
 66
1
 10
0
 20
0
 30
0
  0
VERTEX
  8
LAYER_1
 10
148.3828
 20
128.5748
  0
VERTEX
  8
LAYER_1
 10
148.3828
 20
127.5729
  0
SEQEND
  0
ENDBLK
  0
BLOCK
  8
LAYER_1
  2
AIGNBL01020098
 70
64
 10
0
 20
0
 30
0
  3
AIGNBL01020098
  0
POLYLINE
  8
LAYER_1
 40
0.1058
 41
0.1058
 66
1
 10
0
 20
0
 30
0
  0
VERTEX
  8
LAYER_1
 10
147.8814
 20
127.3226
 42
0.113038703
  0
VERTEX
  8
LAYER_1
 10
148.3828
 20
127.5729
  0
SEQEND
  0
ENDBLK
  0
BLOCK
  8
LAYER_1
  2
AIGNBL01020099
 70
64
 10
0
 20
0
 30
0
  3
AIGNBL01020099
  0
POLYLINE
  8
LAYER_1
 40
0.1058
 41
0.1058
 66
1
 10
0
 20
0
 30
0
  0
VERTEX
  8
LAYER_1
 10
146.5572
 20
127.5729
 42
0.2750866747
  0
VERTEX
  8
LAYER_1
 10
148.3828
 20
127.5729
  0
SEQEND
  0
ENDBLK
  0
BLOCK
  8
LAYER_1
  2
AIGNBL0102009A
 70
64
 10
0
 20
0
 30
0
  3
AIGNBL0102009A
  0
POLYLINE
  8
LAYER_1
 40
0.1058
 41
0.1058
 66
1
 10
0
 20
0
 30
0
  0
VERTEX
  8
LAYER_1
 10
147.6559
 20
129.835
 42
0.1131673888
  0
VERTEX
  8
LAYER_1
 10
147.3265
 20
129.9102
  0
SEQEND
  0
ENDBLK
  0
BLOCK
  8
LAYER_1
  2
AIGNBL0102009B
 70
64
 10
0
 20
0
 30
0
  3
AIGNBL0102009B
  0
POLYLINE
  8
LAYER_1
 40
0.1058
 41
0.1058
 66
1
 10
0
 20
0
 30
0
  0
VERTEX
  8
LAYER_1
 10
148.5931
 20
130.2988
  0
VERTEX
  8
LAYER_1
 10
148.6874
 20
130.3515
  0
VERTEX
  8
LAYER_1
 10
148.7858
 20
130.3723
  0
SEQEND
  0
ENDBLK
  0
BLOCK
  8
LAYER_1
  2
AIGNBL0102009C
 70
64
 10
0
 20
0
 30
0
  3
AIGNBL0102009C
  0
POLYLINE
  8
LAYER_1
 40
0.1058
 41
0.1058
 66
1
 10
0
 20
0
 30
0
  0
VERTEX
  8
LAYER_1
 10
149.3583
 20
129.9102
 42
0.1958097136
  0
VERTEX
  8
LAYER_1
 10
149.0688
 20
130.1133
 42
0.1487313786
  0
VERTEX
  8
LAYER_1
 10
148.9232
 20
130.0623
 42
0.01373621087
  0
VERTEX
  8
LAYER_1
 10
148.745
 20
129.9214
 42
-0.1590119153
  0
VERTEX
  8
LAYER_1
 10
148.2764
 20
129.7446
 42
-0.1117095665
  0
VERTEX
  8
LAYER_1
 10
147.9054
 20
129.835
  0
SEQEND
  0
ENDBLK
  0
BLOCK
  8
LAYER_1
  2
AIGNBL0102009D
 70
64
 10
0
 20
0
 30
0
  3
AIGNBL0102009D
  0
POLYLINE
  8
LAYER_1
 40
0.1058
 41
0.1058
 66
1
 10
0
 20
0
 30
0
  0
VERTEX
  8
LAYER_1
 10
147.9678
 20
130.0614
 42
0.1395374751
  0
VERTEX
  8
LAYER_1
 10
148.2908
 20
129.9805
 42
0.1080242558
  0
VERTEX
  8
LAYER_1
 10
148.5014
 20
130.0467
 42
0.04314494489
  0
VERTEX
  8
LAYER_1
 10
148.6794
 20
130.1708
 42
-0.1943936505
  0
VERTEX
  8
LAYER_1
 10
149.0369
 20
130.3723
 42
-0.1237836735
  0
VERTEX
  8
LAYER_1
 10
149.2127
 20
130.3211
 42
-0.06358401069
  0
VERTEX
  8
LAYER_1
 10
149.3583
 20
130.2124
  0
SEQEND
  0
ENDBLK
  0
BLOCK
  8
LAYER_1
  2
AIGNBL0102009E
 70
64
 10
0
 20
0
 30
0
  3
AIGNBL0102009E
  0
POLYLINE
  8
LAYER_1
 40
0.1058
 41
0.1058
 66
1
 10
0
 20
0
 30
0
  0
VERTEX
  8
LAYER_1
 10
148.3108
 20
130.2124
 42
0.150170989
  0
VERTEX
  8
LAYER_1
 10
148.5931
 20
130.2988
  0
SEQEND
  0
ENDBLK
  0
BLOCK
  8
LAYER_1
  2
AIGNBL0102009F
 70
64
 10
0
 20
0
 30
0
  3
AIGNBL0102009F
  0
POLYLINE
  8
LAYER_1
 40
0.1058
 41
0.1058
 66
1
 10
0
 20
0
 30
0
  0
VERTEX
  8
LAYER_1
 10
148.2764
 20
129.7446
  0
VERTEX
  8
LAYER_1
 10
148.0245
 20
129.7446
  0
SEQEND
  0
ENDBLK
  0
BLOCK
  8
LAYER_1
  2
AIGNBL010200A0
 70
64
 10
0
 20
0
 30
0
  3
AIGNBL010200A0
  0
POLYLINE
  8
LAYER_1
 40
0.1058
 41
0.1058
 66
1
 10
0
 20
0
 30
0
  0
VERTEX
  8
LAYER_1
 10
149.0369
 20
130.3723
  0
VERTEX
  8
LAYER_1
 10
148.7858
 20
130.3723
  0
SEQEND
  0
ENDBLK
  0
BLOCK
  8
LAYER_1
  2
AIGNBL010200A1
 70
64
 10
0
 20
0
 30
0
  3
AIGNBL010200A1
  0
POLYLINE
  8
LAYER_1
 40
0.1058
 41
0.1058
 66
1
 10
0
 20
0
 30
0
  0
VERTEX
  8
LAYER_1
 10
150.3875
 20
130.2124
  0
VERTEX
  8
LAYER_1
 10
150.3875
 20
129.9102
  0
SEQEND
  0
ENDBLK
  0
BLOCK
  8
LAYER_1
  2
AIGNBL010200A2
 70
64
 10
0
 20
0
 30
0
  3
AIGNBL010200A2
  0
POLYLINE
  8
LAYER_1
 40
0.1058
 41
0.1058
 66
1
 10
0
 20
0
 30
0
  0
VERTEX
  8
LAYER_1
 10
150.3875
 20
129.9102
  0
VERTEX
  8
LAYER_1
 10
148.7299
 20
129.9102
  0
SEQEND
  0
ENDBLK
  0
BLOCK
  8
LAYER_1
  2
AIGNBL010200A3
 70
64
 10
0
 20
0
 30
0
  3
AIGNBL010200A3
  0
POLYLINE
  8
LAYER_1
 40
0.1058
 41
0.1058
 66
1
 10
0
 20
0
 30
0
  0
VERTEX
  8
LAYER_1
 10
150.3875
 20
130.2124
  0
VERTEX
  8
LAYER_1
 10
149.3583
 20
130.2124
  0
SEQEND
  0
ENDBLK
  0
BLOCK
  8
LAYER_1
  2
AIGNBL010200A4
 70
64
 10
0
 20
0
 30
0
  3
AIGNBL010200A4
  0
POLYLINE
  8
LAYER_1
 40
0.1058
 41
0.1058
 66
1
 10
0
 20
0
 30
0
  0
VERTEX
  8
LAYER_1
 10
149.3847
 20
131.4606
  0
VERTEX
  8
LAYER_1
 10
149.3847
 20
131.2104
  0
SEQEND
  0
ENDBLK
  0
BLOCK
  8
LAYER_1
  2
AIGNBL010200A5
 70
64
 10
0
 20
0
 30
0
  3
AIGNBL010200A5
  0
POLYLINE
  8
LAYER_1
 40
0.1058
 41
0.1058
 66
1
 10
0
 20
0
 30
0
  0
VERTEX
  8
LAYER_1
 10
149.3847
 20
132.9648
  0
VERTEX
  8
LAYER_1
 10
149.3847
 20
132.7136
  0
SEQEND
  0
ENDBLK
  0
BLOCK
  8
LAYER_1
  2
AIGNBL010200A6
 70
64
 10
0
 20
0
 30
0
  3
AIGNBL010200A6
  0
POLYLINE
  8
LAYER_1
 40
0.1058
 41
0.1058
 66
1
 10
0
 20
0
 30
0
  0
VERTEX
  8
LAYER_1
 10
148.3108
 20
130.2124
  0
VERTEX
  8
LAYER_1
 10
142.1234
 20
130.2124
  0
SEQEND
  0
ENDBLK
  0
BLOCK
  8
LAYER_1
  2
AIGNBL010200A7
 70
64
 10
0
 20
0
 30
0
  3
AIGNBL010200A7
  0
POLYLINE
  8
LAYER_1
 40
0.1058
 41
0.1058
 66
1
 10
0
 20
0
 30
0
  0
VERTEX
  8
LAYER_1
 10
147.9678
 20
130.0614
 42
0.1242777803
  0
VERTEX
  8
LAYER_1
 10
147.3753
 20
130.2109
  0
SEQEND
  0
ENDBLK
  0
BLOCK
  8
LAYER_1
  2
AIGNBL010200A8
 70
64
 10
0
 20
0
 30
0
  3
AIGNBL010200A8
  0
POLYLINE
  8
LAYER_1
 40
0.1058
 41
0.1058
 66
1
 10
0
 20
0
 30
0
  0
VERTEX
  8
LAYER_1
 10
147.9062
 20
129.835
 42
0.1130559421
  0
VERTEX
  8
LAYER_1
 10
147.5775
 20
129.9102
  0
SEQEND
  0
ENDBLK
  0
BLOCK
  8
LAYER_1
  2
AIGNBL010200A9
 70
64
 10
0
 20
0
 30
0
  3
AIGNBL010200A9
  0
POLYLINE
  8
LAYER_1
 40
0.1058
 41
0.1058
 66
1
 10
0
 20
0
 30
0
  0
VERTEX
  8
LAYER_1
 10
148.0245
 20
129.7446
 42
-0.06249959797
  0
VERTEX
  8
LAYER_1
 10
147.8374
 20
129.7679
 42
-0.05369889989
  0
VERTEX
  8
LAYER_1
 10
147.6544
 20
129.835
  0
SEQEND
  0
ENDBLK
  0
BLOCK
  8
LAYER_1
  2
AIGNBL010200AA
 70
64
 10
0
 20
0
 30
0
  3
AIGNBL010200AA
  0
POLYLINE
  8
LAYER_1
 40
0.1058
 41
0.1058
 66
1
 10
0
 20
0
 30
0
  0
VERTEX
  8
LAYER_1
 10
140.7896
 20
129.7446
 42
-0.06137754077
  0
VERTEX
  8
LAYER_1
 10
140.6017
 20
129.7679
  0
VERTEX
  8
LAYER_1
 10
140.4186
 20
129.835
  0
SEQEND
  0
ENDBLK
  0
BLOCK
  8
LAYER_1
  2
AIGNBL010200AB
 70
64
 10
0
 20
0
 30
0
  3
AIGNBL010200AB
  0
POLYLINE
  8
LAYER_1
 40
0.1058
 41
0.1058
 66
1
 10
0
 20
0
 30
0
  0
VERTEX
  8
LAYER_1
 10
141.3573
 20
130.2988
  0
VERTEX
  8
LAYER_1
 10
141.4525
 20
130.3515
  0
VERTEX
  8
LAYER_1
 10
141.5501
 20
130.3723
  0
SEQEND
  0
ENDBLK
  0
BLOCK
  8
LAYER_1
  2
AIGNBL010200AC
 70
64
 10
0
 20
0
 30
0
  3
AIGNBL010200AC
  0
POLYLINE
  8
LAYER_1
 40
0.1058
 41
0.1058
 66
1
 10
0
 20
0
 30
0
  0
VERTEX
  8
LAYER_1
 10
141.0751
 20
130.2124
 42
0.1484345002
  0
VERTEX
  8
LAYER_1
 10
141.3589
 20
130.2988
  0
SEQEND
  0
ENDBLK
  0
BLOCK
  8
LAYER_1
  2
AIGNBL010200AD
 70
64
 10
0
 20
0
 30
0
  3
AIGNBL010200AD
  0
POLYLINE
  8
LAYER_1
 40
0.1058
 41
0.1058
 66
1
 10
0
 20
0
 30
0
  0
VERTEX
  8
LAYER_1
 10
140.6705
 20
129.835
 42
0.1133086565
  0
VERTEX
  8
LAYER_1
 10
140.3426
 20
129.9102
  0
SEQEND
  0
ENDBLK
  0
BLOCK
  8
LAYER_1
  2
AIGNBL010200AE
 70
64
 10
0
 20
0
 30
0
  3
AIGNBL010200AE
  0
POLYLINE
  8
LAYER_1
 40
0.1058
 41
0.1058
 66
1
 10
0
 20
0
 30
0
  0
VERTEX
  8
LAYER_1
 10
140.7321
 20
130.0614
 42
0.1242884897
  0
VERTEX
  8
LAYER_1
 10
140.1411
 20
130.2109
  0
SEQEND
  0
ENDBLK
  0
BLOCK
  8
LAYER_1
  2
AIGNBL010200AF
 70
64
 10
0
 20
0
 30
0
  3
AIGNBL010200AF
  0
POLYLINE
  8
LAYER_1
 40
0.1058
 41
0.1058
 66
1
 10
0
 20
0
 30
0
  0
VERTEX
  8
LAYER_1
 10
140.4202
 20
129.835
 42
0.1127289732
  0
VERTEX
  8
LAYER_1
 10
140.0908
 20
129.9102
  0
SEQEND
  0
ENDBLK
  0
BLOCK
  8
LAYER_1
  2
AIGNBL010200B0
 70
64
 10
0
 20
0
 30
0
  3
AIGNBL010200B0
  0
POLYLINE
  8
LAYER_1
 40
0.1058
 41
0.1058
 66
1
 10
0
 20
0
 30
0
  0
VERTEX
  8
LAYER_1
 10
140.5185
 20
129.9102
  0
VERTEX
  8
LAYER_1
 10
139.1104
 20
129.9102
  0
SEQEND
  0
ENDBLK
  0
BLOCK
  8
LAYER_1
  2
AIGNBL010200B1
 70
64
 10
0
 20
0
 30
0
  3
AIGNBL010200B1
  0
POLYLINE
  8
LAYER_1
 40
0.1058
 41
0.1058
 66
1
 10
0
 20
0
 30
0
  0
VERTEX
  8
LAYER_1
 10
141.0751
 20
130.2124
  0
VERTEX
  8
LAYER_1
 10
139.1104
 20
130.2124
  0
SEQEND
  0
ENDBLK
  0
BLOCK
  8
LAYER_1
  2
AIGNBL010200B2
 70
64
 10
0
 20
0
 30
0
  3
AIGNBL010200B2
  0
POLYLINE
  8
LAYER_1
 40
0.1058
 41
0.1058
 66
1
 10
0
 20
0
 30
0
  0
VERTEX
  8
LAYER_1
 10
141.0399
 20
129.7446
  0
VERTEX
  8
LAYER_1
 10
140.7896
 20
129.7446
  0
SEQEND
  0
ENDBLK
  0
BLOCK
  8
LAYER_1
  2
AIGNBL010200B3
 70
64
 10
0
 20
0
 30
0
  3
AIGNBL010200B3
  0
POLYLINE
  8
LAYER_1
 40
0.1058
 41
0.1058
 66
1
 10
0
 20
0
 30
0
  0
VERTEX
  8
LAYER_1
 10
139.1104
 20
130.2124
  0
VERTEX
  8
LAYER_1
 10
139.1104
 20
129.9102
  0
SEQEND
  0
ENDBLK
  0
BLOCK
  8
LAYER_1
  2
AIGNBL010200B4
 70
64
 10
0
 20
0
 30
0
  3
AIGNBL010200B4
  0
POLYLINE
  8
LAYER_1
 40
0.1058
 41
0.1058
 66
1
 10
0
 20
0
 30
0
  0
VERTEX
  8
LAYER_1
 10
140.1131
 20
131.4606
  0
VERTEX
  8
LAYER_1
 10
140.1131
 20
131.2104
  0
SEQEND
  0
ENDBLK
  0
BLOCK
  8
LAYER_1
  2
AIGNBL010200B5
 70
64
 10
0
 20
0
 30
0
  3
AIGNBL010200B5
  0
POLYLINE
  8
LAYER_1
 40
0.1058
 41
0.1058
 66
1
 10
0
 20
0
 30
0
  0
VERTEX
  8
LAYER_1
 10
140.1131
 20
132.9648
  0
VERTEX
  8
LAYER_1
 10
140.1131
 20
132.7136
  0
SEQEND
  0
ENDBLK
  0
BLOCK
  8
LAYER_1
  2
AIGNBL010200B6
 70
64
 10
0
 20
0
 30
0
  3
AIGNBL010200B6
  0
POLYLINE
  8
LAYER_1
 40
0.1058
 41
0.1058
 66
1
 10
0
 20
0
 30
0
  0
VERTEX
  8
LAYER_1
 10
149.3847
 20
132.9648
  0
VERTEX
  8
LAYER_1
 10
140.1131
 20
132.9648
  0
SEQEND
  0
ENDBLK
  0
BLOCK
  8
LAYER_1
  2
AIGNBL010200B7
 70
64
 10
0
 20
0
 30
0
  3
AIGNBL010200B7
  0
POLYLINE
  8
LAYER_1
 40
0.1058
 41
0.1058
 66
1
 10
0
 20
0
 30
0
  0
VERTEX
  8
LAYER_1
 10
149.3847
 20
132.7136
  0
VERTEX
  8
LAYER_1
 10
140.1131
 20
132.7136
  0
SEQEND
  0
ENDBLK
  0
BLOCK
  8
LAYER_1
  2
AIGNBL010200B8
 70
64
 10
0
 20
0
 30
0
  3
AIGNBL010200B8
  0
POLYLINE
  8
LAYER_1
 40
0.1058
 41
0.1058
 66
1
 10
0
 20
0
 30
0
  0
VERTEX
  8
LAYER_1
 10
148.3828
 20
128.5748
  0
VERTEX
  8
LAYER_1
 10
141.1158
 20
128.5748
  0
SEQEND
  0
ENDBLK
  0
BLOCK
  8
LAYER_1
  2
AIGNBL010200B9
 70
64
 10
0
 20
0
 30
0
  3
AIGNBL010200B9
  0
POLYLINE
  8
LAYER_1
 40
0.1058
 41
0.1058
 66
1
 10
0
 20
0
 30
0
  0
VERTEX
  8
LAYER_1
 10
141.1158
 20
128.5748
  0
VERTEX
  8
LAYER_1
 10
141.1158
 20
127.5729
  0
SEQEND
  0
ENDBLK
  0
BLOCK
  8
LAYER_1
  2
AIGNBL010200BA
 70
64
 10
0
 20
0
 30
0
  3
AIGNBL010200BA
  0
POLYLINE
  8
LAYER_1
 40
0.1058
 41
0.1058
 66
1
 10
0
 20
0
 30
0
  0
VERTEX
  8
LAYER_1
 10
149.3847
 20
131.4606
  0
VERTEX
  8
LAYER_1
 10
140.1131
 20
131.4606
  0
SEQEND
  0
ENDBLK
  0
BLOCK
  8
LAYER_1
  2
AIGNBL010200BB
 70
64
 10
0
 20
0
 30
0
  3
AIGNBL010200BB
  0
POLYLINE
  8
LAYER_1
 40
0.1058
 41
0.1058
 66
1
 10
0
 20
0
 30
0
  0
VERTEX
  8
LAYER_1
 10
149.3847
 20
131.2104
  0
VERTEX
  8
LAYER_1
 10
140.1131
 20
131.2104
  0
SEQEND
  0
ENDBLK
  0
BLOCK
  8
LAYER_1
  2
AIGNBL010200BC
 70
64
 10
0
 20
0
 30
0
  3
AIGNBL010200BC
  0
POLYLINE
  8
LAYER_1
 40
0.1058
 41
0.1058
 66
1
 10
0
 20
0
 30
0
  0
VERTEX
  8
LAYER_1
 10
147.5775
 20
129.9102
  0
VERTEX
  8
LAYER_1
 10
141.4949
 20
129.9102
  0
SEQEND
  0
ENDBLK
  0
BLOCK
  8
LAYER_1
  2
AIGNBL010200BD
 70
64
 10
0
 20
0
 30
0
  3
AIGNBL010200BD
  0
POLYLINE
  8
LAYER_1
 40
0.1058
 41
0.1058
 66
1
 10
0
 20
0
 30
0
  0
VERTEX
  8
LAYER_1
 10
141.8004
 20
130.3723
  0
VERTEX
  8
LAYER_1
 10
141.5501
 20
130.3723
  0
SEQEND
  0
ENDBLK
  0
BLOCK
  8
LAYER_1
  2
AIGNBL010200BE
 70
64
 10
0
 20
0
 30
0
  3
AIGNBL010200BE
  0
POLYLINE
  8
LAYER_1
 40
0.1058
 41
0.1058
 66
1
 10
0
 20
0
 30
0
  0
VERTEX
  8
LAYER_1
 10
140.7321
 20
130.0614
 42
0.1364333056
  0
VERTEX
  8
LAYER_1
 10
141.0567
 20
129.9805
 42
0.1075007286
  0
VERTEX
  8
LAYER_1
 10
141.266
 20
130.0467
 42
0.04132624699
  0
VERTEX
  8
LAYER_1
 10
141.4453
 20
130.1708
 42
-0.1959922189
  0
VERTEX
  8
LAYER_1
 10
141.8004
 20
130.3723
 42
-0.124186905
  0
VERTEX
  8
LAYER_1
 10
141.9779
 20
130.3211
 42
-0.06379937309
  0
VERTEX
  8
LAYER_1
 10
142.1234
 20
130.2124
  0
SEQEND
  0
ENDBLK
  0
BLOCK
  8
LAYER_1
  2
AIGNBL010200BF
 70
64
 10
0
 20
0
 30
0
  3
AIGNBL010200BF
  0
POLYLINE
  8
LAYER_1
 40
0.1058
 41
0.1058
 66
1
 10
0
 20
0
 30
0
  0
VERTEX
  8
LAYER_1
 10
142.1234
 20
129.9102
 42
0.1946772978
  0
VERTEX
  8
LAYER_1
 10
141.8339
 20
130.1133
 42
0.1487313786
  0
VERTEX
  8
LAYER_1
 10
141.6883
 20
130.0623
 42
0.01373621087
  0
VERTEX
  8
LAYER_1
 10
141.5101
 20
129.9214
 42
-0.1578917797
  0
VERTEX
  8
LAYER_1
 10
141.0399
 20
129.7446
 42
-0.1142743843
  0
VERTEX
  8
LAYER_1
 10
140.6705
 20
129.835
  0
SEQEND
  0
ENDBLK
  0
BLOCK
  8
LAYER_1
  2
AIGNBL010200C0
 70
64
 10
0
 20
0
 30
0
  3
AIGNBL010200C0
  0
POLYLINE
  8
LAYER_1
 40
0.1058
 41
0.1058
 66
1
 10
0
 20
0
 30
0
  0
VERTEX
  8
LAYER_1
 10
116.2598
 20
143.2142
  0
VERTEX
  8
LAYER_1
 10
114.5965
 20
143.9147
  0
SEQEND
  0
ENDBLK
  0
BLOCK
  8
LAYER_1
  2
AIGNBL010200C1
 70
64
 10
0
 20
0
 30
0
  3
AIGNBL010200C1
  0
POLYLINE
  8
LAYER_1
 40
0.1058
 41
0.1058
 66
1
 10
0
 20
0
 30
0
  0
VERTEX
  8
LAYER_1
 10
120.1387
 20
141.5798
  0
VERTEX
  8
LAYER_1
 10
118.4563
 20
142.2523
  0
SEQEND
  0
ENDBLK
  0
BLOCK
  8
LAYER_1
  2
AIGNBL010200C2
 70
64
 10
0
 20
0
 30
0
  3
AIGNBL010200C2
  0
POLYLINE
  8
LAYER_1
 40
0.1058
 41
0.1058
 66
1
 10
0
 20
0
 30
0
  0
VERTEX
  8
LAYER_1
 10
116.2598
 20
143.2142
  0
VERTEX
  8
LAYER_1
 10
116.2541
 20
143.195
  0
VERTEX
  8
LAYER_1
 10
116.2526
 20
143.1615
  0
VERTEX
  8
LAYER_1
 10
116.2662
 20
143.1103
  0
VERTEX
  8
LAYER_1
 10
116.3165
 20
143.0327
 42
0.07771980686
  0
VERTEX
  8
LAYER_1
 10
116.5108
 20
142.8728
 42
0.03317260997
  0
VERTEX
  8
LAYER_1
 10
116.8826
 20
142.6833
  0
VERTEX
  8
LAYER_1
 10
117.2705
 20
142.517
  0
SEQEND
  0
ENDBLK
  0
BLOCK
  8
LAYER_1
  2
AIGNBL010200C3
 70
64
 10
0
 20
0
 30
0
  3
AIGNBL010200C3
  0
POLYLINE
  8
LAYER_1
 40
0.1058
 41
0.1058
 66
1
 10
0
 20
0
 30
0
  0
VERTEX
  8
LAYER_1
 10
116.4541
 20
143.6764
  0
VERTEX
  8
LAYER_1
 10
116.2598
 20
143.2142
  0
SEQEND
  0
ENDBLK
  0
BLOCK
  8
LAYER_1
  2
AIGNBL010200C4
 70
64
 10
0
 20
0
 30
0
  3
AIGNBL010200C4
  0
POLYLINE
  8
LAYER_1
 40
0.1058
 41
0.1058
 66
1
 10
0
 20
0
 30
0
  0
VERTEX
  8
LAYER_1
 10
118.6698
 20
142.7432
  0
VERTEX
  8
LAYER_1
 10
116.4541
 20
143.6764
  0
SEQEND
  0
ENDBLK
  0
BLOCK
  8
LAYER_1
  2
AIGNBL010200C5
 70
64
 10
0
 20
0
 30
0
  3
AIGNBL010200C5
  0
POLYLINE
  8
LAYER_1
 40
0.1058
 41
0.1058
 66
1
 10
0
 20
0
 30
0
  0
VERTEX
  8
LAYER_1
 10
118.4755
 20
142.2811
  0
VERTEX
  8
LAYER_1
 10
118.6698
 20
142.7432
  0
SEQEND
  0
ENDBLK
  0
BLOCK
  8
LAYER_1
  2
AIGNBL010200C6
 70
64
 10
0
 20
0
 30
0
  3
AIGNBL010200C6
  0
POLYLINE
  8
LAYER_1
 40
0.1058
 41
0.1058
 66
1
 10
0
 20
0
 30
0
  0
VERTEX
  8
LAYER_1
 10
117.2737
 20
142.5153
  0
VERTEX
  8
LAYER_1
 10
117.2888
 20
142.509
  0
VERTEX
  8
LAYER_1
 10
117.7526
 20
142.3187
  0
VERTEX
  8
LAYER_1
 10
117.9917
 20
142.2379
 42
0.06327017734
  0
VERTEX
  8
LAYER_1
 10
118.242
 20
142.1939
  0
VERTEX
  8
LAYER_1
 10
118.3748
 20
142.2051
  0
VERTEX
  8
LAYER_1
 10
118.4187
 20
142.2227
  0
VERTEX
  8
LAYER_1
 10
118.4563
 20
142.2523
  0
VERTEX
  8
LAYER_1
 10
118.4755
 20
142.2811
  0
SEQEND
  0
ENDBLK
  0
BLOCK
  8
LAYER_1
  2
AIGNBL010200C7
 70
64
 10
0
 20
0
 30
0
  3
AIGNBL010200C7
  0
POLYLINE
  8
LAYER_1
 40
0.1058
 41
0.1058
 66
1
 10
0
 20
0
 30
0
  0
VERTEX
  8
LAYER_1
 10
138.3316
 20
136.587
  0
VERTEX
  8
LAYER_1
 10
138.3276
 20
136.6669
  0
SEQEND
  0
ENDBLK
  0
BLOCK
  8
LAYER_1
  2
AIGNBL010200C8
 70
64
 10
0
 20
0
 30
0
  3
AIGNBL010200C8
  0
POLYLINE
  8
LAYER_1
 40
0.1058
 41
0.1058
 66
1
 10
0
 20
0
 30
0
  0
VERTEX
  8
LAYER_1
 10
138.2932
 20
136.1432
  0
VERTEX
  8
LAYER_1
 10
138.234
 20
135.8466
  0
SEQEND
  0
ENDBLK
  0
BLOCK
  8
LAYER_1
  2
AIGNBL010200C9
 70
64
 10
0
 20
0
 30
0
  3
AIGNBL010200C9
  0
POLYLINE
  8
LAYER_1
 40
0.1058
 41
0.1058
 66
1
 10
0
 20
0
 30
0
  0
VERTEX
  8
LAYER_1
 10
138.2932
 20
136.1432
 42
0.06373088164
  0
VERTEX
  8
LAYER_1
 10
138.3316
 20
136.587
  0
SEQEND
  0
ENDBLK
  0
BLOCK
  8
LAYER_1
  2
AIGNBL010200CA
 70
64
 10
0
 20
0
 30
0
  3
AIGNBL010200CA
  0
POLYLINE
  8
LAYER_1
 40
0.1058
 41
0.1058
 66
1
 10
0
 20
0
 30
0
  0
VERTEX
  8
LAYER_1
 10
138.3276
 20
136.6669
 42
0.1778621068
  0
VERTEX
  8
LAYER_1
 10
137.8151
 20
137.7616
  0
SEQEND
  0
ENDBLK
  0
BLOCK
  8
LAYER_1
  2
AIGNBL010200CB
 70
64
 10
0
 20
0
 30
0
  3
AIGNBL010200CB
  0
POLYLINE
  8
LAYER_1
 40
0.1058
 41
0.1058
 66
1
 10
0
 20
0
 30
0
  0
VERTEX
  8
LAYER_1
 10
119.8109
 20
141.4462
 42
0.3889469482
  0
VERTEX
  8
LAYER_1
 10
120.1387
 20
141.5798
  0
SEQEND
  0
ENDBLK
  0
BLOCK
  8
LAYER_1
  2
AIGNBL010200CC
 70
64
 10
0
 20
0
 30
0
  3
AIGNBL010200CC
  0
POLYLINE
  8
LAYER_1
 40
0.1058
 41
0.1058
 66
1
 10
0
 20
0
 30
0
  0
VERTEX
  8
LAYER_1
 10
114.5965
 20
143.9147
 42
0.3946499939
  0
VERTEX
  8
LAYER_1
 10
114.7301
 20
143.5868
  0
SEQEND
  0
ENDBLK
  0
BLOCK
  8
LAYER_1
  2
AIGNBL010200CD
 70
64
 10
0
 20
0
 30
0
  3
AIGNBL010200CD
  0
POLYLINE
  8
LAYER_1
 40
0.1058
 41
0.1058
 66
1
 10
0
 20
0
 30
0
  0
VERTEX
  8
LAYER_1
 10
114.7301
 20
143.5868
  0
VERTEX
  8
LAYER_1
 10
119.8109
 20
141.4462
  0
SEQEND
  0
ENDBLK
  0
BLOCK
  8
LAYER_1
  2
AIGNBL010200CE
 70
64
 10
0
 20
0
 30
0
  3
AIGNBL010200CE
  0
POLYLINE
  8
LAYER_1
 40
0.1058
 41
0.1058
 66
1
 10
0
 20
0
 30
0
  0
VERTEX
  8
LAYER_1
 10
120.832
 20
143.2271
  0
VERTEX
  8
LAYER_1
 10
120.1387
 20
141.5798
  0
SEQEND
  0
ENDBLK
  0
BLOCK
  8
LAYER_1
  2
AIGNBL010200CF
 70
64
 10
0
 20
0
 30
0
  3
AIGNBL010200CF
  0
POLYLINE
  8
LAYER_1
 40
0.1058
 41
0.1058
 66
1
 10
0
 20
0
 30
0
  0
VERTEX
  8
LAYER_1
 10
114.5965
 20
143.9147
  0
VERTEX
  8
LAYER_1
 10
115.2883
 20
145.5603
  0
SEQEND
  0
ENDBLK
  0
BLOCK
  8
LAYER_1
  2
AIGNBL010200D0
 70
64
 10
0
 20
0
 30
0
  3
AIGNBL010200D0
  0
POLYLINE
  8
LAYER_1
 40
0.1058
 41
0.1058
 66
1
 10
0
 20
0
 30
0
  0
VERTEX
  8
LAYER_1
 10
147.3753
 20
134.2169
  0
VERTEX
  8
LAYER_1
 10
147.3753
 20
132.9648
  0
SEQEND
  0
ENDBLK
  0
BLOCK
  8
LAYER_1
  2
AIGNBL010200D1
 70
64
 10
0
 20
0
 30
0
  3
AIGNBL010200D1
  0
POLYLINE
  8
LAYER_1
 40
0.1058
 41
0.1058
 66
1
 10
0
 20
0
 30
0
  0
VERTEX
  8
LAYER_1
 10
142.1234
 20
122.7864
  0
VERTEX
  8
LAYER_1
 10
142.1234
 20
127.3226
  0
SEQEND
  0
ENDBLK
  0
BLOCK
  8
LAYER_1
  2
AIGNBL010200D2
 70
64
 10
0
 20
0
 30
0
  3
AIGNBL010200D2
  0
POLYLINE
  8
LAYER_1
 40
0.1058
 41
0.1058
 66
1
 10
0
 20
0
 30
0
  0
VERTEX
  8
LAYER_1
 10
123.9497
 20
152.1348
  0
VERTEX
  8
LAYER_1
 10
123.6019
 20
152.1667
  0
VERTEX
  8
LAYER_1
 10
123.2548
 20
152.1835
  0
VERTEX
  8
LAYER_1
 10
122.9094
 20
152.1851
  0
VERTEX
  8
LAYER_1
 10
122.5648
 20
152.1724
  0
VERTEX
  8
LAYER_1
 10
122.2225
 20
152.1436
  0
VERTEX
  8
LAYER_1
 10
121.8819
 20
152.1028
  0
VERTEX
  8
LAYER_1
 10
121.5453
 20
152.0452
  0
VERTEX
  8
LAYER_1
 10
121.1782
 20
151.9669
  0
VERTEX
  8
LAYER_1
 10
120.8152
 20
151.8709
  0
VERTEX
  8
LAYER_1
 10
120.4585
 20
151.759
  0
VERTEX
  8
LAYER_1
 10
120.1075
 20
151.6294
  0
VERTEX
  8
LAYER_1
 10
119.7621
 20
151.4838
  0
VERTEX
  8
LAYER_1
 10
119.4246
 20
151.3231
  0
VERTEX
  8
LAYER_1
 10
119.0936
 20
151.1464
  0
VERTEX
  8
LAYER_1
 10
118.7706
 20
150.9537
  0
VERTEX
  8
LAYER_1
 10
118.4579
 20
150.7458
  0
VERTEX
  8
LAYER_1
 10
118.1524
 20
150.5227
  0
VERTEX
  8
LAYER_1
 10
117.8638
 20
150.2893
  0
VERTEX
  8
LAYER_1
 10
117.5839
 20
150.0413
  0
VERTEX
  8
LAYER_1
 10
117.3152
 20
149.7791
  0
VERTEX
  8
LAYER_1
 10
117.0586
 20
149.504
  0
SEQEND
  0
ENDBLK
  0
BLOCK
  8
LAYER_1
  2
AIGNBL010200D3
 70
64
 10
0
 20
0
 30
0
  3
AIGNBL010200D3
  0
POLYLINE
  8
LAYER_1
 40
0.1058
 41
0.1058
 66
1
 10
0
 20
0
 30
0
  0
VERTEX
  8
LAYER_1
 10
128.5179
 20
150.4395
  0
VERTEX
  8
LAYER_1
 10
127.7847
 20
150.8298
  0
VERTEX
  8
LAYER_1
 10
127.2073
 20
151.1328
  0
SEQEND
  0
ENDBLK
  0
BLOCK
  8
LAYER_1
  2
AIGNBL010200D4
 70
64
 10
0
 20
0
 30
0
  3
AIGNBL010200D4
  0
POLYLINE
  8
LAYER_1
 40
0.1058
 41
0.1058
 66
1
 10
0
 20
0
 30
0
  0
VERTEX
  8
LAYER_1
 10
122.0698
 20
143.8659
  0
VERTEX
  8
LAYER_1
 10
122.1066
 20
143.758
  0
VERTEX
  8
LAYER_1
 10
122.1273
 20
143.6476
  0
VERTEX
  8
LAYER_1
 10
122.1314
 20
143.5389
  0
VERTEX
  8
LAYER_1
 10
122.121
 20
143.4301
  0
VERTEX
  8
LAYER_1
 10
122.0953
 20
143.3261
  0
VERTEX
  8
LAYER_1
 10
122.0546
 20
143.2254
  0
VERTEX
  8
LAYER_1
 10
122.0058
 20
143.1358
  0
VERTEX
  8
LAYER_1
 10
121.9434
 20
143.0559
  0
VERTEX
  8
LAYER_1
 10
121.8707
 20
142.9808
  0
VERTEX
  8
LAYER_1
 10
121.7875
 20
142.9175
  0
VERTEX
  8
LAYER_1
 10
121.6948
 20
142.8624
  0
SEQEND
  0
ENDBLK
  0
BLOCK
  8
LAYER_1
  2
AIGNBL010200D5
 70
64
 10
0
 20
0
 30
0
  3
AIGNBL010200D5
  0
POLYLINE
  8
LAYER_1
 40
0.1058
 41
0.1058
 66
1
 10
0
 20
0
 30
0
  0
VERTEX
  8
LAYER_1
 10
114.9276
 20
146.998
  0
VERTEX
  8
LAYER_1
 10
114.8292
 20
146.9245
  0
VERTEX
  8
LAYER_1
 10
114.7413
 20
146.8397
  0
VERTEX
  8
LAYER_1
 10
114.6685
 20
146.7485
  0
VERTEX
  8
LAYER_1
 10
114.6062
 20
146.6462
  0
VERTEX
  8
LAYER_1
 10
114.5566
 20
146.5406
  0
VERTEX
  8
LAYER_1
 10
114.5214
 20
146.4263
  0
VERTEX
  8
LAYER_1
 10
114.5014
 20
146.3183
  0
VERTEX
  8
LAYER_1
 10
114.4942
 20
146.2064
  0
VERTEX
  8
LAYER_1
 10
114.499
 20
146.0944
  0
VERTEX
  8
LAYER_1
 10
114.5182
 20
145.9817
  0
VERTEX
  8
LAYER_1
 10
114.5517
 20
145.8706
  0
SEQEND
  0
ENDBLK
  0
BLOCK
  8
LAYER_1
  2
AIGNBL010200D6
 70
64
 10
0
 20
0
 30
0
  3
AIGNBL010200D6
  0
POLYLINE
  8
LAYER_1
 40
0.1058
 41
0.1058
 66
1
 10
0
 20
0
 30
0
  0
VERTEX
  8
LAYER_1
 10
141.5093
 20
145.2436
 42
0.2357559935
  0
VERTEX
  8
LAYER_1
 10
141.1039
 20
145.0374
  0
SEQEND
  0
ENDBLK
  0
BLOCK
  8
LAYER_1
  2
AIGNBL010200D7
 70
64
 10
0
 20
0
 30
0
  3
AIGNBL010200D7
  0
POLYLINE
  8
LAYER_1
 40
0.1058
 41
0.1058
 66
1
 10
0
 20
0
 30
0
  0
VERTEX
  8
LAYER_1
 10
117.0586
 20
149.504
 42
0.04205325426
  0
VERTEX
  8
LAYER_1
 10
115.9303
 20
148.0007
  0
SEQEND
  0
ENDBLK
  0
BLOCK
  8
LAYER_1
  2
AIGNBL010200D8
 70
64
 10
0
 20
0
 30
0
  3
AIGNBL010200D8
  0
POLYLINE
  8
LAYER_1
 40
0.1058
 41
0.1058
 66
1
 10
0
 20
0
 30
0
  0
VERTEX
  8
LAYER_1
 10
122.6967
 20
145.9945
 42
0.09260950318
  0
VERTEX
  8
LAYER_1
 10
122.0698
 20
145.1189
  0
SEQEND
  0
ENDBLK
  0
BLOCK
  8
LAYER_1
  2
AIGNBL010200D9
 70
64
 10
0
 20
0
 30
0
  3
AIGNBL010200D9
  0
POLYLINE
  8
LAYER_1
 40
0.1058
 41
0.1058
 66
1
 10
0
 20
0
 30
0
  0
VERTEX
  8
LAYER_1
 10
148.4116
 20
145.0006
 42
0.2564135819
  0
VERTEX
  8
LAYER_1
 10
147.9814
 20
145.2436
  0
SEQEND
  0
ENDBLK
  0
BLOCK
  8
LAYER_1
  2
AIGNBL010200DA
 70
64
 10
0
 20
0
 30
0
  3
AIGNBL010200DA
  0
POLYLINE
  8
LAYER_1
 40
0.1058
 41
0.1058
 66
1
 10
0
 20
0
 30
0
  0
VERTEX
  8
LAYER_1
 10
124.2831
 20
146.8517
 42
0.1354499538
  0
VERTEX
  8
LAYER_1
 10
122.6967
 20
145.9945
  0
SEQEND
  0
ENDBLK
  0
BLOCK
  8
LAYER_1
  2
AIGNBL010200DB
 70
64
 10
0
 20
0
 30
0
  3
AIGNBL010200DB
  0
POLYLINE
  8
LAYER_1
 40
0.1058
 41
0.1058
 66
1
 10
0
 20
0
 30
0
  0
VERTEX
  8
LAYER_1
 10
114.9276
 20
146.998
 42
0.1138952646
  0
VERTEX
  8
LAYER_1
 10
115.9303
 20
148.0007
  0
SEQEND
  0
ENDBLK
  0
BLOCK
  8
LAYER_1
  2
AIGNBL010200DC
 70
64
 10
0
 20
0
 30
0
  3
AIGNBL010200DC
  0
POLYLINE
  8
LAYER_1
 40
0.1058
 41
0.1058
 66
1
 10
0
 20
0
 30
0
  0
VERTEX
  8
LAYER_1
 10
122.0698
 20
145.1189
 42
0.2182659388
  0
VERTEX
  8
LAYER_1
 10
122.0698
 20
143.8659
  0
SEQEND
  0
ENDBLK
  0
BLOCK
  8
LAYER_1
  2
AIGNBL010200DD
 70
64
 10
0
 20
0
 30
0
  3
AIGNBL010200DD
  0
POLYLINE
  8
LAYER_1
 40
0.1058
 41
0.1058
 66
1
 10
0
 20
0
 30
0
  0
VERTEX
  8
LAYER_1
 10
127.2073
 20
151.1328
 42
0.09215667094
  0
VERTEX
  8
LAYER_1
 10
123.9497
 20
152.1348
  0
SEQEND
  0
ENDBLK
  0
BLOCK
  8
LAYER_1
  2
AIGNBL010200DE
 70
64
 10
0
 20
0
 30
0
  3
AIGNBL010200DE
  0
POLYLINE
  8
LAYER_1
 40
0.1058
 41
0.1058
 66
1
 10
0
 20
0
 30
0
  0
VERTEX
  8
LAYER_1
 10
125.8328
 20
146.8413
 42
0.116448285
  0
VERTEX
  8
LAYER_1
 10
124.2831
 20
146.8517
  0
SEQEND
  0
ENDBLK
  0
BLOCK
  8
LAYER_1
  2
AIGNBL010200DF
 70
64
 10
0
 20
0
 30
0
  3
AIGNBL010200DF
  0
POLYLINE
  8
LAYER_1
 40
0.1058
 41
0.1058
 66
1
 10
0
 20
0
 30
0
  0
VERTEX
  8
LAYER_1
 10
126.7068
 20
146.4975
 42
0.06892831862
  0
VERTEX
  8
LAYER_1
 10
125.8328
 20
146.8413
  0
SEQEND
  0
ENDBLK
  0
BLOCK
  8
LAYER_1
  2
AIGNBL010200E0
 70
64
 10
0
 20
0
 30
0
  3
AIGNBL010200E0
  0
POLYLINE
  8
LAYER_1
 40
0.1058
 41
0.1058
 66
1
 10
0
 20
0
 30
0
  0
VERTEX
  8
LAYER_1
 10
138.7698
 20
144.5728
 42
0.37368092
  0
VERTEX
  8
LAYER_1
 10
141.1039
 20
145.0374
  0
SEQEND
  0
ENDBLK
  0
BLOCK
  8
LAYER_1
  2
AIGNBL010200E1
 70
64
 10
0
 20
0
 30
0
  3
AIGNBL010200E1
  0
POLYLINE
  8
LAYER_1
 40
0.1058
 41
0.1058
 66
1
 10
0
 20
0
 30
0
  0
VERTEX
  8
LAYER_1
 10
149.2608
 20
141.986
 42
0.1324456971
  0
VERTEX
  8
LAYER_1
 10
148.4116
 20
145.0006
  0
SEQEND
  0
ENDBLK
  0
BLOCK
  8
LAYER_1
  2
AIGNBL010200E2
 70
64
 10
0
 20
0
 30
0
  3
AIGNBL010200E2
  0
POLYLINE
  8
LAYER_1
 40
0.1058
 41
0.1058
 66
1
 10
0
 20
0
 30
0
  0
VERTEX
  8
LAYER_1
 10
137.8151
 20
137.7616
 42
0.05767275346
  0
VERTEX
  8
LAYER_1
 10
126.7068
 20
146.4975
  0
SEQEND
  0
ENDBLK
  0
BLOCK
  8
LAYER_1
  2
AIGNBL010200E3
 70
64
 10
0
 20
0
 30
0
  3
AIGNBL010200E3
  0
POLYLINE
  8
LAYER_1
 40
0.1058
 41
0.1058
 66
1
 10
0
 20
0
 30
0
  0
VERTEX
  8
LAYER_1
 10
138.7698
 20
144.5728
 42
0.01473063481
  0
VERTEX
  8
LAYER_1
 10
128.5179
 20
150.4395
  0
SEQEND
  0
ENDBLK
  0
BLOCK
  8
LAYER_1
  2
AIGNBL010200E4
 70
64
 10
0
 20
0
 30
0
  3
AIGNBL010200E4
  0
POLYLINE
  8
LAYER_1
 40
0.1058
 41
0.1058
 66
1
 10
0
 20
0
 30
0
  0
VERTEX
  8
LAYER_1
 10
149.2608
 20
141.986
 42
0.1330128085
  0
VERTEX
  8
LAYER_1
 10
150.1371
 20
138.8547
  0
SEQEND
  0
ENDBLK
  0
BLOCK
  8
LAYER_1
  2
AIGNBL010200E5
 70
64
 10
0
 20
0
 30
0
  3
AIGNBL010200E5
  0
POLYLINE
  8
LAYER_1
 40
0.1058
 41
0.1058
 66
1
 10
0
 20
0
 30
0
  0
VERTEX
  8
LAYER_1
 10
151.2646
 20
135.8466
 42
0.08860868038
  0
VERTEX
  8
LAYER_1
 10
150.1371
 20
138.8547
  0
SEQEND
  0
ENDBLK
  0
BLOCK
  8
LAYER_1
  2
AIGNBL010200E6
 70
64
 10
0
 20
0
 30
0
  3
AIGNBL010200E6
  0
POLYLINE
  8
LAYER_1
 40
0.1058
 41
0.1058
 66
1
 10
0
 20
0
 30
0
  0
VERTEX
  8
LAYER_1
 10
151.2646
 20
135.8466
 42
0.0305579787
  0
VERTEX
  8
LAYER_1
 10
151.5149
 20
134.8439
  0
SEQEND
  0
ENDBLK
  0
BLOCK
  8
LAYER_1
  2
AIGNBL010200E7
 70
64
 10
0
 20
0
 30
0
  3
AIGNBL010200E7
  0
POLYLINE
  8
LAYER_1
 40
0.1058
 41
0.1058
 66
1
 10
0
 20
0
 30
0
  0
VERTEX
  8
LAYER_1
 10
137.983
 20
134.8439
 42
0.03187169001
  0
VERTEX
  8
LAYER_1
 10
138.234
 20
135.8466
  0
SEQEND
  0
ENDBLK
  0
BLOCK
  8
LAYER_1
  2
AIGNBL010200E8
 70
64
 10
0
 20
0
 30
0
  3
AIGNBL010200E8
  0
POLYLINE
  8
LAYER_1
 40
0.1058
 41
0.1058
 66
1
 10
0
 20
0
 30
0
  0
VERTEX
  8
LAYER_1
 10
151.5989
 20
134.516
 42
0.03002234073
  0
VERTEX
  8
LAYER_1
 10
151.5149
 20
134.8439
  0
SEQEND
  0
ENDBLK
  0
BLOCK
  8
LAYER_1
  2
AIGNBL010200E9
 70
64
 10
0
 20
0
 30
0
  3
AIGNBL010200E9
  0
POLYLINE
  8
LAYER_1
 40
0.1058
 41
0.1058
 66
1
 10
0
 20
0
 30
0
  0
VERTEX
  8
LAYER_1
 10
137.983
 20
134.8439
  0
VERTEX
  8
LAYER_1
 10
137.899
 20
134.516
  0
SEQEND
  0
ENDBLK
  0
BLOCK
  8
LAYER_1
  2
AIGNBL010200EA
 70
64
 10
0
 20
0
 30
0
  3
AIGNBL010200EA
  0
POLYLINE
  8
LAYER_1
 40
0.1058
 41
0.1058
 66
1
 10
0
 20
0
 30
0
  0
VERTEX
  8
LAYER_1
 10
137.899
 20
134.516
 42
0.39208277
  0
VERTEX
  8
LAYER_1
 10
138.0981
 20
134.2225
  0
VERTEX
  8
LAYER_1
 10
138.1445
 20
134.2169
  0
SEQEND
  0
ENDBLK
  0
BLOCK
  8
LAYER_1
  2
AIGNBL010200EB
 70
64
 10
0
 20
0
 30
0
  3
AIGNBL010200EB
  0
POLYLINE
  8
LAYER_1
 40
0.1058
 41
0.1058
 66
1
 10
0
 20
0
 30
0
  0
VERTEX
  8
LAYER_1
 10
151.3534
 20
134.2169
 42
0.3934860771
  0
VERTEX
  8
LAYER_1
 10
151.6036
 20
134.468
  0
VERTEX
  8
LAYER_1
 10
151.5989
 20
134.516
  0
SEQEND
  0
ENDBLK
  0
BLOCK
  8
LAYER_1
  2
AIGNBL010200EC
 70
64
 10
0
 20
0
 30
0
  3
AIGNBL010200EC
  0
POLYLINE
  8
LAYER_1
 40
0.1058
 41
0.1058
 66
1
 10
0
 20
0
 30
0
  0
VERTEX
  8
LAYER_1
 10
138.1445
 20
134.2169
  0
VERTEX
  8
LAYER_1
 10
151.3534
 20
134.2169
  0
SEQEND
  0
ENDBLK
  0
BLOCK
  8
LAYER_1
  2
AIGNBL010200ED
 70
64
 10
0
 20
0
 30
0
  3
AIGNBL010200ED
  0
POLYLINE
  8
LAYER_1
  6
AIGENLINE001
 40
0.1058
 41
0.1058
 66
1
 10
0
 20
0
 30
0
 70
128
  0
VERTEX
  8
LAYER_1
 10
78.7257
 20
205.654
  0
VERTEX
  8
LAYER_1
 10
78.7257
 20
163.9339
  0
SEQEND
  0
ENDBLK
  0
BLOCK
  8
LAYER_1
  2
AIGNBL010200EE
 70
64
 10
0
 20
0
 30
0
  3
AIGNBL010200EE
  0
POLYLINE
  8
LAYER_1
 40
0.1058
 41
0.1058
 66
1
 10
0
 20
0
 30
0
  0
VERTEX
  8
LAYER_1
 10
72.1177
 20
193.6229
 42
0.1427573572
  0
VERTEX
  8
LAYER_1
 10
74.1327
 20
190.3549
  0
SEQEND
  0
ENDBLK
  0
BLOCK
  8
LAYER_1
  2
AIGNBL010200EF
 70
64
 10
0
 20
0
 30
0
  3
AIGNBL010200EF
  0
POLYLINE
  8
LAYER_1
 40
0.1058
 41
0.1058
 66
1
 10
0
 20
0
 30
0
  0
VERTEX
  8
LAYER_1
 10
76.9066
 20
202.0509
 42
0.2642313078
  0
VERTEX
  8
LAYER_1
 10
72.1177
 20
197.2619
  0
SEQEND
  0
ENDBLK
  0
BLOCK
  8
LAYER_1
  2
AIGNBL010200F0
 70
64
 10
0
 20
0
 30
0
  3
AIGNBL010200F0
  0
POLYLINE
  8
LAYER_1
 40
0.1058
 41
0.1058
 66
1
 10
0
 20
0
 30
0
  0
VERTEX
  8
LAYER_1
 10
85.3338
 20
197.2619
 42
0.2643339037
  0
VERTEX
  8
LAYER_1
 10
80.5448
 20
202.0509
  0
SEQEND
  0
ENDBLK
  0
BLOCK
  8
LAYER_1
  2
AIGNBL010200F1
 70
64
 10
0
 20
0
 30
0
  3
AIGNBL010200F1
  0
POLYLINE
  8
LAYER_1
 40
0.1058
 41
0.1058
 66
1
 10
0
 20
0
 30
0
 70
1
  0
VERTEX
  8
LAYER_1
 10
80.5425
 20
195.442
 42
0.4142185624
  0
VERTEX
  8
LAYER_1
 10
78.7257
 20
197.2587
 42
0.4142245906
  0
VERTEX
  8
LAYER_1
 10
76.909
 20
195.442
 42
0.4142085616
  0
VERTEX
  8
LAYER_1
 10
78.7257
 20
193.6253
 42
0.4142025352
  0
SEQEND
  0
ENDBLK
  0
BLOCK
  8
LAYER_1
  2
AIGNBL010200F2
 70
64
 10
0
 20
0
 30
0
  3
AIGNBL010200F2
  0
POLYLINE
  8
LAYER_1
 40
0.1058
 41
0.1058
 66
1
 10
0
 20
0
 30
0
 70
1
  0
VERTEX
  8
LAYER_1
 10
81.3564
 20
195.442
 42
0.4142170163
  0
VERTEX
  8
LAYER_1
 10
78.7257
 20
198.0736
 42
0.4142211773
  0
VERTEX
  8
LAYER_1
 10
76.0949
 20
195.442
 42
0.4142101092
  0
VERTEX
  8
LAYER_1
 10
78.7257
 20
192.8113
 42
0.4142059469
  0
SEQEND
  0
ENDBLK
  0
BLOCK
  8
LAYER_1
  2
AIGNBL010200F3
 70
64
 10
0
 20
0
 30
0
  3
AIGNBL010200F3
  0
POLYLINE
  8
LAYER_1
 40
0.1058
 41
0.1058
 66
1
 10
0
 20
0
 30
0
 70
1
  0
VERTEX
  8
LAYER_1
 10
81.2317
 20
195.442
 42
0.4142171875
  0
VERTEX
  8
LAYER_1
 10
78.7257
 20
197.948
 42
0.4142215572
  0
VERTEX
  8
LAYER_1
 10
76.2197
 20
195.442
 42
0.4142099371
  0
VERTEX
  8
LAYER_1
 10
78.7257
 20
192.936
 42
0.414205568
  0
SEQEND
  0
ENDBLK
  0
BLOCK
  8
LAYER_1
  2
AIGNBL010200F4
 70
64
 10
0
 20
0
 30
0
  3
AIGNBL010200F4
  0
POLYLINE
  8
LAYER_1
 40
0.1058
 41
0.1058
 66
1
 10
0
 20
0
 30
0
  0
VERTEX
  8
LAYER_1
 10
72.5455
 20
197.0933
 42
0.3383728023
  0
VERTEX
  8
LAYER_1
 10
76.4668
 20
197.7018
  0
SEQEND
  0
ENDBLK
  0
BLOCK
  8
LAYER_1
  2
AIGNBL010200F5
 70
64
 10
0
 20
0
 30
0
  3
AIGNBL010200F5
  0
POLYLINE
  8
LAYER_1
 40
0.1058
 41
0.1058
 66
1
 10
0
 20
0
 30
0
  0
VERTEX
  8
LAYER_1
 10
76.4668
 20
197.7018
 42
0.3383878271
  0
VERTEX
  8
LAYER_1
 10
77.0745
 20
201.6231
  0
SEQEND
  0
ENDBLK
  0
BLOCK
  8
LAYER_1
  2
AIGNBL010200F6
 70
64
 10
0
 20
0
 30
0
  3
AIGNBL010200F6
  0
POLYLINE
  8
LAYER_1
 40
0.1058
 41
0.1058
 66
1
 10
0
 20
0
 30
0
  0
VERTEX
  8
LAYER_1
 10
80.3769
 20
201.6231
 42
0.4144124261
  0
VERTEX
  8
LAYER_1
 10
79.6245
 20
204.1723
 42
0.4139874798
  0
VERTEX
  8
LAYER_1
 10
77.0745
 20
203.4206
 42
0.2530179575
  0
VERTEX
  8
LAYER_1
 10
77.0745
 20
201.6231
  0
SEQEND
  0
ENDBLK
  0
BLOCK
  8
LAYER_1
  2
AIGNBL010200F7
 70
64
 10
0
 20
0
 30
0
  3
AIGNBL010200F7
  0
POLYLINE
  8
LAYER_1
 40
0.1058
 41
0.1058
 66
1
 10
0
 20
0
 30
0
  0
VERTEX
  8
LAYER_1
 10
80.3769
 20
201.6231
 42
0.3382303199
  0
VERTEX
  8
LAYER_1
 10
80.9854
 20
197.7018
  0
SEQEND
  0
ENDBLK
  0
BLOCK
  8
LAYER_1
  2
AIGNBL010200F8
 70
64
 10
0
 20
0
 30
0
  3
AIGNBL010200F8
  0
POLYLINE
  8
LAYER_1
 40
0.1058
 41
0.1058
 66
1
 10
0
 20
0
 30
0
  0
VERTEX
  8
LAYER_1
 10
80.9854
 20
197.7018
 42
0.3383293064
  0
VERTEX
  8
LAYER_1
 10
84.9068
 20
197.0933
  0
SEQEND
  0
ENDBLK
  0
BLOCK
  8
LAYER_1
  2
AIGNBL010200F9
 70
64
 10
0
 20
0
 30
0
  3
AIGNBL010200F9
  0
POLYLINE
  8
LAYER_1
 40
0.1058
 41
0.1058
 66
1
 10
0
 20
0
 30
0
  0
VERTEX
  8
LAYER_1
 10
84.9068
 20
193.7917
 42
0.4140354386
  0
VERTEX
  8
LAYER_1
 10
87.4567
 20
194.5432
 42
0.4140201189
  0
VERTEX
  8
LAYER_1
 10
86.7035
 20
197.0933
 42
0.2543759349
  0
VERTEX
  8
LAYER_1
 10
84.9068
 20
197.0933
  0
SEQEND
  0
ENDBLK
  0
BLOCK
  8
LAYER_1
  2
AIGNBL010200FA
 70
64
 10
0
 20
0
 30
0
  3
AIGNBL010200FA
  0
POLYLINE
  8
LAYER_1
 40
0.1058
 41
0.1058
 66
1
 10
0
 20
0
 30
0
  0
VERTEX
  8
LAYER_1
 10
84.9068
 20
193.7917
 42
0.3385293941
  0
VERTEX
  8
LAYER_1
 10
80.9854
 20
193.1823
  0
SEQEND
  0
ENDBLK
  0
BLOCK
  8
LAYER_1
  2
AIGNBL010200FB
 70
64
 10
0
 20
0
 30
0
  3
AIGNBL010200FB
  0
POLYLINE
  8
LAYER_1
 40
0.1058
 41
0.1058
 66
1
 10
0
 20
0
 30
0
  0
VERTEX
  8
LAYER_1
 10
80.9854
 20
193.1823
 42
0.3385045353
  0
VERTEX
  8
LAYER_1
 10
80.3769
 20
189.2618
  0
SEQEND
  0
ENDBLK
  0
BLOCK
  8
LAYER_1
  2
AIGNBL010200FC
 70
64
 10
0
 20
0
 30
0
  3
AIGNBL010200FC
  0
POLYLINE
  8
LAYER_1
 40
0.1058
 41
0.1058
 66
1
 10
0
 20
0
 30
0
  0
VERTEX
  8
LAYER_1
 10
77.0745
 20
189.2618
 42
0.3386621101
  0
VERTEX
  8
LAYER_1
 10
76.4668
 20
193.1823
  0
SEQEND
  0
ENDBLK
  0
BLOCK
  8
LAYER_1
  2
AIGNBL010200FD
 70
64
 10
0
 20
0
 30
0
  3
AIGNBL010200FD
  0
POLYLINE
  8
LAYER_1
 40
0.1058
 41
0.1058
 66
1
 10
0
 20
0
 30
0
  0
VERTEX
  8
LAYER_1
 10
77.0745
 20
189.2618
 42
0.4139417509
  0
VERTEX
  8
LAYER_1
 10
77.8278
 20
186.7118
 42
0.4141312251
  0
VERTEX
  8
LAYER_1
 10
80.3769
 20
187.4642
 42
0.2542269911
  0
VERTEX
  8
LAYER_1
 10
80.3769
 20
189.2618
  0
SEQEND
  0
ENDBLK
  0
BLOCK
  8
LAYER_1
  2
AIGNBL010200FE
 70
64
 10
0
 20
0
 30
0
  3
AIGNBL010200FE
  0
POLYLINE
  8
LAYER_1
 40
0.1058
 41
0.1058
 66
1
 10
0
 20
0
 30
0
  0
VERTEX
  8
LAYER_1
 10
72.5455
 20
197.0933
 42
0.4141881007
  0
VERTEX
  8
LAYER_1
 10
69.9963
 20
196.3408
 42
0.4144360972
  0
VERTEX
  8
LAYER_1
 10
70.748
 20
193.7917
 42
0.2543846577
  0
VERTEX
  8
LAYER_1
 10
72.5455
 20
193.7917
  0
SEQEND
  0
ENDBLK
  0
BLOCK
  8
LAYER_1
  2
AIGNBL010200FF
 70
64
 10
0
 20
0
 30
0
  3
AIGNBL010200FF
  0
POLYLINE
  8
LAYER_1
 40
0.1058
 41
0.1058
 66
1
 10
0
 20
0
 30
0
  0
VERTEX
  8
LAYER_1
 10
76.4668
 20
193.1823
 42
0.3385728866
  0
VERTEX
  8
LAYER_1
 10
72.5455
 20
193.7917
  0
SEQEND
  0
ENDBLK
  0
BLOCK
  8
LAYER_1
  2
AIGNBL01020100
 70
64
 10
0
 20
0
 30
0
  3
AIGNBL01020100
  0
POLYLINE
  8
LAYER_1
 40
0.1058
 41
0.1058
 66
1
 10
0
 20
0
 30
0
  0
VERTEX
  8
LAYER_1
 10
73.6809
 20
192.7073
  0
VERTEX
  8
LAYER_1
 10
73.7066
 20
192.6833
  0
VERTEX
  8
LAYER_1
 10
73.7777
 20
192.613
  0
VERTEX
  8
LAYER_1
 10
73.8408
 20
192.541
  0
VERTEX
  8
LAYER_1
 10
73.8968
 20
192.4627
  0
VERTEX
  8
LAYER_1
 10
73.944
 20
192.3827
  0
VERTEX
  8
LAYER_1
 10
73.9856
 20
192.2955
  0
VERTEX
  8
LAYER_1
 10
74.016
 20
192.206
  0
VERTEX
  8
LAYER_1
 10
74.0376
 20
192.1124
  0
VERTEX
  8
LAYER_1
 10
74.0487
 20
192.018
  0
SEQEND
  0
ENDBLK
  0
BLOCK
  8
LAYER_1
  2
AIGNBL01020101
 70
64
 10
0
 20
0
 30
0
  3
AIGNBL01020101
  0
POLYLINE
  8
LAYER_1
 40
0.1058
 41
0.1058
 66
1
 10
0
 20
0
 30
0
  0
VERTEX
  8
LAYER_1
 10
83.4035
 20
192.018
  0
VERTEX
  8
LAYER_1
 10
83.4138
 20
192.11
  0
VERTEX
  8
LAYER_1
 10
83.4338
 20
192.202
  0
VERTEX
  8
LAYER_1
 10
83.4667
 20
192.2932
  0
VERTEX
  8
LAYER_1
 10
83.5083
 20
192.3827
  0
VERTEX
  8
LAYER_1
 10
83.5546
 20
192.4618
  0
VERTEX
  8
LAYER_1
 10
83.609
 20
192.5378
  0
VERTEX
  8
LAYER_1
 10
83.6737
 20
192.613
  0
VERTEX
  8
LAYER_1
 10
83.7449
 20
192.6833
  0
VERTEX
  8
LAYER_1
 10
83.7705
 20
192.7073
  0
SEQEND
  0
ENDBLK
  0
BLOCK
  8
LAYER_1
  2
AIGNBL01020102
 70
64
 10
0
 20
0
 30
0
  3
AIGNBL01020102
  0
POLYLINE
  8
LAYER_1
 40
0.1058
 41
0.1058
 66
1
 10
0
 20
0
 30
0
  0
VERTEX
  8
LAYER_1
 10
82.7774
 20
169.0083
  0
VERTEX
  8
LAYER_1
 10
82.7717
 20
169.1266
  0
VERTEX
  8
LAYER_1
 10
82.7646
 20
169.2322
  0
VERTEX
  8
LAYER_1
 10
82.7542
 20
169.3249
  0
VERTEX
  8
LAYER_1
 10
82.7446
 20
169.4065
  0
VERTEX
  8
LAYER_1
 10
82.7334
 20
169.4833
  0
VERTEX
  8
LAYER_1
 10
82.7238
 20
169.544
  0
VERTEX
  8
LAYER_1
 10
82.7158
 20
169.5888
  0
VERTEX
  8
LAYER_1
 10
82.7086
 20
169.6248
  0
VERTEX
  8
LAYER_1
 10
82.6982
 20
169.6704
  0
VERTEX
  8
LAYER_1
 10
82.687
 20
169.7263
  0
VERTEX
  8
LAYER_1
 10
82.6623
 20
169.8279
  0
VERTEX
  8
LAYER_1
 10
82.6358
 20
169.9263
  0
VERTEX
  8
LAYER_1
 10
82.6078
 20
170.019
  0
VERTEX
  8
LAYER_1
 10
82.5751
 20
170.1182
  0
VERTEX
  8
LAYER_1
 10
82.543
 20
170.2101
  0
VERTEX
  8
LAYER_1
 10
82.5095
 20
170.2956
  0
VERTEX
  8
LAYER_1
 10
82.4775
 20
170.3724
  0
VERTEX
  8
LAYER_1
 10
82.4511
 20
170.4332
  0
VERTEX
  8
LAYER_1
 10
82.4279
 20
170.4844
  0
VERTEX
  8
LAYER_1
 10
82.4079
 20
170.5268
  0
VERTEX
  8
LAYER_1
 10
82.392
 20
170.5612
  0
VERTEX
  8
LAYER_1
 10
82.3784
 20
170.5867
  0
VERTEX
  8
LAYER_1
 10
82.3656
 20
170.6131
  0
VERTEX
  8
LAYER_1
 10
82.3487
 20
170.6467
  0
VERTEX
  8
LAYER_1
 10
82.3168
 20
170.705
  0
VERTEX
  8
LAYER_1
 10
82.292
 20
170.7498
  0
SEQEND
  0
ENDBLK
  0
BLOCK
  8
LAYER_1
  2
AIGNBL01020103
 70
64
 10
0
 20
0
 30
0
  3
AIGNBL01020103
  0
POLYLINE
  8
LAYER_1
 40
0.1058
 41
0.1058
 66
1
 10
0
 20
0
 30
0
  0
VERTEX
  8
LAYER_1
 10
75.1594
 20
170.7483
  0
VERTEX
  8
LAYER_1
 10
75.1546
 20
170.7402
  0
VERTEX
  8
LAYER_1
 10
75.1242
 20
170.6819
  0
VERTEX
  8
LAYER_1
 10
75.0987
 20
170.6347
  0
VERTEX
  8
LAYER_1
 10
75.0811
 20
170.5995
  0
VERTEX
  8
LAYER_1
 10
75.0682
 20
170.5748
  0
VERTEX
  8
LAYER_1
 10
75.0523
 20
170.5419
  0
VERTEX
  8
LAYER_1
 10
75.0306
 20
170.4971
  0
VERTEX
  8
LAYER_1
 10
75.0051
 20
170.442
  0
VERTEX
  8
LAYER_1
 10
74.9763
 20
170.3756
  0
VERTEX
  8
LAYER_1
 10
74.9443
 20
170.2989
  0
VERTEX
  8
LAYER_1
 10
74.9115
 20
170.2117
  0
VERTEX
  8
LAYER_1
 10
74.8779
 20
170.1189
  0
VERTEX
  8
LAYER_1
 10
74.8452
 20
170.0206
  0
VERTEX
  8
LAYER_1
 10
74.8236
 20
169.9503
  0
VERTEX
  8
LAYER_1
 10
74.8036
 20
169.8783
  0
VERTEX
  8
LAYER_1
 10
74.7836
 20
169.8031
  0
VERTEX
  8
LAYER_1
 10
74.7652
 20
169.7263
  0
VERTEX
  8
LAYER_1
 10
74.7508
 20
169.6608
  0
VERTEX
  8
LAYER_1
 10
74.7405
 20
169.6096
  0
VERTEX
  8
LAYER_1
 10
74.7348
 20
169.5776
  0
VERTEX
  8
LAYER_1
 10
74.7276
 20
169.5345
  0
VERTEX
  8
LAYER_1
 10
74.7172
 20
169.4785
  0
VERTEX
  8
LAYER_1
 10
74.7068
 20
169.4097
  0
VERTEX
  8
LAYER_1
 10
74.6972
 20
169.3281
  0
VERTEX
  8
LAYER_1
 10
74.6876
 20
169.2354
  0
VERTEX
  8
LAYER_1
 10
74.6796
 20
169.1283
  0
VERTEX
  8
LAYER_1
 10
74.6756
 20
169.0099
  0
SEQEND
  0
ENDBLK
  0
BLOCK
  8
LAYER_1
  2
AIGNBL01020104
 70
64
 10
0
 20
0
 30
0
  3
AIGNBL01020104
  0
POLYLINE
  8
LAYER_1
 40
0.1058
 41
0.1058
 66
1
 10
0
 20
0
 30
0
  0
VERTEX
  8
LAYER_1
 10
75.165
 20
170.6379
  0
VERTEX
  8
LAYER_1
 10
75.0907
 20
170.4764
  0
VERTEX
  8
LAYER_1
 10
75.0083
 20
170.2589
  0
VERTEX
  8
LAYER_1
 10
74.9435
 20
170.051
  0
VERTEX
  8
LAYER_1
 10
74.8932
 20
169.8391
  0
VERTEX
  8
LAYER_1
 10
74.858
 20
169.6248
  0
VERTEX
  8
LAYER_1
 10
74.8363
 20
169.4097
  0
VERTEX
  8
LAYER_1
 10
74.8291
 20
169.1922
  0
SEQEND
  0
ENDBLK
  0
BLOCK
  8
LAYER_1
  2
AIGNBL01020105
 70
64
 10
0
 20
0
 30
0
  3
AIGNBL01020105
  0
POLYLINE
  8
LAYER_1
 40
0.1058
 41
0.1058
 66
1
 10
0
 20
0
 30
0
  0
VERTEX
  8
LAYER_1
 10
82.6222
 20
169.1922
  0
VERTEX
  8
LAYER_1
 10
82.6135
 20
169.4433
  0
VERTEX
  8
LAYER_1
 10
82.5846
 20
169.6944
  0
VERTEX
  8
LAYER_1
 10
82.5359
 20
169.9407
  0
VERTEX
  8
LAYER_1
 10
82.4695
 20
170.1853
  0
VERTEX
  8
LAYER_1
 10
82.3848
 20
170.4236
  0
VERTEX
  8
LAYER_1
 10
82.2872
 20
170.6427
  0
SEQEND
  0
ENDBLK
  0
BLOCK
  8
LAYER_1
  2
AIGNBL01020106
 70
64
 10
0
 20
0
 30
0
  3
AIGNBL01020106
  0
POLYLINE
  8
LAYER_1
 40
0.1058
 41
0.1058
 66
1
 10
0
 20
0
 30
0
  0
VERTEX
  8
LAYER_1
 10
78.7257
 20
165.1877
  0
VERTEX
  8
LAYER_1
 10
78.8808
 20
165.1901
  0
VERTEX
  8
LAYER_1
 10
79.0232
 20
165.1981
  0
VERTEX
  8
LAYER_1
 10
79.1503
 20
165.2101
  0
VERTEX
  8
LAYER_1
 10
79.2639
 20
165.2237
  0
VERTEX
  8
LAYER_1
 10
79.363
 20
165.2389
  0
VERTEX
  8
LAYER_1
 10
79.4493
 20
165.2532
  0
VERTEX
  8
LAYER_1
 10
79.5213
 20
165.2677
  0
VERTEX
  8
LAYER_1
 10
79.5733
 20
165.2781
  0
VERTEX
  8
LAYER_1
 10
79.6149
 20
165.2869
  0
VERTEX
  8
LAYER_1
 10
79.65
 20
165.2948
  0
VERTEX
  8
LAYER_1
 10
79.6725
 20
165.3012
  0
VERTEX
  8
LAYER_1
 10
79.6941
 20
165.3061
  0
VERTEX
  8
LAYER_1
 10
79.7205
 20
165.3124
  0
VERTEX
  8
LAYER_1
 10
79.7485
 20
165.3205
  0
VERTEX
  8
LAYER_1
 10
79.7796
 20
165.3277
  0
VERTEX
  8
LAYER_1
 10
79.8612
 20
165.3508
  0
VERTEX
  8
LAYER_1
 10
79.9595
 20
165.3812
  0
VERTEX
  8
LAYER_1
 10
80.0571
 20
165.4132
  0
VERTEX
  8
LAYER_1
 10
80.1594
 20
165.45
  0
VERTEX
  8
LAYER_1
 10
80.2641
 20
165.4916
  0
VERTEX
  8
LAYER_1
 10
80.3698
 20
165.5363
  0
VERTEX
  8
LAYER_1
 10
80.5497
 20
165.6203
  0
VERTEX
  8
LAYER_1
 10
80.7327
 20
165.7171
  0
VERTEX
  8
LAYER_1
 10
80.919
 20
165.8274
  0
VERTEX
  8
LAYER_1
 10
81.1062
 20
165.9522
  0
VERTEX
  8
LAYER_1
 10
81.2549
 20
166.0625
  0
VERTEX
  8
LAYER_1
 10
81.3972
 20
166.1784
  0
VERTEX
  8
LAYER_1
 10
81.5276
 20
166.2944
  0
VERTEX
  8
LAYER_1
 10
81.6475
 20
166.4096
  0
VERTEX
  8
LAYER_1
 10
81.7554
 20
166.5231
  0
VERTEX
  8
LAYER_1
 10
81.8242
 20
166.6014
  0
VERTEX
  8
LAYER_1
 10
81.889
 20
166.6766
  0
VERTEX
  8
LAYER_1
 10
81.9482
 20
166.7517
  0
VERTEX
  8
LAYER_1
 10
82.0041
 20
166.8237
  0
VERTEX
  8
LAYER_1
 10
82.0561
 20
166.8933
  0
VERTEX
  8
LAYER_1
 10
82.1025
 20
166.9596
  0
VERTEX
  8
LAYER_1
 10
82.1401
 20
167.018
  0
VERTEX
  8
LAYER_1
 10
82.172
 20
167.066
  0
VERTEX
  8
LAYER_1
 10
82.1873
 20
167.09
  0
VERTEX
  8
LAYER_1
 10
82.2
 20
167.11
  0
VERTEX
  8
LAYER_1
 10
82.2128
 20
167.1324
  0
VERTEX
  8
LAYER_1
 10
82.2344
 20
167.1675
  0
VERTEX
  8
LAYER_1
 10
82.2616
 20
167.2131
  0
VERTEX
  8
LAYER_1
 10
82.2936
 20
167.2715
  0
VERTEX
  8
LAYER_1
 10
82.3392
 20
167.3547
  0
VERTEX
  8
LAYER_1
 10
82.3816
 20
167.4378
  0
VERTEX
  8
LAYER_1
 10
82.4207
 20
167.5186
  0
VERTEX
  8
LAYER_1
 10
82.4551
 20
167.5945
  0
VERTEX
  8
LAYER_1
 10
82.4943
 20
167.6873
  0
VERTEX
  8
LAYER_1
 10
82.5287
 20
167.7721
  0
VERTEX
  8
LAYER_1
 10
82.5575
 20
167.8489
  0
VERTEX
  8
LAYER_1
 10
82.5799
 20
167.9128
  0
VERTEX
  8
LAYER_1
 10
82.5959
 20
167.9624
  0
VERTEX
  8
LAYER_1
 10
82.6046
 20
167.9888
  0
VERTEX
  8
LAYER_1
 10
82.615
 20
168.0224
  0
VERTEX
  8
LAYER_1
 10
82.6294
 20
168.0663
  0
VERTEX
  8
LAYER_1
 10
82.6438
 20
168.1207
  0
VERTEX
  8
LAYER_1
 10
82.6614
 20
168.1863
  0
VERTEX
  8
LAYER_1
 10
82.6798
 20
168.2575
  0
VERTEX
  8
LAYER_1
 10
82.7014
 20
168.359
  0
VERTEX
  8
LAYER_1
 10
82.7198
 20
168.4518
  0
VERTEX
  8
LAYER_1
 10
82.7342
 20
168.5365
  0
VERTEX
  8
LAYER_1
 10
82.747
 20
168.614
  0
VERTEX
  8
LAYER_1
 10
82.7558
 20
168.6868
  0
VERTEX
  8
LAYER_1
 10
82.7646
 20
168.7756
  0
VERTEX
  8
LAYER_1
 10
82.7717
 20
168.8803
  0
VERTEX
  8
LAYER_1
 10
82.7774
 20
169.0003
  0
SEQEND
  0
ENDBLK
  0
BLOCK
  8
LAYER_1
  2
AIGNBL01020107
 70
64
 10
0
 20
0
 30
0
  3
AIGNBL01020107
  0
POLYLINE
  8
LAYER_1
 40
0.1058
 41
0.1058
 66
1
 10
0
 20
0
 30
0
  0
VERTEX
  8
LAYER_1
 10
74.6756
 20
169.0011
  0
VERTEX
  8
LAYER_1
 10
74.6813
 20
168.8707
  0
VERTEX
  8
LAYER_1
 10
74.6917
 20
168.746
  0
VERTEX
  8
LAYER_1
 10
74.7044
 20
168.6293
  0
VERTEX
  8
LAYER_1
 10
74.7204
 20
168.5245
  0
VERTEX
  8
LAYER_1
 10
74.7356
 20
168.4326
  0
VERTEX
  8
LAYER_1
 10
74.7508
 20
168.3542
  0
VERTEX
  8
LAYER_1
 10
74.7652
 20
168.2886
  0
VERTEX
  8
LAYER_1
 10
74.7788
 20
168.2311
  0
VERTEX
  8
LAYER_1
 10
74.7916
 20
168.1838
  0
VERTEX
  8
LAYER_1
 10
74.7996
 20
168.1495
  0
VERTEX
  8
LAYER_1
 10
74.8084
 20
168.1191
  0
VERTEX
  8
LAYER_1
 10
74.8204
 20
168.0791
  0
VERTEX
  8
LAYER_1
 10
74.8356
 20
168.0264
  0
VERTEX
  8
LAYER_1
 10
74.8556
 20
167.9624
  0
VERTEX
  8
LAYER_1
 10
74.8796
 20
167.8888
  0
VERTEX
  8
LAYER_1
 10
74.9435
 20
167.7177
  0
VERTEX
  8
LAYER_1
 10
75.0107
 20
167.561
  0
VERTEX
  8
LAYER_1
 10
75.0539
 20
167.4666
  0
VERTEX
  8
LAYER_1
 10
75.0987
 20
167.3771
  0
VERTEX
  8
LAYER_1
 10
75.145
 20
167.2923
  0
VERTEX
  8
LAYER_1
 10
75.189
 20
167.2123
  0
VERTEX
  8
LAYER_1
 10
75.2338
 20
167.1388
  0
VERTEX
  8
LAYER_1
 10
75.2714
 20
167.0764
  0
VERTEX
  8
LAYER_1
 10
75.3058
 20
167.0237
  0
VERTEX
  8
LAYER_1
 10
75.3417
 20
166.9709
  0
VERTEX
  8
LAYER_1
 10
75.4025
 20
166.8837
  0
VERTEX
  8
LAYER_1
 10
75.4705
 20
166.7918
  0
VERTEX
  8
LAYER_1
 10
75.5481
 20
166.6942
  0
VERTEX
  8
LAYER_1
 10
75.6376
 20
166.5878
  0
VERTEX
  8
LAYER_1
 10
75.732
 20
166.4847
  0
VERTEX
  8
LAYER_1
 10
75.8383
 20
166.3767
  0
VERTEX
  8
LAYER_1
 10
75.9566
 20
166.264
  0
VERTEX
  8
LAYER_1
 10
76.0885
 20
166.1489
  0
VERTEX
  8
LAYER_1
 10
76.2365
 20
166.0321
  0
VERTEX
  8
LAYER_1
 10
76.3716
 20
165.9346
  0
VERTEX
  8
LAYER_1
 10
76.5179
 20
165.8378
  0
VERTEX
  8
LAYER_1
 10
76.6715
 20
165.7443
  0
VERTEX
  8
LAYER_1
 10
76.8211
 20
165.6626
  0
VERTEX
  8
LAYER_1
 10
76.961
 20
165.5931
  0
VERTEX
  8
LAYER_1
 10
77.0921
 20
165.5331
  0
VERTEX
  8
LAYER_1
 10
77.2129
 20
165.4819
  0
VERTEX
  8
LAYER_1
 10
77.324
 20
165.4396
  0
VERTEX
  8
LAYER_1
 10
77.4231
 20
165.4052
  0
VERTEX
  8
LAYER_1
 10
77.5111
 20
165.3764
  0
VERTEX
  8
LAYER_1
 10
77.587
 20
165.3524
  0
VERTEX
  8
LAYER_1
 10
77.6518
 20
165.3341
  0
VERTEX
  8
LAYER_1
 10
77.6806
 20
165.3269
  0
VERTEX
  8
LAYER_1
 10
77.715
 20
165.3173
  0
VERTEX
  8
LAYER_1
 10
77.7622
 20
165.3052
  0
VERTEX
  8
LAYER_1
 10
77.8206
 20
165.2916
  0
VERTEX
  8
LAYER_1
 10
77.8917
 20
165.2757
  0
VERTEX
  8
LAYER_1
 10
77.9741
 20
165.2581
  0
VERTEX
  8
LAYER_1
 10
78.0692
 20
165.2413
  0
VERTEX
  8
LAYER_1
 10
78.1763
 20
165.2245
  0
VERTEX
  8
LAYER_1
 10
78.2955
 20
165.2101
  0
VERTEX
  8
LAYER_1
 10
78.4267
 20
165.1981
  0
VERTEX
  8
LAYER_1
 10
78.5706
 20
165.1901
  0
VERTEX
  8
LAYER_1
 10
78.7257
 20
165.1877
  0
SEQEND
  0
ENDBLK
  0
BLOCK
  8
LAYER_1
  2
AIGNBL01020108
 70
64
 10
0
 20
0
 30
0
  3
AIGNBL01020108
  0
POLYLINE
  8
LAYER_1
 40
0.1058
 41
0.1058
 66
1
 10
0
 20
0
 30
0
  0
VERTEX
  8
LAYER_1
 10
78.7257
 20
165.6211
  0
VERTEX
  8
LAYER_1
 10
79.0008
 20
165.6307
  0
VERTEX
  8
LAYER_1
 10
79.2735
 20
165.6563
  0
VERTEX
  8
LAYER_1
 10
79.5429
 20
165.7011
  0
VERTEX
  8
LAYER_1
 10
79.8092
 20
165.7618
  0
VERTEX
  8
LAYER_1
 10
80.0698
 20
165.8402
  0
VERTEX
  8
LAYER_1
 10
80.3242
 20
165.9361
  0
VERTEX
  8
LAYER_1
 10
80.5712
 20
166.0465
  0
VERTEX
  8
LAYER_1
 10
80.7879
 20
166.1616
  0
VERTEX
  8
LAYER_1
 10
80.9966
 20
166.2903
  0
VERTEX
  8
LAYER_1
 10
81.1957
 20
166.4303
  0
VERTEX
  8
LAYER_1
 10
81.3853
 20
166.5823
  0
VERTEX
  8
LAYER_1
 10
81.5643
 20
166.7454
  0
VERTEX
  8
LAYER_1
 10
81.7299
 20
166.918
  0
VERTEX
  8
LAYER_1
 10
81.8834
 20
167.1004
  0
VERTEX
  8
LAYER_1
 10
82.0233
 20
167.2923
  0
VERTEX
  8
LAYER_1
 10
82.1512
 20
167.4906
  0
VERTEX
  8
LAYER_1
 10
82.2633
 20
167.6969
  0
VERTEX
  8
LAYER_1
 10
82.3616
 20
167.9088
  0
VERTEX
  8
LAYER_1
 10
82.4447
 20
168.1255
  0
VERTEX
  8
LAYER_1
 10
82.5079
 20
168.335
  0
VERTEX
  8
LAYER_1
 10
82.5583
 20
168.5461
  0
VERTEX
  8
LAYER_1
 10
82.5942
 20
168.7604
  0
VERTEX
  8
LAYER_1
 10
82.615
 20
168.9755
  0
VERTEX
  8
LAYER_1
 10
82.6222
 20
169.1922
  0
SEQEND
  0
ENDBLK
  0
BLOCK
  8
LAYER_1
  2
AIGNBL01020109
 70
64
 10
0
 20
0
 30
0
  3
AIGNBL01020109
  0
POLYLINE
  8
LAYER_1
 40
0.1058
 41
0.1058
 66
1
 10
0
 20
0
 30
0
  0
VERTEX
  8
LAYER_1
 10
82.2336
 20
169.6504
  0
VERTEX
  8
LAYER_1
 10
82.236
 20
169.612
  0
VERTEX
  8
LAYER_1
 10
82.2529
 20
169.5328
  0
VERTEX
  8
LAYER_1
 10
82.2824
 20
169.4561
  0
VERTEX
  8
LAYER_1
 10
82.3272
 20
169.3825
  0
VERTEX
  8
LAYER_1
 10
82.36
 20
169.3417
  0
VERTEX
  8
LAYER_1
 10
82.4016
 20
169.3026
  0
VERTEX
  8
LAYER_1
 10
82.4495
 20
169.2642
  0
VERTEX
  8
LAYER_1
 10
82.4839
 20
169.2426
  0
VERTEX
  8
LAYER_1
 10
82.5231
 20
169.2234
  0
VERTEX
  8
LAYER_1
 10
82.5695
 20
169.2066
  0
VERTEX
  8
LAYER_1
 10
82.6222
 20
169.1922
  0
SEQEND
  0
ENDBLK
  0
BLOCK
  8
LAYER_1
  2
AIGNBL0102010A
 70
64
 10
0
 20
0
 30
0
  3
AIGNBL0102010A
  0
POLYLINE
  8
LAYER_1
 40
0.1058
 41
0.1058
 66
1
 10
0
 20
0
 30
0
  0
VERTEX
  8
LAYER_1
 10
74.8291
 20
169.1922
  0
VERTEX
  8
LAYER_1
 10
74.8395
 20
168.9412
  0
VERTEX
  8
LAYER_1
 10
74.8667
 20
168.6908
  0
VERTEX
  8
LAYER_1
 10
74.9155
 20
168.4437
  0
VERTEX
  8
LAYER_1
 10
74.9819
 20
168.1999
  0
VERTEX
  8
LAYER_1
 10
75.0675
 20
167.9616
  0
VERTEX
  8
LAYER_1
 10
75.1714
 20
167.7289
  0
VERTEX
  8
LAYER_1
 10
75.2922
 20
167.5034
  0
VERTEX
  8
LAYER_1
 10
75.4185
 20
167.3035
  0
VERTEX
  8
LAYER_1
 10
75.5576
 20
167.1124
  0
VERTEX
  8
LAYER_1
 10
75.712
 20
166.9293
  0
VERTEX
  8
LAYER_1
 10
75.8775
 20
166.7566
  0
VERTEX
  8
LAYER_1
 10
76.0542
 20
166.5935
  0
VERTEX
  8
LAYER_1
 10
76.2421
 20
166.4399
  0
VERTEX
  8
LAYER_1
 10
76.4428
 20
166.2992
  0
VERTEX
  8
LAYER_1
 10
76.6507
 20
166.1705
  0
VERTEX
  8
LAYER_1
 10
76.8674
 20
166.0545
  0
VERTEX
  8
LAYER_1
 10
77.0937
 20
165.9505
  0
VERTEX
  8
LAYER_1
 10
77.3248
 20
165.861
  0
VERTEX
  8
LAYER_1
 10
77.5615
 20
165.7842
  0
VERTEX
  8
LAYER_1
 10
77.7902
 20
165.7267
  0
VERTEX
  8
LAYER_1
 10
78.0204
 20
165.6803
  0
VERTEX
  8
LAYER_1
 10
78.254
 20
165.6483
  0
VERTEX
  8
LAYER_1
 10
78.4882
 20
165.6275
  0
VERTEX
  8
LAYER_1
 10
78.7257
 20
165.6211
  0
SEQEND
  0
ENDBLK
  0
BLOCK
  8
LAYER_1
  2
AIGNBL0102010B
 70
64
 10
0
 20
0
 30
0
  3
AIGNBL0102010B
  0
POLYLINE
  8
LAYER_1
 40
0.1058
 41
0.1058
 66
1
 10
0
 20
0
 30
0
  0
VERTEX
  8
LAYER_1
 10
74.8291
 20
169.1922
  0
VERTEX
  8
LAYER_1
 10
74.886
 20
169.2074
  0
VERTEX
  8
LAYER_1
 10
74.9348
 20
169.2258
  0
VERTEX
  8
LAYER_1
 10
74.9763
 20
169.2474
  0
VERTEX
  8
LAYER_1
 10
75.0107
 20
169.2706
  0
VERTEX
  8
LAYER_1
 10
75.0427
 20
169.2946
  0
VERTEX
  8
LAYER_1
 10
75.0699
 20
169.3201
  0
VERTEX
  8
LAYER_1
 10
75.1242
 20
169.3809
  0
VERTEX
  8
LAYER_1
 10
75.1635
 20
169.4449
  0
VERTEX
  8
LAYER_1
 10
75.1962
 20
169.5248
  0
VERTEX
  8
LAYER_1
 10
75.2146
 20
169.608
  0
VERTEX
  8
LAYER_1
 10
75.2178
 20
169.6528
  0
SEQEND
  0
ENDBLK
  0
BLOCK
  8
LAYER_1
  2
AIGNBL0102010C
 70
64
 10
0
 20
0
 30
0
  3
AIGNBL0102010C
  0
POLYLINE
  8
LAYER_1
 40
0.1058
 41
0.1058
 66
1
 10
0
 20
0
 30
0
  0
VERTEX
  8
LAYER_1
 10
82.2304
 20
169.5608
  0
VERTEX
  8
LAYER_1
 10
82.2376
 20
169.6783
  0
VERTEX
  8
LAYER_1
 10
82.2432
 20
169.8095
  0
VERTEX
  8
LAYER_1
 10
82.252
 20
169.9518
  0
VERTEX
  8
LAYER_1
 10
82.2592
 20
170.1085
  0
VERTEX
  8
LAYER_1
 10
82.268
 20
170.2765
  0
VERTEX
  8
LAYER_1
 10
82.2769
 20
170.4588
  0
SEQEND
  0
ENDBLK
  0
BLOCK
  8
LAYER_1
  2
AIGNBL0102010D
 70
64
 10
0
 20
0
 30
0
  3
AIGNBL0102010D
  0
POLYLINE
  8
LAYER_1
 40
0.1058
 41
0.1058
 66
1
 10
0
 20
0
 30
0
  0
VERTEX
  8
LAYER_1
 10
83.3187
 20
190.3549
 42
0.1431169891
  0
VERTEX
  8
LAYER_1
 10
85.3338
 20
193.6229
  0
SEQEND
  0
ENDBLK
  0
BLOCK
  8
LAYER_1
  2
AIGNBL0102010E
 70
64
 10
0
 20
0
 30
0
  3
AIGNBL0102010E
  0
POLYLINE
  8
LAYER_1
 40
0.1058
 41
0.1058
 66
1
 10
0
 20
0
 30
0
  0
VERTEX
  8
LAYER_1
 10
83.4011
 20
191.9557
  0
VERTEX
  8
LAYER_1
 10
82.6846
 20
178.2951
  0
SEQEND
  0
ENDBLK
  0
BLOCK
  8
LAYER_1
  2
AIGNBL0102010F
 70
64
 10
0
 20
0
 30
0
  3
AIGNBL0102010F
  0
POLYLINE
  8
LAYER_1
 40
0.1058
 41
0.1058
 66
1
 10
0
 20
0
 30
0
  0
VERTEX
  8
LAYER_1
 10
74.7676
 20
178.2951
  0
VERTEX
  8
LAYER_1
 10
74.0512
 20
191.9573
  0
SEQEND
  0
ENDBLK
  0
BLOCK
  8
LAYER_1
  2
AIGNBL01020110
 70
64
 10
0
 20
0
 30
0
  3
AIGNBL01020110
  0
POLYLINE
  8
LAYER_1
 40
0.1058
 41
0.1058
 66
1
 10
0
 20
0
 30
0
  0
VERTEX
  8
LAYER_1
 10
74.8236
 20
177.2076
  0
VERTEX
  8
LAYER_1
 10
74.7676
 20
178.2951
  0
SEQEND
  0
ENDBLK
  0
BLOCK
  8
LAYER_1
  2
AIGNBL01020111
 70
64
 10
0
 20
0
 30
0
  3
AIGNBL01020111
  0
POLYLINE
  8
LAYER_1
 40
0.1058
 41
0.1058
 66
1
 10
0
 20
0
 30
0
  0
VERTEX
  8
LAYER_1
 10
82.6846
 20
178.2951
  0
VERTEX
  8
LAYER_1
 10
82.6279
 20
177.2076
  0
SEQEND
  0
ENDBLK
  0
BLOCK
  8
LAYER_1
  2
AIGNBL01020112
 70
64
 10
0
 20
0
 30
0
  3
AIGNBL01020112
  0
POLYLINE
  8
LAYER_1
 40
0.1058
 41
0.1058
 66
1
 10
0
 20
0
 30
0
  0
VERTEX
  8
LAYER_1
 10
74.8236
 20
177.2076
  0
VERTEX
  8
LAYER_1
 10
74.8915
 20
175.9162
  0
SEQEND
  0
ENDBLK
  0
BLOCK
  8
LAYER_1
  2
AIGNBL01020113
 70
64
 10
0
 20
0
 30
0
  3
AIGNBL01020113
  0
POLYLINE
  8
LAYER_1
 40
0.1058
 41
0.1058
 66
1
 10
0
 20
0
 30
0
  0
VERTEX
  8
LAYER_1
 10
82.5599
 20
175.909
  0
VERTEX
  8
LAYER_1
 10
82.6279
 20
177.2076
  0
SEQEND
  0
ENDBLK
  0
BLOCK
  8
LAYER_1
  2
AIGNBL01020114
 70
64
 10
0
 20
0
 30
0
  3
AIGNBL01020114
  0
POLYLINE
  8
LAYER_1
 40
0.1058
 41
0.1058
 66
1
 10
0
 20
0
 30
0
  0
VERTEX
  8
LAYER_1
 10
82.5007
 20
174.8071
  0
VERTEX
  8
LAYER_1
 10
82.2769
 20
170.4588
  0
SEQEND
  0
ENDBLK
  0
BLOCK
  8
LAYER_1
  2
AIGNBL01020115
 70
64
 10
0
 20
0
 30
0
  3
AIGNBL01020115
  0
POLYLINE
  8
LAYER_1
 40
0.1058
 41
0.1058
 66
1
 10
0
 20
0
 30
0
  0
VERTEX
  8
LAYER_1
 10
75.1746
 20
170.4572
  0
VERTEX
  8
LAYER_1
 10
74.9507
 20
174.8071
  0
SEQEND
  0
ENDBLK
  0
BLOCK
  8
LAYER_1
  2
AIGNBL01020116
 70
64
 10
0
 20
0
 30
0
  3
AIGNBL01020116
  0
POLYLINE
  8
LAYER_1
 40
0.1058
 41
0.1058
 66
1
 10
0
 20
0
 30
0
  0
VERTEX
  8
LAYER_1
 10
74.0512
 20
191.9645
  0
VERTEX
  8
LAYER_1
 10
74.0512
 20
191.9573
  0
SEQEND
  0
ENDBLK
  0
BLOCK
  8
LAYER_1
  2
AIGNBL01020117
 70
64
 10
0
 20
0
 30
0
  3
AIGNBL01020117
  0
POLYLINE
  8
LAYER_1
 40
0.1058
 41
0.1058
 66
1
 10
0
 20
0
 30
0
  0
VERTEX
  8
LAYER_1
 10
83.4011
 20
191.9621
  0
VERTEX
  8
LAYER_1
 10
83.4035
 20
192.018
  0
SEQEND
  0
ENDBLK
  0
BLOCK
  8
LAYER_1
  2
AIGNBL01020118
 70
64
 10
0
 20
0
 30
0
  3
AIGNBL01020118
  0
POLYLINE
  8
LAYER_1
 40
0.1058
 41
0.1058
 66
1
 10
0
 20
0
 30
0
  0
VERTEX
  8
LAYER_1
 10
83.6578
 20
193.2719
  0
SEQEND
  0
ENDBLK
  0
BLOCK
  8
LAYER_1
  2
AIGNBL01020119
 70
64
 10
0
 20
0
 30
0
  3
AIGNBL01020119
  0
POLYLINE
  8
LAYER_1
 40
0.1058
 41
0.1058
 66
1
 10
0
 20
0
 30
0
  0
VERTEX
  8
LAYER_1
 10
73.7953
 20
193.2711
  0
VERTEX
  8
LAYER_1
 10
73.7953
 20
193.2719
  0
SEQEND
  0
ENDBLK
  0
BLOCK
  8
LAYER_1
  2
AIGNBL0102011A
 70
64
 10
0
 20
0
 30
0
  3
AIGNBL0102011A
  0
POLYLINE
  8
LAYER_1
 40
0.1058
 41
0.1058
 66
1
 10
0
 20
0
 30
0
  0
VERTEX
  8
LAYER_1
 10
82.6766
 20
193.2655
  0
VERTEX
  8
LAYER_1
 10
82.6782
 20
193.2663
  0
SEQEND
  0
ENDBLK
  0
BLOCK
  8
LAYER_1
  2
AIGNBL0102011B
 70
64
 10
0
 20
0
 30
0
  3
AIGNBL0102011B
  0
POLYLINE
  8
LAYER_1
 40
0.1058
 41
0.1058
 66
1
 10
0
 20
0
 30
0
  0
VERTEX
  8
LAYER_1
 10
74.774
 20
193.267
  0
VERTEX
  8
LAYER_1
 10
74.7748
 20
193.2663
  0
SEQEND
  0
ENDBLK
  0
BLOCK
  8
LAYER_1
  2
AIGNBL0102011C
 70
64
 10
0
 20
0
 30
0
  3
AIGNBL0102011C
  0
POLYLINE
  8
LAYER_1
 40
0.1058
 41
0.1058
 66
1
 10
0
 20
0
 30
0
  0
VERTEX
  8
LAYER_1
 10
82.7774
 20
169.0083
  0
VERTEX
  8
LAYER_1
 10
82.7774
 20
169.0003
  0
SEQEND
  0
ENDBLK
  0
BLOCK
  8
LAYER_1
  2
AIGNBL0102011D
 70
64
 10
0
 20
0
 30
0
  3
AIGNBL0102011D
  0
POLYLINE
  8
LAYER_1
 40
0.1058
 41
0.1058
 66
1
 10
0
 20
0
 30
0
  0
VERTEX
  8
LAYER_1
 10
74.6756
 20
169.0011
  0
VERTEX
  8
LAYER_1
 10
74.6756
 20
169.0099
  0
SEQEND
  0
ENDBLK
  0
BLOCK
  8
LAYER_1
  2
AIGNBL0102011E
 70
64
 10
0
 20
0
 30
0
  3
AIGNBL0102011E
  0
POLYLINE
  8
LAYER_1
 40
0.1058
 41
0.1058
 66
1
 10
0
 20
0
 30
0
  0
VERTEX
  8
LAYER_1
 10
83.4035
 20
192.018
  0
VERTEX
  8
LAYER_1
 10
83.4035
 20
192.0165
  0
SEQEND
  0
ENDBLK
  0
BLOCK
  8
LAYER_1
  2
AIGNBL0102011F
 70
64
 10
0
 20
0
 30
0
  3
AIGNBL0102011F
  0
POLYLINE
  8
LAYER_1
 40
0.1058
 41
0.1058
 66
1
 10
0
 20
0
 30
0
  0
VERTEX
  8
LAYER_1
 10
83.4011
 20
191.9557
  0
VERTEX
  8
LAYER_1
 10
83.4011
 20
191.9621
  0
SEQEND
  0
ENDBLK
  0
BLOCK
  8
LAYER_1
  2
AIGNBL01020120
 70
64
 10
0
 20
0
 30
0
  3
AIGNBL01020120
  0
POLYLINE
  8
LAYER_1
 40
0.1058
 41
0.1058
 66
1
 10
0
 20
0
 30
0
  0
VERTEX
  8
LAYER_1
 10
74.0487
 20
192.0165
  0
VERTEX
  8
LAYER_1
 10
74.0487
 20
192.018
  0
SEQEND
  0
ENDBLK
  0
BLOCK
  8
LAYER_1
  2
AIGNBL01020121
 70
64
 10
0
 20
0
 30
0
  3
AIGNBL01020121
  0
POLYLINE
  8
LAYER_1
 40
0.1058
 41
0.1058
 66
1
 10
0
 20
0
 30
0
  0
VERTEX
  8
LAYER_1
 10
74.0487
 20
192.018
  0
VERTEX
  8
LAYER_1
 10
74.0512
 20
191.9645
  0
SEQEND
  0
ENDBLK
  0
BLOCK
  8
LAYER_1
  2
AIGNBL01020122
 70
64
 10
0
 20
0
 30
0
  3
AIGNBL01020122
  0
POLYLINE
  8
LAYER_1
 40
0.1058
 41
0.1058
 66
1
 10
0
 20
0
 30
0
  0
VERTEX
  8
LAYER_1
 10
74.7676
 20
178.2951
  0
VERTEX
  8
LAYER_1
 10
74.7676
 20
178.3055
  0
SEQEND
  0
ENDBLK
  0
BLOCK
  8
LAYER_1
  2
AIGNBL01020123
 70
64
 10
0
 20
0
 30
0
  3
AIGNBL01020123
  0
POLYLINE
  8
LAYER_1
 40
0.1058
 41
0.1058
 66
1
 10
0
 20
0
 30
0
  0
VERTEX
  8
LAYER_1
 10
82.6854
 20
178.3055
  0
VERTEX
  8
LAYER_1
 10
82.6846
 20
178.2951
  0
SEQEND
  0
ENDBLK
  0
BLOCK
  8
LAYER_1
  2
AIGNBL01020124
 70
64
 10
0
 20
0
 30
0
  3
AIGNBL01020124
  0
POLYLINE
  8
LAYER_1
 40
0.1058
 41
0.1058
 66
1
 10
0
 20
0
 30
0
  0
VERTEX
  8
LAYER_1
 10
74.8236
 20
177.2076
  0
VERTEX
  8
LAYER_1
 10
74.8236
 20
177.2132
  0
SEQEND
  0
ENDBLK
  0
BLOCK
  8
LAYER_1
  2
AIGNBL01020125
 70
64
 10
0
 20
0
 30
0
  3
AIGNBL01020125
  0
POLYLINE
  8
LAYER_1
 40
0.1058
 41
0.1058
 66
1
 10
0
 20
0
 30
0
  0
VERTEX
  8
LAYER_1
 10
74.9036
 20
175.6923
  0
VERTEX
  8
LAYER_1
 10
74.8915
 20
175.9162
  0
SEQEND
  0
ENDBLK
  0
BLOCK
  8
LAYER_1
  2
AIGNBL01020126
 70
64
 10
0
 20
0
 30
0
  3
AIGNBL01020126
  0
POLYLINE
  8
LAYER_1
 40
0.1058
 41
0.1058
 66
1
 10
0
 20
0
 30
0
  0
VERTEX
  8
LAYER_1
 10
74.8915
 20
175.9162
  0
VERTEX
  8
LAYER_1
 10
74.8236
 20
177.2132
  0
SEQEND
  0
ENDBLK
  0
BLOCK
  8
LAYER_1
  2
AIGNBL01020127
 70
64
 10
0
 20
0
 30
0
  3
AIGNBL01020127
  0
POLYLINE
  8
LAYER_1
 40
0.1058
 41
0.1058
 66
1
 10
0
 20
0
 30
0
  0
VERTEX
  8
LAYER_1
 10
82.6279
 20
177.2132
  0
VERTEX
  8
LAYER_1
 10
82.6279
 20
177.2076
  0
SEQEND
  0
ENDBLK
  0
BLOCK
  8
LAYER_1
  2
AIGNBL01020128
 70
64
 10
0
 20
0
 30
0
  3
AIGNBL01020128
  0
POLYLINE
  8
LAYER_1
 40
0.1058
 41
0.1058
 66
1
 10
0
 20
0
 30
0
  0
VERTEX
  8
LAYER_1
 10
82.5487
 20
175.6915
  0
VERTEX
  8
LAYER_1
 10
82.5599
 20
175.909
  0
SEQEND
  0
ENDBLK
  0
BLOCK
  8
LAYER_1
  2
AIGNBL01020129
 70
64
 10
0
 20
0
 30
0
  3
AIGNBL01020129
  0
POLYLINE
  8
LAYER_1
 40
0.1058
 41
0.1058
 66
1
 10
0
 20
0
 30
0
  0
VERTEX
  8
LAYER_1
 10
82.5487
 20
175.6915
  0
VERTEX
  8
LAYER_1
 10
82.5487
 20
175.6867
  0
SEQEND
  0
ENDBLK
  0
BLOCK
  8
LAYER_1
  2
AIGNBL0102012A
 70
64
 10
0
 20
0
 30
0
  3
AIGNBL0102012A
  0
POLYLINE
  8
LAYER_1
 40
0.1058
 41
0.1058
 66
1
 10
0
 20
0
 30
0
  0
VERTEX
  8
LAYER_1
 10
82.6854
 20
178.3055
  0
VERTEX
  8
LAYER_1
 10
83.4035
 20
192.0165
  0
SEQEND
  0
ENDBLK
  0
BLOCK
  8
LAYER_1
  2
AIGNBL0102012B
 70
64
 10
0
 20
0
 30
0
  3
AIGNBL0102012B
  0
POLYLINE
  8
LAYER_1
 40
0.1058
 41
0.1058
 66
1
 10
0
 20
0
 30
0
  0
VERTEX
  8
LAYER_1
 10
74.7676
 20
178.3055
  0
VERTEX
  8
LAYER_1
 10
74.0487
 20
192.0165
  0
SEQEND
  0
ENDBLK
  0
BLOCK
  8
LAYER_1
  2
AIGNBL0102012C
 70
64
 10
0
 20
0
 30
0
  3
AIGNBL0102012C
  0
POLYLINE
  8
LAYER_1
 40
0.1058
 41
0.1058
 66
1
 10
0
 20
0
 30
0
  0
VERTEX
  8
LAYER_1
 10
82.6279
 20
177.2132
  0
VERTEX
  8
LAYER_1
 10
82.6854
 20
178.3055
  0
SEQEND
  0
ENDBLK
  0
BLOCK
  8
LAYER_1
  2
AIGNBL0102012D
 70
64
 10
0
 20
0
 30
0
  3
AIGNBL0102012D
  0
POLYLINE
  8
LAYER_1
 40
0.1058
 41
0.1058
 66
1
 10
0
 20
0
 30
0
  0
VERTEX
  8
LAYER_1
 10
74.8236
 20
177.2132
  0
VERTEX
  8
LAYER_1
 10
74.7676
 20
178.3055
  0
SEQEND
  0
ENDBLK
  0
BLOCK
  8
LAYER_1
  2
AIGNBL0102012E
 70
64
 10
0
 20
0
 30
0
  3
AIGNBL0102012E
  0
POLYLINE
  8
LAYER_1
 40
0.1058
 41
0.1058
 66
1
 10
0
 20
0
 30
0
  0
VERTEX
  8
LAYER_1
 10
82.5599
 20
175.909
  0
VERTEX
  8
LAYER_1
 10
82.6279
 20
177.2132
  0
SEQEND
  0
ENDBLK
  0
BLOCK
  8
LAYER_1
  2
AIGNBL0102012F
 70
64
 10
0
 20
0
 30
0
  3
AIGNBL0102012F
  0
POLYLINE
  8
LAYER_1
 40
0.1058
 41
0.1058
 66
1
 10
0
 20
0
 30
0
  0
VERTEX
  8
LAYER_1
 10
82.5207
 20
175.1606
  0
VERTEX
  8
LAYER_1
 10
82.5055
 20
174.8615
  0
SEQEND
  0
ENDBLK
  0
BLOCK
  8
LAYER_1
  2
AIGNBL01020130
 70
64
 10
0
 20
0
 30
0
  3
AIGNBL01020130
  0
POLYLINE
  8
LAYER_1
 40
0.1058
 41
0.1058
 66
1
 10
0
 20
0
 30
0
  0
VERTEX
  8
LAYER_1
 10
82.5023
 20
174.8087
  0
VERTEX
  8
LAYER_1
 10
82.5055
 20
174.8615
  0
SEQEND
  0
ENDBLK
  0
BLOCK
  8
LAYER_1
  2
AIGNBL01020131
 70
64
 10
0
 20
0
 30
0
  3
AIGNBL01020131
  0
POLYLINE
  8
LAYER_1
 40
0.1058
 41
0.1058
 66
1
 10
0
 20
0
 30
0
  0
VERTEX
  8
LAYER_1
 10
74.9467
 20
174.8615
  0
VERTEX
  8
LAYER_1
 10
74.9315
 20
175.1598
  0
SEQEND
  0
ENDBLK
  0
BLOCK
  8
LAYER_1
  2
AIGNBL01020132
 70
64
 10
0
 20
0
 30
0
  3
AIGNBL01020132
  0
POLYLINE
  8
LAYER_1
 40
0.1058
 41
0.1058
 66
1
 10
0
 20
0
 30
0
  0
VERTEX
  8
LAYER_1
 10
74.9467
 20
174.8615
  0
VERTEX
  8
LAYER_1
 10
74.9507
 20
174.8087
  0
SEQEND
  0
ENDBLK
  0
BLOCK
  8
LAYER_1
  2
AIGNBL01020133
 70
64
 10
0
 20
0
 30
0
  3
AIGNBL01020133
  0
POLYLINE
  8
LAYER_1
 40
0.1058
 41
0.1058
 66
1
 10
0
 20
0
 30
0
  0
VERTEX
  8
LAYER_1
 10
76.3917
 20
122.7864
  0
VERTEX
  8
LAYER_1
 10
76.3917
 20
127.3226
  0
SEQEND
  0
ENDBLK
  0
BLOCK
  8
LAYER_1
  2
AIGNBL01020134
 70
64
 10
0
 20
0
 30
0
  3
AIGNBL01020134
  0
POLYLINE
  8
LAYER_1
 40
0.1058
 41
0.1058
 66
1
 10
0
 20
0
 30
0
  0
VERTEX
  8
LAYER_1
 10
76.3917
 20
128.5748
  0
VERTEX
  8
LAYER_1
 10
76.3917
 20
129.9102
  0
SEQEND
  0
ENDBLK
  0
BLOCK
  8
LAYER_1
  2
AIGNBL01020135
 70
64
 10
0
 20
0
 30
0
  3
AIGNBL01020135
  0
POLYLINE
  8
LAYER_1
 40
0.1058
 41
0.1058
 66
1
 10
0
 20
0
 30
0
  0
VERTEX
  8
LAYER_1
 10
76.3917
 20
130.2124
  0
VERTEX
  8
LAYER_1
 10
76.3917
 20
131.2104
  0
SEQEND
  0
ENDBLK
  0
BLOCK
  8
LAYER_1
  2
AIGNBL01020136
 70
64
 10
0
 20
0
 30
0
  3
AIGNBL01020136
  0
POLYLINE
  8
LAYER_1
 40
0.1058
 41
0.1058
 66
1
 10
0
 20
0
 30
0
  0
VERTEX
  8
LAYER_1
 10
76.3917
 20
131.4606
  0
VERTEX
  8
LAYER_1
 10
76.3917
 20
132.7136
  0
SEQEND
  0
ENDBLK
  0
BLOCK
  8
LAYER_1
  2
AIGNBL01020137
 70
64
 10
0
 20
0
 30
0
  3
AIGNBL01020137
  0
POLYLINE
  8
LAYER_1
 40
0.1058
 41
0.1058
 66
1
 10
0
 20
0
 30
0
  0
VERTEX
  8
LAYER_1
 10
76.3917
 20
132.9648
  0
VERTEX
  8
LAYER_1
 10
76.3917
 20
133.7132
  0
SEQEND
  0
ENDBLK
  0
BLOCK
  8
LAYER_1
  2
AIGNBL01020138
 70
64
 10
0
 20
0
 30
0
  3
AIGNBL01020138
  0
POLYLINE
  8
LAYER_1
 40
0.1058
 41
0.1058
 66
1
 10
0
 20
0
 30
0
  0
VERTEX
  8
LAYER_1
 10
76.1006
 20
134.2169
  0
VERTEX
  8
LAYER_1
 10
76.3917
 20
133.7132
  0
SEQEND
  0
ENDBLK
  0
BLOCK
  8
LAYER_1
  2
AIGNBL01020139
 70
64
 10
0
 20
0
 30
0
  3
AIGNBL01020139
  0
POLYLINE
  8
LAYER_1
 40
0.1058
 41
0.1058
 66
1
 10
0
 20
0
 30
0
  0
VERTEX
  8
LAYER_1
 10
76.1006
 20
127.3226
  0
VERTEX
  8
LAYER_1
 10
76.1006
 20
122.7864
  0
SEQEND
  0
ENDBLK
  0
BLOCK
  8
LAYER_1
  2
AIGNBL0102013A
 70
64
 10
0
 20
0
 30
0
  3
AIGNBL0102013A
  0
POLYLINE
  8
LAYER_1
 40
0.1058
 41
0.1058
 66
1
 10
0
 20
0
 30
0
  0
VERTEX
  8
LAYER_1
 10
76.1006
 20
129.9086
  0
VERTEX
  8
LAYER_1
 10
76.1006
 20
128.5748
  0
SEQEND
  0
ENDBLK
  0
BLOCK
  8
LAYER_1
  2
AIGNBL0102013B
 70
64
 10
0
 20
0
 30
0
  3
AIGNBL0102013B
  0
POLYLINE
  8
LAYER_1
 40
0.1058
 41
0.1058
 66
1
 10
0
 20
0
 30
0
  0
VERTEX
  8
LAYER_1
 10
76.1006
 20
131.2104
  0
VERTEX
  8
LAYER_1
 10
76.1006
 20
130.2124
  0
SEQEND
  0
ENDBLK
  0
BLOCK
  8
LAYER_1
  2
AIGNBL0102013C
 70
64
 10
0
 20
0
 30
0
  3
AIGNBL0102013C
  0
POLYLINE
  8
LAYER_1
 40
0.1058
 41
0.1058
 66
1
 10
0
 20
0
 30
0
  0
VERTEX
  8
LAYER_1
 10
76.1006
 20
132.7136
  0
VERTEX
  8
LAYER_1
 10
76.1006
 20
131.4606
  0
SEQEND
  0
ENDBLK
  0
BLOCK
  8
LAYER_1
  2
AIGNBL0102013D
 70
64
 10
0
 20
0
 30
0
  3
AIGNBL0102013D
  0
POLYLINE
  8
LAYER_1
 40
0.1058
 41
0.1058
 66
1
 10
0
 20
0
 30
0
  0
VERTEX
  8
LAYER_1
 10
81.3509
 20
128.5748
  0
VERTEX
  8
LAYER_1
 10
81.3509
 20
129.9102
  0
SEQEND
  0
ENDBLK
  0
BLOCK
  8
LAYER_1
  2
AIGNBL0102013E
 70
64
 10
0
 20
0
 30
0
  3
AIGNBL0102013E
  0
POLYLINE
  8
LAYER_1
 40
0.1058
 41
0.1058
 66
1
 10
0
 20
0
 30
0
  0
VERTEX
  8
LAYER_1
 10
81.3509
 20
130.2124
  0
VERTEX
  8
LAYER_1
 10
81.3509
 20
131.2104
  0
SEQEND
  0
ENDBLK
  0
BLOCK
  8
LAYER_1
  2
AIGNBL0102013F
 70
64
 10
0
 20
0
 30
0
  3
AIGNBL0102013F
  0
POLYLINE
  8
LAYER_1
 40
0.1058
 41
0.1058
 66
1
 10
0
 20
0
 30
0
  0
VERTEX
  8
LAYER_1
 10
81.3509
 20
131.4606
  0
VERTEX
  8
LAYER_1
 10
81.3509
 20
132.7136
  0
SEQEND
  0
ENDBLK
  0
BLOCK
  8
LAYER_1
  2
AIGNBL01020140
 70
64
 10
0
 20
0
 30
0
  3
AIGNBL01020140
  0
POLYLINE
  8
LAYER_1
 40
0.1058
 41
0.1058
 66
1
 10
0
 20
0
 30
0
  0
VERTEX
  8
LAYER_1
 10
81.3509
 20
132.9648
  0
VERTEX
  8
LAYER_1
 10
81.3509
 20
134.2169
  0
SEQEND
  0
ENDBLK
  0
BLOCK
  8
LAYER_1
  2
AIGNBL01020141
 70
64
 10
0
 20
0
 30
0
  3
AIGNBL01020141
  0
POLYLINE
  8
LAYER_1
 40
0.1058
 41
0.1058
 66
1
 10
0
 20
0
 30
0
  0
VERTEX
  8
LAYER_1
 10
75.8439
 20
122.5425
  0
VERTEX
  8
LAYER_1
 10
76.0006
 20
122.5953
  0
VERTEX
  8
LAYER_1
 10
76.1581
 20
122.6376
  0
VERTEX
  8
LAYER_1
 10
76.3181
 20
122.6705
  0
VERTEX
  8
LAYER_1
 10
76.4788
 20
122.6953
  0
VERTEX
  8
LAYER_1
 10
76.7003
 20
122.72
  0
VERTEX
  8
LAYER_1
 10
76.9226
 20
122.7344
  0
VERTEX
  8
LAYER_1
 10
77.1457
 20
122.7408
  0
VERTEX
  8
LAYER_1
 10
77.4087
 20
122.7408
  0
VERTEX
  8
LAYER_1
 10
77.6718
 20
122.7329
  0
VERTEX
  8
LAYER_1
 10
77.9349
 20
122.7121
  0
VERTEX
  8
LAYER_1
 10
78.1356
 20
122.6881
  0
VERTEX
  8
LAYER_1
 10
78.3355
 20
122.6545
  0
VERTEX
  8
LAYER_1
 10
78.533
 20
122.6073
  0
VERTEX
  8
LAYER_1
 10
78.7257
 20
122.5425
  0
SEQEND
  0
ENDBLK
  0
BLOCK
  8
LAYER_1
  2
AIGNBL01020142
 70
64
 10
0
 20
0
 30
0
  3
AIGNBL01020142
  0
POLYLINE
  8
LAYER_1
 40
0.1058
 41
0.1058
 66
1
 10
0
 20
0
 30
0
  0
VERTEX
  8
LAYER_1
 10
78.7257
 20
120.0333
  0
VERTEX
  8
LAYER_1
 10
78.5706
 20
119.9805
  0
VERTEX
  8
LAYER_1
 10
78.4122
 20
119.9389
  0
VERTEX
  8
LAYER_1
 10
78.2523
 20
119.9054
  0
VERTEX
  8
LAYER_1
 10
78.0908
 20
119.8814
  0
VERTEX
  8
LAYER_1
 10
77.8693
 20
119.8566
  0
VERTEX
  8
LAYER_1
 10
77.6478
 20
119.8422
  0
VERTEX
  8
LAYER_1
 10
77.4255
 20
119.835
  0
VERTEX
  8
LAYER_1
 10
77.1609
 20
119.835
  0
VERTEX
  8
LAYER_1
 10
76.8986
 20
119.8438
  0
VERTEX
  8
LAYER_1
 10
76.6355
 20
119.8622
  0
VERTEX
  8
LAYER_1
 10
76.4348
 20
119.887
  0
VERTEX
  8
LAYER_1
 10
76.2357
 20
119.9214
  0
VERTEX
  8
LAYER_1
 10
76.0374
 20
119.9709
  0
VERTEX
  8
LAYER_1
 10
75.8439
 20
120.0333
  0
SEQEND
  0
ENDBLK
  0
BLOCK
  8
LAYER_1
  2
AIGNBL01020143
 70
64
 10
0
 20
0
 30
0
  3
AIGNBL01020143
  0
POLYLINE
  8
LAYER_1
 40
0.1058
 41
0.1058
 66
1
 10
0
 20
0
 30
0
  0
VERTEX
  8
LAYER_1
 10
78.7257
 20
122.5425
  0
VERTEX
  8
LAYER_1
 10
78.8808
 20
122.5953
  0
VERTEX
  8
LAYER_1
 10
79.0399
 20
122.6376
  0
VERTEX
  8
LAYER_1
 10
79.2007
 20
122.6705
  0
VERTEX
  8
LAYER_1
 10
79.3622
 20
122.6953
  0
VERTEX
  8
LAYER_1
 10
79.5821
 20
122.72
  0
VERTEX
  8
LAYER_1
 10
79.8052
 20
122.7344
  0
VERTEX
  8
LAYER_1
 10
80.0267
 20
122.7408
  0
VERTEX
  8
LAYER_1
 10
80.2906
 20
122.7408
  0
VERTEX
  8
LAYER_1
 10
80.5537
 20
122.7329
  0
VERTEX
  8
LAYER_1
 10
80.8159
 20
122.7121
  0
VERTEX
  8
LAYER_1
 10
81.0174
 20
122.6881
  0
VERTEX
  8
LAYER_1
 10
81.2165
 20
122.6545
  0
VERTEX
  8
LAYER_1
 10
81.414
 20
122.6073
  0
VERTEX
  8
LAYER_1
 10
81.6076
 20
122.5425
  0
SEQEND
  0
ENDBLK
  0
BLOCK
  8
LAYER_1
  2
AIGNBL01020144
 70
64
 10
0
 20
0
 30
0
  3
AIGNBL01020144
  0
POLYLINE
  8
LAYER_1
 40
0.1058
 41
0.1058
 66
1
 10
0
 20
0
 30
0
  0
VERTEX
  8
LAYER_1
 10
81.6076
 20
120.0333
  0
VERTEX
  8
LAYER_1
 10
81.4524
 20
119.9805
  0
VERTEX
  8
LAYER_1
 10
81.2933
 20
119.9389
  0
VERTEX
  8
LAYER_1
 10
81.1334
 20
119.9054
  0
VERTEX
  8
LAYER_1
 10
80.9727
 20
119.8814
  0
VERTEX
  8
LAYER_1
 10
80.7512
 20
119.8566
  0
VERTEX
  8
LAYER_1
 10
80.5289
 20
119.8422
  0
VERTEX
  8
LAYER_1
 10
80.3066
 20
119.835
  0
VERTEX
  8
LAYER_1
 10
80.0443
 20
119.835
  0
VERTEX
  8
LAYER_1
 10
79.7804
 20
119.8438
  0
VERTEX
  8
LAYER_1
 10
79.5173
 20
119.8622
  0
VERTEX
  8
LAYER_1
 10
79.3166
 20
119.887
  0
VERTEX
  8
LAYER_1
 10
79.1176
 20
119.9214
  0
VERTEX
  8
LAYER_1
 10
78.9192
 20
119.9709
  0
VERTEX
  8
LAYER_1
 10
78.7257
 20
120.0333
  0
SEQEND
  0
ENDBLK
  0
BLOCK
  8
LAYER_1
  2
AIGNBL01020145
 70
64
 10
0
 20
0
 30
0
  3
AIGNBL01020145
  0
POLYLINE
  8
LAYER_1
 40
0.1058
 41
0.1058
 66
1
 10
0
 20
0
 30
0
  0
VERTEX
  8
LAYER_1
 10
75.8439
 20
119.8334
 42
0.06378950922
  0
VERTEX
  8
LAYER_1
 10
76.2285
 20
119.7847
  0
SEQEND
  0
ENDBLK
  0
BLOCK
  8
LAYER_1
  2
AIGNBL01020146
 70
64
 10
0
 20
0
 30
0
  3
AIGNBL01020146
  0
POLYLINE
  8
LAYER_1
 40
0.1058
 41
0.1058
 66
1
 10
0
 20
0
 30
0
  0
VERTEX
  8
LAYER_1
 10
81.2245
 20
119.7847
 42
0.06424762995
  0
VERTEX
  8
LAYER_1
 10
81.6076
 20
119.8334
  0
SEQEND
  0
ENDBLK
  0
BLOCK
  8
LAYER_1
  2
AIGNBL01020147
 70
64
 10
0
 20
0
 30
0
  3
AIGNBL01020147
  0
POLYLINE
  8
LAYER_1
 40
0.1058
 41
0.1058
 66
1
 10
0
 20
0
 30
0
  0
VERTEX
  8
LAYER_1
 10
76.0982
 20
122.7864
 42
0.04031725715
  0
VERTEX
  8
LAYER_1
 10
75.8439
 20
122.7424
  0
SEQEND
  0
ENDBLK
  0
BLOCK
  8
LAYER_1
  2
AIGNBL01020148
 70
64
 10
0
 20
0
 30
0
  3
AIGNBL01020148
  0
POLYLINE
  8
LAYER_1
 40
0.1058
 41
0.1058
 66
1
 10
0
 20
0
 30
0
  0
VERTEX
  8
LAYER_1
 10
81.6076
 20
122.7424
 42
0.03980979769
  0
VERTEX
  8
LAYER_1
 10
81.3541
 20
122.7864
  0
SEQEND
  0
ENDBLK
  0
BLOCK
  8
LAYER_1
  2
AIGNBL01020149
 70
64
 10
0
 20
0
 30
0
  3
AIGNBL01020149
  0
POLYLINE
  8
LAYER_1
 40
0.1058
 41
0.1058
 66
1
 10
0
 20
0
 30
0
  0
VERTEX
  8
LAYER_1
 10
75.8439
 20
119.8334
  0
VERTEX
  8
LAYER_1
 10
75.8439
 20
120.0333
  0
SEQEND
  0
ENDBLK
  0
BLOCK
  8
LAYER_1
  2
AIGNBL0102014A
 70
64
 10
0
 20
0
 30
0
  3
AIGNBL0102014A
  0
POLYLINE
  8
LAYER_1
 40
0.1058
 41
0.1058
 66
1
 10
0
 20
0
 30
0
  0
VERTEX
  8
LAYER_1
 10
81.2245
 20
119.7847
  0
VERTEX
  8
LAYER_1
 10
76.2285
 20
119.7847
  0
SEQEND
  0
ENDBLK
  0
BLOCK
  8
LAYER_1
  2
AIGNBL0102014B
 70
64
 10
0
 20
0
 30
0
  3
AIGNBL0102014B
  0
POLYLINE
  8
LAYER_1
 40
0.1058
 41
0.1058
 66
1
 10
0
 20
0
 30
0
  0
VERTEX
  8
LAYER_1
 10
81.6076
 20
119.8334
  0
VERTEX
  8
LAYER_1
 10
81.6076
 20
120.0333
  0
SEQEND
  0
ENDBLK
  0
BLOCK
  8
LAYER_1
  2
AIGNBL0102014C
 70
64
 10
0
 20
0
 30
0
  3
AIGNBL0102014C
  0
POLYLINE
  8
LAYER_1
 40
0.1058
 41
0.1058
 66
1
 10
0
 20
0
 30
0
  0
VERTEX
  8
LAYER_1
 10
81.6076
 20
122.5425
  0
VERTEX
  8
LAYER_1
 10
81.6076
 20
122.7424
  0
SEQEND
  0
ENDBLK
  0
BLOCK
  8
LAYER_1
  2
AIGNBL0102014D
 70
64
 10
0
 20
0
 30
0
  3
AIGNBL0102014D
  0
POLYLINE
  8
LAYER_1
 40
0.1058
 41
0.1058
 66
1
 10
0
 20
0
 30
0
  0
VERTEX
  8
LAYER_1
 10
75.8439
 20
122.5425
  0
VERTEX
  8
LAYER_1
 10
75.8439
 20
122.7424
  0
SEQEND
  0
ENDBLK
  0
BLOCK
  8
LAYER_1
  2
AIGNBL0102014E
 70
64
 10
0
 20
0
 30
0
  3
AIGNBL0102014E
  0
POLYLINE
  8
LAYER_1
 40
0.1058
 41
0.1058
 66
1
 10
0
 20
0
 30
0
  0
VERTEX
  8
LAYER_1
 10
81.3541
 20
122.7864
  0
VERTEX
  8
LAYER_1
 10
76.0982
 20
122.7864
  0
SEQEND
  0
ENDBLK
  0
BLOCK
  8
LAYER_1
  2
AIGNBL0102014F
 70
64
 10
0
 20
0
 30
0
  3
AIGNBL0102014F
  0
POLYLINE
  8
LAYER_1
 40
0.1058
 41
0.1058
 66
1
 10
0
 20
0
 30
0
  0
VERTEX
  8
LAYER_1
 10
75.8439
 20
120.0333
  0
VERTEX
  8
LAYER_1
 10
75.8439
 20
122.5425
  0
SEQEND
  0
ENDBLK
  0
BLOCK
  8
LAYER_1
  2
AIGNBL01020150
 70
64
 10
0
 20
0
 30
0
  3
AIGNBL01020150
  0
POLYLINE
  8
LAYER_1
 40
0.1058
 41
0.1058
 66
1
 10
0
 20
0
 30
0
  0
VERTEX
  8
LAYER_1
 10
78.7257
 20
120.0333
  0
VERTEX
  8
LAYER_1
 10
78.7257
 20
122.5425
  0
SEQEND
  0
ENDBLK
  0
BLOCK
  8
LAYER_1
  2
AIGNBL01020151
 70
64
 10
0
 20
0
 30
0
  3
AIGNBL01020151
  0
POLYLINE
  8
LAYER_1
 40
0.1058
 41
0.1058
 66
1
 10
0
 20
0
 30
0
  0
VERTEX
  8
LAYER_1
 10
81.6076
 20
120.0333
  0
VERTEX
  8
LAYER_1
 10
81.6076
 20
122.5425
  0
SEQEND
  0
ENDBLK
  0
BLOCK
  8
LAYER_1
  2
AIGNBL01020152
 70
64
 10
0
 20
0
 30
0
  3
AIGNBL01020152
  0
POLYLINE
  8
LAYER_1
 40
0.1058
 41
0.1058
 66
1
 10
0
 20
0
 30
0
  0
VERTEX
  8
LAYER_1
 10
78.7257
 20
127.5593
  0
VERTEX
  8
LAYER_1
 10
78.629
 20
127.5177
  0
VERTEX
  8
LAYER_1
 10
78.5282
 20
127.4825
  0
VERTEX
  8
LAYER_1
 10
78.4275
 20
127.4506
  0
VERTEX
  8
LAYER_1
 10
78.3259
 20
127.425
  0
VERTEX
  8
LAYER_1
 10
78.1156
 20
127.3842
  0
VERTEX
  8
LAYER_1
 10
77.9037
 20
127.3554
  0
VERTEX
  8
LAYER_1
 10
77.7198
 20
127.3402
  0
VERTEX
  8
LAYER_1
 10
77.5351
 20
127.3298
  0
VERTEX
  8
LAYER_1
 10
77.1664
 20
127.3226
  0
SEQEND
  0
ENDBLK
  0
BLOCK
  8
LAYER_1
  2
AIGNBL01020153
 70
64
 10
0
 20
0
 30
0
  3
AIGNBL01020153
  0
POLYLINE
  8
LAYER_1
 40
0.1058
 41
0.1058
 66
1
 10
0
 20
0
 30
0
  0
VERTEX
  8
LAYER_1
 10
77.1537
 20
127.3226
  0
VERTEX
  8
LAYER_1
 10
76.8522
 20
127.3266
  0
VERTEX
  8
LAYER_1
 10
76.5508
 20
127.3434
  0
VERTEX
  8
LAYER_1
 10
76.4012
 20
127.3578
  0
VERTEX
  8
LAYER_1
 10
76.2501
 20
127.3754
  0
VERTEX
  8
LAYER_1
 10
76.0989
 20
127.4026
  0
VERTEX
  8
LAYER_1
 10
75.9494
 20
127.4362
  0
VERTEX
  8
LAYER_1
 10
75.7704
 20
127.489
  0
VERTEX
  8
LAYER_1
 10
75.6808
 20
127.5209
  0
VERTEX
  8
LAYER_1
 10
75.5936
 20
127.5593
  0
SEQEND
  0
ENDBLK
  0
BLOCK
  8
LAYER_1
  2
AIGNBL01020154
 70
64
 10
0
 20
0
 30
0
  3
AIGNBL01020154
  0
POLYLINE
  8
LAYER_1
 40
0.1058
 41
0.1058
 66
1
 10
0
 20
0
 30
0
  0
VERTEX
  8
LAYER_1
 10
81.8594
 20
127.5593
  0
VERTEX
  8
LAYER_1
 10
81.7611
 20
127.5177
  0
VERTEX
  8
LAYER_1
 10
81.6619
 20
127.4825
  0
VERTEX
  8
LAYER_1
 10
81.5611
 20
127.4506
  0
VERTEX
  8
LAYER_1
 10
81.458
 20
127.425
  0
VERTEX
  8
LAYER_1
 10
81.2477
 20
127.3842
  0
VERTEX
  8
LAYER_1
 10
81.0358
 20
127.3554
  0
VERTEX
  8
LAYER_1
 10
80.8519
 20
127.3402
  0
VERTEX
  8
LAYER_1
 10
80.6672
 20
127.3298
  0
VERTEX
  8
LAYER_1
 10
80.2985
 20
127.3226
  0
SEQEND
  0
ENDBLK
  0
BLOCK
  8
LAYER_1
  2
AIGNBL01020155
 70
64
 10
0
 20
0
 30
0
  3
AIGNBL01020155
  0
POLYLINE
  8
LAYER_1
 40
0.1058
 41
0.1058
 66
1
 10
0
 20
0
 30
0
  0
VERTEX
  8
LAYER_1
 10
80.2858
 20
127.3226
  0
VERTEX
  8
LAYER_1
 10
79.9851
 20
127.3266
  0
VERTEX
  8
LAYER_1
 10
79.6844
 20
127.3434
  0
VERTEX
  8
LAYER_1
 10
79.5334
 20
127.3578
  0
VERTEX
  8
LAYER_1
 10
79.3822
 20
127.3754
  0
VERTEX
  8
LAYER_1
 10
79.2327
 20
127.4026
  0
VERTEX
  8
LAYER_1
 10
79.0815
 20
127.4362
  0
VERTEX
  8
LAYER_1
 10
78.9016
 20
127.489
  0
VERTEX
  8
LAYER_1
 10
78.8137
 20
127.5209
  0
VERTEX
  8
LAYER_1
 10
78.7257
 20
127.5593
  0
SEQEND
  0
ENDBLK
  0
BLOCK
  8
LAYER_1
  2
AIGNBL01020156
 70
64
 10
0
 20
0
 30
0
  3
AIGNBL01020156
  0
POLYLINE
  8
LAYER_1
 40
0.1058
 41
0.1058
 66
1
 10
0
 20
0
 30
0
  0
VERTEX
  8
LAYER_1
 10
77.1537
 20
127.3226
  0
VERTEX
  8
LAYER_1
 10
75.5936
 20
127.3226
  0
SEQEND
  0
ENDBLK
  0
BLOCK
  8
LAYER_1
  2
AIGNBL01020157
 70
64
 10
0
 20
0
 30
0
  3
AIGNBL01020157
  0
POLYLINE
  8
LAYER_1
 40
0.1058
 41
0.1058
 66
1
 10
0
 20
0
 30
0
  0
VERTEX
  8
LAYER_1
 10
75.5936
 20
127.3226
  0
VERTEX
  8
LAYER_1
 10
75.5936
 20
127.5593
  0
SEQEND
  0
ENDBLK
  0
BLOCK
  8
LAYER_1
  2
AIGNBL01020158
 70
64
 10
0
 20
0
 30
0
  3
AIGNBL01020158
  0
POLYLINE
  8
LAYER_1
 40
0.1058
 41
0.1058
 66
1
 10
0
 20
0
 30
0
  0
VERTEX
  8
LAYER_1
 10
81.8594
 20
127.3226
  0
VERTEX
  8
LAYER_1
 10
80.2985
 20
127.3226
  0
SEQEND
  0
ENDBLK
  0
BLOCK
  8
LAYER_1
  2
AIGNBL01020159
 70
64
 10
0
 20
0
 30
0
  3
AIGNBL01020159
  0
POLYLINE
  8
LAYER_1
 40
0.1058
 41
0.1058
 66
1
 10
0
 20
0
 30
0
  0
VERTEX
  8
LAYER_1
 10
81.8594
 20
127.3226
  0
VERTEX
  8
LAYER_1
 10
81.8594
 20
127.5593
  0
SEQEND
  0
ENDBLK
  0
BLOCK
  8
LAYER_1
  2
AIGNBL0102015A
 70
64
 10
0
 20
0
 30
0
  3
AIGNBL0102015A
  0
POLYLINE
  8
LAYER_1
 40
0.1058
 41
0.1058
 66
1
 10
0
 20
0
 30
0
  0
VERTEX
  8
LAYER_1
 10
80.2858
 20
127.3226
  0
VERTEX
  8
LAYER_1
 10
77.1664
 20
127.3226
  0
SEQEND
  0
ENDBLK
  0
BLOCK
  8
LAYER_1
  2
AIGNBL0102015B
 70
64
 10
0
 20
0
 30
0
  3
AIGNBL0102015B
  0
POLYLINE
  8
LAYER_1
 40
0.1058
 41
0.1058
 66
1
 10
0
 20
0
 30
0
  0
VERTEX
  8
LAYER_1
 10
75.5936
 20
128.5748
  0
VERTEX
  8
LAYER_1
 10
78.7257
 20
128.5748
  0
SEQEND
  0
ENDBLK
  0
BLOCK
  8
LAYER_1
  2
AIGNBL0102015C
 70
64
 10
0
 20
0
 30
0
  3
AIGNBL0102015C
  0
POLYLINE
  8
LAYER_1
 40
0.1058
 41
0.1058
 66
1
 10
0
 20
0
 30
0
  0
VERTEX
  8
LAYER_1
 10
75.5936
 20
127.5593
  0
VERTEX
  8
LAYER_1
 10
75.5936
 20
128.5748
  0
SEQEND
  0
ENDBLK
  0
BLOCK
  8
LAYER_1
  2
AIGNBL0102015D
 70
64
 10
0
 20
0
 30
0
  3
AIGNBL0102015D
  0
POLYLINE
  8
LAYER_1
 40
0.1058
 41
0.1058
 66
1
 10
0
 20
0
 30
0
  0
VERTEX
  8
LAYER_1
 10
77.1537
 20
127.3226
  0
VERTEX
  8
LAYER_1
 10
77.1664
 20
127.3226
  0
SEQEND
  0
ENDBLK
  0
BLOCK
  8
LAYER_1
  2
AIGNBL0102015E
 70
64
 10
0
 20
0
 30
0
  3
AIGNBL0102015E
  0
POLYLINE
  8
LAYER_1
 40
0.1058
 41
0.1058
 66
1
 10
0
 20
0
 30
0
  0
VERTEX
  8
LAYER_1
 10
81.8594
 20
127.5593
  0
VERTEX
  8
LAYER_1
 10
81.8594
 20
128.5748
  0
SEQEND
  0
ENDBLK
  0
BLOCK
  8
LAYER_1
  2
AIGNBL0102015F
 70
64
 10
0
 20
0
 30
0
  3
AIGNBL0102015F
  0
POLYLINE
  8
LAYER_1
 40
0.1058
 41
0.1058
 66
1
 10
0
 20
0
 30
0
  0
VERTEX
  8
LAYER_1
 10
78.7257
 20
128.5748
  0
VERTEX
  8
LAYER_1
 10
81.8594
 20
128.5748
  0
SEQEND
  0
ENDBLK
  0
BLOCK
  8
LAYER_1
  2
AIGNBL01020160
 70
64
 10
0
 20
0
 30
0
  3
AIGNBL01020160
  0
POLYLINE
  8
LAYER_1
 40
0.1058
 41
0.1058
 66
1
 10
0
 20
0
 30
0
  0
VERTEX
  8
LAYER_1
 10
78.7257
 20
127.5593
  0
VERTEX
  8
LAYER_1
 10
78.7257
 20
128.5748
  0
SEQEND
  0
ENDBLK
  0
BLOCK
  8
LAYER_1
  2
AIGNBL01020161
 70
64
 10
0
 20
0
 30
0
  3
AIGNBL01020161
  0
POLYLINE
  8
LAYER_1
 40
0.1058
 41
0.1058
 66
1
 10
0
 20
0
 30
0
  0
VERTEX
  8
LAYER_1
 10
80.2858
 20
127.3226
  0
VERTEX
  8
LAYER_1
 10
80.2985
 20
127.3226
  0
SEQEND
  0
ENDBLK
  0
BLOCK
  8
LAYER_1
  2
AIGNBL01020162
 70
64
 10
0
 20
0
 30
0
  3
AIGNBL01020162
  0
POLYLINE
  8
LAYER_1
 40
0.1058
 41
0.1058
 66
1
 10
0
 20
0
 30
0
  0
VERTEX
  8
LAYER_1
 10
81.0606
 20
122.7864
  0
VERTEX
  8
LAYER_1
 10
81.0606
 20
127.3226
  0
SEQEND
  0
ENDBLK
  0
BLOCK
  8
LAYER_1
  2
AIGNBL01020163
 70
64
 10
0
 20
0
 30
0
  3
AIGNBL01020163
  0
POLYLINE
  8
LAYER_1
 40
0.1058
 41
0.1058
 66
1
 10
0
 20
0
 30
0
  0
VERTEX
  8
LAYER_1
 10
81.0606
 20
128.5748
  0
VERTEX
  8
LAYER_1
 10
81.0606
 20
129.9102
  0
SEQEND
  0
ENDBLK
  0
BLOCK
  8
LAYER_1
  2
AIGNBL01020164
 70
64
 10
0
 20
0
 30
0
  3
AIGNBL01020164
  0
POLYLINE
  8
LAYER_1
 40
0.1058
 41
0.1058
 66
1
 10
0
 20
0
 30
0
  0
VERTEX
  8
LAYER_1
 10
81.0606
 20
130.2124
  0
VERTEX
  8
LAYER_1
 10
81.0606
 20
131.2104
  0
SEQEND
  0
ENDBLK
  0
BLOCK
  8
LAYER_1
  2
AIGNBL01020165
 70
64
 10
0
 20
0
 30
0
  3
AIGNBL01020165
  0
POLYLINE
  8
LAYER_1
 40
0.1058
 41
0.1058
 66
1
 10
0
 20
0
 30
0
  0
VERTEX
  8
LAYER_1
 10
81.0606
 20
131.4606
  0
VERTEX
  8
LAYER_1
 10
81.0606
 20
132.7136
  0
SEQEND
  0
ENDBLK
  0
BLOCK
  8
LAYER_1
  2
AIGNBL01020166
 70
64
 10
0
 20
0
 30
0
  3
AIGNBL01020166
  0
POLYLINE
  8
LAYER_1
 40
0.1058
 41
0.1058
 66
1
 10
0
 20
0
 30
0
  0
VERTEX
  8
LAYER_1
 10
81.3509
 20
133.7132
  0
VERTEX
  8
LAYER_1
 10
76.1006
 20
133.7132
  0
SEQEND
  0
ENDBLK
  0
BLOCK
  8
LAYER_1
  2
AIGNBL01020167
 70
64
 10
0
 20
0
 30
0
  3
AIGNBL01020167
  0
POLYLINE
  8
LAYER_1
 40
0.1058
 41
0.1058
 66
1
 10
0
 20
0
 30
0
  0
VERTEX
  8
LAYER_1
 10
81.0606
 20
132.9648
  0
VERTEX
  8
LAYER_1
 10
81.0606
 20
133.7132
  0
SEQEND
  0
ENDBLK
  0
BLOCK
  8
LAYER_1
  2
AIGNBL01020168
 70
64
 10
0
 20
0
 30
0
  3
AIGNBL01020168
  0
POLYLINE
  8
LAYER_1
 40
0.1058
 41
0.1058
 66
1
 10
0
 20
0
 30
0
  0
VERTEX
  8
LAYER_1
 10
81.3509
 20
134.2169
  0
VERTEX
  8
LAYER_1
 10
81.0606
 20
133.7132
  0
SEQEND
  0
ENDBLK
  0
BLOCK
  8
LAYER_1
  2
AIGNBL01020169
 70
64
 10
0
 20
0
 30
0
  3
AIGNBL01020169
  0
POLYLINE
  8
LAYER_1
 40
0.1058
 41
0.1058
 66
1
 10
0
 20
0
 30
0
  0
VERTEX
  8
LAYER_1
 10
76.1494
 20
129.9102
 42
0.1128242957
  0
VERTEX
  8
LAYER_1
 10
75.8199
 20
129.835
  0
SEQEND
  0
ENDBLK
  0
BLOCK
  8
LAYER_1
  2
AIGNBL0102016A
 70
64
 10
0
 20
0
 30
0
  3
AIGNBL0102016A
  0
POLYLINE
  8
LAYER_1
 40
0.1058
 41
0.1058
 66
1
 10
0
 20
0
 30
0
  0
VERTEX
  8
LAYER_1
 10
81.6731
 20
130.3723
  0
VERTEX
  8
LAYER_1
 10
81.9242
 20
130.3723
  0
SEQEND
  0
ENDBLK
  0
BLOCK
  8
LAYER_1
  2
AIGNBL0102016B
 70
64
 10
0
 20
0
 30
0
  3
AIGNBL0102016B
  0
POLYLINE
  8
LAYER_1
 40
0.1058
 41
0.1058
 66
1
 10
0
 20
0
 30
0
  0
VERTEX
  8
LAYER_1
 10
82.1169
 20
130.2988
 42
0.1500364135
  0
VERTEX
  8
LAYER_1
 10
82.3999
 20
130.2124
  0
SEQEND
  0
ENDBLK
  0
BLOCK
  8
LAYER_1
  2
AIGNBL0102016C
 70
64
 10
0
 20
0
 30
0
  3
AIGNBL0102016C
  0
POLYLINE
  8
LAYER_1
 40
0.1058
 41
0.1058
 66
1
 10
0
 20
0
 30
0
  0
VERTEX
  8
LAYER_1
 10
82.1169
 20
130.2988
  0
VERTEX
  8
LAYER_1
 10
82.0233
 20
130.3515
  0
VERTEX
  8
LAYER_1
 10
81.9242
 20
130.3723
  0
SEQEND
  0
ENDBLK
  0
BLOCK
  8
LAYER_1
  2
AIGNBL0102016D
 70
64
 10
0
 20
0
 30
0
  3
AIGNBL0102016D
  0
POLYLINE
  8
LAYER_1
 40
0.1058
 41
0.1058
 66
1
 10
0
 20
0
 30
0
  0
VERTEX
  8
LAYER_1
 10
75.8974
 20
129.9102
  0
VERTEX
  8
LAYER_1
 10
81.9801
 20
129.9102
  0
SEQEND
  0
ENDBLK
  0
BLOCK
  8
LAYER_1
  2
AIGNBL0102016E
 70
64
 10
0
 20
0
 30
0
  3
AIGNBL0102016E
  0
POLYLINE
  8
LAYER_1
 40
0.1058
 41
0.1058
 66
1
 10
0
 20
0
 30
0
  0
VERTEX
  8
LAYER_1
 10
83.3619
 20
132.9648
  0
VERTEX
  8
LAYER_1
 10
83.3619
 20
132.7136
  0
SEQEND
  0
ENDBLK
  0
BLOCK
  8
LAYER_1
  2
AIGNBL0102016F
 70
64
 10
0
 20
0
 30
0
  3
AIGNBL0102016F
  0
POLYLINE
  8
LAYER_1
 40
0.1058
 41
0.1058
 66
1
 10
0
 20
0
 30
0
  0
VERTEX
  8
LAYER_1
 10
83.3619
 20
131.4606
  0
VERTEX
  8
LAYER_1
 10
83.3619
 20
131.2104
  0
SEQEND
  0
ENDBLK
  0
BLOCK
  8
LAYER_1
  2
AIGNBL01020170
 70
64
 10
0
 20
0
 30
0
  3
AIGNBL01020170
  0
POLYLINE
  8
LAYER_1
 40
0.1058
 41
0.1058
 66
1
 10
0
 20
0
 30
0
  0
VERTEX
  8
LAYER_1
 10
84.3646
 20
130.2124
  0
VERTEX
  8
LAYER_1
 10
84.3646
 20
129.9102
  0
SEQEND
  0
ENDBLK
  0
BLOCK
  8
LAYER_1
  2
AIGNBL01020171
 70
64
 10
0
 20
0
 30
0
  3
AIGNBL01020171
  0
POLYLINE
  8
LAYER_1
 40
0.1058
 41
0.1058
 66
1
 10
0
 20
0
 30
0
  0
VERTEX
  8
LAYER_1
 10
82.9573
 20
129.9102
  0
VERTEX
  8
LAYER_1
 10
84.3646
 20
129.9102
  0
SEQEND
  0
ENDBLK
  0
BLOCK
  8
LAYER_1
  2
AIGNBL01020172
 70
64
 10
0
 20
0
 30
0
  3
AIGNBL01020172
  0
POLYLINE
  8
LAYER_1
 40
0.1058
 41
0.1058
 66
1
 10
0
 20
0
 30
0
  0
VERTEX
  8
LAYER_1
 10
83.3835
 20
129.9102
 42
0.1120511524
  0
VERTEX
  8
LAYER_1
 10
83.0541
 20
129.835
  0
SEQEND
  0
ENDBLK
  0
BLOCK
  8
LAYER_1
  2
AIGNBL01020173
 70
64
 10
0
 20
0
 30
0
  3
AIGNBL01020173
  0
POLYLINE
  8
LAYER_1
 40
0.1058
 41
0.1058
 66
1
 10
0
 20
0
 30
0
  0
VERTEX
  8
LAYER_1
 10
83.3347
 20
130.2109
 42
0.1243294723
  0
VERTEX
  8
LAYER_1
 10
82.743
 20
130.0614
  0
SEQEND
  0
ENDBLK
  0
BLOCK
  8
LAYER_1
  2
AIGNBL01020174
 70
64
 10
0
 20
0
 30
0
  3
AIGNBL01020174
  0
POLYLINE
  8
LAYER_1
 40
0.1058
 41
0.1058
 66
1
 10
0
 20
0
 30
0
  0
VERTEX
  8
LAYER_1
 10
83.1332
 20
129.9102
 42
0.1130575927
  0
VERTEX
  8
LAYER_1
 10
82.8046
 20
129.835
  0
SEQEND
  0
ENDBLK
  0
BLOCK
  8
LAYER_1
  2
AIGNBL01020175
 70
64
 10
0
 20
0
 30
0
  3
AIGNBL01020175
  0
POLYLINE
  8
LAYER_1
 40
0.1058
 41
0.1058
 66
1
 10
0
 20
0
 30
0
  0
VERTEX
  8
LAYER_1
 10
82.6854
 20
129.7446
 42
0.05924197578
  0
VERTEX
  8
LAYER_1
 10
82.8741
 20
129.7679
 42
0.05205957859
  0
VERTEX
  8
LAYER_1
 10
83.0556
 20
129.835
  0
SEQEND
  0
ENDBLK
  0
BLOCK
  8
LAYER_1
  2
AIGNBL01020176
 70
64
 10
0
 20
0
 30
0
  3
AIGNBL01020176
  0
POLYLINE
  8
LAYER_1
 40
0.1058
 41
0.1058
 66
1
 10
0
 20
0
 30
0
  0
VERTEX
  8
LAYER_1
 10
82.3999
 20
130.2124
  0
VERTEX
  8
LAYER_1
 10
84.3646
 20
130.2124
  0
SEQEND
  0
ENDBLK
  0
BLOCK
  8
LAYER_1
  2
AIGNBL01020177
 70
64
 10
0
 20
0
 30
0
  3
AIGNBL01020177
  0
POLYLINE
  8
LAYER_1
 40
0.1058
 41
0.1058
 66
1
 10
0
 20
0
 30
0
  0
VERTEX
  8
LAYER_1
 10
82.4351
 20
129.7446
  0
VERTEX
  8
LAYER_1
 10
82.6854
 20
129.7446
  0
SEQEND
  0
ENDBLK
  0
BLOCK
  8
LAYER_1
  2
AIGNBL01020178
 70
64
 10
0
 20
0
 30
0
  3
AIGNBL01020178
  0
POLYLINE
  8
LAYER_1
 40
0.1058
 41
0.1058
 66
1
 10
0
 20
0
 30
0
  0
VERTEX
  8
LAYER_1
 10
82.743
 20
130.0614
 42
-0.1367554066
  0
VERTEX
  8
LAYER_1
 10
82.4192
 20
129.9805
 42
-0.1082436619
  0
VERTEX
  8
LAYER_1
 10
82.2089
 20
130.0467
 42
-0.04212146484
  0
VERTEX
  8
LAYER_1
 10
82.0306
 20
130.1708
 42
0.1969846351
  0
VERTEX
  8
LAYER_1
 10
81.6731
 20
130.3723
 42
0.1245201132
  0
VERTEX
  8
LAYER_1
 10
81.4949
 20
130.3196
 42
0.0618551937
  0
VERTEX
  8
LAYER_1
 10
81.3509
 20
130.2124
  0
SEQEND
  0
ENDBLK
  0
BLOCK
  8
LAYER_1
  2
AIGNBL01020179
 70
64
 10
0
 20
0
 30
0
  3
AIGNBL01020179
  0
POLYLINE
  8
LAYER_1
 40
0.1058
 41
0.1058
 66
1
 10
0
 20
0
 30
0
  0
VERTEX
  8
LAYER_1
 10
81.3509
 20
129.9102
 42
-0.1949206321
  0
VERTEX
  8
LAYER_1
 10
81.6419
 20
130.1133
 42
-0.1488289952
  0
VERTEX
  8
LAYER_1
 10
81.7869
 20
130.0623
 42
-0.01285728922
  0
VERTEX
  8
LAYER_1
 10
81.965
 20
129.9214
 42
0.1581298233
  0
VERTEX
  8
LAYER_1
 10
82.4351
 20
129.7446
 42
0.1138392656
  0
VERTEX
  8
LAYER_1
 10
82.8046
 20
129.835
  0
SEQEND
  0
ENDBLK
  0
BLOCK
  8
LAYER_1
  2
AIGNBL0102017A
 70
64
 10
0
 20
0
 30
0
  3
AIGNBL0102017A
  0
POLYLINE
  8
LAYER_1
 40
0.1058
 41
0.1058
 66
1
 10
0
 20
0
 30
0
  0
VERTEX
  8
LAYER_1
 10
74.0895
 20
132.9648
  0
VERTEX
  8
LAYER_1
 10
74.0895
 20
132.7136
  0
SEQEND
  0
ENDBLK
  0
BLOCK
  8
LAYER_1
  2
AIGNBL0102017B
 70
64
 10
0
 20
0
 30
0
  3
AIGNBL0102017B
  0
POLYLINE
  8
LAYER_1
 40
0.1058
 41
0.1058
 66
1
 10
0
 20
0
 30
0
  0
VERTEX
  8
LAYER_1
 10
74.0895
 20
131.4606
  0
VERTEX
  8
LAYER_1
 10
74.0895
 20
131.2104
  0
SEQEND
  0
ENDBLK
  0
BLOCK
  8
LAYER_1
  2
AIGNBL0102017C
 70
64
 10
0
 20
0
 30
0
  3
AIGNBL0102017C
  0
POLYLINE
  8
LAYER_1
 40
0.1058
 41
0.1058
 66
1
 10
0
 20
0
 30
0
  0
VERTEX
  8
LAYER_1
 10
73.0876
 20
130.2124
  0
VERTEX
  8
LAYER_1
 10
74.1167
 20
130.2124
  0
SEQEND
  0
ENDBLK
  0
BLOCK
  8
LAYER_1
  2
AIGNBL0102017D
 70
64
 10
0
 20
0
 30
0
  3
AIGNBL0102017D
  0
POLYLINE
  8
LAYER_1
 40
0.1058
 41
0.1058
 66
1
 10
0
 20
0
 30
0
  0
VERTEX
  8
LAYER_1
 10
73.0876
 20
129.9102
  0
VERTEX
  8
LAYER_1
 10
74.7452
 20
129.9102
  0
SEQEND
  0
ENDBLK
  0
BLOCK
  8
LAYER_1
  2
AIGNBL0102017E
 70
64
 10
0
 20
0
 30
0
  3
AIGNBL0102017E
  0
POLYLINE
  8
LAYER_1
 40
0.1058
 41
0.1058
 66
1
 10
0
 20
0
 30
0
  0
VERTEX
  8
LAYER_1
 10
73.0876
 20
130.2124
  0
VERTEX
  8
LAYER_1
 10
73.0876
 20
129.9102
  0
SEQEND
  0
ENDBLK
  0
BLOCK
  8
LAYER_1
  2
AIGNBL0102017F
 70
64
 10
0
 20
0
 30
0
  3
AIGNBL0102017F
  0
POLYLINE
  8
LAYER_1
 40
0.1058
 41
0.1058
 66
1
 10
0
 20
0
 30
0
  0
VERTEX
  8
LAYER_1
 10
74.4398
 20
130.3723
  0
VERTEX
  8
LAYER_1
 10
74.6885
 20
130.3723
  0
SEQEND
  0
ENDBLK
  0
BLOCK
  8
LAYER_1
  2
AIGNBL01020180
 70
64
 10
0
 20
0
 30
0
  3
AIGNBL01020180
  0
POLYLINE
  8
LAYER_1
 40
0.1058
 41
0.1058
 66
1
 10
0
 20
0
 30
0
  0
VERTEX
  8
LAYER_1
 10
75.1994
 20
129.7446
  0
VERTEX
  8
LAYER_1
 10
75.4497
 20
129.7446
  0
SEQEND
  0
ENDBLK
  0
BLOCK
  8
LAYER_1
  2
AIGNBL01020181
 70
64
 10
0
 20
0
 30
0
  3
AIGNBL01020181
  0
POLYLINE
  8
LAYER_1
 40
0.1058
 41
0.1058
 66
1
 10
0
 20
0
 30
0
  0
VERTEX
  8
LAYER_1
 10
74.8811
 20
130.2988
 42
0.1496177617
  0
VERTEX
  8
LAYER_1
 10
75.165
 20
130.2124
  0
SEQEND
  0
ENDBLK
  0
BLOCK
  8
LAYER_1
  2
AIGNBL01020182
 70
64
 10
0
 20
0
 30
0
  3
AIGNBL01020182
  0
POLYLINE
  8
LAYER_1
 40
0.1058
 41
0.1058
 66
1
 10
0
 20
0
 30
0
  0
VERTEX
  8
LAYER_1
 10
75.5073
 20
130.0614
 42
-0.1392277444
  0
VERTEX
  8
LAYER_1
 10
75.1834
 20
129.9805
 42
-0.1073669544
  0
VERTEX
  8
LAYER_1
 10
74.9738
 20
130.0467
 42
-0.04219216276
  0
VERTEX
  8
LAYER_1
 10
74.7948
 20
130.1708
 42
0.1972297876
  0
VERTEX
  8
LAYER_1
 10
74.4398
 20
130.3723
 42
0.1241829625
  0
VERTEX
  8
LAYER_1
 10
74.2622
 20
130.3211
 42
0.06382253506
  0
VERTEX
  8
LAYER_1
 10
74.1167
 20
130.2124
  0
SEQEND
  0
ENDBLK
  0
BLOCK
  8
LAYER_1
  2
AIGNBL01020183
 70
64
 10
0
 20
0
 30
0
  3
AIGNBL01020183
  0
POLYLINE
  8
LAYER_1
 40
0.1058
 41
0.1058
 66
1
 10
0
 20
0
 30
0
  0
VERTEX
  8
LAYER_1
 10
74.1167
 20
129.9102
 42
-0.1945970301
  0
VERTEX
  8
LAYER_1
 10
74.4061
 20
130.1133
 42
-0.1486480614
  0
VERTEX
  8
LAYER_1
 10
74.5518
 20
130.0623
 42
-0.01382923822
  0
VERTEX
  8
LAYER_1
 10
74.7301
 20
129.9214
 42
0.1586448735
  0
VERTEX
  8
LAYER_1
 10
75.1994
 20
129.7446
 42
0.1116318588
  0
VERTEX
  8
LAYER_1
 10
75.5696
 20
129.835
  0
SEQEND
  0
ENDBLK
  0
BLOCK
  8
LAYER_1
  2
AIGNBL01020184
 70
64
 10
0
 20
0
 30
0
  3
AIGNBL01020184
  0
POLYLINE
  8
LAYER_1
 40
0.1058
 41
0.1058
 66
1
 10
0
 20
0
 30
0
  0
VERTEX
  8
LAYER_1
 10
74.8811
 20
130.2988
  0
VERTEX
  8
LAYER_1
 10
74.7876
 20
130.3515
  0
VERTEX
  8
LAYER_1
 10
74.6885
 20
130.3723
  0
SEQEND
  0
ENDBLK
  0
BLOCK
  8
LAYER_1
  2
AIGNBL01020185
 70
64
 10
0
 20
0
 30
0
  3
AIGNBL01020185
  0
POLYLINE
  8
LAYER_1
 40
0.1058
 41
0.1058
 66
1
 10
0
 20
0
 30
0
  0
VERTEX
  8
LAYER_1
 10
75.165
 20
130.2124
  0
VERTEX
  8
LAYER_1
 10
81.3509
 20
130.2124
  0
SEQEND
  0
ENDBLK
  0
BLOCK
  8
LAYER_1
  2
AIGNBL01020186
 70
64
 10
0
 20
0
 30
0
  3
AIGNBL01020186
  0
POLYLINE
  8
LAYER_1
 40
0.1058
 41
0.1058
 66
1
 10
0
 20
0
 30
0
  0
VERTEX
  8
LAYER_1
 10
76.0989
 20
130.2109
 42
0.1243097485
  0
VERTEX
  8
LAYER_1
 10
75.5073
 20
130.0614
  0
SEQEND
  0
ENDBLK
  0
BLOCK
  8
LAYER_1
  2
AIGNBL01020187
 70
64
 10
0
 20
0
 30
0
  3
AIGNBL01020187
  0
POLYLINE
  8
LAYER_1
 40
0.1058
 41
0.1058
 66
1
 10
0
 20
0
 30
0
  0
VERTEX
  8
LAYER_1
 10
75.8974
 20
129.9102
 42
0.1126138594
  0
VERTEX
  8
LAYER_1
 10
75.5688
 20
129.835
  0
SEQEND
  0
ENDBLK
  0
BLOCK
  8
LAYER_1
  2
AIGNBL01020188
 70
64
 10
0
 20
0
 30
0
  3
AIGNBL01020188
  0
POLYLINE
  8
LAYER_1
 40
0.1058
 41
0.1058
 66
1
 10
0
 20
0
 30
0
  0
VERTEX
  8
LAYER_1
 10
75.4497
 20
129.7446
 42
0.0602522392
  0
VERTEX
  8
LAYER_1
 10
75.6384
 20
129.7679
  0
VERTEX
  8
LAYER_1
 10
75.8215
 20
129.835
  0
SEQEND
  0
ENDBLK
  0
BLOCK
  8
LAYER_1
  2
AIGNBL01020189
 70
64
 10
0
 20
0
 30
0
  3
AIGNBL01020189
  0
POLYLINE
  8
LAYER_1
 40
0.1058
 41
0.1058
 66
1
 10
0
 20
0
 30
0
  0
VERTEX
  8
LAYER_1
 10
74.0895
 20
132.9648
  0
VERTEX
  8
LAYER_1
 10
83.3619
 20
132.9648
  0
SEQEND
  0
ENDBLK
  0
BLOCK
  8
LAYER_1
  2
AIGNBL0102018A
 70
64
 10
0
 20
0
 30
0
  3
AIGNBL0102018A
  0
POLYLINE
  8
LAYER_1
 40
0.1058
 41
0.1058
 66
1
 10
0
 20
0
 30
0
  0
VERTEX
  8
LAYER_1
 10
74.0895
 20
132.7136
  0
VERTEX
  8
LAYER_1
 10
83.3619
 20
132.7136
  0
SEQEND
  0
ENDBLK
  0
BLOCK
  8
LAYER_1
  2
AIGNBL0102018B
 70
64
 10
0
 20
0
 30
0
  3
AIGNBL0102018B
  0
POLYLINE
  8
LAYER_1
 40
0.1058
 41
0.1058
 66
1
 10
0
 20
0
 30
0
  0
VERTEX
  8
LAYER_1
 10
74.0895
 20
131.4606
  0
VERTEX
  8
LAYER_1
 10
83.3619
 20
131.4606
  0
SEQEND
  0
ENDBLK
  0
BLOCK
  8
LAYER_1
  2
AIGNBL0102018C
 70
64
 10
0
 20
0
 30
0
  3
AIGNBL0102018C
  0
POLYLINE
  8
LAYER_1
 40
0.1058
 41
0.1058
 66
1
 10
0
 20
0
 30
0
  0
VERTEX
  8
LAYER_1
 10
74.0895
 20
131.2104
  0
VERTEX
  8
LAYER_1
 10
83.3619
 20
131.2104
  0
SEQEND
  0
ENDBLK
  0
BLOCK
  8
LAYER_1
  2
AIGNBL0102018D
 70
64
 10
0
 20
0
 30
0
  3
AIGNBL0102018D
  0
POLYLINE
  8
LAYER_1
 40
0.1058
 41
0.1058
 66
1
 10
0
 20
0
 30
0
  0
VERTEX
  8
LAYER_1
 10
76.47
 20
157.6489
  0
VERTEX
  8
LAYER_1
 10
76.47
 20
157.2723
  0
SEQEND
  0
ENDBLK
  0
BLOCK
  8
LAYER_1
  2
AIGNBL0102018E
 70
64
 10
0
 20
0
 30
0
  3
AIGNBL0102018E
  0
POLYLINE
  8
LAYER_1
 40
0.1058
 41
0.1058
 66
1
 10
0
 20
0
 30
0
  0
VERTEX
  8
LAYER_1
 10
76.7211
 20
157.6489
  0
VERTEX
  8
LAYER_1
 10
76.7211
 20
157.2723
  0
SEQEND
  0
ENDBLK
  0
BLOCK
  8
LAYER_1
  2
AIGNBL0102018F
 70
64
 10
0
 20
0
 30
0
  3
AIGNBL0102018F
  0
POLYLINE
  8
LAYER_1
 40
0.1058
 41
0.1058
 66
1
 10
0
 20
0
 30
0
  0
VERTEX
  8
LAYER_1
 10
76.9729
 20
157.6489
  0
VERTEX
  8
LAYER_1
 10
76.9729
 20
157.2723
  0
SEQEND
  0
ENDBLK
  0
BLOCK
  8
LAYER_1
  2
AIGNBL01020190
 70
64
 10
0
 20
0
 30
0
  3
AIGNBL01020190
  0
POLYLINE
  8
LAYER_1
 40
0.1058
 41
0.1058
 66
1
 10
0
 20
0
 30
0
  0
VERTEX
  8
LAYER_1
 10
77.2216
 20
157.6489
  0
VERTEX
  8
LAYER_1
 10
77.2216
 20
157.2723
  0
SEQEND
  0
ENDBLK
  0
BLOCK
  8
LAYER_1
  2
AIGNBL01020191
 70
64
 10
0
 20
0
 30
0
  3
AIGNBL01020191
  0
POLYLINE
  8
LAYER_1
 40
0.1058
 41
0.1058
 66
1
 10
0
 20
0
 30
0
  0
VERTEX
  8
LAYER_1
 10
77.4735
 20
157.6489
  0
VERTEX
  8
LAYER_1
 10
77.4735
 20
157.2723
  0
SEQEND
  0
ENDBLK
  0
BLOCK
  8
LAYER_1
  2
AIGNBL01020192
 70
64
 10
0
 20
0
 30
0
  3
AIGNBL01020192
  0
POLYLINE
  8
LAYER_1
 40
0.1058
 41
0.1058
 66
1
 10
0
 20
0
 30
0
  0
VERTEX
  8
LAYER_1
 10
77.7238
 20
157.6489
  0
VERTEX
  8
LAYER_1
 10
77.7238
 20
157.2723
  0
SEQEND
  0
ENDBLK
  0
BLOCK
  8
LAYER_1
  2
AIGNBL01020193
 70
64
 10
0
 20
0
 30
0
  3
AIGNBL01020193
  0
POLYLINE
  8
LAYER_1
 40
0.1058
 41
0.1058
 66
1
 10
0
 20
0
 30
0
  0
VERTEX
  8
LAYER_1
 10
77.9741
 20
157.6489
  0
VERTEX
  8
LAYER_1
 10
77.9741
 20
157.2723
  0
SEQEND
  0
ENDBLK
  0
BLOCK
  8
LAYER_1
  2
AIGNBL01020194
 70
64
 10
0
 20
0
 30
0
  3
AIGNBL01020194
  0
POLYLINE
  8
LAYER_1
 40
0.1058
 41
0.1058
 66
1
 10
0
 20
0
 30
0
  0
VERTEX
  8
LAYER_1
 10
78.2251
 20
157.6489
  0
VERTEX
  8
LAYER_1
 10
78.2251
 20
157.2723
  0
SEQEND
  0
ENDBLK
  0
BLOCK
  8
LAYER_1
  2
AIGNBL01020195
 70
64
 10
0
 20
0
 30
0
  3
AIGNBL01020195
  0
POLYLINE
  8
LAYER_1
 40
0.1058
 41
0.1058
 66
1
 10
0
 20
0
 30
0
  0
VERTEX
  8
LAYER_1
 10
78.4755
 20
157.6489
  0
VERTEX
  8
LAYER_1
 10
78.4755
 20
157.2723
  0
SEQEND
  0
ENDBLK
  0
BLOCK
  8
LAYER_1
  2
AIGNBL01020196
 70
64
 10
0
 20
0
 30
0
  3
AIGNBL01020196
  0
POLYLINE
  8
LAYER_1
 40
0.1058
 41
0.1058
 66
1
 10
0
 20
0
 30
0
  0
VERTEX
  8
LAYER_1
 10
78.7257
 20
157.6489
  0
VERTEX
  8
LAYER_1
 10
78.7257
 20
157.2723
  0
SEQEND
  0
ENDBLK
  0
BLOCK
  8
LAYER_1
  2
AIGNBL01020197
 70
64
 10
0
 20
0
 30
0
  3
AIGNBL01020197
  0
POLYLINE
  8
LAYER_1
 40
0.1058
 41
0.1058
 66
1
 10
0
 20
0
 30
0
  0
VERTEX
  8
LAYER_1
 10
78.9768
 20
157.6489
  0
VERTEX
  8
LAYER_1
 10
78.9768
 20
157.2723
  0
SEQEND
  0
ENDBLK
  0
BLOCK
  8
LAYER_1
  2
AIGNBL01020198
 70
64
 10
0
 20
0
 30
0
  3
AIGNBL01020198
  0
POLYLINE
  8
LAYER_1
 40
0.1058
 41
0.1058
 66
1
 10
0
 20
0
 30
0
  0
VERTEX
  8
LAYER_1
 10
79.2263
 20
157.6489
  0
VERTEX
  8
LAYER_1
 10
79.2263
 20
157.2723
  0
SEQEND
  0
ENDBLK
  0
BLOCK
  8
LAYER_1
  2
AIGNBL01020199
 70
64
 10
0
 20
0
 30
0
  3
AIGNBL01020199
  0
POLYLINE
  8
LAYER_1
 40
0.1058
 41
0.1058
 66
1
 10
0
 20
0
 30
0
  0
VERTEX
  8
LAYER_1
 10
79.4773
 20
157.6489
  0
VERTEX
  8
LAYER_1
 10
79.4773
 20
157.2723
  0
SEQEND
  0
ENDBLK
  0
BLOCK
  8
LAYER_1
  2
AIGNBL0102019A
 70
64
 10
0
 20
0
 30
0
  3
AIGNBL0102019A
  0
POLYLINE
  8
LAYER_1
 40
0.1058
 41
0.1058
 66
1
 10
0
 20
0
 30
0
  0
VERTEX
  8
LAYER_1
 10
79.7292
 20
157.6489
  0
VERTEX
  8
LAYER_1
 10
79.7292
 20
157.2723
  0
SEQEND
  0
ENDBLK
  0
BLOCK
  8
LAYER_1
  2
AIGNBL0102019B
 70
64
 10
0
 20
0
 30
0
  3
AIGNBL0102019B
  0
POLYLINE
  8
LAYER_1
 40
0.1058
 41
0.1058
 66
1
 10
0
 20
0
 30
0
  0
VERTEX
  8
LAYER_1
 10
79.9787
 20
157.6489
  0
VERTEX
  8
LAYER_1
 10
79.9787
 20
157.2723
  0
SEQEND
  0
ENDBLK
  0
BLOCK
  8
LAYER_1
  2
AIGNBL0102019C
 70
64
 10
0
 20
0
 30
0
  3
AIGNBL0102019C
  0
POLYLINE
  8
LAYER_1
 40
0.1058
 41
0.1058
 66
1
 10
0
 20
0
 30
0
  0
VERTEX
  8
LAYER_1
 10
80.2298
 20
157.6489
  0
VERTEX
  8
LAYER_1
 10
80.2298
 20
157.2723
  0
SEQEND
  0
ENDBLK
  0
BLOCK
  8
LAYER_1
  2
AIGNBL0102019D
 70
64
 10
0
 20
0
 30
0
  3
AIGNBL0102019D
  0
POLYLINE
  8
LAYER_1
 40
0.1058
 41
0.1058
 66
1
 10
0
 20
0
 30
0
  0
VERTEX
  8
LAYER_1
 10
80.4801
 20
157.6489
  0
VERTEX
  8
LAYER_1
 10
80.4801
 20
157.2723
  0
SEQEND
  0
ENDBLK
  0
BLOCK
  8
LAYER_1
  2
AIGNBL0102019E
 70
64
 10
0
 20
0
 30
0
  3
AIGNBL0102019E
  0
POLYLINE
  8
LAYER_1
 40
0.1058
 41
0.1058
 66
1
 10
0
 20
0
 30
0
  0
VERTEX
  8
LAYER_1
 10
80.7304
 20
157.6489
  0
VERTEX
  8
LAYER_1
 10
80.7304
 20
157.2723
  0
SEQEND
  0
ENDBLK
  0
BLOCK
  8
LAYER_1
  2
AIGNBL0102019F
 70
64
 10
0
 20
0
 30
0
  3
AIGNBL0102019F
  0
POLYLINE
  8
LAYER_1
 40
0.1058
 41
0.1058
 66
1
 10
0
 20
0
 30
0
  0
VERTEX
  8
LAYER_1
 10
80.9814
 20
157.6489
  0
VERTEX
  8
LAYER_1
 10
80.9814
 20
157.2723
  0
SEQEND
  0
ENDBLK
  0
BLOCK
  8
LAYER_1
  2
AIGNBL010201A0
 70
64
 10
0
 20
0
 30
0
  3
AIGNBL010201A0
  0
POLYLINE
  8
LAYER_1
 40
0.1058
 41
0.1058
 66
1
 10
0
 20
0
 30
0
  0
VERTEX
  8
LAYER_1
 10
84.9068
 20
153.4925
 42
0.4144272122
  0
VERTEX
  8
LAYER_1
 10
87.4567
 20
154.2441
 42
0.4143259386
  0
VERTEX
  8
LAYER_1
 10
86.7035
 20
156.7933
 42
0.2549843013
  0
VERTEX
  8
LAYER_1
 10
84.9068
 20
156.7933
  0
SEQEND
  0
ENDBLK
  0
BLOCK
  8
LAYER_1
  2
AIGNBL010201A1
 70
64
 10
0
 20
0
 30
0
  3
AIGNBL010201A1
  0
POLYLINE
  8
LAYER_1
 40
0.1058
 41
0.1058
 66
1
 10
0
 20
0
 30
0
  0
VERTEX
  8
LAYER_1
 10
82.6727
 20
153.8188
 42
0.1852671902
  0
VERTEX
  8
LAYER_1
 10
80.4513
 20
152.2115
  0
SEQEND
  0
ENDBLK
  0
BLOCK
  8
LAYER_1
  2
AIGNBL010201A2
 70
64
 10
0
 20
0
 30
0
  3
AIGNBL010201A2
  0
POLYLINE
  8
LAYER_1
 40
0.1058
 41
0.1058
 66
1
 10
0
 20
0
 30
0
  0
VERTEX
  8
LAYER_1
 10
77.0001
 20
152.2115
 42
0.1852561688
  0
VERTEX
  8
LAYER_1
 10
74.7788
 20
153.8188
  0
SEQEND
  0
ENDBLK
  0
BLOCK
  8
LAYER_1
  2
AIGNBL010201A3
 70
64
 10
0
 20
0
 30
0
  3
AIGNBL010201A3
  0
POLYLINE
  8
LAYER_1
 40
0.1058
 41
0.1058
 66
1
 10
0
 20
0
 30
0
  0
VERTEX
  8
LAYER_1
 10
72.5455
 20
156.7933
 42
0.413905042
  0
VERTEX
  8
LAYER_1
 10
69.9963
 20
156.0409
 42
0.4145358025
  0
VERTEX
  8
LAYER_1
 10
70.748
 20
153.4925
 42
0.2549742473
  0
VERTEX
  8
LAYER_1
 10
72.5455
 20
153.4925
  0
SEQEND
  0
ENDBLK
  0
BLOCK
  8
LAYER_1
  2
AIGNBL010201A4
 70
64
 10
0
 20
0
 30
0
  3
AIGNBL010201A4
  0
POLYLINE
  8
LAYER_1
 40
0.1058
 41
0.1058
 66
1
 10
0
 20
0
 30
0
  0
VERTEX
  8
LAYER_1
 10
78.7257
 20
157.2723
  0
VERTEX
  8
LAYER_1
 10
76.2917
 20
157.2723
  0
SEQEND
  0
ENDBLK
  0
BLOCK
  8
LAYER_1
  2
AIGNBL010201A5
 70
64
 10
0
 20
0
 30
0
  3
AIGNBL010201A5
  0
POLYLINE
  8
LAYER_1
 40
0.1058
 41
0.1058
 66
1
 10
0
 20
0
 30
0
  0
VERTEX
  8
LAYER_1
 10
72.5455
 20
156.7933
 42
0.1782702237
  0
VERTEX
  8
LAYER_1
 10
74.7788
 20
156.4655
  0
SEQEND
  0
ENDBLK
  0
BLOCK
  8
LAYER_1
  2
AIGNBL010201A6
 70
64
 10
0
 20
0
 30
0
  3
AIGNBL010201A6
  0
POLYLINE
  8
LAYER_1
 40
0.1058
 41
0.1058
 66
1
 10
0
 20
0
 30
0
  0
VERTEX
  8
LAYER_1
 10
74.7788
 20
153.8188
 42
0.1782710505
  0
VERTEX
  8
LAYER_1
 10
72.5455
 20
153.4925
  0
SEQEND
  0
ENDBLK
  0
BLOCK
  8
LAYER_1
  2
AIGNBL010201A7
 70
64
 10
0
 20
0
 30
0
  3
AIGNBL010201A7
  0
POLYLINE
  8
LAYER_1
 40
0.1058
 41
0.1058
 66
1
 10
0
 20
0
 30
0
  0
VERTEX
  8
LAYER_1
 10
74.7788
 20
156.4655
 42
0.2108211757
  0
VERTEX
  8
LAYER_1
 10
75.9942
 20
157.126
  0
SEQEND
  0
ENDBLK
  0
BLOCK
  8
LAYER_1
  2
AIGNBL010201A8
 70
64
 10
0
 20
0
 30
0
  3
AIGNBL010201A8
  0
POLYLINE
  8
LAYER_1
 40
0.1058
 41
0.1058
 66
1
 10
0
 20
0
 30
0
  0
VERTEX
  8
LAYER_1
 10
78.7257
 20
157.2723
  0
VERTEX
  8
LAYER_1
 10
81.1613
 20
157.2723
  0
SEQEND
  0
ENDBLK
  0
BLOCK
  8
LAYER_1
  2
AIGNBL010201A9
 70
64
 10
0
 20
0
 30
0
  3
AIGNBL010201A9
  0
POLYLINE
  8
LAYER_1
 40
0.1058
 41
0.1058
 66
1
 10
0
 20
0
 30
0
  0
VERTEX
  8
LAYER_1
 10
81.458
 20
157.126
 42
0.2111874625
  0
VERTEX
  8
LAYER_1
 10
82.6727
 20
156.4655
  0
SEQEND
  0
ENDBLK
  0
BLOCK
  8
LAYER_1
  2
AIGNBL010201AA
 70
64
 10
0
 20
0
 30
0
  3
AIGNBL010201AA
  0
POLYLINE
  8
LAYER_1
 40
0.1058
 41
0.1058
 66
1
 10
0
 20
0
 30
0
  0
VERTEX
  8
LAYER_1
 10
84.9068
 20
153.4925
 42
0.1783303924
  0
VERTEX
  8
LAYER_1
 10
82.6727
 20
153.8188
  0
SEQEND
  0
ENDBLK
  0
BLOCK
  8
LAYER_1
  2
AIGNBL010201AB
 70
64
 10
0
 20
0
 30
0
  3
AIGNBL010201AB
  0
POLYLINE
  8
LAYER_1
 40
0.1058
 41
0.1058
 66
1
 10
0
 20
0
 30
0
  0
VERTEX
  8
LAYER_1
 10
82.6727
 20
156.4655
 42
0.1783295649
  0
VERTEX
  8
LAYER_1
 10
84.9068
 20
156.7933
  0
SEQEND
  0
ENDBLK
  0
BLOCK
  8
LAYER_1
  2
AIGNBL010201AC
 70
64
 10
0
 20
0
 30
0
  3
AIGNBL010201AC
  0
POLYLINE
  8
LAYER_1
 40
0.1058
 41
0.1058
 66
1
 10
0
 20
0
 30
0
 70
1
  0
VERTEX
  8
LAYER_1
 10
80.6056
 20
155.1421
 42
0.4142121395
  0
VERTEX
  8
LAYER_1
 10
78.7257
 20
157.0212
 42
0.4142179675
  0
VERTEX
  8
LAYER_1
 10
76.8466
 20
155.1421
 42
0.4142149845
  0
VERTEX
  8
LAYER_1
 10
78.7257
 20
153.263
 42
0.4142091582
  0
SEQEND
  0
ENDBLK
  0
BLOCK
  8
LAYER_1
  2
AIGNBL010201AD
 70
64
 10
0
 20
0
 30
0
  3
AIGNBL010201AD
  0
POLYLINE
  8
LAYER_1
 40
0.1058
 41
0.1058
 66
1
 10
0
 20
0
 30
0
  0
VERTEX
  8
LAYER_1
 10
78.7257
 20
157.6489
  0
VERTEX
  8
LAYER_1
 10
76.2197
 20
157.6489
  0
SEQEND
  0
ENDBLK
  0
BLOCK
  8
LAYER_1
  2
AIGNBL010201AE
 70
64
 10
0
 20
0
 30
0
  3
AIGNBL010201AE
  0
POLYLINE
  8
LAYER_1
 40
0.1058
 41
0.1058
 66
1
 10
0
 20
0
 30
0
  0
VERTEX
  8
LAYER_1
 10
76.2197
 20
157.6489
  0
VERTEX
  8
LAYER_1
 10
76.2197
 20
157.2723
  0
SEQEND
  0
ENDBLK
  0
BLOCK
  8
LAYER_1
  2
AIGNBL010201AF
 70
64
 10
0
 20
0
 30
0
  3
AIGNBL010201AF
  0
POLYLINE
  8
LAYER_1
 40
0.1058
 41
0.1058
 66
1
 10
0
 20
0
 30
0
  0
VERTEX
  8
LAYER_1
 10
76.2917
 20
157.2723
 42
0.2298121218
  0
VERTEX
  8
LAYER_1
 10
75.9942
 20
157.126
  0
SEQEND
  0
ENDBLK
  0
BLOCK
  8
LAYER_1
  2
AIGNBL010201B0
 70
64
 10
0
 20
0
 30
0
  3
AIGNBL010201B0
  0
POLYLINE
  8
LAYER_1
 40
0.1058
 41
0.1058
 66
1
 10
0
 20
0
 30
0
  0
VERTEX
  8
LAYER_1
 10
81.458
 20
157.126
 42
0.2329511262
  0
VERTEX
  8
LAYER_1
 10
81.1613
 20
157.2723
  0
SEQEND
  0
ENDBLK
  0
BLOCK
  8
LAYER_1
  2
AIGNBL010201B1
 70
64
 10
0
 20
0
 30
0
  3
AIGNBL010201B1
  0
POLYLINE
  8
LAYER_1
 40
0.1058
 41
0.1058
 66
1
 10
0
 20
0
 30
0
  0
VERTEX
  8
LAYER_1
 10
78.7257
 20
157.6489
  0
VERTEX
  8
LAYER_1
 10
81.2317
 20
157.6489
  0
SEQEND
  0
ENDBLK
  0
BLOCK
  8
LAYER_1
  2
AIGNBL010201B2
 70
64
 10
0
 20
0
 30
0
  3
AIGNBL010201B2
  0
POLYLINE
  8
LAYER_1
 40
0.1058
 41
0.1058
 66
1
 10
0
 20
0
 30
0
  0
VERTEX
  8
LAYER_1
 10
81.2317
 20
157.6489
  0
VERTEX
  8
LAYER_1
 10
81.2317
 20
157.2723
  0
SEQEND
  0
ENDBLK
  0
BLOCK
  8
LAYER_1
  2
AIGNBL010201B3
 70
64
 10
0
 20
0
 30
0
  3
AIGNBL010201B3
  0
POLYLINE
  8
LAYER_1
 40
0.1058
 41
0.1058
 66
1
 10
0
 20
0
 30
0
  0
VERTEX
  8
LAYER_1
 10
81.2317
 20
157.6489
 42
0.2498435856
  0
VERTEX
  8
LAYER_1
 10
76.2197
 20
157.6489
  0
SEQEND
  0
ENDBLK
  0
BLOCK
  8
LAYER_1
  2
AIGNBL010201B4
 70
64
 10
0
 20
0
 30
0
  3
AIGNBL010201B4
  0
POLYLINE
  8
LAYER_1
 40
0.1058
 41
0.1058
 66
1
 10
0
 20
0
 30
0
  0
VERTEX
  8
LAYER_1
 10
77.4879
 20
152.01
  0
VERTEX
  8
LAYER_1
 10
77.1225
 20
152.01
  0
SEQEND
  0
ENDBLK
  0
BLOCK
  8
LAYER_1
  2
AIGNBL010201B5
 70
64
 10
0
 20
0
 30
0
  3
AIGNBL010201B5
  0
POLYLINE
  8
LAYER_1
 40
0.1058
 41
0.1058
 66
1
 10
0
 20
0
 30
0
  0
VERTEX
  8
LAYER_1
 10
80.0075
 20
152.01
  0
VERTEX
  8
LAYER_1
 10
80.3297
 20
152.01
  0
SEQEND
  0
ENDBLK
  0
BLOCK
  8
LAYER_1
  2
AIGNBL010201B6
 70
64
 10
0
 20
0
 30
0
  3
AIGNBL010201B6
  0
POLYLINE
  8
LAYER_1
 40
0.1058
 41
0.1058
 66
1
 10
0
 20
0
 30
0
  0
VERTEX
  8
LAYER_1
 10
77.1169
 20
151.8989
 42
0.1039722724
  0
VERTEX
  8
LAYER_1
 10
77.0001
 20
152.2115
  0
SEQEND
  0
ENDBLK
  0
BLOCK
  8
LAYER_1
  2
AIGNBL010201B7
 70
64
 10
0
 20
0
 30
0
  3
AIGNBL010201B7
  0
POLYLINE
  8
LAYER_1
 40
0.1058
 41
0.1058
 66
1
 10
0
 20
0
 30
0
  0
VERTEX
  8
LAYER_1
 10
80.4513
 20
152.2115
 42
0.1076071991
  0
VERTEX
  8
LAYER_1
 10
80.3378
 20
151.9061
  0
SEQEND
  0
ENDBLK
  0
BLOCK
  8
LAYER_1
  2
AIGNBL010201B8
 70
64
 10
0
 20
0
 30
0
  3
AIGNBL010201B8
  0
POLYLINE
  8
LAYER_1
 40
0.1058
 41
0.1058
 66
1
 10
0
 20
0
 30
0
  0
VERTEX
  8
LAYER_1
 10
74.8236
 20
148.9875
  0
VERTEX
  8
LAYER_1
 10
74.8412
 20
149.1122
  0
VERTEX
  8
LAYER_1
 10
74.858
 20
149.2185
  0
VERTEX
  8
LAYER_1
 10
74.8756
 20
149.3089
  0
VERTEX
  8
LAYER_1
 10
74.8932
 20
149.3801
  0
VERTEX
  8
LAYER_1
 10
74.9123
 20
149.4376
  0
VERTEX
  8
LAYER_1
 10
74.9299
 20
149.4752
  0
VERTEX
  8
LAYER_1
 10
74.9507
 20
149.4936
  0
SEQEND
  0
ENDBLK
  0
BLOCK
  8
LAYER_1
  2
AIGNBL010201B9
 70
64
 10
0
 20
0
 30
0
  3
AIGNBL010201B9
  0
POLYLINE
  8
LAYER_1
 40
0.1058
 41
0.1058
 66
1
 10
0
 20
0
 30
0
  0
VERTEX
  8
LAYER_1
 10
75.217
 20
146.559
  0
VERTEX
  8
LAYER_1
 10
75.2178
 20
146.5126
  0
SEQEND
  0
ENDBLK
  0
BLOCK
  8
LAYER_1
  2
AIGNBL010201BA
 70
64
 10
0
 20
0
 30
0
  3
AIGNBL010201BA
  0
POLYLINE
  8
LAYER_1
 40
0.1058
 41
0.1058
 66
1
 10
0
 20
0
 30
0
  0
VERTEX
  8
LAYER_1
 10
75.1242
 20
146.0289
  0
VERTEX
  8
LAYER_1
 10
75.1251
 20
146.0313
  0
VERTEX
  8
LAYER_1
 10
75.1306
 20
146.0433
  0
VERTEX
  8
LAYER_1
 10
75.1402
 20
146.0681
  0
VERTEX
  8
LAYER_1
 10
75.149
 20
146.0896
  0
VERTEX
  8
LAYER_1
 10
75.1563
 20
146.1112
  0
VERTEX
  8
LAYER_1
 10
75.1666
 20
146.1441
  0
VERTEX
  8
LAYER_1
 10
75.1746
 20
146.1712
  0
VERTEX
  8
LAYER_1
 10
75.1834
 20
146.2064
  0
VERTEX
  8
LAYER_1
 10
75.1906
 20
146.2368
  0
VERTEX
  8
LAYER_1
 10
75.1962
 20
146.2671
  0
VERTEX
  8
LAYER_1
 10
75.1994
 20
146.284
  0
VERTEX
  8
LAYER_1
 10
75.2034
 20
146.3072
  0
VERTEX
  8
LAYER_1
 10
75.2058
 20
146.3271
  0
VERTEX
  8
LAYER_1
 10
75.2082
 20
146.3423
  0
VERTEX
  8
LAYER_1
 10
75.2098
 20
146.3559
  0
VERTEX
  8
LAYER_1
 10
75.2114
 20
146.3743
  0
VERTEX
  8
LAYER_1
 10
75.2138
 20
146.3935
  0
VERTEX
  8
LAYER_1
 10
75.2154
 20
146.4135
  0
VERTEX
  8
LAYER_1
 10
75.217
 20
146.4335
  0
VERTEX
  8
LAYER_1
 10
75.217
 20
146.4607
  0
VERTEX
  8
LAYER_1
 10
75.2178
 20
146.4894
  0
VERTEX
  8
LAYER_1
 10
75.2178
 20
146.5102
  0
SEQEND
  0
ENDBLK
  0
BLOCK
  8
LAYER_1
  2
AIGNBL010201BB
 70
64
 10
0
 20
0
 30
0
  3
AIGNBL010201BB
  0
POLYLINE
  8
LAYER_1
 40
0.1058
 41
0.1058
 66
1
 10
0
 20
0
 30
0
  0
VERTEX
  8
LAYER_1
 10
75.1714
 20
147.7497
  0
VERTEX
  8
LAYER_1
 10
75.1818
 20
147.5522
  0
VERTEX
  8
LAYER_1
 10
75.1914
 20
147.3418
  0
VERTEX
  8
LAYER_1
 10
75.2002
 20
147.1211
  0
VERTEX
  8
LAYER_1
 10
75.2066
 20
146.9404
  0
VERTEX
  8
LAYER_1
 10
75.2122
 20
146.7533
  0
VERTEX
  8
LAYER_1
 10
75.217
 20
146.559
  0
SEQEND
  0
ENDBLK
  0
BLOCK
  8
LAYER_1
  2
AIGNBL010201BC
 70
64
 10
0
 20
0
 30
0
  3
AIGNBL010201BC
  0
POLYLINE
  8
LAYER_1
 40
0.1058
 41
0.1058
 66
1
 10
0
 20
0
 30
0
  0
VERTEX
  8
LAYER_1
 10
74.9507
 20
149.4936
  0
VERTEX
  8
LAYER_1
 10
74.9675
 20
149.4776
  0
VERTEX
  8
LAYER_1
 10
74.9851
 20
149.4465
  0
VERTEX
  8
LAYER_1
 10
75.0011
 20
149.3953
  0
VERTEX
  8
LAYER_1
 10
75.0179
 20
149.3297
  0
VERTEX
  8
LAYER_1
 10
75.0355
 20
149.2473
  0
VERTEX
  8
LAYER_1
 10
75.0514
 20
149.1498
  0
VERTEX
  8
LAYER_1
 10
75.0667
 20
149.0346
  0
VERTEX
  8
LAYER_1
 10
75.0826
 20
148.9059
  0
VERTEX
  8
LAYER_1
 10
75.0987
 20
148.754
  0
VERTEX
  8
LAYER_1
 10
75.1147
 20
148.5844
  0
VERTEX
  8
LAYER_1
 10
75.1306
 20
148.3997
  0
VERTEX
  8
LAYER_1
 10
75.1434
 20
148.199
  0
VERTEX
  8
LAYER_1
 10
75.1578
 20
147.9807
  0
VERTEX
  8
LAYER_1
 10
75.1714
 20
147.7497
  0
SEQEND
  0
ENDBLK
  0
BLOCK
  8
LAYER_1
  2
AIGNBL010201BD
 70
64
 10
0
 20
0
 30
0
  3
AIGNBL010201BD
  0
POLYLINE
  8
LAYER_1
 40
0.1058
 41
0.1058
 66
1
 10
0
 20
0
 30
0
  0
VERTEX
  8
LAYER_1
 10
75.9694
 20
142.1939
  0
VERTEX
  8
LAYER_1
 10
75.9942
 20
142.1675
  0
VERTEX
  8
LAYER_1
 10
76.047
 20
142.1204
  0
VERTEX
  8
LAYER_1
 10
76.1038
 20
142.0732
  0
VERTEX
  8
LAYER_1
 10
76.1669
 20
142.0276
  0
VERTEX
  8
LAYER_1
 10
76.2317
 20
141.9828
  0
VERTEX
  8
LAYER_1
 10
76.3005
 20
141.9412
  0
VERTEX
  8
LAYER_1
 10
76.3741
 20
141.8997
  0
VERTEX
  8
LAYER_1
 10
76.4492
 20
141.8613
  0
VERTEX
  8
LAYER_1
 10
76.5291
 20
141.8237
  0
VERTEX
  8
LAYER_1
 10
76.6115
 20
141.7877
  0
VERTEX
  8
LAYER_1
 10
76.6971
 20
141.7525
  0
VERTEX
  8
LAYER_1
 10
76.7858
 20
141.7214
  0
VERTEX
  8
LAYER_1
 10
76.8762
 20
141.6902
  0
VERTEX
  8
LAYER_1
 10
76.9697
 20
141.6613
  0
VERTEX
  8
LAYER_1
 10
77.0665
 20
141.6334
  0
VERTEX
  8
LAYER_1
 10
77.1641
 20
141.607
  0
VERTEX
  8
LAYER_1
 10
77.2648
 20
141.583
  0
VERTEX
  8
LAYER_1
 10
77.3672
 20
141.5606
  0
VERTEX
  8
LAYER_1
 10
77.4719
 20
141.5398
  0
VERTEX
  8
LAYER_1
 10
77.5775
 20
141.5207
  0
VERTEX
  8
LAYER_1
 10
77.6854
 20
141.5031
  0
VERTEX
  8
LAYER_1
 10
77.7941
 20
141.4886
  0
VERTEX
  8
LAYER_1
 10
77.9053
 20
141.4742
  0
VERTEX
  8
LAYER_1
 10
78.0164
 20
141.4623
  0
VERTEX
  8
LAYER_1
 10
78.13
 20
141.4519
  0
VERTEX
  8
LAYER_1
 10
78.2419
 20
141.4439
  0
VERTEX
  8
LAYER_1
 10
78.3571
 20
141.4359
  0
VERTEX
  8
LAYER_1
 10
78.4706
 20
141.4319
  0
VERTEX
  8
LAYER_1
 10
78.5857
 20
141.4279
  0
VERTEX
  8
LAYER_1
 10
78.701
 20
141.4279
  0
VERTEX
  8
LAYER_1
 10
78.8176
 20
141.4279
  0
VERTEX
  8
LAYER_1
 10
78.9328
 20
141.4311
  0
VERTEX
  8
LAYER_1
 10
79.0463
 20
141.4343
  0
VERTEX
  8
LAYER_1
 10
79.1607
 20
141.4407
  0
VERTEX
  8
LAYER_1
 10
79.2758
 20
141.4479
  0
VERTEX
  8
LAYER_1
 10
79.3886
 20
141.4583
  0
VERTEX
  8
LAYER_1
 10
79.4998
 20
141.4687
  0
VERTEX
  8
LAYER_1
 10
79.6109
 20
141.4823
  0
VERTEX
  8
LAYER_1
 10
79.7205
 20
141.4967
  0
VERTEX
  8
LAYER_1
 10
79.8292
 20
141.5126
  0
VERTEX
  8
LAYER_1
 10
79.9364
 20
141.5318
  0
VERTEX
  8
LAYER_1
 10
80.0411
 20
141.551
  0
VERTEX
  8
LAYER_1
 10
80.1434
 20
141.5734
  0
VERTEX
  8
LAYER_1
 10
80.2442
 20
141.5958
  0
VERTEX
  8
LAYER_1
 10
80.3433
 20
141.6222
  0
VERTEX
  8
LAYER_1
 10
80.4401
 20
141.6477
  0
VERTEX
  8
LAYER_1
 10
80.5352
 20
141.6766
  0
VERTEX
  8
LAYER_1
 10
80.6272
 20
141.7069
  0
VERTEX
  8
LAYER_1
 10
80.7151
 20
141.7381
  0
VERTEX
  8
LAYER_1
 10
80.8015
 20
141.7717
  0
VERTEX
  8
LAYER_1
 10
80.8863
 20
141.8061
  0
VERTEX
  8
LAYER_1
 10
80.967
 20
141.8429
  0
VERTEX
  8
LAYER_1
 10
81.0438
 20
141.8821
  0
VERTEX
  8
LAYER_1
 10
81.1182
 20
141.9229
  0
VERTEX
  8
LAYER_1
 10
81.1901
 20
141.9636
  0
VERTEX
  8
LAYER_1
 10
81.2573
 20
142.0076
  0
VERTEX
  8
LAYER_1
 10
81.3205
 20
142.0524
  0
VERTEX
  8
LAYER_1
 10
81.3812
 20
142.0996
  0
VERTEX
  8
LAYER_1
 10
81.4372
 20
142.1491
  0
VERTEX
  8
LAYER_1
 10
81.4836
 20
142.1939
  0
SEQEND
  0
ENDBLK
  0
BLOCK
  8
LAYER_1
  2
AIGNBL010201BE
 70
64
 10
0
 20
0
 30
0
  3
AIGNBL010201BE
  0
POLYLINE
  8
LAYER_1
 40
0.1058
 41
0.1058
 66
1
 10
0
 20
0
 30
0
  0
VERTEX
  8
LAYER_1
 10
75.9694
 20
142.517
 42
0.2110397312
  0
VERTEX
  8
LAYER_1
 10
76.1606
 20
142.1242
 42
0.05789448038
  0
VERTEX
  8
LAYER_1
 10
76.4036
 20
141.9397
 42
0.04324216519
  0
VERTEX
  8
LAYER_1
 10
76.7767
 20
141.7597
 42
0.06666248945
  0
VERTEX
  8
LAYER_1
 10
77.9385
 20
141.4905
 42
0.028737368
  0
VERTEX
  8
LAYER_1
 10
78.7257
 20
141.4462
 42
0.05857584621
  0
VERTEX
  8
LAYER_1
 10
80.2114
 20
141.6148
 42
0.07814164055
  0
VERTEX
  8
LAYER_1
 10
81.1169
 20
141.9838
 42
0.1484728313
  0
VERTEX
  8
LAYER_1
 10
81.4599
 20
142.3805
 42
0.07992849271
  0
VERTEX
  8
LAYER_1
 10
81.482
 20
142.517
  0
SEQEND
  0
ENDBLK
  0
BLOCK
  8
LAYER_1
  2
AIGNBL010201BF
 70
64
 10
0
 20
0
 30
0
  3
AIGNBL010201BF
  0
POLYLINE
  8
LAYER_1
 40
0.1058
 41
0.1058
 66
1
 10
0
 20
0
 30
0
  0
VERTEX
  8
LAYER_1
 10
75.7192
 20
143.2095
 42
0.2055782419
  0
VERTEX
  8
LAYER_1
 10
75.9111
 20
142.7986
 42
0.02117185198
  0
VERTEX
  8
LAYER_1
 10
75.9694
 20
142.7432
  0
SEQEND
  0
ENDBLK
  0
BLOCK
  8
LAYER_1
  2
AIGNBL010201C0
 70
64
 10
0
 20
0
 30
0
  3
AIGNBL010201C0
  0
POLYLINE
  8
LAYER_1
 40
0.1058
 41
0.1058
 66
1
 10
0
 20
0
 30
0
  0
VERTEX
  8
LAYER_1
 10
81.482
 20
142.7432
 42
0.1857082388
  0
VERTEX
  8
LAYER_1
 10
81.7326
 20
143.1755
 42
0.01831993833
  0
VERTEX
  8
LAYER_1
 10
81.7339
 20
143.2095
  0
SEQEND
  0
ENDBLK
  0
BLOCK
  8
LAYER_1
  2
AIGNBL010201C1
 70
64
 10
0
 20
0
 30
0
  3
AIGNBL010201C1
  0
POLYLINE
  8
LAYER_1
 40
0.1058
 41
0.1058
 66
1
 10
0
 20
0
 30
0
  0
VERTEX
  8
LAYER_1
 10
81.7339
 20
144.3929
 42
0.2070062381
  0
VERTEX
  8
LAYER_1
 10
81.5385
 20
144.8079
 42
0.05687161798
  0
VERTEX
  8
LAYER_1
 10
81.2984
 20
144.9985
 42
0.04329626149
  0
VERTEX
  8
LAYER_1
 10
80.9281
 20
145.1884
 42
0.0666534967
  0
VERTEX
  8
LAYER_1
 10
79.7601
 20
145.4895
 42
0.0354061091
  0
VERTEX
  8
LAYER_1
 10
78.7257
 20
145.5603
 42
0.05721420878
  0
VERTEX
  8
LAYER_1
 10
77.136
 20
145.384
 42
0.07164677646
  0
VERTEX
  8
LAYER_1
 10
76.1736
 20
145.0105
 42
0.1311735745
  0
VERTEX
  8
LAYER_1
 10
75.7662
 20
144.5997
 42
0.1087495267
  0
VERTEX
  8
LAYER_1
 10
75.7192
 20
144.3929
  0
SEQEND
  0
ENDBLK
  0
BLOCK
  8
LAYER_1
  2
AIGNBL010201C2
 70
64
 10
0
 20
0
 30
0
  3
AIGNBL010201C2
  0
POLYLINE
  8
LAYER_1
 40
0.1058
 41
0.1058
 66
1
 10
0
 20
0
 30
0
  0
VERTEX
  8
LAYER_1
 10
75.9694
 20
143.6764
 42
0.1841995024
  0
VERTEX
  8
LAYER_1
 10
75.7205
 20
143.2432
 42
0.01815651758
  0
VERTEX
  8
LAYER_1
 10
75.7192
 20
143.2095
  0
SEQEND
  0
ENDBLK
  0
BLOCK
  8
LAYER_1
  2
AIGNBL010201C3
 70
64
 10
0
 20
0
 30
0
  3
AIGNBL010201C3
  0
POLYLINE
  8
LAYER_1
 40
0.1058
 41
0.1058
 66
1
 10
0
 20
0
 30
0
  0
VERTEX
  8
LAYER_1
 10
81.7339
 20
143.2095
 42
0.2052008893
  0
VERTEX
  8
LAYER_1
 10
81.5406
 20
143.6207
 42
0.02107962993
  0
VERTEX
  8
LAYER_1
 10
81.482
 20
143.6764
  0
SEQEND
  0
ENDBLK
  0
BLOCK
  8
LAYER_1
  2
AIGNBL010201C4
 70
64
 10
0
 20
0
 30
0
  3
AIGNBL010201C4
  0
POLYLINE
  8
LAYER_1
 40
0.1058
 41
0.1058
 66
1
 10
0
 20
0
 30
0
  0
VERTEX
  8
LAYER_1
 10
81.482
 20
143.2142
 42
0.0595318813
  0
VERTEX
  8
LAYER_1
 10
81.1403
 20
143.4441
 42
0.03980266429
  0
VERTEX
  8
LAYER_1
 10
80.6896
 20
143.6323
 42
0.06031735691
  0
VERTEX
  8
LAYER_1
 10
79.4121
 20
143.8841
 42
0.06283016962
  0
VERTEX
  8
LAYER_1
 10
77.5239
 20
143.8172
 42
0.07112308501
  0
VERTEX
  8
LAYER_1
 10
76.3246
 20
143.4498
 42
0.0615811387
  0
VERTEX
  8
LAYER_1
 10
75.9694
 20
143.2142
  0
SEQEND
  0
ENDBLK
  0
BLOCK
  8
LAYER_1
  2
AIGNBL010201C5
 70
64
 10
0
 20
0
 30
0
  3
AIGNBL010201C5
  0
POLYLINE
  8
LAYER_1
 40
0.1058
 41
0.1058
 66
1
 10
0
 20
0
 30
0
  0
VERTEX
  8
LAYER_1
 10
81.482
 20
142.517
 42
0.2112583712
  0
VERTEX
  8
LAYER_1
 10
81.2908
 20
142.909
 42
0.0578048889
  0
VERTEX
  8
LAYER_1
 10
81.0478
 20
143.0933
 42
0.04317136959
  0
VERTEX
  8
LAYER_1
 10
80.6748
 20
143.2732
 42
0.06661189731
  0
VERTEX
  8
LAYER_1
 10
79.513
 20
143.5425
 42
0.02876314786
  0
VERTEX
  8
LAYER_1
 10
78.7257
 20
143.5868
 42
0.05860580557
  0
VERTEX
  8
LAYER_1
 10
77.24
 20
143.4181
 42
0.07802224388
  0
VERTEX
  8
LAYER_1
 10
76.3345
 20
143.0492
 42
0.1483138756
  0
VERTEX
  8
LAYER_1
 10
75.9915
 20
142.6531
 42
0.08012294455
  0
VERTEX
  8
LAYER_1
 10
75.9694
 20
142.517
  0
SEQEND
  0
ENDBLK
  0
BLOCK
  8
LAYER_1
  2
AIGNBL010201C6
 70
64
 10
0
 20
0
 30
0
  3
AIGNBL010201C6
  0
POLYLINE
  8
LAYER_1
 40
0.1058
 41
0.1058
 66
1
 10
0
 20
0
 30
0
  0
VERTEX
  8
LAYER_1
 10
75.9694
 20
142.1939
  0
VERTEX
  8
LAYER_1
 10
75.9694
 20
142.5153
  0
SEQEND
  0
ENDBLK
  0
BLOCK
  8
LAYER_1
  2
AIGNBL010201C7
 70
64
 10
0
 20
0
 30
0
  3
AIGNBL010201C7
  0
POLYLINE
  8
LAYER_1
 40
0.1058
 41
0.1058
 66
1
 10
0
 20
0
 30
0
  0
VERTEX
  8
LAYER_1
 10
81.482
 20
142.1939
  0
VERTEX
  8
LAYER_1
 10
81.482
 20
142.5153
  0
SEQEND
  0
ENDBLK
  0
BLOCK
  8
LAYER_1
  2
AIGNBL010201C8
 70
64
 10
0
 20
0
 30
0
  3
AIGNBL010201C8
  0
POLYLINE
  8
LAYER_1
 40
0.1058
 41
0.1058
 66
1
 10
0
 20
0
 30
0
  0
VERTEX
  8
LAYER_1
 10
81.482
 20
142.5153
  0
VERTEX
  8
LAYER_1
 10
81.482
 20
142.517
  0
SEQEND
  0
ENDBLK
  0
BLOCK
  8
LAYER_1
  2
AIGNBL010201C9
 70
64
 10
0
 20
0
 30
0
  3
AIGNBL010201C9
  0
POLYLINE
  8
LAYER_1
 40
0.1058
 41
0.1058
 66
1
 10
0
 20
0
 30
0
  0
VERTEX
  8
LAYER_1
 10
75.9694
 20
142.5153
  0
VERTEX
  8
LAYER_1
 10
75.9694
 20
142.517
  0
SEQEND
  0
ENDBLK
  0
BLOCK
  8
LAYER_1
  2
AIGNBL010201CA
 70
64
 10
0
 20
0
 30
0
  3
AIGNBL010201CA
  0
POLYLINE
  8
LAYER_1
 40
0.1058
 41
0.1058
 66
1
 10
0
 20
0
 30
0
  0
VERTEX
  8
LAYER_1
 10
75.9694
 20
143.6764
  0
VERTEX
  8
LAYER_1
 10
75.9694
 20
143.2142
  0
SEQEND
  0
ENDBLK
  0
BLOCK
  8
LAYER_1
  2
AIGNBL010201CB
 70
64
 10
0
 20
0
 30
0
  3
AIGNBL010201CB
  0
POLYLINE
  8
LAYER_1
 40
0.1058
 41
0.1058
 66
1
 10
0
 20
0
 30
0
  0
VERTEX
  8
LAYER_1
 10
81.482
 20
143.2142
  0
VERTEX
  8
LAYER_1
 10
81.482
 20
143.6764
  0
SEQEND
  0
ENDBLK
  0
BLOCK
  8
LAYER_1
  2
AIGNBL010201CC
 70
64
 10
0
 20
0
 30
0
  3
AIGNBL010201CC
  0
POLYLINE
  8
LAYER_1
 40
0.1058
 41
0.1058
 66
1
 10
0
 20
0
 30
0
  0
VERTEX
  8
LAYER_1
 10
75.7192
 20
144.3929
  0
VERTEX
  8
LAYER_1
 10
75.7192
 20
143.2095
  0
SEQEND
  0
ENDBLK
  0
BLOCK
  8
LAYER_1
  2
AIGNBL010201CD
 70
64
 10
0
 20
0
 30
0
  3
AIGNBL010201CD
  0
POLYLINE
  8
LAYER_1
 40
0.1058
 41
0.1058
 66
1
 10
0
 20
0
 30
0
  0
VERTEX
  8
LAYER_1
 10
81.7339
 20
143.2095
  0
VERTEX
  8
LAYER_1
 10
81.7339
 20
144.3929
  0
SEQEND
  0
ENDBLK
  0
BLOCK
  8
LAYER_1
  2
AIGNBL010201CE
 70
64
 10
0
 20
0
 30
0
  3
AIGNBL010201CE
  0
POLYLINE
  8
LAYER_1
 40
0.1058
 41
0.1058
 66
1
 10
0
 20
0
 30
0
  0
VERTEX
  8
LAYER_1
 10
75.9694
 20
142.517
  0
VERTEX
  8
LAYER_1
 10
75.9694
 20
143.2142
  0
SEQEND
  0
ENDBLK
  0
BLOCK
  8
LAYER_1
  2
AIGNBL010201CF
 70
64
 10
0
 20
0
 30
0
  3
AIGNBL010201CF
  0
POLYLINE
  8
LAYER_1
 40
0.1058
 41
0.1058
 66
1
 10
0
 20
0
 30
0
  0
VERTEX
  8
LAYER_1
 10
81.482
 20
142.517
  0
VERTEX
  8
LAYER_1
 10
81.482
 20
143.2142
  0
SEQEND
  0
ENDBLK
  0
BLOCK
  8
LAYER_1
  2
AIGNBL010201D0
 70
64
 10
0
 20
0
 30
0
  3
AIGNBL010201D0
  0
POLYLINE
  8
LAYER_1
 40
0.1058
 41
0.1058
 66
1
 10
0
 20
0
 30
0
  0
VERTEX
  8
LAYER_1
 10
76.1006
 20
134.2169
  0
VERTEX
  8
LAYER_1
 10
76.1006
 20
132.9648
  0
SEQEND
  0
ENDBLK
  0
BLOCK
  8
LAYER_1
  2
AIGNBL010201D1
 70
64
 10
0
 20
0
 30
0
  3
AIGNBL010201D1
  0
POLYLINE
  8
LAYER_1
 40
0.1058
 41
0.1058
 66
1
 10
0
 20
0
 30
0
  0
VERTEX
  8
LAYER_1
 10
81.3509
 20
122.7864
  0
VERTEX
  8
LAYER_1
 10
81.3509
 20
127.3226
  0
SEQEND
  0
ENDBLK
  0
BLOCK
  8
LAYER_1
  2
AIGNBL010201D2
 70
64
 10
0
 20
0
 30
0
  3
AIGNBL010201D2
  0
POLYLINE
  8
LAYER_1
 40
0.1058
 41
0.1058
 66
1
 10
0
 20
0
 30
0
  0
VERTEX
  8
LAYER_1
 10
73.6809
 20
138.2038
  0
VERTEX
  8
LAYER_1
 10
73.7066
 20
138.2294
  0
VERTEX
  8
LAYER_1
 10
73.7777
 20
138.3045
  0
VERTEX
  8
LAYER_1
 10
73.8408
 20
138.3837
  0
VERTEX
  8
LAYER_1
 10
73.8968
 20
138.4661
  0
VERTEX
  8
LAYER_1
 10
73.944
 20
138.5525
  0
VERTEX
  8
LAYER_1
 10
73.9856
 20
138.6453
  0
VERTEX
  8
LAYER_1
 10
74.016
 20
138.7404
  0
VERTEX
  8
LAYER_1
 10
74.0376
 20
138.8411
  0
VERTEX
  8
LAYER_1
 10
74.0487
 20
138.9411
  0
SEQEND
  0
ENDBLK
  0
BLOCK
  8
LAYER_1
  2
AIGNBL010201D3
 70
64
 10
0
 20
0
 30
0
  3
AIGNBL010201D3
  0
POLYLINE
  8
LAYER_1
 40
0.1058
 41
0.1058
 66
1
 10
0
 20
0
 30
0
  0
VERTEX
  8
LAYER_1
 10
83.4035
 20
138.9411
  0
VERTEX
  8
LAYER_1
 10
83.4138
 20
138.8427
  0
VERTEX
  8
LAYER_1
 10
83.4338
 20
138.746
  0
VERTEX
  8
LAYER_1
 10
83.4667
 20
138.6476
  0
VERTEX
  8
LAYER_1
 10
83.5083
 20
138.5525
  0
VERTEX
  8
LAYER_1
 10
83.5546
 20
138.4685
  0
VERTEX
  8
LAYER_1
 10
83.609
 20
138.3861
  0
VERTEX
  8
LAYER_1
 10
83.6737
 20
138.3077
  0
VERTEX
  8
LAYER_1
 10
83.7449
 20
138.2294
  0
VERTEX
  8
LAYER_1
 10
83.7705
 20
138.2038
  0
SEQEND
  0
ENDBLK
  0
BLOCK
  8
LAYER_1
  2
AIGNBL010201D4
 70
64
 10
0
 20
0
 30
0
  3
AIGNBL010201D4
  0
POLYLINE
  8
LAYER_1
 40
0.1058
 41
0.1058
 66
1
 10
0
 20
0
 30
0
  0
VERTEX
  8
LAYER_1
 10
74.7708
 20
148.5596
  0
VERTEX
  8
LAYER_1
 10
74.7588
 20
148.4325
  0
VERTEX
  8
LAYER_1
 10
74.7476
 20
148.3134
  0
VERTEX
  8
LAYER_1
 10
74.7372
 20
148.199
  0
VERTEX
  8
LAYER_1
 10
74.7276
 20
148.0919
  0
VERTEX
  8
LAYER_1
 10
74.7172
 20
147.9911
  0
VERTEX
  8
LAYER_1
 10
74.71
 20
147.9
  0
VERTEX
  8
LAYER_1
 10
74.7012
 20
147.8184
  0
VERTEX
  8
LAYER_1
 10
74.694
 20
147.7433
  0
VERTEX
  8
LAYER_1
 10
74.6885
 20
147.6745
  0
VERTEX
  8
LAYER_1
 10
74.6828
 20
147.6121
  0
VERTEX
  8
LAYER_1
 10
74.6781
 20
147.5577
  0
VERTEX
  8
LAYER_1
 10
74.6741
 20
147.5114
  0
VERTEX
  8
LAYER_1
 10
74.67
 20
147.4698
  0
VERTEX
  8
LAYER_1
 10
74.6668
 20
147.4354
  0
VERTEX
  8
LAYER_1
 10
74.6645
 20
147.4082
  0
VERTEX
  8
LAYER_1
 10
74.6628
 20
147.385
  0
VERTEX
  8
LAYER_1
 10
74.6613
 20
147.3674
  0
VERTEX
  8
LAYER_1
 10
74.6596
 20
147.3562
  0
VERTEX
  8
LAYER_1
 10
74.6588
 20
147.3435
  0
VERTEX
  8
LAYER_1
 10
74.6581
 20
147.329
  0
VERTEX
  8
LAYER_1
 10
74.6565
 20
147.3131
  0
VERTEX
  8
LAYER_1
 10
74.6556
 20
147.2955
  0
VERTEX
  8
LAYER_1
 10
74.6509
 20
147.2571
  0
VERTEX
  8
LAYER_1
 10
74.6477
 20
147.2107
  0
VERTEX
  8
LAYER_1
 10
74.642
 20
147.1604
  0
VERTEX
  8
LAYER_1
 10
74.6357
 20
147.0844
  0
VERTEX
  8
LAYER_1
 10
74.6293
 20
147.0036
  0
VERTEX
  8
LAYER_1
 10
74.6205
 20
146.9156
  0
VERTEX
  8
LAYER_1
 10
74.6133
 20
146.8237
  0
VERTEX
  8
LAYER_1
 10
74.6037
 20
146.7054
  0
VERTEX
  8
LAYER_1
 10
74.5917
 20
146.579
  0
VERTEX
  8
LAYER_1
 10
74.5805
 20
146.4439
  0
VERTEX
  8
LAYER_1
 10
74.5693
 20
146.3008
  0
VERTEX
  8
LAYER_1
 10
74.5549
 20
146.1488
  0
VERTEX
  8
LAYER_1
 10
74.5429
 20
145.9881
  0
VERTEX
  8
LAYER_1
 10
74.5286
 20
145.8178
  0
VERTEX
  8
LAYER_1
 10
74.5141
 20
145.6402
  0
VERTEX
  8
LAYER_1
 10
74.4997
 20
145.4676
  0
VERTEX
  8
LAYER_1
 10
74.4861
 20
145.2996
  0
VERTEX
  8
LAYER_1
 10
74.4725
 20
145.1365
  0
VERTEX
  8
LAYER_1
 10
74.4598
 20
144.9766
  0
VERTEX
  8
LAYER_1
 10
74.4462
 20
144.7959
  0
VERTEX
  8
LAYER_1
 10
74.4326
 20
144.6231
  0
VERTEX
  8
LAYER_1
 10
74.419
 20
144.4576
  0
VERTEX
  8
LAYER_1
 10
74.4078
 20
144.2993
  0
VERTEX
  8
LAYER_1
 10
74.4006
 20
144.2058
  0
VERTEX
  8
LAYER_1
 10
74.3942
 20
144.1146
  0
VERTEX
  8
LAYER_1
 10
74.3878
 20
144.0266
  0
VERTEX
  8
LAYER_1
 10
74.3806
 20
143.9443
  0
VERTEX
  8
LAYER_1
 10
74.375
 20
143.8699
  0
VERTEX
  8
LAYER_1
 10
74.3702
 20
143.806
  0
VERTEX
  8
LAYER_1
 10
74.3662
 20
143.7508
  0
VERTEX
  8
LAYER_1
 10
74.363
 20
143.714
  0
VERTEX
  8
LAYER_1
 10
74.3614
 20
143.6844
  0
VERTEX
  8
LAYER_1
 10
74.3598
 20
143.6605
  0
VERTEX
  8
LAYER_1
 10
74.3574
 20
143.6356
  0
VERTEX
  8
LAYER_1
 10
74.3558
 20
143.6068
  0
VERTEX
  8
LAYER_1
 10
74.3534
 20
143.5741
  0
VERTEX
  8
LAYER_1
 10
74.3502
 20
143.5357
  0
VERTEX
  8
LAYER_1
 10
74.3462
 20
143.4749
  0
VERTEX
  8
LAYER_1
 10
74.3398
 20
143.4038
  0
VERTEX
  8
LAYER_1
 10
74.3342
 20
143.3246
  0
VERTEX
  8
LAYER_1
 10
74.3286
 20
143.2366
  0
VERTEX
  8
LAYER_1
 10
74.3214
 20
143.139
  0
VERTEX
  8
LAYER_1
 10
74.3135
 20
143.0335
  0
VERTEX
  8
LAYER_1
 10
74.3054
 20
142.9175
  0
VERTEX
  8
LAYER_1
 10
74.2958
 20
142.7905
  0
VERTEX
  8
LAYER_1
 10
74.287
 20
142.6545
  0
VERTEX
  8
LAYER_1
 10
74.2759
 20
142.505
  0
VERTEX
  8
LAYER_1
 10
74.2647
 20
142.3442
  0
VERTEX
  8
LAYER_1
 10
74.2526
 20
142.1731
  0
VERTEX
  8
LAYER_1
 10
74.2407
 20
141.9924
  0
VERTEX
  8
LAYER_1
 10
74.2271
 20
141.7973
  0
VERTEX
  8
LAYER_1
 10
74.2135
 20
141.5958
  0
VERTEX
  8
LAYER_1
 10
74.1991
 20
141.3831
  0
VERTEX
  8
LAYER_1
 10
74.1847
 20
141.1584
  0
VERTEX
  8
LAYER_1
 10
74.1687
 20
140.9225
  0
VERTEX
  8
LAYER_1
 10
74.1519
 20
140.6707
  0
VERTEX
  8
LAYER_1
 10
74.1351
 20
140.4044
  0
VERTEX
  8
LAYER_1
 10
74.1175
 20
140.1277
  0
VERTEX
  8
LAYER_1
 10
74.0999
 20
139.8359
  0
VERTEX
  8
LAYER_1
 10
74.0807
 20
139.532
  0
VERTEX
  8
LAYER_1
 10
74.0608
 20
139.2146
  0
VERTEX
  8
LAYER_1
 10
74.0512
 20
139.0339
  0
SEQEND
  0
ENDBLK
  0
BLOCK
  8
LAYER_1
  2
AIGNBL010201D5
 70
64
 10
0
 20
0
 30
0
  3
AIGNBL010201D5
  0
POLYLINE
  8
LAYER_1
 40
0.1058
 41
0.1058
 66
1
 10
0
 20
0
 30
0
  0
VERTEX
  8
LAYER_1
 10
74.0512
 20
139.0322
  0
VERTEX
  8
LAYER_1
 10
74.0495
 20
139.0154
  0
VERTEX
  8
LAYER_1
 10
74.0487
 20
138.9411
  0
SEQEND
  0
ENDBLK
  0
BLOCK
  8
LAYER_1
  2
AIGNBL010201D6
 70
64
 10
0
 20
0
 30
0
  3
AIGNBL010201D6
  0
POLYLINE
  8
LAYER_1
 40
0.1058
 41
0.1058
 66
1
 10
0
 20
0
 30
0
  0
VERTEX
  8
LAYER_1
 10
83.4011
 20
139.0371
  0
VERTEX
  8
LAYER_1
 10
83.3931
 20
139.1681
  0
VERTEX
  8
LAYER_1
 10
83.3779
 20
139.4368
  0
VERTEX
  8
LAYER_1
 10
83.3619
 20
139.6959
  0
VERTEX
  8
LAYER_1
 10
83.3459
 20
139.9454
  0
VERTEX
  8
LAYER_1
 10
83.3299
 20
140.1829
  0
VERTEX
  8
LAYER_1
 10
83.3171
 20
140.4091
  0
VERTEX
  8
LAYER_1
 10
83.3004
 20
140.665
  0
VERTEX
  8
LAYER_1
 10
83.2843
 20
140.9049
  0
VERTEX
  8
LAYER_1
 10
83.2699
 20
141.1328
  0
VERTEX
  8
LAYER_1
 10
83.2556
 20
141.3472
  0
VERTEX
  8
LAYER_1
 10
83.242
 20
141.5383
  0
VERTEX
  8
LAYER_1
 10
83.2308
 20
141.7197
  0
VERTEX
  8
LAYER_1
 10
83.2195
 20
141.8885
  0
VERTEX
  8
LAYER_1
 10
83.2083
 20
142.0444
  0
VERTEX
  8
LAYER_1
 10
83.198
 20
142.1891
  0
VERTEX
  8
LAYER_1
 10
83.1892
 20
142.3202
  0
VERTEX
  8
LAYER_1
 10
83.1804
 20
142.441
  0
VERTEX
  8
LAYER_1
 10
83.1732
 20
142.5506
  0
VERTEX
  8
LAYER_1
 10
83.166
 20
142.6497
  0
VERTEX
  8
LAYER_1
 10
83.1588
 20
142.7553
  0
VERTEX
  8
LAYER_1
 10
83.1508
 20
142.8584
  0
VERTEX
  8
LAYER_1
 10
83.1444
 20
142.9608
  0
VERTEX
  8
LAYER_1
 10
83.1356
 20
143.0639
  0
VERTEX
  8
LAYER_1
 10
83.1284
 20
143.1679
  0
VERTEX
  8
LAYER_1
 10
83.1212
 20
143.2718
  0
VERTEX
  8
LAYER_1
 10
83.0957
 20
143.6221
  0
VERTEX
  8
LAYER_1
 10
83.09
 20
143.6876
  0
VERTEX
  8
LAYER_1
 10
83.0868
 20
143.7452
  0
VERTEX
  8
LAYER_1
 10
83.0828
 20
143.7939
  0
VERTEX
  8
LAYER_1
 10
83.0796
 20
143.8331
  0
VERTEX
  8
LAYER_1
 10
83.0781
 20
143.8587
  0
VERTEX
  8
LAYER_1
 10
83.0756
 20
143.8803
  0
VERTEX
  8
LAYER_1
 10
83.0756
 20
143.9035
  0
VERTEX
  8
LAYER_1
 10
83.0724
 20
143.9323
  0
VERTEX
  8
LAYER_1
 10
83.0692
 20
143.965
  0
VERTEX
  8
LAYER_1
 10
83.0668
 20
144.0058
  0
VERTEX
  8
LAYER_1
 10
83.0636
 20
144.0506
  0
VERTEX
  8
LAYER_1
 10
83.0596
 20
144.1018
  0
VERTEX
  8
LAYER_1
 10
83.0541
 20
144.1722
  0
VERTEX
  8
LAYER_1
 10
83.0477
 20
144.2506
  0
VERTEX
  8
LAYER_1
 10
83.0412
 20
144.3369
  0
VERTEX
  8
LAYER_1
 10
83.0348
 20
144.4328
  0
VERTEX
  8
LAYER_1
 10
83.0261
 20
144.5352
  0
VERTEX
  8
LAYER_1
 10
83.018
 20
144.6471
  0
VERTEX
  8
LAYER_1
 10
83.0076
 20
144.7655
  0
VERTEX
  8
LAYER_1
 10
82.9917
 20
144.983
  0
VERTEX
  8
LAYER_1
 10
82.9749
 20
145.1941
  0
VERTEX
  8
LAYER_1
 10
82.9573
 20
145.4004
  0
VERTEX
  8
LAYER_1
 10
82.9373
 20
145.6651
  0
VERTEX
  8
LAYER_1
 10
82.9157
 20
145.9201
  0
VERTEX
  8
LAYER_1
 10
82.8957
 20
146.1632
  0
VERTEX
  8
LAYER_1
 10
82.8749
 20
146.3967
  0
VERTEX
  8
LAYER_1
 10
82.8661
 20
146.5119
  0
VERTEX
  8
LAYER_1
 10
82.8566
 20
146.6238
  0
VERTEX
  8
LAYER_1
 10
82.8462
 20
146.7325
  0
VERTEX
  8
LAYER_1
 10
82.8381
 20
146.8325
  0
VERTEX
  8
LAYER_1
 10
82.8294
 20
146.9228
  0
VERTEX
  8
LAYER_1
 10
82.8229
 20
147.0036
  0
VERTEX
  8
LAYER_1
 10
82.8165
 20
147.074
  0
VERTEX
  8
LAYER_1
 10
82.811
 20
147.1371
  0
VERTEX
  8
LAYER_1
 10
82.8061
 20
147.1923
  0
VERTEX
  8
LAYER_1
 10
82.8046
 20
147.2171
  0
VERTEX
  8
LAYER_1
 10
82.8022
 20
147.2379
  0
VERTEX
  8
LAYER_1
 10
82.8006
 20
147.2603
  0
VERTEX
  8
LAYER_1
 10
82.7989
 20
147.2874
  0
VERTEX
  8
LAYER_1
 10
82.795
 20
147.3243
  0
VERTEX
  8
LAYER_1
 10
82.7902
 20
147.369
  0
VERTEX
  8
LAYER_1
 10
82.7862
 20
147.4218
  0
VERTEX
  8
LAYER_1
 10
82.7806
 20
147.4842
  0
VERTEX
  8
LAYER_1
 10
82.7742
 20
147.5545
  0
VERTEX
  8
LAYER_1
 10
82.767
 20
147.6345
  0
VERTEX
  8
LAYER_1
 10
82.759
 20
147.7217
  0
VERTEX
  8
LAYER_1
 10
82.7502
 20
147.8184
  0
VERTEX
  8
LAYER_1
 10
82.7398
 20
147.9248
  0
VERTEX
  8
LAYER_1
 10
82.7302
 20
148.0376
  0
VERTEX
  8
LAYER_1
 10
82.719
 20
148.1567
  0
VERTEX
  8
LAYER_1
 10
82.707
 20
148.283
  0
VERTEX
  8
LAYER_1
 10
82.695
 20
148.4181
  0
VERTEX
  8
LAYER_1
 10
82.6806
 20
148.5596
  0
SEQEND
  0
ENDBLK
  0
BLOCK
  8
LAYER_1
  2
AIGNBL010201D7
 70
64
 10
0
 20
0
 30
0
  3
AIGNBL010201D7
  0
POLYLINE
  8
LAYER_1
 40
0.1058
 41
0.1058
 66
1
 10
0
 20
0
 30
0
  0
VERTEX
  8
LAYER_1
 10
74.7676
 20
148.4693
  0
VERTEX
  8
LAYER_1
 10
74.7188
 20
147.9624
  0
VERTEX
  8
LAYER_1
 10
74.67
 20
147.4442
  0
VERTEX
  8
LAYER_1
 10
74.6237
 20
146.9149
  0
VERTEX
  8
LAYER_1
 10
74.5765
 20
146.3703
  0
VERTEX
  8
LAYER_1
 10
74.5301
 20
145.8146
  0
VERTEX
  8
LAYER_1
 10
74.4838
 20
145.2565
  0
VERTEX
  8
LAYER_1
 10
74.4398
 20
144.6872
  0
VERTEX
  8
LAYER_1
 10
74.395
 20
144.105
  0
VERTEX
  8
LAYER_1
 10
74.351
 20
143.5117
  0
VERTEX
  8
LAYER_1
 10
74.3054
 20
142.8944
  0
VERTEX
  8
LAYER_1
 10
74.2623
 20
142.2643
  0
VERTEX
  8
LAYER_1
 10
74.2183
 20
141.623
  0
VERTEX
  8
LAYER_1
 10
74.1751
 20
140.9705
  0
VERTEX
  8
LAYER_1
 10
74.1327
 20
140.3052
  0
VERTEX
  8
LAYER_1
 10
74.0895
 20
139.6304
  0
VERTEX
  8
LAYER_1
 10
74.0487
 20
138.9411
  0
SEQEND
  0
ENDBLK
  0
BLOCK
  8
LAYER_1
  2
AIGNBL010201D8
 70
64
 10
0
 20
0
 30
0
  3
AIGNBL010201D8
  0
POLYLINE
  8
LAYER_1
 40
0.1058
 41
0.1058
 66
1
 10
0
 20
0
 30
0
  0
VERTEX
  8
LAYER_1
 10
83.4035
 20
138.9411
  0
VERTEX
  8
LAYER_1
 10
83.3619
 20
139.6287
  0
VERTEX
  8
LAYER_1
 10
83.3203
 20
140.3036
  0
VERTEX
  8
LAYER_1
 10
83.2771
 20
140.9673
  0
VERTEX
  8
LAYER_1
 10
83.234
 20
141.6182
  0
VERTEX
  8
LAYER_1
 10
83.1908
 20
142.2579
  0
VERTEX
  8
LAYER_1
 10
83.1476
 20
142.8744
  0
VERTEX
  8
LAYER_1
 10
83.1044
 20
143.4797
  0
VERTEX
  8
LAYER_1
 10
83.0596
 20
144.0746
  0
VERTEX
  8
LAYER_1
 10
83.0148
 20
144.656
  0
VERTEX
  8
LAYER_1
 10
82.9685
 20
145.2389
  0
VERTEX
  8
LAYER_1
 10
82.9229
 20
145.809
  0
VERTEX
  8
LAYER_1
 10
82.8765
 20
146.3663
  0
VERTEX
  8
LAYER_1
 10
82.8294
 20
146.9101
  0
VERTEX
  8
LAYER_1
 10
82.7814
 20
147.4426
  0
VERTEX
  8
LAYER_1
 10
82.7334
 20
147.9624
  0
VERTEX
  8
LAYER_1
 10
82.6854
 20
148.4693
  0
SEQEND
  0
ENDBLK
  0
BLOCK
  8
LAYER_1
  2
AIGNBL010201D9
 70
64
 10
0
 20
0
 30
0
  3
AIGNBL010201D9
  0
POLYLINE
  8
LAYER_1
 40
0.1058
 41
0.1058
 66
1
 10
0
 20
0
 30
0
  0
VERTEX
  8
LAYER_1
 10
74.8236
 20
148.9875
  0
VERTEX
  8
LAYER_1
 10
74.8076
 20
148.8531
  0
VERTEX
  8
LAYER_1
 10
74.7916
 20
148.7108
  0
VERTEX
  8
LAYER_1
 10
74.7788
 20
148.5925
  0
VERTEX
  8
LAYER_1
 10
74.7676
 20
148.4693
  0
SEQEND
  0
ENDBLK
  0
BLOCK
  8
LAYER_1
  2
AIGNBL010201DA
 70
64
 10
0
 20
0
 30
0
  3
AIGNBL010201DA
  0
POLYLINE
  8
LAYER_1
 40
0.1058
 41
0.1058
 66
1
 10
0
 20
0
 30
0
  0
VERTEX
  8
LAYER_1
 10
82.6854
 20
148.4693
  0
VERTEX
  8
LAYER_1
 10
82.6694
 20
148.6245
  0
VERTEX
  8
LAYER_1
 10
82.6534
 20
148.7724
  0
VERTEX
  8
LAYER_1
 10
82.6406
 20
148.8835
  0
VERTEX
  8
LAYER_1
 10
82.6279
 20
148.9875
  0
SEQEND
  0
ENDBLK
  0
BLOCK
  8
LAYER_1
  2
AIGNBL010201DB
 70
64
 10
0
 20
0
 30
0
  3
AIGNBL010201DB
  0
POLYLINE
  8
LAYER_1
 40
0.1058
 41
0.1058
 66
1
 10
0
 20
0
 30
0
  0
VERTEX
  8
LAYER_1
 10
74.8236
 20
148.9875
  0
VERTEX
  8
LAYER_1
 10
74.8316
 20
149.1194
  0
VERTEX
  8
LAYER_1
 10
74.8324
 20
149.1258
  0
SEQEND
  0
ENDBLK
  0
BLOCK
  8
LAYER_1
  2
AIGNBL010201DC
 70
64
 10
0
 20
0
 30
0
  3
AIGNBL010201DC
  0
POLYLINE
  8
LAYER_1
 40
0.1058
 41
0.1058
 66
1
 10
0
 20
0
 30
0
  0
VERTEX
  8
LAYER_1
 10
75.2457
 20
150.5172
  0
VERTEX
  8
LAYER_1
 10
75.2242
 20
150.4828
  0
VERTEX
  8
LAYER_1
 10
75.1922
 20
150.4252
  0
VERTEX
  8
LAYER_1
 10
75.1602
 20
150.3644
  0
VERTEX
  8
LAYER_1
 10
75.1306
 20
150.3036
  0
VERTEX
  8
LAYER_1
 10
75.1043
 20
150.2477
  0
VERTEX
  8
LAYER_1
 10
75.085
 20
150.2029
  0
VERTEX
  8
LAYER_1
 10
75.0659
 20
150.1565
  0
VERTEX
  8
LAYER_1
 10
75.0499
 20
150.1165
  0
VERTEX
  8
LAYER_1
 10
75.0355
 20
150.0781
  0
VERTEX
  8
LAYER_1
 10
75.0227
 20
150.0405
  0
VERTEX
  8
LAYER_1
 10
75.0083
 20
149.999
  0
VERTEX
  8
LAYER_1
 10
74.9939
 20
149.9542
  0
VERTEX
  8
LAYER_1
 10
74.9835
 20
149.9166
  0
VERTEX
  8
LAYER_1
 10
74.9747
 20
149.8895
  0
VERTEX
  8
LAYER_1
 10
74.9707
 20
149.8742
  0
VERTEX
  8
LAYER_1
 10
74.9643
 20
149.8534
  0
VERTEX
  8
LAYER_1
 10
74.9579
 20
149.8271
  0
VERTEX
  8
LAYER_1
 10
74.9507
 20
149.7982
  0
VERTEX
  8
LAYER_1
 10
74.9435
 20
149.7695
  0
VERTEX
  8
LAYER_1
 10
74.9363
 20
149.7423
  0
VERTEX
  8
LAYER_1
 10
74.9315
 20
149.7183
  0
VERTEX
  8
LAYER_1
 10
74.9259
 20
149.6992
  0
VERTEX
  8
LAYER_1
 10
74.9227
 20
149.6791
  0
VERTEX
  8
LAYER_1
 10
74.9172
 20
149.6576
  0
VERTEX
  8
LAYER_1
 10
74.9123
 20
149.6351
  0
VERTEX
  8
LAYER_1
 10
74.9076
 20
149.6096
  0
VERTEX
  8
LAYER_1
 10
74.9004
 20
149.5695
  0
VERTEX
  8
LAYER_1
 10
74.8915
 20
149.5296
  0
VERTEX
  8
LAYER_1
 10
74.886
 20
149.492
  0
VERTEX
  8
LAYER_1
 10
74.8796
 20
149.4576
  0
VERTEX
  8
LAYER_1
 10
74.8724
 20
149.416
  0
VERTEX
  8
LAYER_1
 10
74.866
 20
149.3761
  0
VERTEX
  8
LAYER_1
 10
74.858
 20
149.3265
  0
VERTEX
  8
LAYER_1
 10
74.8548
 20
149.2993
  0
VERTEX
  8
LAYER_1
 10
74.8499
 20
149.2658
  0
VERTEX
  8
LAYER_1
 10
74.8452
 20
149.2257
  0
VERTEX
  8
LAYER_1
 10
74.838
 20
149.1794
  0
VERTEX
  8
LAYER_1
 10
74.8324
 20
149.1258
  0
SEQEND
  0
ENDBLK
  0
BLOCK
  8
LAYER_1
  2
AIGNBL010201DD
 70
64
 10
0
 20
0
 30
0
  3
AIGNBL010201DD
  0
POLYLINE
  8
LAYER_1
 40
0.1058
 41
0.1058
 66
1
 10
0
 20
0
 30
0
  0
VERTEX
  8
LAYER_1
 10
75.289
 20
150.5883
  0
VERTEX
  8
LAYER_1
 10
75.257
 20
150.5355
  0
VERTEX
  8
LAYER_1
 10
75.2514
 20
150.5259
  0
SEQEND
  0
ENDBLK
  0
BLOCK
  8
LAYER_1
  2
AIGNBL010201DE
 70
64
 10
0
 20
0
 30
0
  3
AIGNBL010201DE
  0
POLYLINE
  8
LAYER_1
 40
0.1058
 41
0.1058
 66
1
 10
0
 20
0
 30
0
  0
VERTEX
  8
LAYER_1
 10
75.289
 20
150.5875
  0
VERTEX
  8
LAYER_1
 10
75.3474
 20
150.6739
  0
VERTEX
  8
LAYER_1
 10
75.4769
 20
150.841
  0
VERTEX
  8
LAYER_1
 10
75.6208
 20
150.9969
  0
VERTEX
  8
LAYER_1
 10
75.7536
 20
151.1224
  0
SEQEND
  0
ENDBLK
  0
BLOCK
  8
LAYER_1
  2
AIGNBL010201DF
 70
64
 10
0
 20
0
 30
0
  3
AIGNBL010201DF
  0
POLYLINE
  8
LAYER_1
 40
0.1058
 41
0.1058
 66
1
 10
0
 20
0
 30
0
  0
VERTEX
  8
LAYER_1
 10
82.6279
 20
148.9875
  0
VERTEX
  8
LAYER_1
 10
82.6103
 20
149.1122
  0
VERTEX
  8
LAYER_1
 10
82.5935
 20
149.2185
  0
VERTEX
  8
LAYER_1
 10
82.5759
 20
149.3089
  0
VERTEX
  8
LAYER_1
 10
82.5583
 20
149.3801
  0
VERTEX
  8
LAYER_1
 10
82.5399
 20
149.4376
  0
VERTEX
  8
LAYER_1
 10
82.5215
 20
149.4752
  0
VERTEX
  8
LAYER_1
 10
82.5023
 20
149.4936
  0
SEQEND
  0
ENDBLK
  0
BLOCK
  8
LAYER_1
  2
AIGNBL010201E0
 70
64
 10
0
 20
0
 30
0
  3
AIGNBL010201E0
  0
POLYLINE
  8
LAYER_1
 40
0.1058
 41
0.1058
 66
1
 10
0
 20
0
 30
0
  0
VERTEX
  8
LAYER_1
 10
82.2009
 20
150.5283
  0
VERTEX
  8
LAYER_1
 10
82.1977
 20
150.5339
  0
VERTEX
  8
LAYER_1
 10
82.1616
 20
150.5891
  0
SEQEND
  0
ENDBLK
  0
BLOCK
  8
LAYER_1
  2
AIGNBL010201E1
 70
64
 10
0
 20
0
 30
0
  3
AIGNBL010201E1
  0
POLYLINE
  8
LAYER_1
 40
0.1058
 41
0.1058
 66
1
 10
0
 20
0
 30
0
  0
VERTEX
  8
LAYER_1
 10
82.6207
 20
149.125
  0
VERTEX
  8
LAYER_1
 10
82.6118
 20
149.189
  0
VERTEX
  8
LAYER_1
 10
82.6046
 20
149.241
  0
VERTEX
  8
LAYER_1
 10
82.5991
 20
149.2849
  0
VERTEX
  8
LAYER_1
 10
82.5942
 20
149.3185
  0
VERTEX
  8
LAYER_1
 10
82.5903
 20
149.3457
  0
VERTEX
  8
LAYER_1
 10
82.5863
 20
149.3713
  0
VERTEX
  8
LAYER_1
 10
82.5831
 20
149.3945
  0
VERTEX
  8
LAYER_1
 10
82.5759
 20
149.4344
  0
VERTEX
  8
LAYER_1
 10
82.5687
 20
149.4808
  0
VERTEX
  8
LAYER_1
 10
82.5599
 20
149.5312
  0
VERTEX
  8
LAYER_1
 10
82.5527
 20
149.5632
  0
VERTEX
  8
LAYER_1
 10
82.5471
 20
149.596
  0
VERTEX
  8
LAYER_1
 10
82.5415
 20
149.624
  0
VERTEX
  8
LAYER_1
 10
82.5359
 20
149.6495
  0
VERTEX
  8
LAYER_1
 10
82.5311
 20
149.6735
  0
VERTEX
  8
LAYER_1
 10
82.5255
 20
149.6967
  0
VERTEX
  8
LAYER_1
 10
82.5215
 20
149.7183
  0
VERTEX
  8
LAYER_1
 10
82.5151
 20
149.7423
  0
VERTEX
  8
LAYER_1
 10
82.5079
 20
149.7711
  0
VERTEX
  8
LAYER_1
 10
82.4943
 20
149.8247
  0
VERTEX
  8
LAYER_1
 10
82.4831
 20
149.8687
  0
VERTEX
  8
LAYER_1
 10
82.4735
 20
149.8982
  0
VERTEX
  8
LAYER_1
 10
82.464
 20
149.9326
  0
VERTEX
  8
LAYER_1
 10
82.4495
 20
149.9806
  0
VERTEX
  8
LAYER_1
 10
82.4336
 20
150.0286
  0
VERTEX
  8
LAYER_1
 10
82.4175
 20
150.0734
  0
VERTEX
  8
LAYER_1
 10
82.4016
 20
150.1165
  0
VERTEX
  8
LAYER_1
 10
82.3912
 20
150.1429
  0
VERTEX
  8
LAYER_1
 10
82.3799
 20
150.1701
  0
VERTEX
  8
LAYER_1
 10
82.3672
 20
150.2029
  0
VERTEX
  8
LAYER_1
 10
82.3496
 20
150.242
  0
VERTEX
  8
LAYER_1
 10
82.3272
 20
150.2925
  0
VERTEX
  8
LAYER_1
 10
82.2992
 20
150.3484
  0
VERTEX
  8
LAYER_1
 10
82.2665
 20
150.4132
  0
VERTEX
  8
LAYER_1
 10
82.2321
 20
150.4747
  0
VERTEX
  8
LAYER_1
 10
82.2049
 20
150.5195
  0
SEQEND
  0
ENDBLK
  0
BLOCK
  8
LAYER_1
  2
AIGNBL010201E2
 70
64
 10
0
 20
0
 30
0
  3
AIGNBL010201E2
  0
POLYLINE
  8
LAYER_1
 40
0.1058
 41
0.1058
 66
1
 10
0
 20
0
 30
0
  0
VERTEX
  8
LAYER_1
 10
82.6207
 20
149.125
  0
VERTEX
  8
LAYER_1
 10
82.6207
 20
149.117
  0
VERTEX
  8
LAYER_1
 10
82.6279
 20
148.9875
  0
SEQEND
  0
ENDBLK
  0
BLOCK
  8
LAYER_1
  2
AIGNBL010201E3
 70
64
 10
0
 20
0
 30
0
  3
AIGNBL010201E3
  0
POLYLINE
  8
LAYER_1
 40
0.1058
 41
0.1058
 66
1
 10
0
 20
0
 30
0
  0
VERTEX
  8
LAYER_1
 10
74.6772
 20
144.8503
  0
VERTEX
  8
LAYER_1
 10
74.6813
 20
144.7975
  0
VERTEX
  8
LAYER_1
 10
74.6853
 20
144.7495
  0
VERTEX
  8
LAYER_1
 10
74.69
 20
144.7079
  0
VERTEX
  8
LAYER_1
 10
74.694
 20
144.6736
  0
VERTEX
  8
LAYER_1
 10
74.6996
 20
144.6343
  0
VERTEX
  8
LAYER_1
 10
74.7084
 20
144.584
  0
VERTEX
  8
LAYER_1
 10
74.7156
 20
144.5432
  0
VERTEX
  8
LAYER_1
 10
74.7244
 20
144.5048
  0
VERTEX
  8
LAYER_1
 10
74.7333
 20
144.468
  0
VERTEX
  8
LAYER_1
 10
74.7428
 20
144.4296
  0
VERTEX
  8
LAYER_1
 10
74.7548
 20
144.388
  0
VERTEX
  8
LAYER_1
 10
74.7716
 20
144.3353
  0
VERTEX
  8
LAYER_1
 10
74.7908
 20
144.2849
  0
VERTEX
  8
LAYER_1
 10
74.8076
 20
144.2417
  0
VERTEX
  8
LAYER_1
 10
74.8291
 20
144.1946
  0
VERTEX
  8
LAYER_1
 10
74.8556
 20
144.1434
  0
VERTEX
  8
LAYER_1
 10
74.8779
 20
144.1034
  0
VERTEX
  8
LAYER_1
 10
74.8972
 20
144.0699
  0
VERTEX
  8
LAYER_1
 10
74.9187
 20
144.0362
  0
VERTEX
  8
LAYER_1
 10
74.9419
 20
144.0026
  0
VERTEX
  8
LAYER_1
 10
74.9707
 20
143.965
  0
VERTEX
  8
LAYER_1
 10
75.0051
 20
143.9235
  0
VERTEX
  8
LAYER_1
 10
75.0442
 20
143.8811
  0
VERTEX
  8
LAYER_1
 10
75.085
 20
143.8395
  0
VERTEX
  8
LAYER_1
 10
75.149
 20
143.7796
  0
VERTEX
  8
LAYER_1
 10
75.1746
 20
143.758
  0
SEQEND
  0
ENDBLK
  0
BLOCK
  8
LAYER_1
  2
AIGNBL010201E4
 70
64
 10
0
 20
0
 30
0
  3
AIGNBL010201E4
  0
POLYLINE
  8
LAYER_1
 40
0.1058
 41
0.1058
 66
1
 10
0
 20
0
 30
0
  0
VERTEX
  8
LAYER_1
 10
75.3905
 20
143.5964
  0
VERTEX
  8
LAYER_1
 10
75.4305
 20
143.5724
  0
VERTEX
  8
LAYER_1
 10
75.5688
 20
143.4901
  0
VERTEX
  8
LAYER_1
 10
75.7192
 20
143.4142
  0
SEQEND
  0
ENDBLK
  0
BLOCK
  8
LAYER_1
  2
AIGNBL010201E5
 70
64
 10
0
 20
0
 30
0
  3
AIGNBL010201E5
  0
POLYLINE
  8
LAYER_1
 40
0.1058
 41
0.1058
 66
1
 10
0
 20
0
 30
0
  0
VERTEX
  8
LAYER_1
 10
82.1833
 20
143.6844
  0
VERTEX
  8
LAYER_1
 10
82.1977
 20
143.6932
  0
VERTEX
  8
LAYER_1
 10
82.2128
 20
143.7052
  0
VERTEX
  8
LAYER_1
 10
82.2304
 20
143.718
  0
VERTEX
  8
LAYER_1
 10
82.2592
 20
143.742
  0
VERTEX
  8
LAYER_1
 10
82.2928
 20
143.7692
  0
VERTEX
  8
LAYER_1
 10
82.3256
 20
143.7979
  0
VERTEX
  8
LAYER_1
 10
82.3544
 20
143.8251
  0
VERTEX
  8
LAYER_1
 10
82.3975
 20
143.8683
  0
VERTEX
  8
LAYER_1
 10
82.4343
 20
143.9075
  0
VERTEX
  8
LAYER_1
 10
82.4647
 20
143.9443
  0
VERTEX
  8
LAYER_1
 10
82.4823
 20
143.9642
  0
VERTEX
  8
LAYER_1
 10
82.4983
 20
143.985
  0
VERTEX
  8
LAYER_1
 10
82.5167
 20
144.0122
  0
VERTEX
  8
LAYER_1
 10
82.5383
 20
144.0426
  0
VERTEX
  8
LAYER_1
 10
82.5575
 20
144.0714
  0
VERTEX
  8
LAYER_1
 10
82.5727
 20
144.0978
  0
VERTEX
  8
LAYER_1
 10
82.5863
 20
144.1194
  0
VERTEX
  8
LAYER_1
 10
82.595
 20
144.1378
  0
VERTEX
  8
LAYER_1
 10
82.6063
 20
144.1594
  0
VERTEX
  8
LAYER_1
 10
82.619
 20
144.1865
  0
VERTEX
  8
LAYER_1
 10
82.6366
 20
144.2241
  0
VERTEX
  8
LAYER_1
 10
82.651
 20
144.2609
  0
VERTEX
  8
LAYER_1
 10
82.6655
 20
144.2953
  0
VERTEX
  8
LAYER_1
 10
82.6782
 20
144.3321
  0
VERTEX
  8
LAYER_1
 10
82.691
 20
144.3753
  0
VERTEX
  8
LAYER_1
 10
82.707
 20
144.4233
  0
VERTEX
  8
LAYER_1
 10
82.7214
 20
144.4793
  0
VERTEX
  8
LAYER_1
 10
82.7342
 20
144.5384
  0
VERTEX
  8
LAYER_1
 10
82.743
 20
144.5855
  0
VERTEX
  8
LAYER_1
 10
82.7486
 20
144.6127
  0
VERTEX
  8
LAYER_1
 10
82.7534
 20
144.6431
  0
VERTEX
  8
LAYER_1
 10
82.759
 20
144.6775
  0
VERTEX
  8
LAYER_1
 10
82.7646
 20
144.7215
  0
VERTEX
  8
LAYER_1
 10
82.7702
 20
144.7791
  0
VERTEX
  8
LAYER_1
 10
82.7717
 20
144.8031
  0
SEQEND
  0
ENDBLK
  0
BLOCK
  8
LAYER_1
  2
AIGNBL010201E6
 70
64
 10
0
 20
0
 30
0
  3
AIGNBL010201E6
  0
POLYLINE
  8
LAYER_1
 40
0.1058
 41
0.1058
 66
1
 10
0
 20
0
 30
0
  0
VERTEX
  8
LAYER_1
 10
82.0577
 20
143.5932
  0
VERTEX
  8
LAYER_1
 10
82.1009
 20
143.6229
  0
VERTEX
  8
LAYER_1
 10
82.1065
 20
143.6276
  0
SEQEND
  0
ENDBLK
  0
BLOCK
  8
LAYER_1
  2
AIGNBL010201E7
 70
64
 10
0
 20
0
 30
0
  3
AIGNBL010201E7
  0
POLYLINE
  8
LAYER_1
 40
0.1058
 41
0.1058
 66
1
 10
0
 20
0
 30
0
  0
VERTEX
  8
LAYER_1
 10
82.7742
 20
144.8486
  0
VERTEX
  8
LAYER_1
 10
82.7717
 20
144.807
  0
VERTEX
  8
LAYER_1
 10
82.7598
 20
144.7127
  0
VERTEX
  8
LAYER_1
 10
82.743
 20
144.6184
  0
VERTEX
  8
LAYER_1
 10
82.723
 20
144.5408
  0
VERTEX
  8
LAYER_1
 10
82.6926
 20
144.4649
  0
VERTEX
  8
LAYER_1
 10
82.6782
 20
144.4345
  0
VERTEX
  8
LAYER_1
 10
82.6606
 20
144.4073
  0
VERTEX
  8
LAYER_1
 10
82.6383
 20
144.384
  0
VERTEX
  8
LAYER_1
 10
82.6103
 20
144.3672
  0
SEQEND
  0
ENDBLK
  0
BLOCK
  8
LAYER_1
  2
AIGNBL010201E8
 70
64
 10
0
 20
0
 30
0
  3
AIGNBL010201E8
  0
POLYLINE
  8
LAYER_1
 40
0.1058
 41
0.1058
 66
1
 10
0
 20
0
 30
0
  0
VERTEX
  8
LAYER_1
 10
82.0618
 20
143.5964
  0
VERTEX
  8
LAYER_1
 10
82.1377
 20
143.6476
  0
VERTEX
  8
LAYER_1
 10
82.2504
 20
143.7348
  0
VERTEX
  8
LAYER_1
 10
82.3487
 20
143.8243
  0
VERTEX
  8
LAYER_1
 10
82.4311
 20
143.9155
  0
VERTEX
  8
LAYER_1
 10
82.4951
 20
144.0043
  0
VERTEX
  8
LAYER_1
 10
82.5455
 20
144.0938
  0
VERTEX
  8
LAYER_1
 10
82.5806
 20
144.1842
  0
VERTEX
  8
LAYER_1
 10
82.6031
 20
144.2746
  0
VERTEX
  8
LAYER_1
 10
82.6103
 20
144.3672
  0
SEQEND
  0
ENDBLK
  0
BLOCK
  8
LAYER_1
  2
AIGNBL010201E9
 70
64
 10
0
 20
0
 30
0
  3
AIGNBL010201E9
  0
POLYLINE
  8
LAYER_1
 40
0.1058
 41
0.1058
 66
1
 10
0
 20
0
 30
0
  0
VERTEX
  8
LAYER_1
 10
78.7257
 20
152.1731
  0
VERTEX
  8
LAYER_1
 10
78.5098
 20
152.1684
  0
VERTEX
  8
LAYER_1
 10
78.3043
 20
152.154
  0
VERTEX
  8
LAYER_1
 10
78.1124
 20
152.1316
  0
VERTEX
  8
LAYER_1
 10
77.9309
 20
152.1044
  0
VERTEX
  8
LAYER_1
 10
77.7622
 20
152.0724
  0
VERTEX
  8
LAYER_1
 10
77.6295
 20
152.0452
  0
VERTEX
  8
LAYER_1
 10
77.5063
 20
152.014
  0
VERTEX
  8
LAYER_1
 10
77.3904
 20
151.9836
  0
VERTEX
  8
LAYER_1
 10
77.2832
 20
151.9524
  0
VERTEX
  8
LAYER_1
 10
77.1825
 20
151.9204
  0
VERTEX
  8
LAYER_1
 10
77.0905
 20
151.89
  0
VERTEX
  8
LAYER_1
 10
76.9697
 20
151.8469
  0
VERTEX
  8
LAYER_1
 10
76.8402
 20
151.7949
  0
VERTEX
  8
LAYER_1
 10
76.7003
 20
151.735
  0
VERTEX
  8
LAYER_1
 10
76.5555
 20
151.6645
  0
VERTEX
  8
LAYER_1
 10
76.4012
 20
151.5823
  0
VERTEX
  8
LAYER_1
 10
76.2445
 20
151.4903
  0
VERTEX
  8
LAYER_1
 10
76.083
 20
151.3831
  0
VERTEX
  8
LAYER_1
 10
75.9191
 20
151.2616
  0
VERTEX
  8
LAYER_1
 10
75.7536
 20
151.1224
  0
SEQEND
  0
ENDBLK
  0
BLOCK
  8
LAYER_1
  2
AIGNBL010201EA
 70
64
 10
0
 20
0
 30
0
  3
AIGNBL010201EA
  0
POLYLINE
  8
LAYER_1
 40
0.1058
 41
0.1058
 66
1
 10
0
 20
0
 30
0
  0
VERTEX
  8
LAYER_1
 10
82.5023
 20
149.4936
  0
VERTEX
  8
LAYER_1
 10
82.4855
 20
149.4776
  0
VERTEX
  8
LAYER_1
 10
82.468
 20
149.4465
  0
VERTEX
  8
LAYER_1
 10
82.4504
 20
149.3953
  0
VERTEX
  8
LAYER_1
 10
82.4343
 20
149.3297
  0
VERTEX
  8
LAYER_1
 10
82.4175
 20
149.2473
  0
VERTEX
  8
LAYER_1
 10
82.4016
 20
149.1498
  0
VERTEX
  8
LAYER_1
 10
82.3848
 20
149.0346
  0
VERTEX
  8
LAYER_1
 10
82.3688
 20
148.9059
  0
VERTEX
  8
LAYER_1
 10
82.3528
 20
148.754
  0
VERTEX
  8
LAYER_1
 10
82.3383
 20
148.5844
  0
VERTEX
  8
LAYER_1
 10
82.3224
 20
148.3997
  0
VERTEX
  8
LAYER_1
 10
82.308
 20
148.199
  0
VERTEX
  8
LAYER_1
 10
82.2936
 20
147.9807
  0
VERTEX
  8
LAYER_1
 10
82.2808
 20
147.7497
  0
SEQEND
  0
ENDBLK
  0
BLOCK
  8
LAYER_1
  2
AIGNBL010201EB
 70
64
 10
0
 20
0
 30
0
  3
AIGNBL010201EB
  0
POLYLINE
  8
LAYER_1
 40
0.1058
 41
0.1058
 66
1
 10
0
 20
0
 30
0
  0
VERTEX
  8
LAYER_1
 10
81.6979
 20
151.1241
  0
VERTEX
  8
LAYER_1
 10
81.6595
 20
151.156
  0
VERTEX
  8
LAYER_1
 10
81.6195
 20
151.1896
  0
VERTEX
  8
LAYER_1
 10
81.5787
 20
151.2232
  0
VERTEX
  8
LAYER_1
 10
81.5339
 20
151.2568
  0
VERTEX
  8
LAYER_1
 10
81.4876
 20
151.2912
  0
VERTEX
  8
LAYER_1
 10
81.4404
 20
151.3271
  0
VERTEX
  8
LAYER_1
 10
81.3893
 20
151.3631
  0
VERTEX
  8
LAYER_1
 10
81.3349
 20
151.4007
  0
VERTEX
  8
LAYER_1
 10
81.2749
 20
151.4407
  0
VERTEX
  8
LAYER_1
 10
81.2029
 20
151.4887
  0
VERTEX
  8
LAYER_1
 10
81.1182
 20
151.5398
  0
VERTEX
  8
LAYER_1
 10
81.0214
 20
151.5966
  0
VERTEX
  8
LAYER_1
 10
80.9103
 20
151.6566
  0
VERTEX
  8
LAYER_1
 10
80.7856
 20
151.7189
  0
VERTEX
  8
LAYER_1
 10
80.6472
 20
151.7837
  0
VERTEX
  8
LAYER_1
 10
80.4945
 20
151.8469
  0
VERTEX
  8
LAYER_1
 10
80.3265
 20
151.91
  0
VERTEX
  8
LAYER_1
 10
80.1434
 20
151.9709
  0
VERTEX
  8
LAYER_1
 10
79.9747
 20
152.018
  0
VERTEX
  8
LAYER_1
 10
79.794
 20
152.0628
  0
VERTEX
  8
LAYER_1
 10
79.6037
 20
152.1011
  0
VERTEX
  8
LAYER_1
 10
79.4006
 20
152.1332
  0
VERTEX
  8
LAYER_1
 10
79.1871
 20
152.158
  0
VERTEX
  8
LAYER_1
 10
78.9624
 20
152.1716
  0
VERTEX
  8
LAYER_1
 10
78.7257
 20
152.1731
  0
SEQEND
  0
ENDBLK
  0
BLOCK
  8
LAYER_1
  2
AIGNBL010201EC
 70
64
 10
0
 20
0
 30
0
  3
AIGNBL010201EC
  0
POLYLINE
  8
LAYER_1
 40
0.1058
 41
0.1058
 66
1
 10
0
 20
0
 30
0
  0
VERTEX
  8
LAYER_1
 10
81.6963
 20
151.1241
  0
VERTEX
  8
LAYER_1
 10
81.829
 20
150.9993
  0
VERTEX
  8
LAYER_1
 10
81.973
 20
150.8442
  0
VERTEX
  8
LAYER_1
 10
82.1025
 20
150.6754
  0
VERTEX
  8
LAYER_1
 10
82.1616
 20
150.5891
  0
SEQEND
  0
ENDBLK
  0
BLOCK
  8
LAYER_1
  2
AIGNBL010201ED
 70
64
 10
0
 20
0
 30
0
  3
AIGNBL010201ED
  0
POLYLINE
  8
LAYER_1
 40
0.1058
 41
0.1058
 66
1
 10
0
 20
0
 30
0
  0
VERTEX
  8
LAYER_1
 10
82.2808
 20
147.7497
  0
VERTEX
  8
LAYER_1
 10
82.2696
 20
147.5522
  0
VERTEX
  8
LAYER_1
 10
82.2608
 20
147.3418
  0
VERTEX
  8
LAYER_1
 10
82.252
 20
147.1211
  0
VERTEX
  8
LAYER_1
 10
82.2464
 20
146.9404
  0
VERTEX
  8
LAYER_1
 10
82.2408
 20
146.7533
  0
VERTEX
  8
LAYER_1
 10
82.2344
 20
146.559
  0
SEQEND
  0
ENDBLK
  0
BLOCK
  8
LAYER_1
  2
AIGNBL010201EE
 70
64
 10
0
 20
0
 30
0
  3
AIGNBL010201EE
  0
POLYLINE
  8
LAYER_1
 40
0.1058
 41
0.1058
 66
1
 10
0
 20
0
 30
0
  0
VERTEX
  8
LAYER_1
 10
82.3272
 20
146.0289
  0
VERTEX
  8
LAYER_1
 10
82.3272
 20
146.0313
  0
VERTEX
  8
LAYER_1
 10
82.3216
 20
146.0433
  0
VERTEX
  8
LAYER_1
 10
82.3112
 20
146.0681
  0
VERTEX
  8
LAYER_1
 10
82.3024
 20
146.0896
  0
VERTEX
  8
LAYER_1
 10
82.2952
 20
146.1112
  0
VERTEX
  8
LAYER_1
 10
82.2848
 20
146.1441
  0
VERTEX
  8
LAYER_1
 10
82.2769
 20
146.1712
  0
VERTEX
  8
LAYER_1
 10
82.2696
 20
146.2064
  0
VERTEX
  8
LAYER_1
 10
82.2624
 20
146.2368
  0
VERTEX
  8
LAYER_1
 10
82.2561
 20
146.2671
  0
VERTEX
  8
LAYER_1
 10
82.2529
 20
146.284
  0
VERTEX
  8
LAYER_1
 10
82.2488
 20
146.3072
  0
VERTEX
  8
LAYER_1
 10
82.2464
 20
146.3271
  0
VERTEX
  8
LAYER_1
 10
82.2432
 20
146.3423
  0
VERTEX
  8
LAYER_1
 10
82.2416
 20
146.3559
  0
VERTEX
  8
LAYER_1
 10
82.2408
 20
146.3743
  0
VERTEX
  8
LAYER_1
 10
82.2385
 20
146.3935
  0
VERTEX
  8
LAYER_1
 10
82.236
 20
146.4135
  0
VERTEX
  8
LAYER_1
 10
82.2353
 20
146.4335
  0
VERTEX
  8
LAYER_1
 10
82.2344
 20
146.4607
  0
VERTEX
  8
LAYER_1
 10
82.2336
 20
146.4894
  0
VERTEX
  8
LAYER_1
 10
82.2336
 20
146.5102
  0
SEQEND
  0
ENDBLK
  0
BLOCK
  8
LAYER_1
  2
AIGNBL010201EF
 70
64
 10
0
 20
0
 30
0
  3
AIGNBL010201EF
  0
POLYLINE
  8
LAYER_1
 40
0.1058
 41
0.1058
 66
1
 10
0
 20
0
 30
0
  0
VERTEX
  8
LAYER_1
 10
75.2178
 20
146.5119
  0
VERTEX
  8
LAYER_1
 10
75.2178
 20
146.4911
  0
VERTEX
  8
LAYER_1
 10
75.2178
 20
146.4671
  0
VERTEX
  8
LAYER_1
 10
75.217
 20
146.4423
  0
VERTEX
  8
LAYER_1
 10
75.2154
 20
146.4199
  0
VERTEX
  8
LAYER_1
 10
75.2146
 20
146.4031
  0
VERTEX
  8
LAYER_1
 10
75.2122
 20
146.3855
  0
VERTEX
  8
LAYER_1
 10
75.2106
 20
146.3663
  0
VERTEX
  8
LAYER_1
 10
75.2098
 20
146.3488
  0
VERTEX
  8
LAYER_1
 10
75.2066
 20
146.3359
  0
VERTEX
  8
LAYER_1
 10
75.205
 20
146.3183
  0
VERTEX
  8
LAYER_1
 10
75.201
 20
146.296
  0
VERTEX
  8
LAYER_1
 10
75.1978
 20
146.2752
  0
VERTEX
  8
LAYER_1
 10
75.1946
 20
146.2575
  0
VERTEX
  8
LAYER_1
 10
75.1922
 20
146.2424
  0
VERTEX
  8
LAYER_1
 10
75.1882
 20
146.228
  0
VERTEX
  8
LAYER_1
 10
75.185
 20
146.212
  0
VERTEX
  8
LAYER_1
 10
75.1746
 20
146.1704
  0
VERTEX
  8
LAYER_1
 10
75.165
 20
146.1376
  0
VERTEX
  8
LAYER_1
 10
75.1522
 20
146.0985
  0
VERTEX
  8
LAYER_1
 10
75.1434
 20
146.0736
  0
VERTEX
  8
LAYER_1
 10
75.1306
 20
146.0433
  0
VERTEX
  8
LAYER_1
 10
75.1251
 20
146.032
  0
SEQEND
  0
ENDBLK
  0
BLOCK
  8
LAYER_1
  2
AIGNBL010201F0
 70
64
 10
0
 20
0
 30
0
  3
AIGNBL010201F0
  0
POLYLINE
  8
LAYER_1
 40
0.1058
 41
0.1058
 66
1
 10
0
 20
0
 30
0
  0
VERTEX
  8
LAYER_1
 10
74.8428
 20
144.3672
  0
VERTEX
  8
LAYER_1
 10
74.8508
 20
144.2609
  0
VERTEX
  8
LAYER_1
 10
74.8796
 20
144.1553
  0
VERTEX
  8
LAYER_1
 10
74.9276
 20
144.0514
  0
VERTEX
  8
LAYER_1
 10
74.9947
 20
143.9499
  0
VERTEX
  8
LAYER_1
 10
75.0803
 20
143.8491
  0
VERTEX
  8
LAYER_1
 10
75.1834
 20
143.7516
  0
VERTEX
  8
LAYER_1
 10
75.3041
 20
143.6564
  0
VERTEX
  8
LAYER_1
 10
75.3905
 20
143.5964
  0
SEQEND
  0
ENDBLK
  0
BLOCK
  8
LAYER_1
  2
AIGNBL010201F1
 70
64
 10
0
 20
0
 30
0
  3
AIGNBL010201F1
  0
POLYLINE
  8
LAYER_1
 40
0.1058
 41
0.1058
 66
1
 10
0
 20
0
 30
0
  0
VERTEX
  8
LAYER_1
 10
81.7339
 20
143.4142
  0
VERTEX
  8
LAYER_1
 10
81.8706
 20
143.4837
  0
VERTEX
  8
LAYER_1
 10
82.0106
 20
143.5645
  0
VERTEX
  8
LAYER_1
 10
82.0618
 20
143.5964
  0
SEQEND
  0
ENDBLK
  0
BLOCK
  8
LAYER_1
  2
AIGNBL010201F2
 70
64
 10
0
 20
0
 30
0
  3
AIGNBL010201F2
  0
POLYLINE
  8
LAYER_1
 40
0.1058
 41
0.1058
 66
1
 10
0
 20
0
 30
0
  0
VERTEX
  8
LAYER_1
 10
82.6103
 20
144.3672
  0
VERTEX
  8
LAYER_1
 10
82.6007
 20
144.4728
  0
VERTEX
  8
LAYER_1
 10
82.5719
 20
144.5776
  0
VERTEX
  8
LAYER_1
 10
82.5239
 20
144.6807
  0
VERTEX
  8
LAYER_1
 10
82.4576
 20
144.7847
  0
VERTEX
  8
LAYER_1
 10
82.3712
 20
144.8854
  0
VERTEX
  8
LAYER_1
 10
82.2696
 20
144.983
  0
VERTEX
  8
LAYER_1
 10
82.1481
 20
145.0773
  0
VERTEX
  8
LAYER_1
 10
82.0225
 20
145.1613
  0
VERTEX
  8
LAYER_1
 10
81.8834
 20
145.2421
  0
VERTEX
  8
LAYER_1
 10
81.7307
 20
145.3196
  0
VERTEX
  8
LAYER_1
 10
81.5651
 20
145.3932
  0
VERTEX
  8
LAYER_1
 10
81.3893
 20
145.4612
  0
VERTEX
  8
LAYER_1
 10
81.2013
 20
145.5251
  0
VERTEX
  8
LAYER_1
 10
81.003
 20
145.5851
  0
VERTEX
  8
LAYER_1
 10
80.7951
 20
145.6387
  0
VERTEX
  8
LAYER_1
 10
80.5792
 20
145.6882
  0
VERTEX
  8
LAYER_1
 10
80.3554
 20
145.7314
  0
VERTEX
  8
LAYER_1
 10
80.125
 20
145.7698
  0
VERTEX
  8
LAYER_1
 10
79.8884
 20
145.8018
  0
VERTEX
  8
LAYER_1
 10
79.6613
 20
145.8258
  0
VERTEX
  8
LAYER_1
 10
79.431
 20
145.845
  0
VERTEX
  8
LAYER_1
 10
79.1975
 20
145.8594
  0
VERTEX
  8
LAYER_1
 10
78.9624
 20
145.8674
  0
VERTEX
  8
LAYER_1
 10
78.7257
 20
145.8706
  0
SEQEND
  0
ENDBLK
  0
BLOCK
  8
LAYER_1
  2
AIGNBL010201F3
 70
64
 10
0
 20
0
 30
0
  3
AIGNBL010201F3
  0
POLYLINE
  8
LAYER_1
 40
0.1058
 41
0.1058
 66
1
 10
0
 20
0
 30
0
  0
VERTEX
  8
LAYER_1
 10
82.7742
 20
145.0094
  0
VERTEX
  8
LAYER_1
 10
82.771
 20
145.0749
  0
VERTEX
  8
LAYER_1
 10
82.7654
 20
145.1301
  0
VERTEX
  8
LAYER_1
 10
82.759
 20
145.1741
  0
VERTEX
  8
LAYER_1
 10
82.7534
 20
145.2109
  0
VERTEX
  8
LAYER_1
 10
82.7486
 20
145.2421
  0
VERTEX
  8
LAYER_1
 10
82.743
 20
145.2708
  0
VERTEX
  8
LAYER_1
 10
82.7342
 20
145.314
  0
VERTEX
  8
LAYER_1
 10
82.7238
 20
145.3604
  0
VERTEX
  8
LAYER_1
 10
82.7102
 20
145.4116
  0
VERTEX
  8
LAYER_1
 10
82.6966
 20
145.4563
  0
VERTEX
  8
LAYER_1
 10
82.6838
 20
145.4939
  0
VERTEX
  8
LAYER_1
 10
82.6702
 20
145.5315
  0
VERTEX
  8
LAYER_1
 10
82.6551
 20
145.5683
  0
VERTEX
  8
LAYER_1
 10
82.6415
 20
145.6003
  0
VERTEX
  8
LAYER_1
 10
82.6239
 20
145.6362
  0
VERTEX
  8
LAYER_1
 10
82.6071
 20
145.6706
  0
VERTEX
  8
LAYER_1
 10
82.5927
 20
145.6978
  0
VERTEX
  8
LAYER_1
 10
82.5703
 20
145.7354
  0
VERTEX
  8
LAYER_1
 10
82.5439
 20
145.7778
  0
VERTEX
  8
LAYER_1
 10
82.5143
 20
145.821
  0
VERTEX
  8
LAYER_1
 10
82.4799
 20
145.8649
  0
VERTEX
  8
LAYER_1
 10
82.4423
 20
145.9105
  0
VERTEX
  8
LAYER_1
 10
82.416
 20
145.9409
  0
VERTEX
  8
LAYER_1
 10
82.3871
 20
145.9713
  0
VERTEX
  8
LAYER_1
 10
82.3528
 20
146.0065
  0
VERTEX
  8
LAYER_1
 10
82.308
 20
146.0481
  0
VERTEX
  8
LAYER_1
 10
82.2552
 20
146.0953
  0
VERTEX
  8
LAYER_1
 10
82.1888
 20
146.1488
  0
SEQEND
  0
ENDBLK
  0
BLOCK
  8
LAYER_1
  2
AIGNBL010201F4
 70
64
 10
0
 20
0
 30
0
  3
AIGNBL010201F4
  0
POLYLINE
  8
LAYER_1
 40
0.1058
 41
0.1058
 66
1
 10
0
 20
0
 30
0
  0
VERTEX
  8
LAYER_1
 10
74.8428
 20
144.3672
  0
VERTEX
  8
LAYER_1
 10
74.814
 20
144.384
  0
VERTEX
  8
LAYER_1
 10
74.7916
 20
144.4105
  0
VERTEX
  8
LAYER_1
 10
74.774
 20
144.4377
  0
VERTEX
  8
LAYER_1
 10
74.7588
 20
144.4664
  0
VERTEX
  8
LAYER_1
 10
74.7452
 20
144.4968
  0
VERTEX
  8
LAYER_1
 10
74.7244
 20
144.5568
  0
VERTEX
  8
LAYER_1
 10
74.7084
 20
144.6184
  0
VERTEX
  8
LAYER_1
 10
74.6853
 20
144.7599
  0
VERTEX
  8
LAYER_1
 10
74.6772
 20
144.8503
  0
SEQEND
  0
ENDBLK
  0
BLOCK
  8
LAYER_1
  2
AIGNBL010201F5
 70
64
 10
0
 20
0
 30
0
  3
AIGNBL010201F5
  0
POLYLINE
  8
LAYER_1
 40
0.1058
 41
0.1058
 66
1
 10
0
 20
0
 30
0
  0
VERTEX
  8
LAYER_1
 10
78.7257
 20
145.8706
  0
VERTEX
  8
LAYER_1
 10
78.453
 20
145.8674
  0
VERTEX
  8
LAYER_1
 10
78.182
 20
145.8562
  0
VERTEX
  8
LAYER_1
 10
77.9157
 20
145.8377
  0
VERTEX
  8
LAYER_1
 10
77.6518
 20
145.8114
  0
VERTEX
  8
LAYER_1
 10
77.3927
 20
145.7786
  0
VERTEX
  8
LAYER_1
 10
77.1392
 20
145.7386
  0
VERTEX
  8
LAYER_1
 10
76.8938
 20
145.6922
  0
VERTEX
  8
LAYER_1
 10
76.6763
 20
145.6434
  0
VERTEX
  8
LAYER_1
 10
76.4676
 20
145.5907
  0
VERTEX
  8
LAYER_1
 10
76.2677
 20
145.5315
  0
VERTEX
  8
LAYER_1
 10
76.0806
 20
145.4676
  0
VERTEX
  8
LAYER_1
 10
75.9014
 20
145.3988
  0
VERTEX
  8
LAYER_1
 10
75.7351
 20
145.326
  0
VERTEX
  8
LAYER_1
 10
75.5824
 20
145.2493
  0
VERTEX
  8
LAYER_1
 10
75.4409
 20
145.1701
  0
VERTEX
  8
LAYER_1
 10
75.3145
 20
145.0853
  0
VERTEX
  8
LAYER_1
 10
75.201
 20
144.999
  0
VERTEX
  8
LAYER_1
 10
75.1026
 20
144.9094
  0
VERTEX
  8
LAYER_1
 10
75.0211
 20
144.8174
  0
VERTEX
  8
LAYER_1
 10
74.9579
 20
144.7295
  0
VERTEX
  8
LAYER_1
 10
74.9068
 20
144.6407
  0
VERTEX
  8
LAYER_1
 10
74.8716
 20
144.5496
  0
VERTEX
  8
LAYER_1
 10
74.8492
 20
144.4576
  0
VERTEX
  8
LAYER_1
 10
74.8428
 20
144.3672
  0
SEQEND
  0
ENDBLK
  0
BLOCK
  8
LAYER_1
  2
AIGNBL010201F6
 70
64
 10
0
 20
0
 30
0
  3
AIGNBL010201F6
  0
POLYLINE
  8
LAYER_1
 40
0.1058
 41
0.1058
 66
1
 10
0
 20
0
 30
0
  0
VERTEX
  8
LAYER_1
 10
75.2642
 20
146.1504
  0
VERTEX
  8
LAYER_1
 10
75.1922
 20
146.0912
  0
VERTEX
  8
LAYER_1
 10
75.1314
 20
146.0377
  0
VERTEX
  8
LAYER_1
 10
75.0811
 20
145.9889
  0
VERTEX
  8
LAYER_1
 10
75.041
 20
145.9473
  0
VERTEX
  8
LAYER_1
 10
75.0051
 20
145.9057
  0
VERTEX
  8
LAYER_1
 10
74.9747
 20
145.8681
  0
VERTEX
  8
LAYER_1
 10
74.9515
 20
145.8394
  0
VERTEX
  8
LAYER_1
 10
74.9299
 20
145.809
  0
VERTEX
  8
LAYER_1
 10
74.9083
 20
145.7778
  0
VERTEX
  8
LAYER_1
 10
74.89
 20
145.749
  0
VERTEX
  8
LAYER_1
 10
74.8739
 20
145.7226
  0
VERTEX
  8
LAYER_1
 10
74.8596
 20
145.6963
  0
VERTEX
  8
LAYER_1
 10
74.8484
 20
145.6755
  0
VERTEX
  8
LAYER_1
 10
74.8324
 20
145.6466
  0
VERTEX
  8
LAYER_1
 10
74.818
 20
145.6163
  0
VERTEX
  8
LAYER_1
 10
74.806
 20
145.5891
  0
VERTEX
  8
LAYER_1
 10
74.7948
 20
145.5651
  0
VERTEX
  8
LAYER_1
 10
74.786
 20
145.5427
  0
VERTEX
  8
LAYER_1
 10
74.7732
 20
145.5067
  0
VERTEX
  8
LAYER_1
 10
74.7588
 20
145.4659
  0
VERTEX
  8
LAYER_1
 10
74.7444
 20
145.4179
  0
VERTEX
  8
LAYER_1
 10
74.726
 20
145.3508
  0
VERTEX
  8
LAYER_1
 10
74.7132
 20
145.2924
  0
VERTEX
  8
LAYER_1
 10
74.7012
 20
145.2349
  0
VERTEX
  8
LAYER_1
 10
74.6972
 20
145.206
  0
VERTEX
  8
LAYER_1
 10
74.6925
 20
145.1701
  0
VERTEX
  8
LAYER_1
 10
74.6868
 20
145.1253
  0
VERTEX
  8
LAYER_1
 10
74.6813
 20
145.0726
  0
VERTEX
  8
LAYER_1
 10
74.6772
 20
145.0117
  0
SEQEND
  0
ENDBLK
  0
BLOCK
  8
LAYER_1
  2
AIGNBL010201F7
 70
64
 10
0
 20
0
 30
0
  3
AIGNBL010201F7
  0
POLYLINE
  8
LAYER_1
 40
0.1058
 41
0.1058
 66
1
 10
0
 20
0
 30
0
  0
VERTEX
  8
LAYER_1
 10
75.2538
 20
146.1441
  0
VERTEX
  8
LAYER_1
 10
75.2922
 20
146.1728
  0
VERTEX
  8
LAYER_1
 10
75.2969
 20
146.176
  0
SEQEND
  0
ENDBLK
  0
BLOCK
  8
LAYER_1
  2
AIGNBL010201F8
 70
64
 10
0
 20
0
 30
0
  3
AIGNBL010201F8
  0
POLYLINE
  8
LAYER_1
 40
0.1058
 41
0.1058
 66
1
 10
0
 20
0
 30
0
  0
VERTEX
  8
LAYER_1
 10
81.5972
 20
144.8647
  0
VERTEX
  8
LAYER_1
 10
81.5972
 20
144.879
  0
SEQEND
  0
ENDBLK
  0
BLOCK
  8
LAYER_1
  2
AIGNBL010201F9
 70
64
 10
0
 20
0
 30
0
  3
AIGNBL010201F9
  0
POLYLINE
  8
LAYER_1
 40
0.1058
 41
0.1058
 66
1
 10
0
 20
0
 30
0
  0
VERTEX
  8
LAYER_1
 10
75.8543
 20
144.879
  0
VERTEX
  8
LAYER_1
 10
75.8543
 20
144.8647
  0
SEQEND
  0
ENDBLK
  0
BLOCK
  8
LAYER_1
  2
AIGNBL010201FA
 70
64
 10
0
 20
0
 30
0
  3
AIGNBL010201FA
  0
POLYLINE
  8
LAYER_1
 40
0.1058
 41
0.1058
 66
1
 10
0
 20
0
 30
0
  0
VERTEX
  8
LAYER_1
 10
81.8594
 20
144.3929
 42
0.2010831346
  0
VERTEX
  8
LAYER_1
 10
81.6692
 20
144.8109
 42
0.05842414094
  0
VERTEX
  8
LAYER_1
 10
81.4251
 20
145.0107
 42
0.04423643591
  0
VERTEX
  8
LAYER_1
 10
81.0452
 20
145.2102
 42
0.06598248283
  0
VERTEX
  8
LAYER_1
 10
79.8746
 20
145.524
 42
0.03816102375
  0
VERTEX
  8
LAYER_1
 10
78.7257
 20
145.6083
 42
0.05572066258
  0
VERTEX
  8
LAYER_1
 10
77.1017
 20
145.4324
 42
0.07046139999
  0
VERTEX
  8
LAYER_1
 10
76.0871
 20
145.0481
 42
0.1208322634
  0
VERTEX
  8
LAYER_1
 10
75.6572
 20
144.6379
 42
0.1218792605
  0
VERTEX
  8
LAYER_1
 10
75.5936
 20
144.3929
  0
SEQEND
  0
ENDBLK
  0
BLOCK
  8
LAYER_1
  2
AIGNBL010201FB
 70
64
 10
0
 20
0
 30
0
  3
AIGNBL010201FB
  0
POLYLINE
  8
LAYER_1
 40
0.1058
 41
0.1058
 66
1
 10
0
 20
0
 30
0
  0
VERTEX
  8
LAYER_1
 10
75.5936
 20
144.3929
 42
0.1686657654
  0
VERTEX
  8
LAYER_1
 10
75.7192
 20
144.053
  0
SEQEND
  0
ENDBLK
  0
BLOCK
  8
LAYER_1
  2
AIGNBL010201FC
 70
64
 10
0
 20
0
 30
0
  3
AIGNBL010201FC
  0
POLYLINE
  8
LAYER_1
 40
0.1058
 41
0.1058
 66
1
 10
0
 20
0
 30
0
  0
VERTEX
  8
LAYER_1
 10
81.7339
 20
144.053
 42
0.160893785
  0
VERTEX
  8
LAYER_1
 10
81.8594
 20
144.3929
  0
SEQEND
  0
ENDBLK
  0
BLOCK
  8
LAYER_1
  2
AIGNBL010201FD
 70
64
 10
0
 20
0
 30
0
  3
AIGNBL010201FD
  0
POLYLINE
  8
LAYER_1
 40
0.1058
 41
0.1058
 66
1
 10
0
 20
0
 30
0
  0
VERTEX
  8
LAYER_1
 10
73.3387
 20
138.8547
 42
0.1325080298
  0
VERTEX
  8
LAYER_1
 10
74.2158
 20
141.986
  0
SEQEND
  0
ENDBLK
  0
BLOCK
  8
LAYER_1
  2
AIGNBL010201FE
 70
64
 10
0
 20
0
 30
0
  3
AIGNBL010201FE
  0
POLYLINE
  8
LAYER_1
 40
0.1058
 41
0.1058
 66
1
 10
0
 20
0
 30
0
  0
VERTEX
  8
LAYER_1
 10
83.2372
 20
141.986
 42
0.1321648634
  0
VERTEX
  8
LAYER_1
 10
84.1127
 20
138.8547
  0
SEQEND
  0
ENDBLK
  0
BLOCK
  8
LAYER_1
  2
AIGNBL010201FF
 70
64
 10
0
 20
0
 30
0
  3
AIGNBL010201FF
  0
POLYLINE
  8
LAYER_1
 40
0.1058
 41
0.1058
 66
1
 10
0
 20
0
 30
0
  0
VERTEX
  8
LAYER_1
 10
83.2372
 20
141.986
 42
0.04182630516
  0
VERTEX
  8
LAYER_1
 10
83.1428
 20
142.9855
  0
SEQEND
  0
ENDBLK
  0
BLOCK
  8
LAYER_1
  2
AIGNBL01020200
 70
64
 10
0
 20
0
 30
0
  3
AIGNBL01020200
  0
POLYLINE
  8
LAYER_1
 40
0.1058
 41
0.1058
 66
1
 10
0
 20
0
 30
0
  0
VERTEX
  8
LAYER_1
 10
74.3078
 20
142.9776
 42
0.04223634884
  0
VERTEX
  8
LAYER_1
 10
74.2158
 20
141.986
  0
SEQEND
  0
ENDBLK
  0
BLOCK
  8
LAYER_1
  2
AIGNBL01020201
 70
64
 10
0
 20
0
 30
0
  3
AIGNBL01020201
  0
POLYLINE
  8
LAYER_1
 40
0.1058
 41
0.1058
 66
1
 10
0
 20
0
 30
0
  0
VERTEX
  8
LAYER_1
 10
71.9594
 20
134.8439
 42
0.03217183048
  0
VERTEX
  8
LAYER_1
 10
72.2112
 20
135.8466
  0
SEQEND
  0
ENDBLK
  0
BLOCK
  8
LAYER_1
  2
AIGNBL01020202
 70
64
 10
0
 20
0
 30
0
  3
AIGNBL01020202
  0
POLYLINE
  8
LAYER_1
 40
0.1058
 41
0.1058
 66
1
 10
0
 20
0
 30
0
  0
VERTEX
  8
LAYER_1
 10
85.2418
 20
135.8466
 42
0.03175499452
  0
VERTEX
  8
LAYER_1
 10
85.4921
 20
134.8439
  0
SEQEND
  0
ENDBLK
  0
BLOCK
  8
LAYER_1
  2
AIGNBL01020203
 70
64
 10
0
 20
0
 30
0
  3
AIGNBL01020203
  0
POLYLINE
  8
LAYER_1
 40
0.1058
 41
0.1058
 66
1
 10
0
 20
0
 30
0
  0
VERTEX
  8
LAYER_1
 10
85.2418
 20
135.8466
 42
0.089108418
  0
VERTEX
  8
LAYER_1
 10
84.1127
 20
138.8547
  0
SEQEND
  0
ENDBLK
  0
BLOCK
  8
LAYER_1
  2
AIGNBL01020204
 70
64
 10
0
 20
0
 30
0
  3
AIGNBL01020204
  0
POLYLINE
  8
LAYER_1
 40
0.1058
 41
0.1058
 66
1
 10
0
 20
0
 30
0
  0
VERTEX
  8
LAYER_1
 10
73.3387
 20
138.8547
 42
0.08913286736
  0
VERTEX
  8
LAYER_1
 10
72.2112
 20
135.8466
  0
SEQEND
  0
ENDBLK
  0
BLOCK
  8
LAYER_1
  2
AIGNBL01020205
 70
64
 10
0
 20
0
 30
0
  3
AIGNBL01020205
  0
POLYLINE
  8
LAYER_1
 40
0.1058
 41
0.1058
 66
1
 10
0
 20
0
 30
0
  0
VERTEX
  8
LAYER_1
 10
71.9594
 20
134.8439
 42
0.02829891098
  0
VERTEX
  8
LAYER_1
 10
71.8762
 20
134.516
  0
SEQEND
  0
ENDBLK
  0
BLOCK
  8
LAYER_1
  2
AIGNBL01020206
 70
64
 10
0
 20
0
 30
0
  3
AIGNBL01020206
  0
POLYLINE
  8
LAYER_1
 40
0.1058
 41
0.1058
 66
1
 10
0
 20
0
 30
0
  0
VERTEX
  8
LAYER_1
 10
85.5753
 20
134.516
  0
VERTEX
  8
LAYER_1
 10
85.4921
 20
134.8439
  0
SEQEND
  0
ENDBLK
  0
BLOCK
  8
LAYER_1
  2
AIGNBL01020207
 70
64
 10
0
 20
0
 30
0
  3
AIGNBL01020207
  0
POLYLINE
  8
LAYER_1
 40
0.1058
 41
0.1058
 66
1
 10
0
 20
0
 30
0
  0
VERTEX
  8
LAYER_1
 10
85.329
 20
134.2169
 42
0.4141435843
  0
VERTEX
  8
LAYER_1
 10
85.58
 20
134.468
  0
VERTEX
  8
LAYER_1
 10
85.5753
 20
134.516
  0
SEQEND
  0
ENDBLK
  0
BLOCK
  8
LAYER_1
  2
AIGNBL01020208
 70
64
 10
0
 20
0
 30
0
  3
AIGNBL01020208
  0
POLYLINE
  8
LAYER_1
 40
0.1058
 41
0.1058
 66
1
 10
0
 20
0
 30
0
  0
VERTEX
  8
LAYER_1
 10
71.8762
 20
134.516
 42
0.4135611306
  0
VERTEX
  8
LAYER_1
 10
72.0745
 20
134.2225
  0
VERTEX
  8
LAYER_1
 10
72.1225
 20
134.2169
  0
SEQEND
  0
ENDBLK
  0
BLOCK
  8
LAYER_1
  2
AIGNBL01020209
 70
64
 10
0
 20
0
 30
0
  3
AIGNBL01020209
  0
POLYLINE
  8
LAYER_1
 40
0.1058
 41
0.1058
 66
1
 10
0
 20
0
 30
0
  0
VERTEX
  8
LAYER_1
 10
83.4035
 20
138.9411
  0
VERTEX
  8
LAYER_1
 10
83.4019
 20
139.0339
  0
SEQEND
  0
ENDBLK
  0
BLOCK
  8
LAYER_1
  2
AIGNBL0102020A
 70
64
 10
0
 20
0
 30
0
  3
AIGNBL0102020A
  0
POLYLINE
  8
LAYER_1
 40
0.1058
 41
0.1058
 66
1
 10
0
 20
0
 30
0
  0
VERTEX
  8
LAYER_1
 10
82.6806
 20
148.5581
  0
VERTEX
  8
LAYER_1
 10
82.6207
 20
149.1258
  0
SEQEND
  0
ENDBLK
  0
BLOCK
  8
LAYER_1
  2
AIGNBL0102020B
 70
64
 10
0
 20
0
 30
0
  3
AIGNBL0102020B
  0
POLYLINE
  8
LAYER_1
 40
0.1058
 41
0.1058
 66
1
 10
0
 20
0
 30
0
  0
VERTEX
  8
LAYER_1
 10
74.8324
 20
149.1266
  0
VERTEX
  8
LAYER_1
 10
74.7708
 20
148.5596
  0
SEQEND
  0
ENDBLK
  0
BLOCK
  8
LAYER_1
  2
AIGNBL0102020C
 70
64
 10
0
 20
0
 30
0
  3
AIGNBL0102020C
  0
POLYLINE
  8
LAYER_1
 40
0.1058
 41
0.1058
 66
1
 10
0
 20
0
 30
0
  0
VERTEX
  8
LAYER_1
 10
74.6772
 20
145.0134
  0
VERTEX
  8
LAYER_1
 10
74.6772
 20
144.8503
  0
SEQEND
  0
ENDBLK
  0
BLOCK
  8
LAYER_1
  2
AIGNBL0102020D
 70
64
 10
0
 20
0
 30
0
  3
AIGNBL0102020D
  0
POLYLINE
  8
LAYER_1
 40
0.1058
 41
0.1058
 66
1
 10
0
 20
0
 30
0
  0
VERTEX
  8
LAYER_1
 10
82.7742
 20
144.8486
  0
VERTEX
  8
LAYER_1
 10
82.7742
 20
145.0117
  0
SEQEND
  0
ENDBLK
  0
BLOCK
  8
LAYER_1
  2
AIGNBL0102020E
 70
64
 10
0
 20
0
 30
0
  3
AIGNBL0102020E
  0
POLYLINE
  8
LAYER_1
 40
0.1058
 41
0.1058
 66
1
 10
0
 20
0
 30
0
  0
VERTEX
  8
LAYER_1
 10
74.239
 20
141.986
  0
VERTEX
  8
LAYER_1
 10
74.2158
 20
141.986
  0
SEQEND
  0
ENDBLK
  0
BLOCK
  8
LAYER_1
  2
AIGNBL0102020F
 70
64
 10
0
 20
0
 30
0
  3
AIGNBL0102020F
  0
POLYLINE
  8
LAYER_1
 40
0.1058
 41
0.1058
 66
1
 10
0
 20
0
 30
0
  0
VERTEX
  8
LAYER_1
 10
83.2372
 20
141.986
  0
VERTEX
  8
LAYER_1
 10
83.2132
 20
141.986
  0
SEQEND
  0
ENDBLK
  0
BLOCK
  8
LAYER_1
  2
AIGNBL01020210
 70
64
 10
0
 20
0
 30
0
  3
AIGNBL01020210
  0
POLYLINE
  8
LAYER_1
 40
0.1058
 41
0.1058
 66
1
 10
0
 20
0
 30
0
  0
VERTEX
  8
LAYER_1
 10
83.6578
 20
138.8547
  0
SEQEND
  0
ENDBLK
  0
BLOCK
  8
LAYER_1
  2
AIGNBL01020211
 70
64
 10
0
 20
0
 30
0
  3
AIGNBL01020211
  0
POLYLINE
  8
LAYER_1
 40
0.1058
 41
0.1058
 66
1
 10
0
 20
0
 30
0
  0
VERTEX
  8
LAYER_1
 10
73.7953
 20
138.8547
  0
SEQEND
  0
ENDBLK
  0
BLOCK
  8
LAYER_1
  2
AIGNBL01020212
 70
64
 10
0
 20
0
 30
0
  3
AIGNBL01020212
  0
POLYLINE
  8
LAYER_1
 40
0.1058
 41
0.1058
 66
1
 10
0
 20
0
 30
0
  0
VERTEX
  8
LAYER_1
 10
78.7257
 20
134.2169
  0
VERTEX
  8
LAYER_1
 10
72.1225
 20
134.2169
  0
SEQEND
  0
ENDBLK
  0
BLOCK
  8
LAYER_1
  2
AIGNBL01020213
 70
64
 10
0
 20
0
 30
0
  3
AIGNBL01020213
  0
POLYLINE
  8
LAYER_1
 40
0.1058
 41
0.1058
 66
1
 10
0
 20
0
 30
0
  0
VERTEX
  8
LAYER_1
 10
85.329
 20
134.2169
  0
VERTEX
  8
LAYER_1
 10
78.7257
 20
134.2169
  0
SEQEND
  0
ENDBLK
  0
BLOCK
  8
LAYER_1
  2
AIGNBL01020214
 70
64
 10
0
 20
0
 30
0
  3
AIGNBL01020214
  0
POLYLINE
  8
LAYER_1
 40
0.1058
 41
0.1058
 66
1
 10
0
 20
0
 30
0
  0
VERTEX
  8
LAYER_1
 10
74.0487
 20
138.9411
  0
SEQEND
  0
ENDBLK
  0
BLOCK
  8
LAYER_1
  2
AIGNBL01020215
 70
64
 10
0
 20
0
 30
0
  3
AIGNBL01020215
  0
POLYLINE
  8
LAYER_1
 40
0.1058
 41
0.1058
 66
1
 10
0
 20
0
 30
0
  0
VERTEX
  8
LAYER_1
 10
83.4035
 20
138.9411
  0
SEQEND
  0
ENDBLK
  0
BLOCK
  8
LAYER_1
  2
AIGNBL01020216
 70
64
 10
0
 20
0
 30
0
  3
AIGNBL01020216
  0
POLYLINE
  8
LAYER_1
 40
0.1058
 41
0.1058
 66
1
 10
0
 20
0
 30
0
  0
VERTEX
  8
LAYER_1
 10
82.6806
 20
148.5596
  0
VERTEX
  8
LAYER_1
 10
82.6854
 20
148.4693
  0
SEQEND
  0
ENDBLK
  0
BLOCK
  8
LAYER_1
  2
AIGNBL01020217
 70
64
 10
0
 20
0
 30
0
  3
AIGNBL01020217
  0
POLYLINE
  8
LAYER_1
 40
0.1058
 41
0.1058
 66
1
 10
0
 20
0
 30
0
  0
VERTEX
  8
LAYER_1
 10
74.7676
 20
148.4693
  0
VERTEX
  8
LAYER_1
 10
74.7708
 20
148.5596
  0
SEQEND
  0
ENDBLK
  0
BLOCK
  8
LAYER_1
  2
AIGNBL01020218
 70
64
 10
0
 20
0
 30
0
  3
AIGNBL01020218
  0
POLYLINE
  8
LAYER_1
 40
0.1058
 41
0.1058
 66
1
 10
0
 20
0
 30
0
  0
VERTEX
  8
LAYER_1
 10
75.3665
 20
143.614
  0
VERTEX
  8
LAYER_1
 10
75.3953
 20
143.594
  0
SEQEND
  0
ENDBLK
  0
BLOCK
  8
LAYER_1
  2
AIGNBL01020219
 70
64
 10
0
 20
0
 30
0
  3
AIGNBL01020219
  0
POLYLINE
  8
LAYER_1
 40
0.1058
 41
0.1058
 66
1
 10
0
 20
0
 30
0
  0
VERTEX
  8
LAYER_1
 10
82.7717
 20
144.8119
  0
VERTEX
  8
LAYER_1
 10
82.7742
 20
144.8486
  0
SEQEND
  0
ENDBLK
  0
BLOCK
  8
LAYER_1
  2
AIGNBL0102021A
 70
64
 10
0
 20
0
 30
0
  3
AIGNBL0102021A
  0
POLYLINE
  8
LAYER_1
 40
0.1058
 41
0.1058
 66
1
 10
0
 20
0
 30
0
  0
VERTEX
  8
LAYER_1
 10
82.2336
 20
146.5126
  0
VERTEX
  8
LAYER_1
 10
82.2336
 20
146.5087
  0
SEQEND
  0
ENDBLK
  0
BLOCK
  8
LAYER_1
  2
AIGNBL0102021B
 70
64
 10
0
 20
0
 30
0
  3
AIGNBL0102021B
  0
POLYLINE
  8
LAYER_1
 40
0.1058
 41
0.1058
 66
1
 10
0
 20
0
 30
0
  0
VERTEX
  8
LAYER_1
 10
82.2344
 20
146.559
  0
VERTEX
  8
LAYER_1
 10
82.2336
 20
146.5126
  0
SEQEND
  0
ENDBLK
  0
BLOCK
  8
LAYER_1
  2
AIGNBL0102021C
 70
64
 10
0
 20
0
 30
0
  3
AIGNBL0102021C
  0
POLYLINE
  8
LAYER_1
 40
0.1058
 41
0.1058
 66
1
 10
0
 20
0
 30
0
  0
VERTEX
  8
LAYER_1
 10
82.1544
 20
146.176
  0
VERTEX
  8
LAYER_1
 10
82.2
 20
146.14
  0
SEQEND
  0
ENDBLK
  0
BLOCK
  8
LAYER_1
  2
AIGNBL0102021D
 70
64
 10
0
 20
0
 30
0
  3
AIGNBL0102021D
  0
POLYLINE
  8
LAYER_1
 40
0.1058
 41
0.1058
 66
1
 10
0
 20
0
 30
0
  0
VERTEX
  8
LAYER_1
 10
82.2336
 20
146.5087
  0
VERTEX
  8
LAYER_1
 10
82.2336
 20
146.5055
  0
SEQEND
  0
ENDBLK
  0
BLOCK
  8
LAYER_1
  2
AIGNBL0102021E
 70
64
 10
0
 20
0
 30
0
  3
AIGNBL0102021E
  0
POLYLINE
  8
LAYER_1
 40
0.1058
 41
0.1058
 66
1
 10
0
 20
0
 30
0
  0
VERTEX
  8
LAYER_1
 10
75.2178
 20
146.5102
  0
VERTEX
  8
LAYER_1
 10
75.217
 20
146.559
  0
SEQEND
  0
ENDBLK
  0
BLOCK
  8
LAYER_1
  2
AIGNBL0102021F
 70
64
 10
0
 20
0
 30
0
  3
AIGNBL0102021F
  0
INSERT
  8
LAYER_1
  2
AIGNBL01030220
 10
0
 20
0
 30
0
  0
INSERT
  8
LAYER_1
  2
AIGNBL01030221
 10
0
 20
0
 30
0
  0
INSERT
  8
LAYER_1
  2
AIGNBL01030222
 10
0
 20
0
 30
0
  0
INSERT
  8
LAYER_1
  2
AIGNBL01030223
 10
0
 20
0
 30
0
  0
INSERT
  8
LAYER_1
  2
AIGNBL01030227
 10
0
 20
0
 30
0
  0
INSERT
  8
LAYER_1
  2
AIGNBL0103022B
 10
0
 20
0
 30
0
  0
INSERT
  8
LAYER_1
  2
AIGNBL0103022C
 10
0
 20
0
 30
0
  0
INSERT
  8
LAYER_1
  2
AIGNBL0103022D
 10
0
 20
0
 30
0
  0
INSERT
  8
LAYER_1
  2
AIGNBL0103022E
 10
0
 20
0
 30
0
  0
ENDBLK
  0
BLOCK
  8
LAYER_1
  2
AIGNBL0102022F
 70
64
 10
0
 20
0
 30
0
  3
AIGNBL0102022F
  0
INSERT
  8
LAYER_1
  2
AIGNBL01030230
 10
0
 20
0
 30
0
  0
INSERT
  8
LAYER_1
  2
AIGNBL01030231
 10
0
 20
0
 30
0
  0
INSERT
  8
LAYER_1
  2
AIGNBL01030232
 10
0
 20
0
 30
0
  0
INSERT
  8
LAYER_1
  2
AIGNBL01030233
 10
0
 20
0
 30
0
  0
INSERT
  8
LAYER_1
  2
AIGNBL01030237
 10
0
 20
0
 30
0
  0
INSERT
  8
LAYER_1
  2
AIGNBL0103023B
 10
0
 20
0
 30
0
  0
INSERT
  8
LAYER_1
  2
AIGNBL0103023C
 10
0
 20
0
 30
0
  0
INSERT
  8
LAYER_1
  2
AIGNBL0103023D
 10
0
 20
0
 30
0
  0
INSERT
  8
LAYER_1
  2
AIGNBL0103023E
 10
0
 20
0
 30
0
  0
ENDBLK
  0
BLOCK
  8
LAYER_1
  2
AIGNBL0102023F
 70
64
 10
0
 20
0
 30
0
  3
AIGNBL0102023F
  0
INSERT
  8
LAYER_1
  2
AIGNBL01030240
 10
0
 20
0
 30
0
  0
INSERT
  8
LAYER_1
  2
AIGNBL01030241
 10
0
 20
0
 30
0
  0
INSERT
  8
LAYER_1
  2
AIGNBL01030242
 10
0
 20
0
 30
0
  0
INSERT
  8
LAYER_1
  2
AIGNBL01030243
 10
0
 20
0
 30
0
  0
INSERT
  8
LAYER_1
  2
AIGNBL01030247
 10
0
 20
0
 30
0
  0
INSERT
  8
LAYER_1
  2
AIGNBL0103024B
 10
0
 20
0
 30
0
  0
INSERT
  8
LAYER_1
  2
AIGNBL0103024C
 10
0
 20
0
 30
0
  0
INSERT
  8
LAYER_1
  2
AIGNBL0103024D
 10
0
 20
0
 30
0
  0
INSERT
  8
LAYER_1
  2
AIGNBL0103024E
 10
0
 20
0
 30
0
  0
ENDBLK
  0
BLOCK
  8
LAYER_1
  2
AIGNBL0102024F
 70
64
 10
0
 20
0
 30
0
  3
AIGNBL0102024F
  0
INSERT
  8
LAYER_1
  2
AIGNBL01030250
 10
0
 20
0
 30
0
  0
INSERT
  8
LAYER_1
  2
AIGNBL01030251
 10
0
 20
0
 30
0
  0
INSERT
  8
LAYER_1
  2
AIGNBL01030252
 10
0
 20
0
 30
0
  0
INSERT
  8
LAYER_1
  2
AIGNBL01030253
 10
0
 20
0
 30
0
  0
INSERT
  8
LAYER_1
  2
AIGNBL01030257
 10
0
 20
0
 30
0
  0
INSERT
  8
LAYER_1
  2
AIGNBL0103025B
 10
0
 20
0
 30
0
  0
INSERT
  8
LAYER_1
  2
AIGNBL0103025C
 10
0
 20
0
 30
0
  0
INSERT
  8
LAYER_1
  2
AIGNBL0103025D
 10
0
 20
0
 30
0
  0
INSERT
  8
LAYER_1
  2
AIGNBL0103025E
 10
0
 20
0
 30
0
  0
ENDBLK
  0
BLOCK
  8
LAYER_1
  2
AIGNBL0102025F
 70
64
 10
0
 20
0
 30
0
  3
AIGNBL0102025F
  0
POLYLINE
  8
LAYER_1
 40
0.1058
 41
0.1058
 66
1
 10
0
 20
0
 30
0
  0
VERTEX
  8
LAYER_1
 10
147.3753
 20
134.2169
  0
VERTEX
  8
LAYER_1
 10
147.0842
 20
133.7132
  0
SEQEND
  0
ENDBLK
  0
BLOCK
  8
LAYER_1
  2
AIGNBL01020260
 70
64
 10
0
 20
0
 30
0
  3
AIGNBL01020260
  0
POLYLINE
  8
LAYER_1
 40
0.1058
 41
0.1058
 66
1
 10
0
 20
0
 30
0
  0
VERTEX
  8
LAYER_1
 10
147.0842
 20
132.9648
  0
VERTEX
  8
LAYER_1
 10
147.0842
 20
133.7132
  0
SEQEND
  0
ENDBLK
  0
BLOCK
  8
LAYER_1
  2
AIGNBL01020261
 70
64
 10
0
 20
0
 30
0
  3
AIGNBL01020261
  0
POLYLINE
  8
LAYER_1
 40
0.1058
 41
0.1058
 66
1
 10
0
 20
0
 30
0
  0
VERTEX
  8
LAYER_1
 10
147.0842
 20
131.4606
  0
VERTEX
  8
LAYER_1
 10
147.0842
 20
132.7136
  0
SEQEND
  0
ENDBLK
  0
BLOCK
  8
LAYER_1
  2
AIGNBL01020262
 70
64
 10
0
 20
0
 30
0
  3
AIGNBL01020262
  0
POLYLINE
  8
LAYER_1
 40
0.1058
 41
0.1058
 66
1
 10
0
 20
0
 30
0
  0
VERTEX
  8
LAYER_1
 10
147.0842
 20
130.2124
  0
VERTEX
  8
LAYER_1
 10
147.0842
 20
131.2104
  0
SEQEND
  0
ENDBLK
  0
BLOCK
  8
LAYER_1
  2
AIGNBL01020263
 70
64
 10
0
 20
0
 30
0
  3
AIGNBL01020263
  0
POLYLINE
  8
LAYER_1
 40
0.1058
 41
0.1058
 66
1
 10
0
 20
0
 30
0
  0
VERTEX
  8
LAYER_1
 10
147.0842
 20
128.5748
  0
VERTEX
  8
LAYER_1
 10
147.0842
 20
129.9102
  0
SEQEND
  0
ENDBLK
  0
BLOCK
  8
LAYER_1
  2
AIGNBL01020264
 70
64
 10
0
 20
0
 30
0
  3
AIGNBL01020264
  0
POLYLINE
  8
LAYER_1
 40
0.1058
 41
0.1058
 66
1
 10
0
 20
0
 30
0
  0
VERTEX
  8
LAYER_1
 10
147.0842
 20
122.7864
  0
VERTEX
  8
LAYER_1
 10
147.0842
 20
127.3226
  0
SEQEND
  0
ENDBLK
  0
BLOCK
  8
LAYER_1
  2
AIGNBL01020265
 70
64
 10
0
 20
0
 30
0
  3
AIGNBL01020265
  0
INSERT
  8
LAYER_1
  2
AIGNBL01030266
 10
0
 20
0
 30
0
  0
INSERT
  8
LAYER_1
  2
AIGNBL01030267
 10
0
 20
0
 30
0
  0
INSERT
  8
LAYER_1
  2
AIGNBL01030268
 10
0
 20
0
 30
0
  0
INSERT
  8
LAYER_1
  2
AIGNBL01030269
 10
0
 20
0
 30
0
  0
INSERT
  8
LAYER_1
  2
AIGNBL0103026A
 10
0
 20
0
 30
0
  0
INSERT
  8
LAYER_1
  2
AIGNBL0103026B
 10
0
 20
0
 30
0
  0
INSERT
  8
LAYER_1
  2
AIGNBL0103026C
 10
0
 20
0
 30
0
  0
INSERT
  8
LAYER_1
  2
AIGNBL01030270
 10
0
 20
0
 30
0
  0
INSERT
  8
LAYER_1
  2
AIGNBL01030274
 10
0
 20
0
 30
0
  0
INSERT
  8
LAYER_1
  2
AIGNBL01030275
 10
0
 20
0
 30
0
  0
INSERT
  8
LAYER_1
  2
AIGNBL01030276
 10
0
 20
0
 30
0
  0
INSERT
  8
LAYER_1
  2
AIGNBL01030277
 10
0
 20
0
 30
0
  0
ENDBLK
  0
BLOCK
  8
LAYER_1
  2
AIGNBL01020278
 70
64
 10
0
 20
0
 30
0
  3
AIGNBL01020278
  0
INSERT
  8
LAYER_1
  2
AIGNBL01030279
 10
0
 20
0
 30
0
  0
INSERT
  8
LAYER_1
  2
AIGNBL0103027A
 10
0
 20
0
 30
0
  0
INSERT
  8
LAYER_1
  2
AIGNBL0103027B
 10
0
 20
0
 30
0
  0
INSERT
  8
LAYER_1
  2
AIGNBL0103027F
 10
0
 20
0
 30
0
  0
INSERT
  8
LAYER_1
  2
AIGNBL01030283
 10
0
 20
0
 30
0
  0
INSERT
  8
LAYER_1
  2
AIGNBL01030284
 10
0
 20
0
 30
0
  0
INSERT
  8
LAYER_1
  2
AIGNBL01030285
 10
0
 20
0
 30
0
  0
INSERT
  8
LAYER_1
  2
AIGNBL01030286
 10
0
 20
0
 30
0
  0
ENDBLK
  0
BLOCK
  8
LAYER_1
  2
AIGNBL01020287
 70
64
 10
0
 20
0
 30
0
  3
AIGNBL01020287
  0
INSERT
  8
LAYER_1
  2
AIGNBL01030288
 10
0
 20
0
 30
0
  0
INSERT
  8
LAYER_1
  2
AIGNBL01030289
 10
0
 20
0
 30
0
  0
INSERT
  8
LAYER_1
  2
AIGNBL0103028A
 10
0
 20
0
 30
0
  0
INSERT
  8
LAYER_1
  2
AIGNBL0103028B
 10
0
 20
0
 30
0
  0
INSERT
  8
LAYER_1
  2
AIGNBL0103028C
 10
0
 20
0
 30
0
  0
INSERT
  8
LAYER_1
  2
AIGNBL0103028D
 10
0
 20
0
 30
0
  0
INSERT
  8
LAYER_1
  2
AIGNBL0103028E
 10
0
 20
0
 30
0
  0
INSERT
  8
LAYER_1
  2
AIGNBL01030292
 10
0
 20
0
 30
0
  0
INSERT
  8
LAYER_1
  2
AIGNBL01030296
 10
0
 20
0
 30
0
  0
INSERT
  8
LAYER_1
  2
AIGNBL01030297
 10
0
 20
0
 30
0
  0
INSERT
  8
LAYER_1
  2
AIGNBL01030298
 10
0
 20
0
 30
0
  0
INSERT
  8
LAYER_1
  2
AIGNBL01030299
 10
0
 20
0
 30
0
  0
ENDBLK
  0
BLOCK
  8
LAYER_1
  2
AIGNBL0102029A
 70
64
 10
0
 20
0
 30
0
  3
AIGNBL0102029A
  0
INSERT
  8
LAYER_1
  2
AIGNBL0103029B
 10
0
 20
0
 30
0
  0
INSERT
  8
LAYER_1
  2
AIGNBL0103029C
 10
0
 20
0
 30
0
  0
INSERT
  8
LAYER_1
  2
AIGNBL0103029D
 10
0
 20
0
 30
0
  0
INSERT
  8
LAYER_1
  2
AIGNBL0103029E
 10
0
 20
0
 30
0
  0
INSERT
  8
LAYER_1
  2
AIGNBL0103029F
 10
0
 20
0
 30
0
  0
INSERT
  8
LAYER_1
  2
AIGNBL010302A0
 10
0
 20
0
 30
0
  0
INSERT
  8
LAYER_1
  2
AIGNBL010302A1
 10
0
 20
0
 30
0
  0
INSERT
  8
LAYER_1
  2
AIGNBL010302A5
 10
0
 20
0
 30
0
  0
INSERT
  8
LAYER_1
  2
AIGNBL010302A9
 10
0
 20
0
 30
0
  0
INSERT
  8
LAYER_1
  2
AIGNBL010302AA
 10
0
 20
0
 30
0
  0
INSERT
  8
LAYER_1
  2
AIGNBL010302AB
 10
0
 20
0
 30
0
  0
INSERT
  8
LAYER_1
  2
AIGNBL010302AC
 10
0
 20
0
 30
0
  0
ENDBLK
  0
BLOCK
  8
LAYER_5
  2
AIGNBL05020004
 70
64
 10
0
 20
0
 30
0
  3
AIGNBL05020004
  0
INSERT
  8
LAYER_5
  2
AIGNBL05030005
 10
0
 20
0
 30
0
  0
ENDBLK
  0
BLOCK
  8
LAYER_5
  2
AIGNBL0502000D
 70
64
 10
0
 20
0
 30
0
  3
AIGNBL0502000D
  0
INSERT
  8
LAYER_5
  2
AIGNBL0503000E
 10
0
 20
0
 30
0
  0
INSERT
  8
LAYER_5
  2
AIGNBL0503000F
 10
0
 20
0
 30
0
  0
INSERT
  8
LAYER_5
  2
AIGNBL05030010
 10
0
 20
0
 30
0
  0
INSERT
  8
LAYER_5
  2
AIGNBL05030011
 10
0
 20
0
 30
0
  0
INSERT
  8
LAYER_5
  2
AIGNBL05030012
 10
0
 20
0
 30
0
  0
INSERT
  8
LAYER_5
  2
AIGNBL05030013
 10
0
 20
0
 30
0
  0
INSERT
  8
LAYER_5
  2
AIGNBL05030014
 10
0
 20
0
 30
0
  0
INSERT
  8
LAYER_5
  2
AIGNBL05030015
 10
0
 20
0
 30
0
  0
INSERT
  8
LAYER_5
  2
AIGNBL05030016
 10
0
 20
0
 30
0
  0
INSERT
  8
LAYER_5
  2
AIGNBL05030017
 10
0
 20
0
 30
0
  0
INSERT
  8
LAYER_5
  2
AIGNBL05030018
 10
0
 20
0
 30
0
  0
INSERT
  8
LAYER_5
  2
AIGNBL05030019
 10
0
 20
0
 30
0
  0
INSERT
  8
LAYER_5
  2
AIGNBL0503001A
 10
0
 20
0
 30
0
  0
INSERT
  8
LAYER_5
  2
AIGNBL0503001B
 10
0
 20
0
 30
0
  0
INSERT
  8
LAYER_5
  2
AIGNBL0503001C
 10
0
 20
0
 30
0
  0
INSERT
  8
LAYER_5
  2
AIGNBL0503001D
 10
0
 20
0
 30
0
  0
INSERT
  8
LAYER_5
  2
AIGNBL0503001E
 10
0
 20
0
 30
0
  0
INSERT
  8
LAYER_5
  2
AIGNBL0503001F
 10
0
 20
0
 30
0
  0
INSERT
  8
LAYER_5
  2
AIGNBL05030020
 10
0
 20
0
 30
0
  0
INSERT
  8
LAYER_5
  2
AIGNBL05030021
 10
0
 20
0
 30
0
  0
INSERT
  8
LAYER_5
  2
AIGNBL05030022
 10
0
 20
0
 30
0
  0
INSERT
  8
LAYER_5
  2
AIGNBL05030023
 10
0
 20
0
 30
0
  0
INSERT
  8
LAYER_5
  2
AIGNBL05030024
 10
0
 20
0
 30
0
  0
ENDBLK
  0
BLOCK
  8
LAYER_5
  2
AIGNBL05020026
 70
64
 10
0
 20
0
 30
0
  3
AIGNBL05020026
  0
POLYLINE
  8
LAYER_5
 40
0.1058
 41
0.1058
 66
1
 10
0
 20
0
 30
0
  0
VERTEX
  8
LAYER_5
 10
198.279
 20
85.9441
  0
VERTEX
  8
LAYER_5
 10
190.9775
 20
93.2463
  0
SEQEND
  0
TEXT
  8
LAYER_5
 10
197.2035
 20
81.7094
 11
197.2035
 21
81.7094
 40
4.0084
 41
0.5
 72
1
  1
水栓取り付け穴
  0
TEXT
  8
LAYER_5
 10
197.171
 20
76.9652
 11
197.171
 21
76.9652
 40
4.5696
 41
0.5
 72
1
  1
22-27
  0
CIRCLE
  8
LAYER_5
 10
193.6385
 20
90.666
 40
2.6241
  0
POLYLINE
  8
LAYER_5
 40
0.1058
 41
0.1058
 66
1
 10
0
 20
0
 30
0
  0
VERTEX
  8
LAYER_5
 10
188.2014
 20
90.657
  0
VERTEX
  8
LAYER_5
 10
191.5921
 20
90.6625
  0
SEQEND
  0
POLYLINE
  8
LAYER_5
 40
0.1058
 41
0.1058
 66
1
 10
0
 20
0
 30
0
  0
VERTEX
  8
LAYER_5
 10
192.2639
 20
90.6639
  0
VERTEX
  8
LAYER_5
 10
192.9653
 20
90.6639
  0
SEQEND
  0
POLYLINE
  8
LAYER_5
 40
0.1058
 41
0.1058
 66
1
 10
0
 20
0
 30
0
  0
VERTEX
  8
LAYER_5
 10
193.6385
 20
90.666
  0
VERTEX
  8
LAYER_5
 10
197.0278
 20
90.6708
  0
SEQEND
  0
POLYLINE
  8
LAYER_5
 40
0.1058
 41
0.1058
 66
1
 10
0
 20
0
 30
0
  0
VERTEX
  8
LAYER_5
 10
193.6585
 20
95.7275
  0
VERTEX
  8
LAYER_5
 10
193.646
 20
92.7124
  0
SEQEND
  0
POLYLINE
  8
LAYER_5
 40
0.1058
 41
0.1058
 66
1
 10
0
 20
0
 30
0
  0
VERTEX
  8
LAYER_5
 10
193.644
 20
92.0406
  0
VERTEX
  8
LAYER_5
 10
193.6405
 20
91.3384
  0
SEQEND
  0
POLYLINE
  8
LAYER_5
 40
0.1058
 41
0.1058
 66
1
 10
0
 20
0
 30
0
  0
VERTEX
  8
LAYER_5
 10
193.6385
 20
90.666
  0
VERTEX
  8
LAYER_5
 10
193.6261
 20
87.2753
  0
SEQEND
  0
ENDBLK
  0
BLOCK
  8
LAYER_1
  2
AIGNBL01010002
 70
64
 10
0
 20
0
 30
0
  3
AIGNBL01010002
  0
INSERT
  8
LAYER_1
  2
AIGNBL01020003
 10
0
 20
0
 30
0
  0
INSERT
  8
LAYER_1
  2
AIGNBL01020004
 10
0
 20
0
 30
0
  0
INSERT
  8
LAYER_1
  2
AIGNBL01020005
 10
0
 20
0
 30
0
  0
INSERT
  8
LAYER_1
  2
AIGNBL01020006
 10
0
 20
0
 30
0
  0
INSERT
  8
LAYER_1
  2
AIGNBL01020007
 10
0
 20
0
 30
0
  0
INSERT
  8
LAYER_1
  2
AIGNBL01020008
 10
0
 20
0
 30
0
  0
INSERT
  8
LAYER_1
  2
AIGNBL01020009
 10
0
 20
0
 30
0
  0
INSERT
  8
LAYER_1
  2
AIGNBL0102000A
 10
0
 20
0
 30
0
  0
INSERT
  8
LAYER_1
  2
AIGNBL0102000B
 10
0
 20
0
 30
0
  0
INSERT
  8
LAYER_1
  2
AIGNBL0102000C
 10
0
 20
0
 30
0
  0
INSERT
  8
LAYER_1
  2
AIGNBL0102000D
 10
0
 20
0
 30
0
  0
INSERT
  8
LAYER_1
  2
AIGNBL0102000E
 10
0
 20
0
 30
0
  0
INSERT
  8
LAYER_1
  2
AIGNBL0102000F
 10
0
 20
0
 30
0
  0
INSERT
  8
LAYER_1
  2
AIGNBL01020010
 10
0
 20
0
 30
0
  0
INSERT
  8
LAYER_1
  2
AIGNBL01020011
 10
0
 20
0
 30
0
  0
INSERT
  8
LAYER_1
  2
AIGNBL01020012
 10
0
 20
0
 30
0
  0
INSERT
  8
LAYER_1
  2
AIGNBL01020013
 10
0
 20
0
 30
0
  0
INSERT
  8
LAYER_1
  2
AIGNBL01020014
 10
0
 20
0
 30
0
  0
INSERT
  8
LAYER_1
  2
AIGNBL01020015
 10
0
 20
0
 30
0
  0
INSERT
  8
LAYER_1
  2
AIGNBL01020016
 10
0
 20
0
 30
0
  0
INSERT
  8
LAYER_1
  2
AIGNBL01020017
 10
0
 20
0
 30
0
  0
INSERT
  8
LAYER_1
  2
AIGNBL01020018
 10
0
 20
0
 30
0
  0
INSERT
  8
LAYER_1
  2
AIGNBL01020019
 10
0
 20
0
 30
0
  0
INSERT
  8
LAYER_1
  2
AIGNBL0102001A
 10
0
 20
0
 30
0
  0
INSERT
  8
LAYER_1
  2
AIGNBL0102001B
 10
0
 20
0
 30
0
  0
INSERT
  8
LAYER_1
  2
AIGNBL0102001C
 10
0
 20
0
 30
0
  0
INSERT
  8
LAYER_1
  2
AIGNBL0102001D
 10
0
 20
0
 30
0
  0
INSERT
  8
LAYER_1
  2
AIGNBL0102001E
 10
0
 20
0
 30
0
  0
INSERT
  8
LAYER_1
  2
AIGNBL0102001F
 10
0
 20
0
 30
0
  0
INSERT
  8
LAYER_1
  2
AIGNBL01020021
 10
0
 20
0
 30
0
  0
INSERT
  8
LAYER_1
  2
AIGNBL01020034
 10
0
 20
0
 30
0
  0
INSERT
  8
LAYER_1
  2
AIGNBL01020044
 10
0
 20
0
 30
0
  0
INSERT
  8
LAYER_1
  2
AIGNBL01020045
 10
0
 20
0
 30
0
  0
INSERT
  8
LAYER_1
  2
AIGNBL01020046
 10
0
 20
0
 30
0
  0
INSERT
  8
LAYER_1
  2
AIGNBL01020047
 10
0
 20
0
 30
0
  0
INSERT
  8
LAYER_1
  2
AIGNBL01020048
 10
0
 20
0
 30
0
  0
INSERT
  8
LAYER_1
  2
AIGNBL01020049
 10
0
 20
0
 30
0
  0
INSERT
  8
LAYER_1
  2
AIGNBL0102004A
 10
0
 20
0
 30
0
  0
INSERT
  8
LAYER_1
  2
AIGNBL0102004B
 10
0
 20
0
 30
0
  0
INSERT
  8
LAYER_1
  2
AIGNBL0102004C
 10
0
 20
0
 30
0
  0
INSERT
  8
LAYER_1
  2
AIGNBL0102004D
 10
0
 20
0
 30
0
  0
INSERT
  8
LAYER_1
  2
AIGNBL0102004E
 10
0
 20
0
 30
0
  0
INSERT
  8
LAYER_1
  2
AIGNBL0102004F
 10
0
 20
0
 30
0
  0
INSERT
  8
LAYER_1
  2
AIGNBL01020050
 10
0
 20
0
 30
0
  0
INSERT
  8
LAYER_1
  2
AIGNBL01020051
 10
0
 20
0
 30
0
  0
INSERT
  8
LAYER_1
  2
AIGNBL01020052
 10
0
 20
0
 30
0
  0
INSERT
  8
LAYER_1
  2
AIGNBL01020053
 10
0
 20
0
 30
0
  0
INSERT
  8
LAYER_1
  2
AIGNBL01020054
 10
0
 20
0
 30
0
  0
INSERT
  8
LAYER_1
  2
AIGNBL01020055
 10
0
 20
0
 30
0
  0
INSERT
  8
LAYER_1
  2
AIGNBL01020056
 10
0
 20
0
 30
0
  0
INSERT
  8
LAYER_1
  2
AIGNBL01020057
 10
0
 20
0
 30
0
  0
INSERT
  8
LAYER_1
  2
AIGNBL01020058
 10
0
 20
0
 30
0
  0
INSERT
  8
LAYER_1
  2
AIGNBL01020059
 10
0
 20
0
 30
0
  0
INSERT
  8
LAYER_1
  2
AIGNBL0102005A
 10
0
 20
0
 30
0
  0
INSERT
  8
LAYER_1
  2
AIGNBL0102005B
 10
0
 20
0
 30
0
  0
INSERT
  8
LAYER_1
  2
AIGNBL0102005C
 10
0
 20
0
 30
0
  0
INSERT
  8
LAYER_1
  2
AIGNBL0102005D
 10
0
 20
0
 30
0
  0
INSERT
  8
LAYER_1
  2
AIGNBL0102005E
 10
0
 20
0
 30
0
  0
INSERT
  8
LAYER_1
  2
AIGNBL0102005F
 10
0
 20
0
 30
0
  0
INSERT
  8
LAYER_1
  2
AIGNBL01020060
 10
0
 20
0
 30
0
  0
INSERT
  8
LAYER_1
  2
AIGNBL01020061
 10
0
 20
0
 30
0
  0
INSERT
  8
LAYER_1
  2
AIGNBL01020062
 10
0
 20
0
 30
0
  0
INSERT
  8
LAYER_1
  2
AIGNBL01020063
 10
0
 20
0
 30
0
  0
INSERT
  8
LAYER_1
  2
AIGNBL01020064
 10
0
 20
0
 30
0
  0
INSERT
  8
LAYER_1
  2
AIGNBL01020065
 10
0
 20
0
 30
0
  0
INSERT
  8
LAYER_1
  2
AIGNBL01020066
 10
0
 20
0
 30
0
  0
INSERT
  8
LAYER_1
  2
AIGNBL01020067
 10
0
 20
0
 30
0
  0
INSERT
  8
LAYER_1
  2
AIGNBL01020068
 10
0
 20
0
 30
0
  0
INSERT
  8
LAYER_1
  2
AIGNBL01020069
 10
0
 20
0
 30
0
  0
INSERT
  8
LAYER_1
  2
AIGNBL0102006A
 10
0
 20
0
 30
0
  0
INSERT
  8
LAYER_1
  2
AIGNBL0102006B
 10
0
 20
0
 30
0
  0
INSERT
  8
LAYER_1
  2
AIGNBL0102006C
 10
0
 20
0
 30
0
  0
INSERT
  8
LAYER_1
  2
AIGNBL0102006D
 10
0
 20
0
 30
0
  0
INSERT
  8
LAYER_1
  2
AIGNBL0102006E
 10
0
 20
0
 30
0
  0
INSERT
  8
LAYER_1
  2
AIGNBL0102006F
 10
0
 20
0
 30
0
  0
INSERT
  8
LAYER_1
  2
AIGNBL01020070
 10
0
 20
0
 30
0
  0
INSERT
  8
LAYER_1
  2
AIGNBL01020071
 10
0
 20
0
 30
0
  0
INSERT
  8
LAYER_1
  2
AIGNBL01020072
 10
0
 20
0
 30
0
  0
INSERT
  8
LAYER_1
  2
AIGNBL01020073
 10
0
 20
0
 30
0
  0
INSERT
  8
LAYER_1
  2
AIGNBL01020074
 10
0
 20
0
 30
0
  0
INSERT
  8
LAYER_1
  2
AIGNBL01020075
 10
0
 20
0
 30
0
  0
INSERT
  8
LAYER_1
  2
AIGNBL01020076
 10
0
 20
0
 30
0
  0
INSERT
  8
LAYER_1
  2
AIGNBL01020077
 10
0
 20
0
 30
0
  0
INSERT
  8
LAYER_1
  2
AIGNBL01020078
 10
0
 20
0
 30
0
  0
INSERT
  8
LAYER_1
  2
AIGNBL01020079
 10
0
 20
0
 30
0
  0
INSERT
  8
LAYER_1
  2
AIGNBL0102007A
 10
0
 20
0
 30
0
  0
INSERT
  8
LAYER_1
  2
AIGNBL0102007B
 10
0
 20
0
 30
0
  0
INSERT
  8
LAYER_1
  2
AIGNBL0102007C
 10
0
 20
0
 30
0
  0
INSERT
  8
LAYER_1
  2
AIGNBL0102007D
 10
0
 20
0
 30
0
  0
INSERT
  8
LAYER_1
  2
AIGNBL0102007E
 10
0
 20
0
 30
0
  0
INSERT
  8
LAYER_1
  2
AIGNBL0102007F
 10
0
 20
0
 30
0
  0
INSERT
  8
LAYER_1
  2
AIGNBL01020080
 10
0
 20
0
 30
0
  0
INSERT
  8
LAYER_1
  2
AIGNBL01020081
 10
0
 20
0
 30
0
  0
INSERT
  8
LAYER_1
  2
AIGNBL01020082
 10
0
 20
0
 30
0
  0
INSERT
  8
LAYER_1
  2
AIGNBL01020083
 10
0
 20
0
 30
0
  0
INSERT
  8
LAYER_1
  2
AIGNBL01020084
 10
0
 20
0
 30
0
  0
INSERT
  8
LAYER_1
  2
AIGNBL01020085
 10
0
 20
0
 30
0
  0
INSERT
  8
LAYER_1
  2
AIGNBL01020086
 10
0
 20
0
 30
0
  0
INSERT
  8
LAYER_1
  2
AIGNBL01020087
 10
0
 20
0
 30
0
  0
INSERT
  8
LAYER_1
  2
AIGNBL01020088
 10
0
 20
0
 30
0
  0
INSERT
  8
LAYER_1
  2
AIGNBL01020089
 10
0
 20
0
 30
0
  0
INSERT
  8
LAYER_1
  2
AIGNBL0102008A
 10
0
 20
0
 30
0
  0
INSERT
  8
LAYER_1
  2
AIGNBL0102008B
 10
0
 20
0
 30
0
  0
INSERT
  8
LAYER_1
  2
AIGNBL0102008C
 10
0
 20
0
 30
0
  0
INSERT
  8
LAYER_1
  2
AIGNBL0102008D
 10
0
 20
0
 30
0
  0
INSERT
  8
LAYER_1
  2
AIGNBL0102008E
 10
0
 20
0
 30
0
  0
INSERT
  8
LAYER_1
  2
AIGNBL0102008F
 10
0
 20
0
 30
0
  0
INSERT
  8
LAYER_1
  2
AIGNBL01020090
 10
0
 20
0
 30
0
  0
INSERT
  8
LAYER_1
  2
AIGNBL01020091
 10
0
 20
0
 30
0
  0
INSERT
  8
LAYER_1
  2
AIGNBL01020092
 10
0
 20
0
 30
0
  0
INSERT
  8
LAYER_1
  2
AIGNBL01020093
 10
0
 20
0
 30
0
  0
INSERT
  8
LAYER_1
  2
AIGNBL01020094
 10
0
 20
0
 30
0
  0
INSERT
  8
LAYER_1
  2
AIGNBL01020095
 10
0
 20
0
 30
0
  0
INSERT
  8
LAYER_1
  2
AIGNBL01020096
 10
0
 20
0
 30
0
  0
INSERT
  8
LAYER_1
  2
AIGNBL01020097
 10
0
 20
0
 30
0
  0
INSERT
  8
LAYER_1
  2
AIGNBL01020098
 10
0
 20
0
 30
0
  0
INSERT
  8
LAYER_1
  2
AIGNBL01020099
 10
0
 20
0
 30
0
  0
INSERT
  8
LAYER_1
  2
AIGNBL0102009A
 10
0
 20
0
 30
0
  0
INSERT
  8
LAYER_1
  2
AIGNBL0102009B
 10
0
 20
0
 30
0
  0
INSERT
  8
LAYER_1
  2
AIGNBL0102009C
 10
0
 20
0
 30
0
  0
INSERT
  8
LAYER_1
  2
AIGNBL0102009D
 10
0
 20
0
 30
0
  0
INSERT
  8
LAYER_1
  2
AIGNBL0102009E
 10
0
 20
0
 30
0
  0
INSERT
  8
LAYER_1
  2
AIGNBL0102009F
 10
0
 20
0
 30
0
  0
INSERT
  8
LAYER_1
  2
AIGNBL010200A0
 10
0
 20
0
 30
0
  0
INSERT
  8
LAYER_1
  2
AIGNBL010200A1
 10
0
 20
0
 30
0
  0
INSERT
  8
LAYER_1
  2
AIGNBL010200A2
 10
0
 20
0
 30
0
  0
INSERT
  8
LAYER_1
  2
AIGNBL010200A3
 10
0
 20
0
 30
0
  0
INSERT
  8
LAYER_1
  2
AIGNBL010200A4
 10
0
 20
0
 30
0
  0
INSERT
  8
LAYER_1
  2
AIGNBL010200A5
 10
0
 20
0
 30
0
  0
INSERT
  8
LAYER_1
  2
AIGNBL010200A6
 10
0
 20
0
 30
0
  0
INSERT
  8
LAYER_1
  2
AIGNBL010200A7
 10
0
 20
0
 30
0
  0
INSERT
  8
LAYER_1
  2
AIGNBL010200A8
 10
0
 20
0
 30
0
  0
INSERT
  8
LAYER_1
  2
AIGNBL010200A9
 10
0
 20
0
 30
0
  0
INSERT
  8
LAYER_1
  2
AIGNBL010200AA
 10
0
 20
0
 30
0
  0
INSERT
  8
LAYER_1
  2
AIGNBL010200AB
 10
0
 20
0
 30
0
  0
INSERT
  8
LAYER_1
  2
AIGNBL010200AC
 10
0
 20
0
 30
0
  0
INSERT
  8
LAYER_1
  2
AIGNBL010200AD
 10
0
 20
0
 30
0
  0
INSERT
  8
LAYER_1
  2
AIGNBL010200AE
 10
0
 20
0
 30
0
  0
INSERT
  8
LAYER_1
  2
AIGNBL010200AF
 10
0
 20
0
 30
0
  0
INSERT
  8
LAYER_1
  2
AIGNBL010200B0
 10
0
 20
0
 30
0
  0
INSERT
  8
LAYER_1
  2
AIGNBL010200B1
 10
0
 20
0
 30
0
  0
INSERT
  8
LAYER_1
  2
AIGNBL010200B2
 10
0
 20
0
 30
0
  0
INSERT
  8
LAYER_1
  2
AIGNBL010200B3
 10
0
 20
0
 30
0
  0
INSERT
  8
LAYER_1
  2
AIGNBL010200B4
 10
0
 20
0
 30
0
  0
INSERT
  8
LAYER_1
  2
AIGNBL010200B5
 10
0
 20
0
 30
0
  0
INSERT
  8
LAYER_1
  2
AIGNBL010200B6
 10
0
 20
0
 30
0
  0
INSERT
  8
LAYER_1
  2
AIGNBL010200B7
 10
0
 20
0
 30
0
  0
INSERT
  8
LAYER_1
  2
AIGNBL010200B8
 10
0
 20
0
 30
0
  0
INSERT
  8
LAYER_1
  2
AIGNBL010200B9
 10
0
 20
0
 30
0
  0
INSERT
  8
LAYER_1
  2
AIGNBL010200BA
 10
0
 20
0
 30
0
  0
INSERT
  8
LAYER_1
  2
AIGNBL010200BB
 10
0
 20
0
 30
0
  0
INSERT
  8
LAYER_1
  2
AIGNBL010200BC
 10
0
 20
0
 30
0
  0
INSERT
  8
LAYER_1
  2
AIGNBL010200BD
 10
0
 20
0
 30
0
  0
INSERT
  8
LAYER_1
  2
AIGNBL010200BE
 10
0
 20
0
 30
0
  0
INSERT
  8
LAYER_1
  2
AIGNBL010200BF
 10
0
 20
0
 30
0
  0
INSERT
  8
LAYER_1
  2
AIGNBL010200C0
 10
0
 20
0
 30
0
  0
INSERT
  8
LAYER_1
  2
AIGNBL010200C1
 10
0
 20
0
 30
0
  0
INSERT
  8
LAYER_1
  2
AIGNBL010200C2
 10
0
 20
0
 30
0
  0
INSERT
  8
LAYER_1
  2
AIGNBL010200C3
 10
0
 20
0
 30
0
  0
INSERT
  8
LAYER_1
  2
AIGNBL010200C4
 10
0
 20
0
 30
0
  0
INSERT
  8
LAYER_1
  2
AIGNBL010200C5
 10
0
 20
0
 30
0
  0
INSERT
  8
LAYER_1
  2
AIGNBL010200C6
 10
0
 20
0
 30
0
  0
INSERT
  8
LAYER_1
  2
AIGNBL010200C7
 10
0
 20
0
 30
0
  0
INSERT
  8
LAYER_1
  2
AIGNBL010200C8
 10
0
 20
0
 30
0
  0
INSERT
  8
LAYER_1
  2
AIGNBL010200C9
 10
0
 20
0
 30
0
  0
INSERT
  8
LAYER_1
  2
AIGNBL010200CA
 10
0
 20
0
 30
0
  0
INSERT
  8
LAYER_1
  2
AIGNBL010200CB
 10
0
 20
0
 30
0
  0
INSERT
  8
LAYER_1
  2
AIGNBL010200CC
 10
0
 20
0
 30
0
  0
INSERT
  8
LAYER_1
  2
AIGNBL010200CD
 10
0
 20
0
 30
0
  0
INSERT
  8
LAYER_1
  2
AIGNBL010200CE
 10
0
 20
0
 30
0
  0
INSERT
  8
LAYER_1
  2
AIGNBL010200CF
 10
0
 20
0
 30
0
  0
INSERT
  8
LAYER_1
  2
AIGNBL010200D0
 10
0
 20
0
 30
0
  0
INSERT
  8
LAYER_1
  2
AIGNBL010200D1
 10
0
 20
0
 30
0
  0
INSERT
  8
LAYER_1
  2
AIGNBL010200D2
 10
0
 20
0
 30
0
  0
INSERT
  8
LAYER_1
  2
AIGNBL010200D3
 10
0
 20
0
 30
0
  0
INSERT
  8
LAYER_1
  2
AIGNBL010200D4
 10
0
 20
0
 30
0
  0
INSERT
  8
LAYER_1
  2
AIGNBL010200D5
 10
0
 20
0
 30
0
  0
INSERT
  8
LAYER_1
  2
AIGNBL010200D6
 10
0
 20
0
 30
0
  0
INSERT
  8
LAYER_1
  2
AIGNBL010200D7
 10
0
 20
0
 30
0
  0
INSERT
  8
LAYER_1
  2
AIGNBL010200D8
 10
0
 20
0
 30
0
  0
INSERT
  8
LAYER_1
  2
AIGNBL010200D9
 10
0
 20
0
 30
0
  0
INSERT
  8
LAYER_1
  2
AIGNBL010200DA
 10
0
 20
0
 30
0
  0
INSERT
  8
LAYER_1
  2
AIGNBL010200DB
 10
0
 20
0
 30
0
  0
INSERT
  8
LAYER_1
  2
AIGNBL010200DC
 10
0
 20
0
 30
0
  0
INSERT
  8
LAYER_1
  2
AIGNBL010200DD
 10
0
 20
0
 30
0
  0
INSERT
  8
LAYER_1
  2
AIGNBL010200DE
 10
0
 20
0
 30
0
  0
INSERT
  8
LAYER_1
  2
AIGNBL010200DF
 10
0
 20
0
 30
0
  0
INSERT
  8
LAYER_1
  2
AIGNBL010200E0
 10
0
 20
0
 30
0
  0
INSERT
  8
LAYER_1
  2
AIGNBL010200E1
 10
0
 20
0
 30
0
  0
INSERT
  8
LAYER_1
  2
AIGNBL010200E2
 10
0
 20
0
 30
0
  0
INSERT
  8
LAYER_1
  2
AIGNBL010200E3
 10
0
 20
0
 30
0
  0
INSERT
  8
LAYER_1
  2
AIGNBL010200E4
 10
0
 20
0
 30
0
  0
INSERT
  8
LAYER_1
  2
AIGNBL010200E5
 10
0
 20
0
 30
0
  0
INSERT
  8
LAYER_1
  2
AIGNBL010200E6
 10
0
 20
0
 30
0
  0
INSERT
  8
LAYER_1
  2
AIGNBL010200E7
 10
0
 20
0
 30
0
  0
INSERT
  8
LAYER_1
  2
AIGNBL010200E8
 10
0
 20
0
 30
0
  0
INSERT
  8
LAYER_1
  2
AIGNBL010200E9
 10
0
 20
0
 30
0
  0
INSERT
  8
LAYER_1
  2
AIGNBL010200EA
 10
0
 20
0
 30
0
  0
INSERT
  8
LAYER_1
  2
AIGNBL010200EB
 10
0
 20
0
 30
0
  0
INSERT
  8
LAYER_1
  2
AIGNBL010200EC
 10
0
 20
0
 30
0
  0
INSERT
  8
LAYER_1
  2
AIGNBL010200ED
 10
0
 20
0
 30
0
  0
INSERT
  8
LAYER_1
  2
AIGNBL010200EE
 10
0
 20
0
 30
0
  0
INSERT
  8
LAYER_1
  2
AIGNBL010200EF
 10
0
 20
0
 30
0
  0
INSERT
  8
LAYER_1
  2
AIGNBL010200F0
 10
0
 20
0
 30
0
  0
INSERT
  8
LAYER_1
  2
AIGNBL010200F1
 10
0
 20
0
 30
0
  0
INSERT
  8
LAYER_1
  2
AIGNBL010200F2
 10
0
 20
0
 30
0
  0
INSERT
  8
LAYER_1
  2
AIGNBL010200F3
 10
0
 20
0
 30
0
  0
INSERT
  8
LAYER_1
  2
AIGNBL010200F4
 10
0
 20
0
 30
0
  0
INSERT
  8
LAYER_1
  2
AIGNBL010200F5
 10
0
 20
0
 30
0
  0
INSERT
  8
LAYER_1
  2
AIGNBL010200F6
 10
0
 20
0
 30
0
  0
INSERT
  8
LAYER_1
  2
AIGNBL010200F7
 10
0
 20
0
 30
0
  0
INSERT
  8
LAYER_1
  2
AIGNBL010200F8
 10
0
 20
0
 30
0
  0
INSERT
  8
LAYER_1
  2
AIGNBL010200F9
 10
0
 20
0
 30
0
  0
INSERT
  8
LAYER_1
  2
AIGNBL010200FA
 10
0
 20
0
 30
0
  0
INSERT
  8
LAYER_1
  2
AIGNBL010200FB
 10
0
 20
0
 30
0
  0
INSERT
  8
LAYER_1
  2
AIGNBL010200FC
 10
0
 20
0
 30
0
  0
INSERT
  8
LAYER_1
  2
AIGNBL010200FD
 10
0
 20
0
 30
0
  0
INSERT
  8
LAYER_1
  2
AIGNBL010200FE
 10
0
 20
0
 30
0
  0
INSERT
  8
LAYER_1
  2
AIGNBL010200FF
 10
0
 20
0
 30
0
  0
INSERT
  8
LAYER_1
  2
AIGNBL01020100
 10
0
 20
0
 30
0
  0
INSERT
  8
LAYER_1
  2
AIGNBL01020101
 10
0
 20
0
 30
0
  0
INSERT
  8
LAYER_1
  2
AIGNBL01020102
 10
0
 20
0
 30
0
  0
INSERT
  8
LAYER_1
  2
AIGNBL01020103
 10
0
 20
0
 30
0
  0
INSERT
  8
LAYER_1
  2
AIGNBL01020104
 10
0
 20
0
 30
0
  0
INSERT
  8
LAYER_1
  2
AIGNBL01020105
 10
0
 20
0
 30
0
  0
INSERT
  8
LAYER_1
  2
AIGNBL01020106
 10
0
 20
0
 30
0
  0
INSERT
  8
LAYER_1
  2
AIGNBL01020107
 10
0
 20
0
 30
0
  0
INSERT
  8
LAYER_1
  2
AIGNBL01020108
 10
0
 20
0
 30
0
  0
INSERT
  8
LAYER_1
  2
AIGNBL01020109
 10
0
 20
0
 30
0
  0
INSERT
  8
LAYER_1
  2
AIGNBL0102010A
 10
0
 20
0
 30
0
  0
INSERT
  8
LAYER_1
  2
AIGNBL0102010B
 10
0
 20
0
 30
0
  0
INSERT
  8
LAYER_1
  2
AIGNBL0102010C
 10
0
 20
0
 30
0
  0
INSERT
  8
LAYER_1
  2
AIGNBL0102010D
 10
0
 20
0
 30
0
  0
INSERT
  8
LAYER_1
  2
AIGNBL0102010E
 10
0
 20
0
 30
0
  0
INSERT
  8
LAYER_1
  2
AIGNBL0102010F
 10
0
 20
0
 30
0
  0
INSERT
  8
LAYER_1
  2
AIGNBL01020110
 10
0
 20
0
 30
0
  0
INSERT
  8
LAYER_1
  2
AIGNBL01020111
 10
0
 20
0
 30
0
  0
INSERT
  8
LAYER_1
  2
AIGNBL01020112
 10
0
 20
0
 30
0
  0
INSERT
  8
LAYER_1
  2
AIGNBL01020113
 10
0
 20
0
 30
0
  0
INSERT
  8
LAYER_1
  2
AIGNBL01020114
 10
0
 20
0
 30
0
  0
INSERT
  8
LAYER_1
  2
AIGNBL01020115
 10
0
 20
0
 30
0
  0
INSERT
  8
LAYER_1
  2
AIGNBL01020116
 10
0
 20
0
 30
0
  0
INSERT
  8
LAYER_1
  2
AIGNBL01020117
 10
0
 20
0
 30
0
  0
INSERT
  8
LAYER_1
  2
AIGNBL01020118
 10
0
 20
0
 30
0
  0
INSERT
  8
LAYER_1
  2
AIGNBL01020119
 10
0
 20
0
 30
0
  0
INSERT
  8
LAYER_1
  2
AIGNBL0102011A
 10
0
 20
0
 30
0
  0
INSERT
  8
LAYER_1
  2
AIGNBL0102011B
 10
0
 20
0
 30
0
  0
INSERT
  8
LAYER_1
  2
AIGNBL0102011C
 10
0
 20
0
 30
0
  0
INSERT
  8
LAYER_1
  2
AIGNBL0102011D
 10
0
 20
0
 30
0
  0
INSERT
  8
LAYER_1
  2
AIGNBL0102011E
 10
0
 20
0
 30
0
  0
INSERT
  8
LAYER_1
  2
AIGNBL0102011F
 10
0
 20
0
 30
0
  0
INSERT
  8
LAYER_1
  2
AIGNBL01020120
 10
0
 20
0
 30
0
  0
INSERT
  8
LAYER_1
  2
AIGNBL01020121
 10
0
 20
0
 30
0
  0
INSERT
  8
LAYER_1
  2
AIGNBL01020122
 10
0
 20
0
 30
0
  0
INSERT
  8
LAYER_1
  2
AIGNBL01020123
 10
0
 20
0
 30
0
  0
INSERT
  8
LAYER_1
  2
AIGNBL01020124
 10
0
 20
0
 30
0
  0
INSERT
  8
LAYER_1
  2
AIGNBL01020125
 10
0
 20
0
 30
0
  0
INSERT
  8
LAYER_1
  2
AIGNBL01020126
 10
0
 20
0
 30
0
  0
INSERT
  8
LAYER_1
  2
AIGNBL01020127
 10
0
 20
0
 30
0
  0
INSERT
  8
LAYER_1
  2
AIGNBL01020128
 10
0
 20
0
 30
0
  0
INSERT
  8
LAYER_1
  2
AIGNBL01020129
 10
0
 20
0
 30
0
  0
INSERT
  8
LAYER_1
  2
AIGNBL0102012A
 10
0
 20
0
 30
0
  0
INSERT
  8
LAYER_1
  2
AIGNBL0102012B
 10
0
 20
0
 30
0
  0
INSERT
  8
LAYER_1
  2
AIGNBL0102012C
 10
0
 20
0
 30
0
  0
INSERT
  8
LAYER_1
  2
AIGNBL0102012D
 10
0
 20
0
 30
0
  0
INSERT
  8
LAYER_1
  2
AIGNBL0102012E
 10
0
 20
0
 30
0
  0
INSERT
  8
LAYER_1
  2
AIGNBL0102012F
 10
0
 20
0
 30
0
  0
INSERT
  8
LAYER_1
  2
AIGNBL01020130
 10
0
 20
0
 30
0
  0
INSERT
  8
LAYER_1
  2
AIGNBL01020131
 10
0
 20
0
 30
0
  0
INSERT
  8
LAYER_1
  2
AIGNBL01020132
 10
0
 20
0
 30
0
  0
INSERT
  8
LAYER_1
  2
AIGNBL01020133
 10
0
 20
0
 30
0
  0
INSERT
  8
LAYER_1
  2
AIGNBL01020134
 10
0
 20
0
 30
0
  0
INSERT
  8
LAYER_1
  2
AIGNBL01020135
 10
0
 20
0
 30
0
  0
INSERT
  8
LAYER_1
  2
AIGNBL01020136
 10
0
 20
0
 30
0
  0
INSERT
  8
LAYER_1
  2
AIGNBL01020137
 10
0
 20
0
 30
0
  0
INSERT
  8
LAYER_1
  2
AIGNBL01020138
 10
0
 20
0
 30
0
  0
INSERT
  8
LAYER_1
  2
AIGNBL01020139
 10
0
 20
0
 30
0
  0
INSERT
  8
LAYER_1
  2
AIGNBL0102013A
 10
0
 20
0
 30
0
  0
INSERT
  8
LAYER_1
  2
AIGNBL0102013B
 10
0
 20
0
 30
0
  0
INSERT
  8
LAYER_1
  2
AIGNBL0102013C
 10
0
 20
0
 30
0
  0
INSERT
  8
LAYER_1
  2
AIGNBL0102013D
 10
0
 20
0
 30
0
  0
INSERT
  8
LAYER_1
  2
AIGNBL0102013E
 10
0
 20
0
 30
0
  0
INSERT
  8
LAYER_1
  2
AIGNBL0102013F
 10
0
 20
0
 30
0
  0
INSERT
  8
LAYER_1
  2
AIGNBL01020140
 10
0
 20
0
 30
0
  0
INSERT
  8
LAYER_1
  2
AIGNBL01020141
 10
0
 20
0
 30
0
  0
INSERT
  8
LAYER_1
  2
AIGNBL01020142
 10
0
 20
0
 30
0
  0
INSERT
  8
LAYER_1
  2
AIGNBL01020143
 10
0
 20
0
 30
0
  0
INSERT
  8
LAYER_1
  2
AIGNBL01020144
 10
0
 20
0
 30
0
  0
INSERT
  8
LAYER_1
  2
AIGNBL01020145
 10
0
 20
0
 30
0
  0
INSERT
  8
LAYER_1
  2
AIGNBL01020146
 10
0
 20
0
 30
0
  0
INSERT
  8
LAYER_1
  2
AIGNBL01020147
 10
0
 20
0
 30
0
  0
INSERT
  8
LAYER_1
  2
AIGNBL01020148
 10
0
 20
0
 30
0
  0
INSERT
  8
LAYER_1
  2
AIGNBL01020149
 10
0
 20
0
 30
0
  0
INSERT
  8
LAYER_1
  2
AIGNBL0102014A
 10
0
 20
0
 30
0
  0
INSERT
  8
LAYER_1
  2
AIGNBL0102014B
 10
0
 20
0
 30
0
  0
INSERT
  8
LAYER_1
  2
AIGNBL0102014C
 10
0
 20
0
 30
0
  0
INSERT
  8
LAYER_1
  2
AIGNBL0102014D
 10
0
 20
0
 30
0
  0
INSERT
  8
LAYER_1
  2
AIGNBL0102014E
 10
0
 20
0
 30
0
  0
INSERT
  8
LAYER_1
  2
AIGNBL0102014F
 10
0
 20
0
 30
0
  0
INSERT
  8
LAYER_1
  2
AIGNBL01020150
 10
0
 20
0
 30
0
  0
INSERT
  8
LAYER_1
  2
AIGNBL01020151
 10
0
 20
0
 30
0
  0
INSERT
  8
LAYER_1
  2
AIGNBL01020152
 10
0
 20
0
 30
0
  0
INSERT
  8
LAYER_1
  2
AIGNBL01020153
 10
0
 20
0
 30
0
  0
INSERT
  8
LAYER_1
  2
AIGNBL01020154
 10
0
 20
0
 30
0
  0
INSERT
  8
LAYER_1
  2
AIGNBL01020155
 10
0
 20
0
 30
0
  0
INSERT
  8
LAYER_1
  2
AIGNBL01020156
 10
0
 20
0
 30
0
  0
INSERT
  8
LAYER_1
  2
AIGNBL01020157
 10
0
 20
0
 30
0
  0
INSERT
  8
LAYER_1
  2
AIGNBL01020158
 10
0
 20
0
 30
0
  0
INSERT
  8
LAYER_1
  2
AIGNBL01020159
 10
0
 20
0
 30
0
  0
INSERT
  8
LAYER_1
  2
AIGNBL0102015A
 10
0
 20
0
 30
0
  0
INSERT
  8
LAYER_1
  2
AIGNBL0102015B
 10
0
 20
0
 30
0
  0
INSERT
  8
LAYER_1
  2
AIGNBL0102015C
 10
0
 20
0
 30
0
  0
INSERT
  8
LAYER_1
  2
AIGNBL0102015D
 10
0
 20
0
 30
0
  0
INSERT
  8
LAYER_1
  2
AIGNBL0102015E
 10
0
 20
0
 30
0
  0
INSERT
  8
LAYER_1
  2
AIGNBL0102015F
 10
0
 20
0
 30
0
  0
INSERT
  8
LAYER_1
  2
AIGNBL01020160
 10
0
 20
0
 30
0
  0
INSERT
  8
LAYER_1
  2
AIGNBL01020161
 10
0
 20
0
 30
0
  0
INSERT
  8
LAYER_1
  2
AIGNBL01020162
 10
0
 20
0
 30
0
  0
INSERT
  8
LAYER_1
  2
AIGNBL01020163
 10
0
 20
0
 30
0
  0
INSERT
  8
LAYER_1
  2
AIGNBL01020164
 10
0
 20
0
 30
0
  0
INSERT
  8
LAYER_1
  2
AIGNBL01020165
 10
0
 20
0
 30
0
  0
INSERT
  8
LAYER_1
  2
AIGNBL01020166
 10
0
 20
0
 30
0
  0
INSERT
  8
LAYER_1
  2
AIGNBL01020167
 10
0
 20
0
 30
0
  0
INSERT
  8
LAYER_1
  2
AIGNBL01020168
 10
0
 20
0
 30
0
  0
INSERT
  8
LAYER_1
  2
AIGNBL01020169
 10
0
 20
0
 30
0
  0
INSERT
  8
LAYER_1
  2
AIGNBL0102016A
 10
0
 20
0
 30
0
  0
INSERT
  8
LAYER_1
  2
AIGNBL0102016B
 10
0
 20
0
 30
0
  0
INSERT
  8
LAYER_1
  2
AIGNBL0102016C
 10
0
 20
0
 30
0
  0
INSERT
  8
LAYER_1
  2
AIGNBL0102016D
 10
0
 20
0
 30
0
  0
INSERT
  8
LAYER_1
  2
AIGNBL0102016E
 10
0
 20
0
 30
0
  0
INSERT
  8
LAYER_1
  2
AIGNBL0102016F
 10
0
 20
0
 30
0
  0
INSERT
  8
LAYER_1
  2
AIGNBL01020170
 10
0
 20
0
 30
0
  0
INSERT
  8
LAYER_1
  2
AIGNBL01020171
 10
0
 20
0
 30
0
  0
INSERT
  8
LAYER_1
  2
AIGNBL01020172
 10
0
 20
0
 30
0
  0
INSERT
  8
LAYER_1
  2
AIGNBL01020173
 10
0
 20
0
 30
0
  0
INSERT
  8
LAYER_1
  2
AIGNBL01020174
 10
0
 20
0
 30
0
  0
INSERT
  8
LAYER_1
  2
AIGNBL01020175
 10
0
 20
0
 30
0
  0
INSERT
  8
LAYER_1
  2
AIGNBL01020176
 10
0
 20
0
 30
0
  0
INSERT
  8
LAYER_1
  2
AIGNBL01020177
 10
0
 20
0
 30
0
  0
INSERT
  8
LAYER_1
  2
AIGNBL01020178
 10
0
 20
0
 30
0
  0
INSERT
  8
LAYER_1
  2
AIGNBL01020179
 10
0
 20
0
 30
0
  0
INSERT
  8
LAYER_1
  2
AIGNBL0102017A
 10
0
 20
0
 30
0
  0
INSERT
  8
LAYER_1
  2
AIGNBL0102017B
 10
0
 20
0
 30
0
  0
INSERT
  8
LAYER_1
  2
AIGNBL0102017C
 10
0
 20
0
 30
0
  0
INSERT
  8
LAYER_1
  2
AIGNBL0102017D
 10
0
 20
0
 30
0
  0
INSERT
  8
LAYER_1
  2
AIGNBL0102017E
 10
0
 20
0
 30
0
  0
INSERT
  8
LAYER_1
  2
AIGNBL0102017F
 10
0
 20
0
 30
0
  0
INSERT
  8
LAYER_1
  2
AIGNBL01020180
 10
0
 20
0
 30
0
  0
INSERT
  8
LAYER_1
  2
AIGNBL01020181
 10
0
 20
0
 30
0
  0
INSERT
  8
LAYER_1
  2
AIGNBL01020182
 10
0
 20
0
 30
0
  0
INSERT
  8
LAYER_1
  2
AIGNBL01020183
 10
0
 20
0
 30
0
  0
INSERT
  8
LAYER_1
  2
AIGNBL01020184
 10
0
 20
0
 30
0
  0
INSERT
  8
LAYER_1
  2
AIGNBL01020185
 10
0
 20
0
 30
0
  0
INSERT
  8
LAYER_1
  2
AIGNBL01020186
 10
0
 20
0
 30
0
  0
INSERT
  8
LAYER_1
  2
AIGNBL01020187
 10
0
 20
0
 30
0
  0
INSERT
  8
LAYER_1
  2
AIGNBL01020188
 10
0
 20
0
 30
0
  0
INSERT
  8
LAYER_1
  2
AIGNBL01020189
 10
0
 20
0
 30
0
  0
INSERT
  8
LAYER_1
  2
AIGNBL0102018A
 10
0
 20
0
 30
0
  0
INSERT
  8
LAYER_1
  2
AIGNBL0102018B
 10
0
 20
0
 30
0
  0
INSERT
  8
LAYER_1
  2
AIGNBL0102018C
 10
0
 20
0
 30
0
  0
INSERT
  8
LAYER_1
  2
AIGNBL0102018D
 10
0
 20
0
 30
0
  0
INSERT
  8
LAYER_1
  2
AIGNBL0102018E
 10
0
 20
0
 30
0
  0
INSERT
  8
LAYER_1
  2
AIGNBL0102018F
 10
0
 20
0
 30
0
  0
INSERT
  8
LAYER_1
  2
AIGNBL01020190
 10
0
 20
0
 30
0
  0
INSERT
  8
LAYER_1
  2
AIGNBL01020191
 10
0
 20
0
 30
0
  0
INSERT
  8
LAYER_1
  2
AIGNBL01020192
 10
0
 20
0
 30
0
  0
INSERT
  8
LAYER_1
  2
AIGNBL01020193
 10
0
 20
0
 30
0
  0
INSERT
  8
LAYER_1
  2
AIGNBL01020194
 10
0
 20
0
 30
0
  0
INSERT
  8
LAYER_1
  2
AIGNBL01020195
 10
0
 20
0
 30
0
  0
INSERT
  8
LAYER_1
  2
AIGNBL01020196
 10
0
 20
0
 30
0
  0
INSERT
  8
LAYER_1
  2
AIGNBL01020197
 10
0
 20
0
 30
0
  0
INSERT
  8
LAYER_1
  2
AIGNBL01020198
 10
0
 20
0
 30
0
  0
INSERT
  8
LAYER_1
  2
AIGNBL01020199
 10
0
 20
0
 30
0
  0
INSERT
  8
LAYER_1
  2
AIGNBL0102019A
 10
0
 20
0
 30
0
  0
INSERT
  8
LAYER_1
  2
AIGNBL0102019B
 10
0
 20
0
 30
0
  0
INSERT
  8
LAYER_1
  2
AIGNBL0102019C
 10
0
 20
0
 30
0
  0
INSERT
  8
LAYER_1
  2
AIGNBL0102019D
 10
0
 20
0
 30
0
  0
INSERT
  8
LAYER_1
  2
AIGNBL0102019E
 10
0
 20
0
 30
0
  0
INSERT
  8
LAYER_1
  2
AIGNBL0102019F
 10
0
 20
0
 30
0
  0
INSERT
  8
LAYER_1
  2
AIGNBL010201A0
 10
0
 20
0
 30
0
  0
INSERT
  8
LAYER_1
  2
AIGNBL010201A1
 10
0
 20
0
 30
0
  0
INSERT
  8
LAYER_1
  2
AIGNBL010201A2
 10
0
 20
0
 30
0
  0
INSERT
  8
LAYER_1
  2
AIGNBL010201A3
 10
0
 20
0
 30
0
  0
INSERT
  8
LAYER_1
  2
AIGNBL010201A4
 10
0
 20
0
 30
0
  0
INSERT
  8
LAYER_1
  2
AIGNBL010201A5
 10
0
 20
0
 30
0
  0
INSERT
  8
LAYER_1
  2
AIGNBL010201A6
 10
0
 20
0
 30
0
  0
INSERT
  8
LAYER_1
  2
AIGNBL010201A7
 10
0
 20
0
 30
0
  0
INSERT
  8
LAYER_1
  2
AIGNBL010201A8
 10
0
 20
0
 30
0
  0
INSERT
  8
LAYER_1
  2
AIGNBL010201A9
 10
0
 20
0
 30
0
  0
INSERT
  8
LAYER_1
  2
AIGNBL010201AA
 10
0
 20
0
 30
0
  0
INSERT
  8
LAYER_1
  2
AIGNBL010201AB
 10
0
 20
0
 30
0
  0
INSERT
  8
LAYER_1
  2
AIGNBL010201AC
 10
0
 20
0
 30
0
  0
INSERT
  8
LAYER_1
  2
AIGNBL010201AD
 10
0
 20
0
 30
0
  0
INSERT
  8
LAYER_1
  2
AIGNBL010201AE
 10
0
 20
0
 30
0
  0
INSERT
  8
LAYER_1
  2
AIGNBL010201AF
 10
0
 20
0
 30
0
  0
INSERT
  8
LAYER_1
  2
AIGNBL010201B0
 10
0
 20
0
 30
0
  0
INSERT
  8
LAYER_1
  2
AIGNBL010201B1
 10
0
 20
0
 30
0
  0
INSERT
  8
LAYER_1
  2
AIGNBL010201B2
 10
0
 20
0
 30
0
  0
INSERT
  8
LAYER_1
  2
AIGNBL010201B3
 10
0
 20
0
 30
0
  0
INSERT
  8
LAYER_1
  2
AIGNBL010201B4
 10
0
 20
0
 30
0
  0
INSERT
  8
LAYER_1
  2
AIGNBL010201B5
 10
0
 20
0
 30
0
  0
INSERT
  8
LAYER_1
  2
AIGNBL010201B6
 10
0
 20
0
 30
0
  0
INSERT
  8
LAYER_1
  2
AIGNBL010201B7
 10
0
 20
0
 30
0
  0
INSERT
  8
LAYER_1
  2
AIGNBL010201B8
 10
0
 20
0
 30
0
  0
INSERT
  8
LAYER_1
  2
AIGNBL010201B9
 10
0
 20
0
 30
0
  0
INSERT
  8
LAYER_1
  2
AIGNBL010201BA
 10
0
 20
0
 30
0
  0
INSERT
  8
LAYER_1
  2
AIGNBL010201BB
 10
0
 20
0
 30
0
  0
INSERT
  8
LAYER_1
  2
AIGNBL010201BC
 10
0
 20
0
 30
0
  0
INSERT
  8
LAYER_1
  2
AIGNBL010201BD
 10
0
 20
0
 30
0
  0
INSERT
  8
LAYER_1
  2
AIGNBL010201BE
 10
0
 20
0
 30
0
  0
INSERT
  8
LAYER_1
  2
AIGNBL010201BF
 10
0
 20
0
 30
0
  0
INSERT
  8
LAYER_1
  2
AIGNBL010201C0
 10
0
 20
0
 30
0
  0
INSERT
  8
LAYER_1
  2
AIGNBL010201C1
 10
0
 20
0
 30
0
  0
INSERT
  8
LAYER_1
  2
AIGNBL010201C2
 10
0
 20
0
 30
0
  0
INSERT
  8
LAYER_1
  2
AIGNBL010201C3
 10
0
 20
0
 30
0
  0
INSERT
  8
LAYER_1
  2
AIGNBL010201C4
 10
0
 20
0
 30
0
  0
INSERT
  8
LAYER_1
  2
AIGNBL010201C5
 10
0
 20
0
 30
0
  0
INSERT
  8
LAYER_1
  2
AIGNBL010201C6
 10
0
 20
0
 30
0
  0
INSERT
  8
LAYER_1
  2
AIGNBL010201C7
 10
0
 20
0
 30
0
  0
INSERT
  8
LAYER_1
  2
AIGNBL010201C8
 10
0
 20
0
 30
0
  0
INSERT
  8
LAYER_1
  2
AIGNBL010201C9
 10
0
 20
0
 30
0
  0
INSERT
  8
LAYER_1
  2
AIGNBL010201CA
 10
0
 20
0
 30
0
  0
INSERT
  8
LAYER_1
  2
AIGNBL010201CB
 10
0
 20
0
 30
0
  0
INSERT
  8
LAYER_1
  2
AIGNBL010201CC
 10
0
 20
0
 30
0
  0
INSERT
  8
LAYER_1
  2
AIGNBL010201CD
 10
0
 20
0
 30
0
  0
INSERT
  8
LAYER_1
  2
AIGNBL010201CE
 10
0
 20
0
 30
0
  0
INSERT
  8
LAYER_1
  2
AIGNBL010201CF
 10
0
 20
0
 30
0
  0
INSERT
  8
LAYER_1
  2
AIGNBL010201D0
 10
0
 20
0
 30
0
  0
INSERT
  8
LAYER_1
  2
AIGNBL010201D1
 10
0
 20
0
 30
0
  0
INSERT
  8
LAYER_1
  2
AIGNBL010201D2
 10
0
 20
0
 30
0
  0
INSERT
  8
LAYER_1
  2
AIGNBL010201D3
 10
0
 20
0
 30
0
  0
INSERT
  8
LAYER_1
  2
AIGNBL010201D4
 10
0
 20
0
 30
0
  0
INSERT
  8
LAYER_1
  2
AIGNBL010201D5
 10
0
 20
0
 30
0
  0
INSERT
  8
LAYER_1
  2
AIGNBL010201D6
 10
0
 20
0
 30
0
  0
INSERT
  8
LAYER_1
  2
AIGNBL010201D7
 10
0
 20
0
 30
0
  0
INSERT
  8
LAYER_1
  2
AIGNBL010201D8
 10
0
 20
0
 30
0
  0
INSERT
  8
LAYER_1
  2
AIGNBL010201D9
 10
0
 20
0
 30
0
  0
INSERT
  8
LAYER_1
  2
AIGNBL010201DA
 10
0
 20
0
 30
0
  0
INSERT
  8
LAYER_1
  2
AIGNBL010201DB
 10
0
 20
0
 30
0
  0
INSERT
  8
LAYER_1
  2
AIGNBL010201DC
 10
0
 20
0
 30
0
  0
INSERT
  8
LAYER_1
  2
AIGNBL010201DD
 10
0
 20
0
 30
0
  0
INSERT
  8
LAYER_1
  2
AIGNBL010201DE
 10
0
 20
0
 30
0
  0
INSERT
  8
LAYER_1
  2
AIGNBL010201DF
 10
0
 20
0
 30
0
  0
INSERT
  8
LAYER_1
  2
AIGNBL010201E0
 10
0
 20
0
 30
0
  0
INSERT
  8
LAYER_1
  2
AIGNBL010201E1
 10
0
 20
0
 30
0
  0
INSERT
  8
LAYER_1
  2
AIGNBL010201E2
 10
0
 20
0
 30
0
  0
INSERT
  8
LAYER_1
  2
AIGNBL010201E3
 10
0
 20
0
 30
0
  0
INSERT
  8
LAYER_1
  2
AIGNBL010201E4
 10
0
 20
0
 30
0
  0
INSERT
  8
LAYER_1
  2
AIGNBL010201E5
 10
0
 20
0
 30
0
  0
INSERT
  8
LAYER_1
  2
AIGNBL010201E6
 10
0
 20
0
 30
0
  0
INSERT
  8
LAYER_1
  2
AIGNBL010201E7
 10
0
 20
0
 30
0
  0
INSERT
  8
LAYER_1
  2
AIGNBL010201E8
 10
0
 20
0
 30
0
  0
INSERT
  8
LAYER_1
  2
AIGNBL010201E9
 10
0
 20
0
 30
0
  0
INSERT
  8
LAYER_1
  2
AIGNBL010201EA
 10
0
 20
0
 30
0
  0
INSERT
  8
LAYER_1
  2
AIGNBL010201EB
 10
0
 20
0
 30
0
  0
INSERT
  8
LAYER_1
  2
AIGNBL010201EC
 10
0
 20
0
 30
0
  0
INSERT
  8
LAYER_1
  2
AIGNBL010201ED
 10
0
 20
0
 30
0
  0
INSERT
  8
LAYER_1
  2
AIGNBL010201EE
 10
0
 20
0
 30
0
  0
INSERT
  8
LAYER_1
  2
AIGNBL010201EF
 10
0
 20
0
 30
0
  0
INSERT
  8
LAYER_1
  2
AIGNBL010201F0
 10
0
 20
0
 30
0
  0
INSERT
  8
LAYER_1
  2
AIGNBL010201F1
 10
0
 20
0
 30
0
  0
INSERT
  8
LAYER_1
  2
AIGNBL010201F2
 10
0
 20
0
 30
0
  0
INSERT
  8
LAYER_1
  2
AIGNBL010201F3
 10
0
 20
0
 30
0
  0
INSERT
  8
LAYER_1
  2
AIGNBL010201F4
 10
0
 20
0
 30
0
  0
INSERT
  8
LAYER_1
  2
AIGNBL010201F5
 10
0
 20
0
 30
0
  0
INSERT
  8
LAYER_1
  2
AIGNBL010201F6
 10
0
 20
0
 30
0
  0
INSERT
  8
LAYER_1
  2
AIGNBL010201F7
 10
0
 20
0
 30
0
  0
INSERT
  8
LAYER_1
  2
AIGNBL010201F8
 10
0
 20
0
 30
0
  0
INSERT
  8
LAYER_1
  2
AIGNBL010201F9
 10
0
 20
0
 30
0
  0
INSERT
  8
LAYER_1
  2
AIGNBL010201FA
 10
0
 20
0
 30
0
  0
INSERT
  8
LAYER_1
  2
AIGNBL010201FB
 10
0
 20
0
 30
0
  0
INSERT
  8
LAYER_1
  2
AIGNBL010201FC
 10
0
 20
0
 30
0
  0
INSERT
  8
LAYER_1
  2
AIGNBL010201FD
 10
0
 20
0
 30
0
  0
INSERT
  8
LAYER_1
  2
AIGNBL010201FE
 10
0
 20
0
 30
0
  0
INSERT
  8
LAYER_1
  2
AIGNBL010201FF
 10
0
 20
0
 30
0
  0
INSERT
  8
LAYER_1
  2
AIGNBL01020200
 10
0
 20
0
 30
0
  0
INSERT
  8
LAYER_1
  2
AIGNBL01020201
 10
0
 20
0
 30
0
  0
INSERT
  8
LAYER_1
  2
AIGNBL01020202
 10
0
 20
0
 30
0
  0
INSERT
  8
LAYER_1
  2
AIGNBL01020203
 10
0
 20
0
 30
0
  0
INSERT
  8
LAYER_1
  2
AIGNBL01020204
 10
0
 20
0
 30
0
  0
INSERT
  8
LAYER_1
  2
AIGNBL01020205
 10
0
 20
0
 30
0
  0
INSERT
  8
LAYER_1
  2
AIGNBL01020206
 10
0
 20
0
 30
0
  0
INSERT
  8
LAYER_1
  2
AIGNBL01020207
 10
0
 20
0
 30
0
  0
INSERT
  8
LAYER_1
  2
AIGNBL01020208
 10
0
 20
0
 30
0
  0
INSERT
  8
LAYER_1
  2
AIGNBL01020209
 10
0
 20
0
 30
0
  0
INSERT
  8
LAYER_1
  2
AIGNBL0102020A
 10
0
 20
0
 30
0
  0
INSERT
  8
LAYER_1
  2
AIGNBL0102020B
 10
0
 20
0
 30
0
  0
INSERT
  8
LAYER_1
  2
AIGNBL0102020C
 10
0
 20
0
 30
0
  0
INSERT
  8
LAYER_1
  2
AIGNBL0102020D
 10
0
 20
0
 30
0
  0
INSERT
  8
LAYER_1
  2
AIGNBL0102020E
 10
0
 20
0
 30
0
  0
INSERT
  8
LAYER_1
  2
AIGNBL0102020F
 10
0
 20
0
 30
0
  0
INSERT
  8
LAYER_1
  2
AIGNBL01020210
 10
0
 20
0
 30
0
  0
INSERT
  8
LAYER_1
  2
AIGNBL01020211
 10
0
 20
0
 30
0
  0
INSERT
  8
LAYER_1
  2
AIGNBL01020212
 10
0
 20
0
 30
0
  0
INSERT
  8
LAYER_1
  2
AIGNBL01020213
 10
0
 20
0
 30
0
  0
INSERT
  8
LAYER_1
  2
AIGNBL01020214
 10
0
 20
0
 30
0
  0
INSERT
  8
LAYER_1
  2
AIGNBL01020215
 10
0
 20
0
 30
0
  0
INSERT
  8
LAYER_1
  2
AIGNBL01020216
 10
0
 20
0
 30
0
  0
INSERT
  8
LAYER_1
  2
AIGNBL01020217
 10
0
 20
0
 30
0
  0
INSERT
  8
LAYER_1
  2
AIGNBL01020218
 10
0
 20
0
 30
0
  0
INSERT
  8
LAYER_1
  2
AIGNBL01020219
 10
0
 20
0
 30
0
  0
INSERT
  8
LAYER_1
  2
AIGNBL0102021A
 10
0
 20
0
 30
0
  0
INSERT
  8
LAYER_1
  2
AIGNBL0102021B
 10
0
 20
0
 30
0
  0
INSERT
  8
LAYER_1
  2
AIGNBL0102021C
 10
0
 20
0
 30
0
  0
INSERT
  8
LAYER_1
  2
AIGNBL0102021D
 10
0
 20
0
 30
0
  0
INSERT
  8
LAYER_1
  2
AIGNBL0102021E
 10
0
 20
0
 30
0
  0
INSERT
  8
LAYER_1
  2
AIGNBL0102021F
 10
0
 20
0
 30
0
  0
INSERT
  8
LAYER_1
  2
AIGNBL0102022F
 10
0
 20
0
 30
0
  0
INSERT
  8
LAYER_1
  2
AIGNBL0102023F
 10
0
 20
0
 30
0
  0
INSERT
  8
LAYER_1
  2
AIGNBL0102024F
 10
0
 20
0
 30
0
  0
INSERT
  8
LAYER_1
  2
AIGNBL0102025F
 10
0
 20
0
 30
0
  0
INSERT
  8
LAYER_1
  2
AIGNBL01020260
 10
0
 20
0
 30
0
  0
INSERT
  8
LAYER_1
  2
AIGNBL01020261
 10
0
 20
0
 30
0
  0
INSERT
  8
LAYER_1
  2
AIGNBL01020262
 10
0
 20
0
 30
0
  0
INSERT
  8
LAYER_1
  2
AIGNBL01020263
 10
0
 20
0
 30
0
  0
INSERT
  8
LAYER_1
  2
AIGNBL01020264
 10
0
 20
0
 30
0
  0
INSERT
  8
LAYER_1
  2
AIGNBL01020265
 10
0
 20
0
 30
0
  0
INSERT
  8
LAYER_1
  2
AIGNBL01020278
 10
0
 20
0
 30
0
  0
INSERT
  8
LAYER_1
  2
AIGNBL01020287
 10
0
 20
0
 30
0
  0
INSERT
  8
LAYER_1
  2
AIGNBL0102029A
 10
0
 20
0
 30
0
  0
ENDBLK
  0
BLOCK
  8
LAYER_5
  2
AIGNBL05010002
 70
64
 10
0
 20
0
 30
0
  3
AIGNBL05010002
  0
POLYLINE
  8
LAYER_5
 40
0.7056
 41
0.7056
 66
1
 10
0
 20
0
 30
0
 70
1
  0
VERTEX
  8
LAYER_5
 10
251.6749
 20
230.337
  0
VERTEX
  8
LAYER_5
 10
251.6749
 20
33.3285
  0
VERTEX
  8
LAYER_5
 10
-30.3177
 20
33.3285
  0
VERTEX
  8
LAYER_5
 10
-30.3177
 20
230.337
  0
SEQEND
  0
ENDBLK
  0
BLOCK
  8
LAYER_5
  2
AIGNBL05010003
 70
64
 10
0
 20
0
 30
0
  3
AIGNBL05010003
  0
INSERT
  8
LAYER_5
  2
AIGNBL05020004
 10
0
 20
0
 30
0
  0
INSERT
  8
LAYER_5
  2
AIGNBL0502000D
 10
0
 20
0
 30
0
  0
ENDBLK
  0
BLOCK
  8
LAYER_5
  2
AIGNBL05010025
 70
64
 10
0
 20
0
 30
0
  3
AIGNBL05010025
  0
INSERT
  8
LAYER_5
  2
AIGNBL05020026
 10
0
 20
0
 30
0
  0
ENDBLK
  0
ENDSEC
  0
SECTION
  2
ENTITIES
  0
INSERT
  8
LAYER_1
  2
AIGNBL01010002
 10
0
 20
0
 30
0
  0
TEXT
  8
LAYER_5
 10
-26.2556
 20
43.1712
 11
-26.2556
 21
43.1712
 40
3.2995
 41
0.5
  1
仕様
  0
POLYLINE
  8
LAYER_5
 40
0.3528
 41
0.3528
 66
1
 10
0
 20
0
 30
0
  0
VERTEX
  8
LAYER_5
 10
250.6748
 20
51.9507
  0
VERTEX
  8
LAYER_5
 10
-29.3178
 20
51.9507
  0
SEQEND
  0
INSERT
  8
LAYER_5
  2
AIGNBL05010002
 10
0
 20
0
 30
0
  0
POLYLINE
  8
LAYER_5
 40
0.3528
 41
0.3528
 66
1
 10
0
 20
0
 30
0
  0
VERTEX
  8
LAYER_5
 10
-29.3178
 20
229.3369
  0
VERTEX
  8
LAYER_5
 10
-29.3178
 20
34.3283
  0
VERTEX
  8
LAYER_5
 10
250.6748
 20
34.3283
  0
VERTEX
  8
LAYER_5
 10
250.6748
 20
229.3369
  0
VERTEX
  8
LAYER_5
 10
-29.3178
 20
229.3369
  0
SEQEND
  0
POLYLINE
  8
LAYER_5
 40
0.3528
 41
0.3528
 66
1
 10
0
 20
0
 30
0
  0
VERTEX
  8
LAYER_5
 10
250.6748
 20
60.4597
  0
VERTEX
  8
LAYER_5
 10
-29.3178
 20
60.4597
  0
SEQEND
  0
POLYLINE
  8
LAYER_5
 40
0.3528
 41
0.3528
 66
1
 10
0
 20
0
 30
0
  0
VERTEX
  8
LAYER_5
 10
250.6748
 20
43.4416
  0
VERTEX
  8
LAYER_5
 10
143.5341
 20
43.4416
  0
SEQEND
  0
TEXT
  8
LAYER_5
 10
188.1725
 20
45.7175
 11
188.1725
 21
45.7175
 40
3.7615
 41
0.5
  1
-
  0
TEXT
  8
LAYER_5
 10
182.8808
 20
49.4743
 11
182.8808
 21
49.4743
 40
2.1997
 41
0.5
  1
縮尺
  0
POLYLINE
  8
LAYER_5
 40
0.3528
 41
0.3528
 66
1
 10
0
 20
0
 30
0
  0
VERTEX
  8
LAYER_5
 10
181.3526
 20
43.4416
  0
VERTEX
  8
LAYER_5
 10
181.3526
 20
51.9507
  0
SEQEND
  0
TEXT
  8
LAYER_5
 10
144.2327
 20
57.9834
 11
144.2327
 21
57.9834
 40
2.1997
 41
0.5
  1
品番
  0
TEXT
  8
LAYER_5
 10
-28.1609
 20
57.9834
 11
-28.1609
 21
57.9834
 40
2.1997
 41
0.5
  1
品名
  0
TEXT
  8
LAYER_5
 10
144.2327
 20
49.4743
 11
144.2327
 21
49.4743
 40
2.1997
 41
0.5
  1
重量
  0
TEXT
  8
LAYER_5
 10
150.2547
 20
54.1617
 11
150.2547
 21
54.1617
 40
5.2926
 41
0.5
  1
Y722-420/Y722-420-G
  0
POLYLINE
  8
LAYER_5
 40
0.3528
 41
0.3528
 66
1
 10
0
 20
0
 30
0
  0
VERTEX
  8
LAYER_5
 10
143.5341
 20
34.9539
  0
VERTEX
  8
LAYER_5
 10
143.5341
 20
60.4597
  0
SEQEND
  0
TEXT
  8
LAYER_5
 10
-15.2256
 20
54.891
 11
-15.2256
 21
54.891
 40
3.1177
 41
0.5
  1
単水栓
  0
TEXT
  8
LAYER_5
 10
-15.6835
 20
45.3736
 11
-15.6835
 21
45.3736
 40
3.1177
 41
0.5
  1
●泡沫吐水●一般地・寒冷地共用
  0
TEXT
  8
LAYER_5
 10
237.263
 20
63.2582
 11
237.263
 21
63.2582
 40
2.9618
 41
0.5
  1
単位：mm
  0
TEXT
  8
LAYER_5
 10
176.0254
 20
39.5359
 11
176.0254
 21
39.5359
 40
3.3853
 41
0.5
  1
●TEL 0120-65-1232●FAX 06-6532-1580
  0
TEXT
  8
LAYER_5
 10
176.0254
 20
36.0212
 11
176.0254
 21
36.0212
 40
3.3853
 41
0.5
  1
hits@hiratatile.co.jp
  0
TEXT
  8
LAYER_5
 10
240.3591
 20
225.8432
 11
240.3591
 21
225.8432
 40
2.0732
 41
0.5
  1
170616RT
  0
INSERT
  8
LAYER_5
  2
AIGNBL05010003
 10
0
 20
0
 30
0
  0
TEXT
  8
LAYER_5
 10
157.2803
 20
46.4933
 11
157.2803
 21
46.4933
 40
3.7615
 41
0.5
  1
-
  0
INSERT
  8
LAYER_5
  2
AIGNBL05010025
 10
0
 20
0
 30
0
  0
ENDSEC
  0
EOF
