  0
SECTION
  2
HEADER
  9
$ACADVER
  1
AC1015
  9
$ACADMAINTVER
 70
     6
  9
$DWGCODEPAGE
  3
DOS932
  9
$INSBASE
 10
0.0
 20
0.0
 30
0.0
  9
$EXTMIN
 10
0.0
 20
0.0
 30
0.0
  9
$EXTMAX
 10
420.0
 20
297.0
 30
0.0
  9
$LIMMIN
 10
0.0
 20
0.0
  9
$LIMMAX
 10
420.0
 20
297.0
  9
$ORTHOMODE
 70
     0
  9
$REGENMODE
 70
     1
  9
$FILLMODE
 70
     1
  9
$QTEXTMODE
 70
     0
  9
$MIRRTEXT
 70
     1
  9
$LTSCALE
 40
1.0
  9
$ATTMODE
 70
     1
  9
$TEXTSIZE
 40
3.8805555556
  9
$TRACEWID
 40
1.0
  9
$TEXTSTYLE
  7
Standard
  9
$CLAYER
  8
0
  9
$CELTYPE
  6
ByLayer
  9
$CECOLOR
 62
   256
  9
$CELTSCALE
 40
1.0
  9
$DISPSILH
 70
     0
  9
$DIMSCALE
 40
1.0
  9
$DIMASZ
 40
3.0
  9
$DIMEXO
 40
0.0
  9
$DIMDLI
 40
3.75
  9
$DIMRND
 40
0.0
  9
$DIMDLE
 40
0.0
  9
$DIMEXE
 40
1.0
  9
$DIMTP
 40
0.0
  9
$DIMTM
 40
0.0
  9
$DIMTXT
 40
3.5277777778
  9
$DIMCEN
 40
2.5
  9
$DIMTSZ
 40
0.0
  9
$DIMTOL
 70
     0
  9
$DIMLIM
 70
     0
  9
$DIMTIH
 70
     1
  9
$DIMTOH
 70
     1
  9
$DIMSE1
 70
     0
  9
$DIMSE2
 70
     0
  9
$DIMTAD
 70
     1
  9
$DIMZIN
 70
     0
  9
$DIMBLK
  1

  9
$DIMASO
 70
     1
  9
$DIMSHO
 70
     1
  9
$DIMPOST
  1

  9
$DIMAPOST
  1

  9
$DIMALT
 70
     0
  9
$DIMALTD
 70
     3
  9
$DIMALTF
 40
0.0393700787
  9
$DIMLFAC
 40
1.0
  9
$DIMTOFL
 70
     1
  9
$DIMTVP
 40
0.0
  9
$DIMTIX
 70
     0
  9
$DIMSOXD
 70
     0
  9
$DIMSAH
 70
     0
  9
$DIMBLK1
  1

  9
$DIMBLK2
  1

  9
$DIMSTYLE
  2
ISO-25
  9
$DIMCLRD
 70
     0
  9
$DIMCLRE
 70
     0
  9
$DIMCLRT
 70
     0
  9
$DIMTFAC
 40
1.0
  9
$DIMGAP
 40
1.0
  9
$DIMJUST
 70
     0
  9
$DIMSD1
 70
     0
  9
$DIMSD2
 70
     0
  9
$DIMTOLJ
 70
     0
  9
$DIMTZIN
 70
     0
  9
$DIMALTZ
 70
     0
  9
$DIMALTTZ
 70
     0
  9
$DIMUPT
 70
     0
  9
$DIMDEC
 70
     2
  9
$DIMTDEC
 70
     2
  9
$DIMALTU
 70
     2
  9
$DIMALTTD
 70
     3
  9
$DIMTXSTY
  7
Standard
  9
$DIMAUNIT
 70
     0
  9
$DIMADEC
 70
     2
  9
$DIMALTRND
 40
0.0
  9
$DIMAZIN
 70
     0
  9
$DIMDSEP
 70
    44
  9
$DIMATFIT
 70
     3
  9
$DIMFRAC
 70
     0
  9
$DIMLDRBLK
  1

  9
$DIMLUNIT
 70
     2
  9
$DIMLWD
 70
    -2
  9
$DIMLWE
 70
    -2
  9
$DIMTMOVE
 70
     0
  9
$LUNITS
 70
     2
  9
$LUPREC
 70
     2
  9
$SKETCHINC
 40
1.0
  9
$FILLETRAD
 40
10.0
  9
$AUNITS
 70
     0
  9
$AUPREC
 70
     2
  9
$MENU
  1
.
  9
$ELEVATION
 40
0.0
  9
$PELEVATION
 40
0.0
  9
$THICKNESS
 40
0.0
  9
$LIMCHECK
 70
     0
  9
$CHAMFERA
 40
10.0
  9
$CHAMFERB
 40
10.0
  9
$CHAMFERC
 40
20.0
  9
$CHAMFERD
 40
0.0
  9
$SKPOLY
 70
     0
  9
$TDCREATE
 40
2457189.407010428
  9
$TDUCREATE
 40
2457189.032010428
  9
$TDUPDATE
 40
2457189.407010891
  9
$TDUUPDATE
 40
2457189.032010891
  9
$TDINDWG
 40
0.0000000116
  9
$TDUSRTIMER
 40
0.0000000116
  9
$USRTIMER
 70
     1
  9
$ANGBASE
 50
0.0
  9
$ANGDIR
 70
     0
  9
$PDMODE
 70
     0
  9
$PDSIZE
 40
-1.0
  9
$PLINEWID
 40
0.0
  9
$SPLFRAME
 70
     0
  9
$SPLINETYPE
 70
     6
  9
$SPLINESEGS
 70
     8
  9
$HANDSEED
  5
173
  9
$SURFTAB1
 70
     6
  9
$SURFTAB2
 70
     6
  9
$SURFTYPE
 70
     6
  9
$SURFU
 70
     6
  9
$SURFV
 70
     6
  9
$UCSBASE
  2

  9
$UCSNAME
  2

  9
$UCSORG
 10
0.0
 20
0.0
 30
0.0
  9
$UCSXDIR
 10
1.0
 20
0.0
 30
0.0
  9
$UCSYDIR
 10
0.0
 20
1.0
 30
0.0
  9
$UCSORTHOREF
  2

  9
$UCSORTHOVIEW
 70
     0
  9
$UCSORGTOP
 10
0.0
 20
0.0
 30
0.0
  9
$UCSORGBOTTOM
 10
0.0
 20
0.0
 30
0.0
  9
$UCSORGLEFT
 10
0.0
 20
0.0
 30
0.0
  9
$UCSORGRIGHT
 10
0.0
 20
0.0
 30
0.0
  9
$UCSORGFRONT
 10
0.0
 20
0.0
 30
0.0
  9
$UCSORGBACK
 10
0.0
 20
0.0
 30
0.0
  9
$PUCSBASE
  2

  9
$PUCSNAME
  2

  9
$PUCSORG
 10
0.0
 20
0.0
 30
0.0
  9
$PUCSXDIR
 10
1.0
 20
0.0
 30
0.0
  9
$PUCSYDIR
 10
0.0
 20
1.0
 30
0.0
  9
$PUCSORTHOREF
  2

  9
$PUCSORTHOVIEW
 70
     0
  9
$PUCSORGTOP
 10
0.0
 20
0.0
 30
0.0
  9
$PUCSORGBOTTOM
 10
0.0
 20
0.0
 30
0.0
  9
$PUCSORGLEFT
 10
0.0
 20
0.0
 30
0.0
  9
$PUCSORGRIGHT
 10
0.0
 20
0.0
 30
0.0
  9
$PUCSORGFRONT
 10
0.0
 20
0.0
 30
0.0
  9
$PUCSORGBACK
 10
0.0
 20
0.0
 30
0.0
  9
$USERI1
 70
     0
  9
$USERI2
 70
     0
  9
$USERI3
 70
     0
  9
$USERI4
 70
     0
  9
$USERI5
 70
     0
  9
$USERR1
 40
0.0
  9
$USERR2
 40
0.0
  9
$USERR3
 40
0.0
  9
$USERR4
 40
0.0
  9
$USERR5
 40
0.0
  9
$WORLDVIEW
 70
     1
  9
$SHADEDGE
 70
     3
  9
$SHADEDIF
 70
    70
  9
$TILEMODE
 70
     1
  9
$MAXACTVP
 70
    64
  9
$PINSBASE
 10
0.0
 20
0.0
 30
0.0
  9
$PLIMCHECK
 70
     0
  9
$PEXTMIN
 10
1.0000000000E+20
 20
1.0000000000E+20
 30
1.0000000000E+20
  9
$PEXTMAX
 10
-1.0000000000E+20
 20
-1.0000000000E+20
 30
-1.0000000000E+20
  9
$PLIMMIN
 10
0.0
 20
0.0
  9
$PLIMMAX
 10
420.0
 20
297.0
  9
$UNITMODE
 70
     0
  9
$VISRETAIN
 70
     1
  9
$PLINEGEN
 70
     0
  9
$PSLTSCALE
 70
     1
  9
$TREEDEPTH
 70
  3020
  9
$CMLSTYLE
  2
Standard
  9
$CMLJUST
 70
     0
  9
$CMLSCALE
 40
20.0
  9
$PROXYGRAPHICS
 70
     1
  9
$MEASUREMENT
 70
     1
  9
$CELWEIGHT
370
    -1
  9
$ENDCAPS
280
     0
  9
$JOINSTYLE
280
     0
  9
$LWDISPLAY
290
     1
  9
$INSUNITS
 70
     4
  9
$HYPERLINKBASE
  1

  9
$STYLESHEET
  1

  9
$XEDIT
290
     1
  9
$CEPSNTYPE
380
     0
  9
$PSTYLEMODE
290
     1
  9
$FINGERPRINTGUID
  2
{41F63B41-69EF-4A62-851A-F631DD54DA07}
  9
$VERSIONGUID
  2
{FAEB1C32-E019-11D5-929B-00C0DF256EC4}
  9
$EXTNAMES
290
     1
  9
$PSVPSCALE
 40
0.0
  9
$OLESTARTUP
290
     0
  0
ENDSEC
  0
SECTION
  2
CLASSES
  0
CLASS
  1
ACDBDICTIONARYWDFLT
  2
AcDbDictionaryWithDefault
  3
ObjectDBX Classes
 90
        0
280
     0
281
     0
  0
CLASS
  1
VISUALSTYLE
  2
AcDbVisualStyle
  3
ObjectDBX Classes
 90
     4095
280
     0
281
     0
  0
CLASS
  1
MATERIAL
  2
AcDbMaterial
  3
ObjectDBX Classes
 90
     1153
280
     0
281
     0
  0
CLASS
  1
ACDBPLACEHOLDER
  2
AcDbPlaceHolder
  3
ObjectDBX Classes
 90
        0
280
     0
281
     0
  0
CLASS
  1
LAYOUT
  2
AcDbLayout
  3
ObjectDBX Classes
 90
        0
280
     0
281
     0
  0
ENDSEC
  0
SECTION
  2
TABLES
  0
TABLE
  2
VPORT
  5
8
330
0
100
AcDbSymbolTable
 70
     1
  0
VPORT
  5
29
330
8
100
AcDbSymbolTableRecord
100
AcDbViewportTableRecord
  2
*Active
 70
     0
 10
0.0
 20
0.0
 11
1.0
 21
1.0
 12
210.0
 22
148.5
 13
0.0
 23
0.0
 14
10.0
 24
10.0
 15
10.0
 25
10.0
 16
0.0
 26
0.0
 36
1.0
 17
0.0
 27
0.0
 37
0.0
 40
297.0
 41
1.4141414141
 42
50.0
 43
0.0
 44
0.0
 50
0.0
 51
0.0
 71
     0
 72
  2000
 73
     1
 74
     3
 75
     0
 76
     0
 77
     0
 78
     0
281
     0
 65
     1
110
0.0
120
0.0
130
0.0
111
1.0
121
0.0
131
0.0
112
0.0
122
1.0
132
0.0
 79
     0
146
0.0
  0
ENDTAB
  0
TABLE
  2
LTYPE
  5
5
330
0
100
AcDbSymbolTable
 70
     6
  0
LTYPE
  5
14
330
5
100
AcDbSymbolTableRecord
100
AcDbLinetypeTableRecord
  2
ByBlock
 70
     0
  3

 72
    65
 73
     0
 40
0.0
  0
LTYPE
  5
15
330
5
100
AcDbSymbolTableRecord
100
AcDbLinetypeTableRecord
  2
ByLayer
 70
     0
  3

 72
    65
 73
     0
 40
0.0
  0
LTYPE
  5
16
330
5
100
AcDbSymbolTableRecord
100
AcDbLinetypeTableRecord
  2
Continuous
 70
     0
  3
Solid line
 72
    65
 73
     0
 40
0.0
  0
LTYPE
  5
3F
330
5
100
AcDbSymbolTableRecord
100
AcDbLinetypeTableRecord
  2
HIDDEN
 70
     0
  3
Hidden __ __ __ __ __ __ __ __ __ __ __ __ __ __
 72
    65
 73
     2
 40
1.905
 49
1.27
 74
     0
 49
-0.635
 74
     0
  0
LTYPE
  5
40
330
5
100
AcDbSymbolTableRecord
100
AcDbLinetypeTableRecord
  2
PHANTOM
 70
     0
  3
Phantom ______  __  __  ______  __  __  ______
 72
    65
 73
     6
 40
12.7
 49
6.35
 74
     0
 49
-1.27
 74
     0
 49
1.27
 74
     0
 49
-1.27
 74
     0
 49
1.27
 74
     0
 49
-1.27
 74
     0
  0
LTYPE
  5
41
330
5
100
AcDbSymbolTableRecord
100
AcDbLinetypeTableRecord
  2
CENTER
 70
     0
  3
Center ____ _ ____ _ ____ _ ____ _ ____ _ ____
 72
    65
 73
     4
 40
10.16
 49
6.35
 74
     0
 49
-1.27
 74
     0
 49
1.27
 74
     0
 49
-1.27
 74
     0
  0
LTYPE
  5
42
330
5
100
AcDbSymbolTableRecord
100
AcDbLinetypeTableRecord
  2
CENTERX2
 70
     0
  3
Center (2x) ________  __  ________  __  _____
 72
    65
 73
     4
 40
20.32
 49
12.7
 74
     0
 49
-2.54
 74
     0
 49
2.54
 74
     0
 49
-2.54
 74
     0
  0
LTYPE
  5
43
330
5
100
AcDbSymbolTableRecord
100
AcDbLinetypeTableRecord
  2
DOT2
 70
     0
  3
Dot (.5x) ........................................
 72
    65
 73
     2
 40
0.635
 49
0.0
 74
     0
 49
-0.635
 74
     0
  0
ENDTAB
  0
TABLE
  2
LAYER
  5
2
330
0
100
AcDbSymbolTable
 70
     6
  0
LAYER
  5
10
330
2
100
AcDbSymbolTableRecord
100
AcDbLayerTableRecord
  2
0
 70
     0
 62
     7
  6
Continuous
370
    -3
390
F
  0
LAYER
  5
44
330
2
100
AcDbSymbolTableRecord
100
AcDbLayerTableRecord
  2
SLD-0
 70
     0
 62
     7
  6
Continuous
370
    -3
390
F
  0
LAYER
  5
45
330
2
100
AcDbSymbolTableRecord
100
AcDbLayerTableRecord
  2
8
 70
     0
 62
     7
  6
Continuous
370
    15
390
F
  0
LAYER
  5
46
330
2
100
AcDbSymbolTableRecord
100
AcDbLayerTableRecord
  2
9
 70
     0
 62
     7
  6
Continuous
370
    -3
390
F
  0
LAYER
  5
47
330
2
100
AcDbSymbolTableRecord
100
AcDbLayerTableRecord
  2
10
 70
     0
 62
     1
  6
Continuous
370
    -3
390
F
  0
LAYER
  5
48
330
2
100
AcDbSymbolTableRecord
100
AcDbLayerTableRecord
  2
11
 70
     0
 62
     7
  6
Continuous
370
    -3
390
F
  0
ENDTAB
  0
TABLE
  2
STYLE
  5
3
330
0
100
AcDbSymbolTable
 70
     2
  0
STYLE
  5
11
330
3
100
AcDbSymbolTableRecord
100
AcDbTextStyleTableRecord
  2
Standard
 70
     0
 40
0.0
 41
1.0
 50
0.0
 71
     0
 42
3.8805555556
  3
txt
  4
bigfont
  0
STYLE
  5
49
330
3
100
AcDbSymbolTableRecord
100
AcDbTextStyleTableRecord
  2
SLDTEXTSTYLE0
 70
     0
 40
0.0
 41
0.7
 50
0.0
 71
     0
 42
0.2
  3
TXT
  4
bigfont
  0
ENDTAB
  0
TABLE
  2
VIEW
  5
6
330
0
100
AcDbSymbolTable
 70
     0
  0
ENDTAB
  0
TABLE
  2
UCS
  5
7
330
0
100
AcDbSymbolTable
 70
     0
  0
ENDTAB
  0
TABLE
  2
APPID
  5
9
330
0
100
AcDbSymbolTable
 70
     1
  0
APPID
  5
12
330
9
100
AcDbSymbolTableRecord
100
AcDbRegAppTableRecord
  2
ACAD
 70
     0
  0
ENDTAB
  0
TABLE
  2
DIMSTYLE
  5
A
330
0
100
AcDbSymbolTable
 70
     1
100
AcDbDimStyleTable
  0
DIMSTYLE
105
27
330
A
100
AcDbSymbolTableRecord
100
AcDbDimStyleTableRecord
  2
ISO-25
 70
     0
 41
2.5
 42
0.625
 43
3.75
 44
1.25
 73
     0
 74
     0
 77
     1
 78
     8
140
2.5
141
2.5
143
0.0393700787
147
0.625
171
     3
172
     1
178
     0
271
     2
272
     2
274
     3
278
    44
283
     0
284
     8
340
11
  0
ENDTAB
  0
TABLE
  2
BLOCK_RECORD
  5
1
330
0
100
AcDbSymbolTable
 70
     1
  0
BLOCK_RECORD
  5
1F
330
1
100
AcDbSymbolTableRecord
100
AcDbBlockTableRecord
  2
*Model_Space
340
22
  0
BLOCK_RECORD
  5
1B
330
1
100
AcDbSymbolTableRecord
100
AcDbBlockTableRecord
  2
*Paper_Space
340
1E
  0
BLOCK_RECORD
  5
23
330
1
100
AcDbSymbolTableRecord
100
AcDbBlockTableRecord
  2
*Paper_Space0
340
26
  0
ENDTAB
  0
ENDSEC
  0
SECTION
  2
BLOCKS
  0
BLOCK
  5
20
330
1F
100
AcDbEntity
  8
0
100
AcDbBlockBegin
  2
*Model_Space
 70
     0
 10
0.0
 20
0.0
 30
0.0
  3
*Model_Space
  1

  0
ENDBLK
  5
21
330
1F
100
AcDbEntity
  8
0
100
AcDbBlockEnd
  0
BLOCK
  5
1C
330
1B
100
AcDbEntity
 67
     1
  8
0
100
AcDbBlockBegin
  2
*Paper_Space
 70
     0
 10
0.0
 20
0.0
 30
0.0
  3
*Paper_Space
  1

  0
ENDBLK
  5
1D
330
1B
100
AcDbEntity
 67
     1
  8
0
100
AcDbBlockEnd
  0
BLOCK
  5
24
330
23
100
AcDbEntity
  8
0
100
AcDbBlockBegin
  2
*Paper_Space0
 70
     0
 10
0.0
 20
0.0
 30
0.0
  3
*Paper_Space0
  1

  0
ENDBLK
  5
25
330
23
100
AcDbEntity
  8
0
100
AcDbBlockEnd
  0
ENDSEC
  0
SECTION
  2
ENTITIES
  0
MTEXT
  5
4A
330
1F
100
AcDbEntity
  8
9
 62
     7
100
AcDbMText
 10
22.9810592731
 20
14.7698940523
 30
0.0
 40
3.7041666667
 41
0.0
 71
     1
 72
     1
  1
2013/08/02
  7
SLDTEXTSTYLE0
 73
     1
 44
1.0
  0
MTEXT
  5
4B
330
1F
100
AcDbEntity
  8
9
 62
     7
100
AcDbMText
 10
22.9810592731
 20
39.3097760816
 30
0.0
 40
3.7041666667
 41
0.0
 71
     1
 72
     1
  1
ZL-2101
  7
SLDTEXTSTYLE0
 73
     1
 44
1.0
  0
MTEXT
  5
4C
330
1F
100
AcDbEntity
  8
9
 62
     7
100
AcDbMText
 10
22.9810592731
 20
22.2718363524
 30
0.0
 40
3.7041666667
 41
0.0
 71
     1
 72
     1
  1
2015/06/11
  7
SLDTEXTSTYLE0
 73
     1
 44
1.0
  0
MTEXT
  5
4D
330
1F
100
AcDbEntity
  8
9
 62
     7
100
AcDbMText
 10
22.9810592731
 20
30.9293046945
 30
0.0
 40
3.7041666667
 41
0.0
 71
     1
 72
     1
  1
1:1
  7
SLDTEXTSTYLE0
 73
     1
 44
1.0
  0
LINE
  5
4E
330
1F
100
AcDbEntity
  8
0
  6
Continuous
 62
     7
370
    30
100
AcDbLine
 10
35.9958642519
 20
121.1214900949
 30
0.0
 11
36.2958642661
 21
121.4214905166
 31
0.0
  0
LINE
  5
4F
330
1F
100
AcDbEntity
  8
0
  6
Continuous
 62
     7
370
    30
100
AcDbLine
 10
36.2958642661
 20
152.8214911931
 30
0.0
 11
35.9958642519
 21
153.1214906835
 31
0.0
  0
LINE
  5
50
330
1F
100
AcDbEntity
  8
0
  6
Continuous
 62
     7
370
    30
100
AcDbLine
 10
35.7958642424
 20
121.1214900949
 30
0.0
 11
35.9958642519
 21
121.1214900949
 31
0.0
  0
LINE
  5
51
330
1F
100
AcDbEntity
  8
0
  6
Continuous
 62
     7
370
    30
100
AcDbLine
 10
35.9958642519
 20
153.1214906835
 30
0.0
 11
35.7958642424
 21
153.1214906835
 31
0.0
  0
LINE
  5
52
330
1F
100
AcDbEntity
  8
0
  6
Continuous
 62
     7
370
    30
100
AcDbLine
 10
34.7958642531
 20
109.3214905822
 30
0.0
 11
35.7958642424
 21
112.121489551
 31
0.0
  0
LINE
  5
53
330
1F
100
AcDbEntity
  8
0
  6
Continuous
 62
     7
370
    30
100
AcDbLine
 10
35.7958642424
 20
162.1214902961
 30
0.0
 11
34.7958642531
 21
164.9214892649
 31
0.0
  0
LINE
  5
54
330
1F
100
AcDbEntity
  8
0
  6
Continuous
 62
     7
370
    30
100
AcDbLine
 10
33.29586424
 20
109.3214905822
 30
0.0
 11
34.7958642531
 21
109.3214905822
 31
0.0
  0
LINE
  5
55
330
1F
100
AcDbEntity
  8
0
  6
Continuous
 62
     7
370
    30
100
AcDbLine
 10
34.7958642531
 20
164.9214892649
 30
0.0
 11
30.7958642959
 21
164.9214892649
 31
0.0
  0
LINE
  5
56
330
1F
100
AcDbEntity
  8
0
  6
Continuous
 62
     7
370
    30
100
AcDbLine
 10
109.9856379449
 20
171.7873482966
 30
0.0
 11
106.9828229963
 21
177.889239695
 31
0.0
  0
LINE
  5
57
330
1F
100
AcDbEntity
  8
0
  6
Continuous
 62
     7
370
    30
100
AcDbLine
 10
106.9828229963
 20
177.889239695
 30
0.0
 11
99.6289062321
 21
179.1627897882
 31
0.0
  0
ARC
  5
58
330
1F
100
AcDbEntity
  8
0
  6
Continuous
 62
     7
370
    30
100
AcDbCircle
 10
99.2876238122
 20
177.1921209626
 30
0.0
 40
2.000000000000003
100
AcDbArc
 50
80.175
 51
143.0121115778
  0
ARC
  5
59
330
1F
100
AcDbEntity
  8
0
  6
Continuous
 62
     7
370
    30
100
AcDbCircle
 10
117.6591660967
 20
163.3542586245
 30
0.0
 40
25.00000000000002
100
AcDbArc
 50
143.0121115778
 51
170.175
  0
SPLINE
  5
5A
330
1F
100
AcDbEntity
  8
0
  6
Continuous
 62
     7
370
    30
100
AcDbSpline
210
0.0
220
0.0
230
1.0
 70
     8
 71
     3
 72
    13
 73
     9
 74
     0
 42
0.00000001
 43
0.00000001
 12
1.0
 22
0.0
 32
0.0
 13
1.0
 23
0.0
 33
0.0
 40
0.0
 40
0.0
 40
0.0
 40
0.0
 40
0.1889287362163874
 40
0.4262278300388267
 40
0.6362870048416179
 40
0.8153556998947336
 40
0.9585686914024002
 40
1.0
 40
1.0
 40
1.0
 40
1.0
 10
92.78713865275101
 20
166.2087894045765
 30
0.0
 10
92.77561970520655
 20
166.1312512529656
 30
0.0
 10
92.74963267901599
 20
165.9563232945821
 30
0.0
 10
92.76394602720266
 20
165.6914762056655
 30
0.0
 10
92.8083537254044
 20
165.4353830237002
 30
0.0
 10
92.87408042269736
 20
165.2245150346785
 30
0.0
 10
92.93081274828488
 20
165.0846199296309
 30
0.0
 10
92.96621556113173
 20
165.0168310330846
 30
0.0
 10
92.9741594016047
 20
165.0016202592308
 30
0.0
  0
LINE
  5
5B
330
1F
100
AcDbEntity
  8
0
  6
Continuous
 62
     7
370
    30
100
AcDbLine
 10
93.025829178
 20
167.6202460193
 30
0.0
 11
92.7817816853
 21
166.2110432052
 31
0.0
  0
SPLINE
  5
5C
330
1F
100
AcDbEntity
  8
0
  6
Continuous
 62
     7
370
    30
100
AcDbSpline
210
0.0
220
0.0
230
1.0
 70
     8
 71
     3
 72
    12
 73
     8
 74
     0
 42
0.00000001
 43
0.00000001
 12
1.0
 22
0.0
 32
0.0
 13
1.0
 23
0.0
 33
0.0
 40
0.0
 40
0.0
 40
0.0
 40
0.0
 40
0.0050334230688883
 40
0.2885669524041361
 40
0.5354044689538433
 40
0.8527702906412582
 40
1.0
 40
1.0
 40
1.0
 40
1.0
 10
68.92294017667489
 20
144.7281369009072
 30
0.0
 10
68.92130333669137
 20
144.7294225067582
 30
0.0
 10
68.82746303772392
 20
144.8031264965319
 30
0.0
 10
68.63421674210548
 20
144.915873307401
 30
0.0
 10
68.30882059634358
 20
145.0454984486992
 30
0.0
 10
68.01869857912016
 20
145.1166847039613
 30
0.0
 10
67.82623449896066
 20
145.1119739659979
 30
0.0
 10
67.76524288649277
 20
145.1104811393673
 30
0.0
  0
LINE
  5
5D
330
1F
100
AcDbEntity
  8
0
  6
Continuous
 62
     7
370
    30
100
AcDbLine
 10
67.7651758313
 20
145.1214912348
 30
0.0
 11
36.2958642661
 21
145.1214912348
 31
0.0
  0
LINE
  5
5E
330
1F
100
AcDbEntity
  8
0
  6
Continuous
 62
     7
370
    30
100
AcDbLine
 10
36.2958642661
 20
152.8214911931
 30
0.0
 11
36.2958642661
 21
121.4214905166
 31
0.0
  0
LINE
  5
5F
330
1F
100
AcDbEntity
  8
0
  6
Continuous
 62
     7
370
    30
100
AcDbLine
 10
35.9958642519
 20
121.1214900949
 30
0.0
 11
35.9958642519
 21
153.1214906835
 31
0.0
  0
LINE
  5
60
330
1F
100
AcDbEntity
  8
0
  6
Continuous
 62
     7
370
    30
100
AcDbLine
 10
34.7958642531
 20
137.1214908549
 30
0.0
 11
34.7958642531
 21
164.9214892649
 31
0.0
  0
LINE
  5
61
330
1F
100
AcDbEntity
  8
0
  6
Continuous
 62
     7
370
    30
100
AcDbLine
 10
34.7958642531
 20
109.3214905822
 30
0.0
 11
34.7958642531
 21
137.1214908549
 31
0.0
  0
LINE
  5
62
330
1F
100
AcDbEntity
  8
0
  6
Continuous
 62
     7
370
    30
100
AcDbLine
 10
35.7958642424
 20
137.1214908549
 30
0.0
 11
35.7958642424
 21
162.1214902961
 31
0.0
  0
LINE
  5
63
330
1F
100
AcDbEntity
  8
0
  6
Continuous
 62
     7
370
    30
100
AcDbLine
 10
35.7958642424
 20
112.121489551
 30
0.0
 11
35.7958642424
 21
137.1214908549
 31
0.0
  0
LINE
  5
64
330
1F
100
AcDbEntity
  8
0
  6
Continuous
 62
     7
370
    30
100
AcDbLine
 10
33.29586424
 20
109.4838350081
 30
0.0
 11
33.29586424
 21
109.3214905822
 31
0.0
  0
LINE
  5
65
330
1F
100
AcDbEntity
  8
0
  6
Continuous
 62
     7
370
    30
100
AcDbLine
 10
33.29586424
 20
109.4838350081
 30
0.0
 11
30.7958642959
 21
109.4838350081
 31
0.0
  0
LINE
  5
66
330
1F
100
AcDbEntity
  8
0
  6
Continuous
 62
     7
370
    30
100
AcDbLine
 10
30.7958642959
 20
109.4838350081
 30
0.0
 11
30.7958642959
 21
109.7748267465
 31
0.0
  0
LINE
  5
67
330
1F
100
AcDbEntity
  8
0
  6
Continuous
 62
     7
370
    30
100
AcDbLine
 10
30.7958642959
 20
109.7748267465
 30
0.0
 11
29.795864132
 21
109.7748267465
 31
0.0
  0
LINE
  5
68
330
1F
100
AcDbEntity
  8
0
  6
Continuous
 62
     7
370
    30
100
AcDbLine
 10
29.795864132
 20
109.7748267465
 30
0.0
 11
29.795864132
 21
164.8494533264
 31
0.0
  0
LINE
  5
69
330
1F
100
AcDbEntity
  8
0
  6
Continuous
 62
     7
370
    30
100
AcDbLine
 10
30.7958642959
 20
164.8494533264
 30
0.0
 11
29.795864132
 21
164.8494533264
 31
0.0
  0
LINE
  5
6A
330
1F
100
AcDbEntity
  8
0
  6
Continuous
 62
     7
370
    30
100
AcDbLine
 10
30.7958642959
 20
164.8494533264
 30
0.0
 11
30.7958642959
 21
164.9214892649
 31
0.0
  0
LINE
  5
6B
330
1F
100
AcDbEntity
  8
0
  6
Continuous
 62
     7
370
    30
100
AcDbLine
 10
29.795864132
 20
109.7353163176
 30
0.0
 11
30.7958642959
 21
109.7353163176
 31
0.0
  0
LINE
  5
6C
330
1F
100
AcDbEntity
  8
0
  6
Continuous
 62
     7
370
    30
100
AcDbLine
 10
29.795864132
 20
109.7748267465
 30
0.0
 11
29.795864132
 21
109.7353163176
 31
0.0
  0
LWPOLYLINE
  5
6D
330
1F
100
AcDbEntity
  8
0
  6
Continuous
 62
     7
370
    30
100
AcDbPolyline
 90
       13
 70
   128
 43
0.0
 10
109.9856379449
 20
171.7873482966
 10
109.9828588783
 20
171.7712699437
 10
109.9606561481
 20
171.6430827045
 10
109.9166753709
 20
171.3891035878
 10
109.8517212092
 20
171.0140562617
 10
109.7670155584
 20
170.5249293708
 10
109.664130491
 20
169.9308349752
 10
109.5449808061
 20
169.242837187
 10
109.4117942273
 20
168.4737584555
 10
109.2670443475
 20
167.6379187965
 10
109.1134282767
 20
166.7508936488
 10
108.9538144886
 20
165.8292009496
 10
108.7911608636
 20
164.8900142872
  0
LWPOLYLINE
  5
6E
330
1F
100
AcDbEntity
  8
0
  6
Continuous
 62
     7
370
    30
100
AcDbPolyline
 90
       17
 70
   128
 43
0.0
 10
106.9828229963
 20
177.889239695
 10
106.9800886332
 20
177.8734332883
 10
106.9582286298
 20
177.7472092771
 10
106.9147321403
 20
177.4960576558
 10
106.8500461995
 20
177.1225525999
 10
106.7648413598
 20
176.6305311584
 10
106.6599818885
 20
176.0250410997
 10
106.5365481197
 20
175.3122962081
 10
106.3958066523
 20
174.499605503
 10
106.2392028987
 20
173.5953099095
 10
106.0683387339
 20
172.608692851
 10
105.8849724948
 20
171.5498759412
 10
105.6909891784
 20
170.4297221267
 10
105.488370639
 20
169.2597276532
 10
105.2791955888
 20
168.0518991315
 10
105.065624696
 20
166.818626877
 10
104.8498335301
 20
165.5725731515
  0
LINE
  5
6F
330
1F
100
AcDbEntity
  8
0
  6
Continuous
 62
     7
370
    30
100
AcDbLine
 10
102.1025362431
 20
149.7087019497
 30
0.0
 11
104.8498335301
 21
165.5725731515
 31
0.0
  0
LINE
  5
70
330
1F
100
AcDbEntity
  8
0
  6
Continuous
 62
     7
370
    30
100
AcDbLine
 10
106.0438710272
 20
149.0261430853
 30
0.0
 11
108.7911608636
 21
164.8900142872
 31
0.0
  0
ARC
  5
71
330
1F
100
AcDbEntity
  8
0
  6
Continuous
 62
     7
370
    30
100
AcDbCircle
 10
82.3958642661
 20
153.1214904749
 30
0.0
 40
19.99999999999999
100
AcDbArc
 50
270.0
 51
350.175
  0
ARC
  5
72
330
1F
100
AcDbEntity
  8
0
  6
Continuous
 62
     7
370
    30
100
AcDbCircle
 10
82.3958642661
 20
153.1214904749
 30
0.0
 40
24.0
100
AcDbArc
 50
270.0
 51
350.175
  0
LINE
  5
73
330
1F
100
AcDbEntity
  8
0
  6
Continuous
 62
     7
370
    30
100
AcDbLine
 10
82.3958660483
 20
133.1214906649
 30
0.0
 11
36.2958642661
 21
133.1214906649
 31
0.0
  0
ARC
  5
74
330
1F
100
AcDbEntity
  8
0
  6
Continuous
 62
     7
370
    30
100
AcDbCircle
 10
79.0458642661
 20
157.1214904749
 30
0.0
 40
16.00000000000002
100
AcDbArc
 50
246.7369103391
 51
13.5713132808
  0
LINE
  5
75
330
1F
100
AcDbEntity
  8
0
  6
Continuous
 62
     7
370
    30
100
AcDbLine
 10
82.3958660483
 20
129.1214904749
 30
0.0
 11
36.2958642661
 21
129.1214904749
 31
0.0
  0
SPLINE
  5
76
330
1F
100
AcDbEntity
  8
0
  6
Continuous
 62
     7
370
    30
100
AcDbSpline
210
0.0
220
0.0
230
1.0
 70
     8
 71
     3
 72
    13
 73
     9
 74
     0
 42
0.00000001
 43
0.00000001
 12
1.0
 22
0.0
 32
0.0
 13
1.0
 23
0.0
 33
0.0
 40
0.0
 40
0.0
 40
0.0
 40
0.0
 40
0.1109719468722043
 40
0.3023536412834231
 40
0.500660759396652
 40
0.7034865461499967
 40
0.9114696416358198
 40
1.0
 40
1.0
 40
1.0
 40
1.0
 10
94.59912357921318
 20
160.8759767376835
 30
0.0
 10
94.5190312091251
 20
161.1821157057568
 30
0.0
 10
94.30081191661294
 20
162.0162204893947
 30
0.0
 10
93.89866166075083
 20
163.1049364161367
 30
0.0
 10
93.47680489208801
 20
164.0499078628957
 30
0.0
 10
93.16724804052346
 20
164.6493537575874
 30
0.0
 10
93.01409855748847
 20
164.9246399060729
 30
0.0
 10
93.02684708627544
 20
164.9017278465109
 30
0.0
 10
93.03065342898087
 20
164.8948869668896
 30
0.0
  0
SPLINE
  5
77
330
1F
100
AcDbEntity
  8
0
  6
Continuous
 62
     7
370
    30
100
AcDbSpline
210
0.0
220
0.0
230
1.0
 70
     8
 71
     3
 72
    13
 73
     9
 74
     0
 42
0.00000001
 43
0.00000001
 12
1.0
 22
0.0
 32
0.0
 13
1.0
 23
0.0
 33
0.0
 40
0.0
 40
0.0
 40
0.0
 40
0.0
 40
0.1037706051500636
 40
0.2955070271470077
 40
0.4721892654099
 40
0.6526344885457713
 40
0.8235960566859082
 40
0.9999999999999999
 40
0.9999999999999999
 40
0.9999999999999999
 40
0.9999999999999999
 10
69.01805801386551
 20
144.6538108401949
 30
0.0
 10
69.0135744356871
 20
144.6574010298372
 30
0.0
 10
69.00080657279793
 20
144.667624794713
 30
0.0
 10
69.23622979733996
 20
144.4788316999519
 30
0.0
 10
69.70610380495101
 20
144.1231256447594
 30
0.0
 10
70.42272908910832
 20
143.6343803003178
 30
0.0
 10
71.39007707395587
 20
143.0443495509043
 30
0.0
 10
72.2764652618298
 20
142.6317874044765
 30
0.0
 10
72.72660313243584
 20
142.4222744070942
 30
0.0
  0
SPLINE
  5
78
330
1F
100
AcDbEntity
  8
0
  6
Continuous
 62
     7
370
    30
100
AcDbSpline
210
0.0
220
0.0
230
1.0
 70
     8
 71
     3
 72
    38
 73
    34
 74
     0
 42
0.00000001
 43
0.00000001
 12
1.0
 22
0.0
 32
0.0
 13
1.0
 23
0.0
 33
0.0
 40
0.0
 40
0.0
 40
0.0
 40
0.0
 40
0.024586739924417
 40
0.0576085844002408
 40
0.0906334441552511
 40
0.1236629840311864
 40
0.1566987119637149
 40
0.1897419074121542
 40
0.2227934768273731
 40
0.2558540537885603
 40
0.2889240676742974
 40
0.3220033074945536
 40
0.3550916206293407
 40
0.3881882595648566
 40
0.4212924176727616
 40
0.4544029757737647
 40
0.4875186728661624
 40
0.5206380746791495
 40
0.553759522889376
 40
0.5868810235819237
 40
0.620000960759212
 40
0.6531177726080543
 40
0.6862300100573424
 40
0.7193361648505194
 40
0.7524351687789863
 40
0.7855259047941401
 40
0.8186076648722472
 40
0.8516800321131963
 40
0.8847429265560197
 40
0.9177965830240628
 40
0.9508416329774699
 40
0.9838788720022213
 40
1.0
 40
1.0
 40
1.0
 40
1.0
 10
183.8950334305264
 20
168.9439832233841
 30
0.0
 10
183.8440785538394
 20
169.2257810320886
 30
0.0
 10
183.724687438008
 20
169.8860545330271
 30
0.0
 10
183.4121563917919
 20
170.8970841194001
 30
0.0
 10
182.9809634081198
 20
171.9692646086428
 30
0.0
 10
182.4468704820919
 20
172.9961395911365
 30
0.0
 10
181.819094169871
 20
173.9696066066652
 30
0.0
 10
181.1018577100371
 20
174.8809781305293
 30
0.0
 10
180.3017110489265
 20
175.7223828526549
 30
0.0
 10
179.4255022266302
 20
176.48646107787
 30
0.0
 10
178.4808754410182
 20
177.1665630444998
 30
0.0
 10
177.4760124907374
 20
177.7567180106085
 30
0.0
 10
176.4196687568307
 20
178.2517744981663
 30
0.0
 10
175.3210262136977
 20
178.6473627373592
 30
0.0
 10
174.1896654653801
 20
178.94000743356
 30
0.0
 10
173.0354500005823
 20
179.1271060453315
 30
0.0
 10
171.8684604344459
 20
179.2069971492192
 30
0.0
 10
170.6988961640448
 20
179.1789436152996
 30
0.0
 10
169.5369947425889
 20
179.0431582995926
 30
0.0
 10
168.3929318339302
 20
178.8008076443971
 30
0.0
 10
167.2767306318734
 20
178.4540022899176
 30
0.0
 10
166.1981671498776
 20
178.0057597922353
 30
0.0
 10
165.1666943772049
 20
177.4600003947227
 30
0.0
 10
164.1913355368231
 20
176.8215166863721
 30
0.0
 10
163.2806421891331
 20
176.0958957505844
 30
0.0
 10
162.4425616297922
 20
175.2895107479189
 30
0.0
 10
161.6844552703336
 20
174.4094328901346
 30
0.0
 10
161.0127954950693
 20
173.4633994079497
 30
0.0
 10
160.433955325431
 20
172.4596268939771
 30
0.0
 10
159.9509937327107
 20
171.4071936359892
 30
0.0
 10
159.5754316048977
 20
170.3142453833429
 30
0.0
 10
159.3330030977776
 20
169.3853679726591
 30
0.0
 10
159.2573630120832
 20
168.8180016538053
 30
0.0
 10
159.2325573975541
 20
168.6319380068237
 30
0.0
  0
ARC
  5
79
330
1F
100
AcDbEntity
  8
0
  6
Continuous
 62
     7
370
    30
100
AcDbCircle
 10
171.5873280729
 20
137.1214904749
 30
0.0
 40
15.70000000000002
100
AcDbArc
 50
0.0
 51
37.2333047158
  0
ARC
  5
7A
330
1F
100
AcDbEntity
  8
0
  6
Continuous
 62
     7
370
    30
100
AcDbCircle
 10
171.5873280729
 20
137.1214904749
 30
0.0
 40
15.7
100
AcDbArc
 50
142.7666952842
 51
0.0
  0
ARC
  5
7B
330
1F
100
AcDbEntity
  8
0
  6
Continuous
 62
     7
370
    30
100
AcDbCircle
 10
171.5873280729
 20
137.1214904749
 30
0.0
 40
16.0
100
AcDbArc
 50
141.3751671269
 51
0.0
  0
ARC
  5
7C
330
1F
100
AcDbEntity
  8
0
  6
Continuous
 62
     7
370
    30
100
AcDbCircle
 10
171.5873280729
 20
137.1214904749
 30
0.0
 40
16.00000000000001
100
AcDbArc
 50
0.0
 51
38.6248328731
  0
ARC
  5
7D
330
1F
100
AcDbEntity
  8
0
  6
Continuous
 62
     7
370
    30
100
AcDbCircle
 10
171.5873280729
 20
137.1214904749
 30
0.0
 40
27.79999999999999
100
AcDbArc
 50
116.7206075304
 51
180.0
  0
ARC
  5
7E
330
1F
100
AcDbEntity
  8
0
  6
Continuous
 62
     7
370
    30
100
AcDbCircle
 10
171.5873280729
 20
137.1214904749
 30
0.0
 40
27.8
100
AcDbArc
 50
180.0
 51
63.2793924696
  0
ARC
  5
7F
330
1F
100
AcDbEntity
  8
0
  6
Continuous
 62
     7
370
    30
100
AcDbCircle
 10
171.5873280729
 20
137.1214904749
 30
0.0
 40
25.00000000000003
100
AcDbArc
 50
120.0
 51
180.0
  0
ARC
  5
80
330
1F
100
AcDbEntity
  8
0
  6
Continuous
 62
     7
370
    30
100
AcDbCircle
 10
171.5873280729
 20
137.1214904749
 30
0.0
 40
25.00000000000003
100
AcDbArc
 50
180.0
 51
60.0
  0
ARC
  5
81
330
1F
100
AcDbEntity
  8
0
  6
Continuous
 62
     7
370
    30
100
AcDbCircle
 10
171.5873280729
 20
137.1214904749
 30
0.0
 40
16.5
100
AcDbArc
 50
139.2509456225
 51
180.0
  0
ARC
  5
82
330
1F
100
AcDbEntity
  8
0
  6
Continuous
 62
     7
370
    30
100
AcDbCircle
 10
171.5873280729
 20
137.1214904749
 30
0.0
 40
16.5
100
AcDbArc
 50
180.0
 51
40.7490543775
  0
LINE
  5
83
330
1F
100
AcDbEntity
  8
0
  6
Continuous
 62
     7
370
    30
100
AcDbLine
 10
171.5525684696
 20
117.5881947392
 30
0.0
 11
171.726292184
 21
118.0593927392
 31
0.0
  0
LINE
  5
84
330
1F
100
AcDbEntity
  8
0
  6
Continuous
 62
     7
370
    30
100
AcDbLine
 10
171.726292184
 20
118.0593927392
 30
0.0
 11
170.6976183297
 21
118.0593927392
 31
0.0
  0
LINE
  5
85
330
1F
100
AcDbEntity
  8
0
  6
Continuous
 62
     7
370
    30
100
AcDbLine
 10
170.6976183297
 20
118.0593927392
 30
0.0
 11
170.2437023588
 21
116.3095251658
 31
0.0
  0
LINE
  5
86
330
1F
100
AcDbEntity
  8
0
  6
Continuous
 62
     7
370
    30
100
AcDbLine
 10
170.2437023588
 20
116.3095251658
 30
0.0
 11
169.6539854121
 21
118.0593927392
 31
0.0
  0
LINE
  5
87
330
1F
100
AcDbEntity
  8
0
  6
Continuous
 62
     7
370
    30
100
AcDbLine
 10
169.6539854121
 20
118.0593927392
 30
0.0
 11
168.6951987168
 21
118.0593927392
 31
0.0
  0
LINE
  5
88
330
1F
100
AcDbEntity
  8
0
  6
Continuous
 62
     7
370
    30
100
AcDbLine
 10
168.6951987168
 20
118.0593927392
 30
0.0
 11
168.1254663227
 21
116.3104602137
 31
0.0
  0
LINE
  5
89
330
1F
100
AcDbEntity
  8
0
  6
Continuous
 62
     7
370
    30
100
AcDbLine
 10
168.1254663227
 20
116.3104602137
 30
0.0
 11
167.6751730221
 21
118.0593927392
 31
0.0
  0
LINE
  5
8A
330
1F
100
AcDbEntity
  8
0
  6
Continuous
 62
     7
370
    30
100
AcDbLine
 10
167.6751730221
 20
118.0593927392
 30
0.0
 11
166.8825672197
 21
118.0593927392
 31
0.0
  0
LINE
  5
8B
330
1F
100
AcDbEntity
  8
0
  6
Continuous
 62
     7
370
    30
100
AcDbLine
 10
166.8825672197
 20
118.0593927392
 30
0.0
 11
167.1625600385
 21
118.3513288387
 31
0.0
  0
LINE
  5
8C
330
1F
100
AcDbEntity
  8
0
  6
Continuous
 62
     7
370
    30
100
AcDbLine
 10
167.1625600385
 20
118.3513288387
 30
0.0
 11
167.1625600385
 21
119.1214906984
 31
0.0
  0
LINE
  5
8D
330
1F
100
AcDbEntity
  8
0
  6
Continuous
 62
     7
370
    30
100
AcDbLine
 10
167.1625600385
 20
119.1214906984
 30
0.0
 11
163.7967560629
 21
119.1214906984
 31
0.0
  0
LINE
  5
8E
330
1F
100
AcDbEntity
  8
0
  6
Continuous
 62
     7
370
    30
100
AcDbLine
 10
163.7967560629
 20
119.1214906984
 30
0.0
 11
163.7967560629
 21
118.2987389156
 31
0.0
  0
LINE
  5
8F
330
1F
100
AcDbEntity
  8
0
  6
Continuous
 62
     7
370
    30
100
AcDbLine
 10
163.7967560629
 20
118.2987389156
 30
0.0
 11
165.7241462918
 21
118.2987389156
 31
0.0
  0
LINE
  5
90
330
1F
100
AcDbEntity
  8
0
  6
Continuous
 62
     7
370
    30
100
AcDbLine
 10
165.7241462918
 20
118.2987389156
 30
0.0
 11
163.5873276929
 21
116.0707340577
 31
0.0
  0
LINE
  5
91
330
1F
100
AcDbEntity
  8
0
  6
Continuous
 62
     7
370
    30
100
AcDbLine
 10
163.5873276929
 20
116.0707340577
 30
0.0
 11
163.5873276929
 21
115.2692806908
 31
0.0
  0
LINE
  5
92
330
1F
100
AcDbEntity
  8
0
  6
Continuous
 62
     7
370
    30
100
AcDbLine
 10
163.5873276929
 20
115.2692806908
 30
0.0
 11
167.2448349374
 21
115.2692806908
 31
0.0
  0
LINE
  5
93
330
1F
100
AcDbEntity
  8
0
  6
Continuous
 62
     7
370
    30
100
AcDbLine
 10
167.2448349374
 20
115.2692806908
 30
0.0
 11
167.2448349374
 21
116.0997168162
 31
0.0
  0
LINE
  5
94
330
1F
100
AcDbEntity
  8
0
  6
Continuous
 62
     7
370
    30
100
AcDbLine
 10
167.2448349374
 20
116.0997168162
 30
0.0
 11
165.0030693228
 21
116.0997168162
 31
0.0
  0
LINE
  5
95
330
1F
100
AcDbEntity
  8
0
  6
Continuous
 62
     7
370
    30
100
AcDbLine
 10
165.0030693228
 20
116.0997168162
 30
0.0
 11
166.7078208367
 21
117.8771915847
 31
0.0
  0
LINE
  5
96
330
1F
100
AcDbEntity
  8
0
  6
Continuous
 62
     7
370
    30
100
AcDbLine
 10
166.7078208367
 20
117.8771915847
 30
0.0
 11
167.675874308
 21
115.2692806908
 31
0.0
  0
LINE
  5
97
330
1F
100
AcDbEntity
  8
0
  6
Continuous
 62
     7
370
    30
100
AcDbLine
 10
167.675874308
 20
115.2692806908
 30
0.0
 11
168.6326741429
 21
115.2692806908
 31
0.0
  0
LINE
  5
98
330
1F
100
AcDbEntity
  8
0
  6
Continuous
 62
     7
370
    30
100
AcDbLine
 10
168.6326741429
 20
115.2692806908
 30
0.0
 11
169.1795004255
 21
116.9482094237
 31
0.0
  0
LINE
  5
99
330
1F
100
AcDbEntity
  8
0
  6
Continuous
 62
     7
370
    30
100
AcDbLine
 10
169.1795004255
 20
116.9482094237
 30
0.0
 11
169.7451425672
 21
115.2692806908
 31
0.0
  0
LINE
  5
9A
330
1F
100
AcDbEntity
  8
0
  6
Continuous
 62
     7
370
    30
100
AcDbLine
 10
169.7451425672
 20
115.2692806908
 30
0.0
 11
170.6976183297
 21
115.2692806908
 31
0.0
  0
LINE
  5
9B
330
1F
100
AcDbEntity
  8
0
  6
Continuous
 62
     7
370
    30
100
AcDbLine
 10
170.6976183297
 20
115.2692806908
 30
0.0
 11
171.2532349003
 21
116.7763012462
 31
0.0
  0
SPLINE
  5
9C
330
1F
100
AcDbEntity
  8
0
  6
Continuous
 62
     7
370
    30
100
AcDbSpline
210
0.0
220
0.0
230
1.0
 70
     8
 71
     3
 72
    15
 73
    11
 74
     0
 42
0.00000001
 43
0.00000001
 12
1.0
 22
0.0
 32
0.0
 13
1.0
 23
0.0
 33
0.0
 40
0.0
 40
0.0
 40
0.0
 40
0.0
 40
0.1257856706960638
 40
0.2503395299652654
 40
0.3760302721781268
 40
0.5003545351439233
 40
0.6251130633197363
 40
0.7506829354227601
 40
0.8741493972091695
 40
1.0
 40
1.0
 40
1.0
 40
1.0
 10
171.2532349002875
 20
116.7763012462313
 30
0.0
 10
171.2614495061115
 20
116.590251444378
 30
0.0
 10
171.2777982726242
 20
116.2199738150716
 30
0.0
 10
171.5119810207707
 20
115.6981209767077
 30
0.0
 10
171.9556436808653
 20
115.334279390123
 30
0.0
 10
172.504689318377
 20
115.2075661499747
 30
0.0
 10
173.0569005801252
 20
115.2020046039464
 30
0.0
 10
173.6065539256616
 20
115.2632575363369
 30
0.0
 10
174.1234708571379
 20
115.5195668018782
 30
0.0
 10
174.3235536906702
 20
115.8345012812609
 30
0.0
 10
174.4245517721727
 20
115.9934743308479
 30
0.0
  0
LINE
  5
9D
330
1F
100
AcDbEntity
  8
0
  6
Continuous
 62
     7
370
    30
100
AcDbLine
 10
174.4245517722
 20
115.9934743308
 30
0.0
 11
173.3290415679
 21
116.0963929259
 31
0.0
  0
ARC
  5
9E
330
1F
100
AcDbEntity
  8
0
  6
Continuous
 62
     7
370
    30
100
AcDbCircle
 10
172.8692729261
 20
116.3577273999
 30
0.0
 40
0.5288507256349363
100
AcDbArc
 50
175.5316394845
 51
330.3858768569
  0
LINE
  5
9F
330
1F
100
AcDbEntity
  8
0
  6
Continuous
 62
     7
370
    30
100
AcDbLine
 10
172.3420296286
 20
116.398929339
 30
0.0
 11
174.4289713635
 21
116.398929339
 31
0.0
  0
LINE
  5
A0
330
1F
100
AcDbEntity
  8
0
  6
Continuous
 62
     7
370
    30
100
AcDbLine
 10
174.4289713635
 20
116.398929339
 30
0.0
 11
174.4289713635
 21
115.2692806908
 31
0.0
  0
LINE
  5
A1
330
1F
100
AcDbEntity
  8
0
  6
Continuous
 62
     7
370
    30
100
AcDbLine
 10
174.4289713635
 20
115.2692806908
 30
0.0
 11
175.4985490071
 21
115.2692806908
 31
0.0
  0
LINE
  5
A2
330
1F
100
AcDbEntity
  8
0
  6
Continuous
 62
     7
370
    30
100
AcDbLine
 10
175.4985490071
 20
115.2692806908
 30
0.0
 11
175.4985490071
 21
118.0593927392
 31
0.0
  0
LINE
  5
A3
330
1F
100
AcDbEntity
  8
0
  6
Continuous
 62
     7
370
    30
100
AcDbLine
 10
175.4985490071
 20
118.0593927392
 30
0.0
 11
174.4289713635
 21
118.0593927392
 31
0.0
  0
LINE
  5
A4
330
1F
100
AcDbEntity
  8
0
  6
Continuous
 62
     7
370
    30
100
AcDbLine
 10
174.4289713635
 20
118.0593927392
 30
0.0
 11
174.4289713635
 21
117.0820758679
 31
0.0
  0
SPLINE
  5
A5
330
1F
100
AcDbEntity
  8
0
  6
Continuous
 62
     7
370
    30
100
AcDbSpline
210
0.0
220
0.0
230
1.0
 70
     8
 71
     3
 72
    14
 73
    10
 74
     0
 42
0.00000001
 43
0.00000001
 12
1.0
 22
0.0
 32
0.0
 13
1.0
 23
0.0
 33
0.0
 40
0.0
 40
0.0
 40
0.0
 40
0.0
 40
0.125130021060941
 40
0.2502606514660776
 40
0.3750814287301475
 40
0.5000801054975956
 40
0.6666816920320938
 40
0.833577873267786
 40
1.0
 40
1.0
 40
1.0
 40
1.0
 10
174.4289713634505
 20
117.0820758678967
 30
0.0
 10
174.3834804049124
 20
117.2222822681191
 30
0.0
 10
174.2924982663093
 20
117.5026957513252
 30
0.0
 10
173.9873842375069
 20
117.8366815780875
 30
0.0
 10
173.5900068033385
 20
118.0367973480126
 30
0.0
 10
173.1074299194642
 20
118.126055275141
 30
0.0
 10
172.5730144609442
 20
118.1263080577068
 30
0.0
 10
171.9803455370824
 20
118.001209496182
 30
0.0
 10
171.6950255620853
 20
117.7257357293731
 30
0.0
 10
171.5525684695611
 20
117.5881947391683
 30
0.0
  0
LINE
  5
A6
330
1F
100
AcDbEntity
  8
0
  6
Continuous
 62
     7
370
    30
100
AcDbLine
 10
177.7295923049
 20
116.2194197067
 30
0.0
 11
177.7295923049
 21
119.1214906984
 31
0.0
  0
LINE
  5
A7
330
1F
100
AcDbEntity
  8
0
  6
Continuous
 62
     7
370
    30
100
AcDbLine
 10
177.7295923049
 20
119.1214906984
 30
0.0
 11
176.5403413402
 21
119.1214906984
 31
0.0
  0
LINE
  5
A8
330
1F
100
AcDbEntity
  8
0
  6
Continuous
 62
     7
370
    30
100
AcDbLine
 10
176.5403413402
 20
119.1214906984
 30
0.0
 11
176.5403413402
 21
115.2692806908
 31
0.0
  0
LINE
  5
A9
330
1F
100
AcDbEntity
  8
0
  6
Continuous
 62
     7
370
    30
100
AcDbLine
 10
176.5403413402
 20
115.2692806908
 30
0.0
 11
179.5845242406
 21
115.2692806908
 31
0.0
  0
LINE
  5
AA
330
1F
100
AcDbEntity
  8
0
  6
Continuous
 62
     7
370
    30
100
AcDbLine
 10
179.5845242406
 20
115.2692806908
 30
0.0
 11
179.5845242406
 21
116.2194197067
 31
0.0
  0
LINE
  5
AB
330
1F
100
AcDbEntity
  8
0
  6
Continuous
 62
     7
370
    30
100
AcDbLine
 10
179.5845242406
 20
116.2194197067
 30
0.0
 11
177.7295923049
 21
116.2194197067
 31
0.0
  0
LINE
  5
AC
330
1F
100
AcDbEntity
  8
0
  6
Continuous
 62
     7
370
    30
100
AcDbLine
 10
175.4985490071
 20
118.3959727176
 30
0.0
 11
175.4985490071
 21
119.1214906984
 31
0.0
  0
LINE
  5
AD
330
1F
100
AcDbEntity
  8
0
  6
Continuous
 62
     7
370
    30
100
AcDbLine
 10
175.4985490071
 20
119.1214906984
 30
0.0
 11
174.4289713635
 21
119.1214906984
 31
0.0
  0
LINE
  5
AE
330
1F
100
AcDbEntity
  8
0
  6
Continuous
 62
     7
370
    30
100
AcDbLine
 10
174.4289713635
 20
119.1214906984
 30
0.0
 11
174.4289713635
 21
118.3959727176
 31
0.0
  0
LINE
  5
AF
330
1F
100
AcDbEntity
  8
0
  6
Continuous
 62
     7
370
    30
100
AcDbLine
 10
174.4289713635
 20
118.3959727176
 30
0.0
 11
175.4985490071
 21
118.3959727176
 31
0.0
  0
ARC
  5
B0
330
1F
100
AcDbEntity
  8
0
  6
Continuous
 62
     7
370
    30
100
AcDbCircle
 10
172.8704182535
 20
116.957281254
 30
0.0
 40
0.5277927434112197
100
AcDbArc
 50
355.4071820254
 51
184.5928179747
  0
LINE
  5
B1
330
1F
100
AcDbEntity
  8
0
  6
Continuous
 62
     7
370
    30
100
AcDbLine
 10
172.3443202746
 20
116.9150189498
 30
0.0
 11
173.3965162376
 21
116.9150189498
 31
0.0
  0
ARC
  5
B2
330
1F
100
AcDbEntity
  8
0
  6
Continuous
 62
     7
370
    30
100
AcDbCircle
 10
171.5873280729
 20
164.808663154
 30
0.0
 40
7.000472914868882
100
AcDbArc
 50
0.6658380888
 51
179.3341619112
  0
ARC
  5
B3
330
1F
100
AcDbEntity
  8
0
  6
Continuous
 62
     7
370
    30
100
AcDbCircle
 10
171.5873280729
 20
165.4263615996
 30
0.0
 40
12.50085526972211
100
AcDbArc
 50
0.6701538156
 51
179.3298461844
  0
LINE
  5
B4
330
1F
100
AcDbEntity
  8
0
  6
Continuous
 62
     7
370
    30
100
AcDbLine
 10
164.5873278568
 20
149.0261430853
 30
0.0
 11
164.5873278568
 21
164.8900142872
 31
0.0
  0
LINE
  5
B5
330
1F
100
AcDbEntity
  8
0
  6
Continuous
 62
     7
370
    30
100
AcDbLine
 10
178.5873282889
 20
149.0261430853
 30
0.0
 11
178.5873282889
 21
164.8900142872
 31
0.0
  0
LINE
  5
B6
330
1F
100
AcDbEntity
  8
0
  6
Continuous
 62
     7
370
    30
100
AcDbLine
 10
184.0873282591
 20
149.7087019497
 30
0.0
 11
184.0873282591
 21
165.5725731515
 31
0.0
  0
LINE
  5
B7
330
1F
100
AcDbEntity
  8
0
  6
Continuous
 62
     7
370
    30
100
AcDbLine
 10
159.0873278866
 20
149.7087019497
 30
0.0
 11
159.0873278866
 21
165.5725731515
 31
0.0
  0
LINE
  5
B8
330
1F
100
AcDbEntity
  8
0
  6
Continuous
 62
     7
370
    30
100
AcDbLine
 10
184.0873282591
 20
166.8461195194
 30
0.0
 11
184.0873282591
 21
165.5725731515
 31
0.0
  0
LINE
  5
B9
330
1F
100
AcDbEntity
  8
0
  6
Continuous
 62
     7
370
    30
100
AcDbLine
 10
159.0873278866
 20
165.5725731515
 30
0.0
 11
159.0873278866
 21
166.8461195194
 31
0.0
  0
LWPOLYLINE
  5
BA
330
1F
100
AcDbEntity
  8
0
  6
Continuous
 62
     7
370
    30
100
AcDbPolyline
 90
        3
 70
   128
 43
0.0
 10
184.0873282591
 20
166.8461195194
 10
184.0231945927
 20
168.0921769702
 10
183.9061208258
 20
168.9357130789
  0
LWPOLYLINE
  5
BB
330
1F
100
AcDbEntity
  8
0
  6
Continuous
 62
     7
370
    30
100
AcDbPolyline
 90
        3
 70
   128
 43
0.0
 10
159.2184525172
 20
168.6254373753
 10
159.151461553
 20
168.0921769702
 10
159.0873278866
 20
166.8461195194
  0
LINE
  5
BC
330
1F
100
AcDbEntity
  8
0
  6
Continuous
 62
     7
370
    30
100
AcDbLine
 10
178.5873282889
 20
129.1214904749
 30
0.0
 11
178.5873282889
 21
149.0261430853
 31
0.0
  0
LINE
  5
BD
330
1F
100
AcDbEntity
  8
0
  6
Continuous
 62
     7
370
    30
100
AcDbLine
 10
184.0873282591
 20
133.1214906649
 30
0.0
 11
184.0873282591
 21
149.7087019497
 31
0.0
  0
LINE
  5
BE
330
1F
100
AcDbEntity
  8
0
  6
Continuous
 62
     7
370
    30
100
AcDbLine
 10
184.0873282591
 20
133.1214906649
 30
0.0
 11
178.5873282889
 21
129.1214904749
 31
0.0
  0
LINE
  5
BF
330
1F
100
AcDbEntity
  8
0
  6
Continuous
 62
     7
370
    30
100
AcDbLine
 10
164.5873278568
 20
129.1214904749
 30
0.0
 11
164.5873278568
 21
149.0261430853
 31
0.0
  0
LINE
  5
C0
330
1F
100
AcDbEntity
  8
0
  6
Continuous
 62
     7
370
    30
100
AcDbLine
 10
178.5873282889
 20
129.1214904749
 30
0.0
 11
164.5873278568
 21
129.1214904749
 31
0.0
  0
LINE
  5
C1
330
1F
100
AcDbEntity
  8
0
  6
Continuous
 62
     7
370
    30
100
AcDbLine
 10
159.0873278866
 20
133.1214906649
 30
0.0
 11
159.0873278866
 21
149.7087019497
 31
0.0
  0
LINE
  5
C2
330
1F
100
AcDbEntity
  8
0
  6
Continuous
 62
     7
370
    30
100
AcDbLine
 10
164.5873278568
 20
129.1214904749
 30
0.0
 11
159.0873278866
 21
133.1214906649
 31
0.0
  0
LINE
  5
C3
330
1F
100
AcDbEntity
  8
0
  6
Continuous
 62
     7
370
    30
100
AcDbLine
 10
308.3134524423
 20
153.1214906835
 30
0.0
 11
308.1134524328
 21
153.1214906835
 31
0.0
  0
LINE
  5
C4
330
1F
100
AcDbEntity
  8
0
  6
Continuous
 62
     7
370
    30
100
AcDbLine
 10
308.1134524328
 20
121.1214900949
 30
0.0
 11
308.3134524423
 21
121.1214900949
 31
0.0
  0
LINE
  5
C5
330
1F
100
AcDbEntity
  8
0
  6
Continuous
 62
     7
370
    30
100
AcDbLine
 10
308.1134524328
 20
153.1214906835
 30
0.0
 11
307.8134524185
 21
152.8214911931
 31
0.0
  0
LINE
  5
C6
330
1F
100
AcDbEntity
  8
0
  6
Continuous
 62
     7
370
    30
100
AcDbLine
 10
307.8134524185
 20
121.4214905166
 30
0.0
 11
308.1134524328
 21
121.1214900949
 31
0.0
  0
LINE
  5
C7
330
1F
100
AcDbEntity
  8
0
  6
Continuous
 62
     7
370
    30
100
AcDbLine
 10
313.3134523887
 20
164.9214892649
 30
0.0
 11
309.3134524316
 21
164.9214892649
 31
0.0
  0
LINE
  5
C8
330
1F
100
AcDbEntity
  8
0
  6
Continuous
 62
     7
370
    30
100
AcDbLine
 10
309.3134524316
 20
109.3214905822
 30
0.0
 11
310.8134524446
 21
109.3214905822
 31
0.0
  0
LINE
  5
C9
330
1F
100
AcDbEntity
  8
0
  6
Continuous
 62
     7
370
    30
100
AcDbLine
 10
309.3134524316
 20
164.9214892649
 30
0.0
 11
308.3134524423
 21
162.1214902961
 31
0.0
  0
LINE
  5
CA
330
1F
100
AcDbEntity
  8
0
  6
Continuous
 62
     7
370
    30
100
AcDbLine
 10
308.3134524423
 20
112.121489551
 30
0.0
 11
309.3134524316
 21
109.3214905822
 31
0.0
  0
LINE
  5
CB
330
1F
100
AcDbEntity
  8
0
  6
Continuous
 62
     7
370
    30
100
AcDbLine
 10
237.1264936883
 20
177.889239695
 30
0.0
 11
234.1236787397
 21
171.7873482966
 31
0.0
  0
ARC
  5
CC
330
1F
100
AcDbEntity
  8
0
  6
Continuous
 62
     7
370
    30
100
AcDbCircle
 10
244.8216928724
 20
177.1921209626
 30
0.0
 40
1.999999999999996
100
AcDbArc
 50
36.9878884222
 51
99.825
  0
LINE
  5
CD
330
1F
100
AcDbEntity
  8
0
  6
Continuous
 62
     7
370
    30
100
AcDbLine
 10
244.4804104526
 20
179.1627897882
 30
0.0
 11
237.1264936883
 21
177.889239695
 31
0.0
  0
ARC
  5
CE
330
1F
100
AcDbEntity
  8
0
  6
Continuous
 62
     7
370
    30
100
AcDbCircle
 10
226.4501505879
 20
163.3542586245
 30
0.0
 40
25.00000000000002
100
AcDbArc
 50
9.825
 51
36.9878884222
  0
LINE
  5
CF
330
1F
100
AcDbEntity
  8
0
  6
Continuous
 62
     7
370
    30
100
AcDbLine
 10
251.3275349993
 20
166.2110432052
 30
0.0
 11
251.0834875066
 21
167.6202460193
 31
0.0
  0
SPLINE
  5
D0
330
1F
100
AcDbEntity
  8
0
  6
Continuous
 62
     7
370
    30
100
AcDbSpline
210
0.0
220
0.0
230
1.0
 70
     8
 71
     3
 72
    13
 73
     9
 74
     0
 42
0.00000001
 43
0.00000001
 12
1.0
 22
0.0
 32
0.0
 13
1.0
 23
0.0
 33
0.0
 40
0.0
 40
0.0
 40
0.0
 40
0.0
 40
0.2092713529553758
 40
0.4448013447689521
 40
0.6527617727348646
 40
0.829278377221788
 40
0.9694201716850053
 40
1.0
 40
1.0
 40
1.0
 40
1.0
 10
276.3424756485966
 20
145.1170562767441
 30
0.0
 10
276.2558697770897
 20
145.1140015656968
 30
0.0
 10
276.0717910316374
 20
145.1075088491233
 30
0.0
 10
275.8077804495408
 20
145.0445089022007
 30
0.0
 10
275.5669028761037
 20
144.9556164313367
 30
0.0
 10
275.3744730924675
 20
144.8549262604769
 30
0.0
 10
275.2527296424562
 20
144.7783361892773
 30
0.0
 10
275.1967816698291
 20
144.7353425085198
 30
0.0
 10
275.1867602128532
 20
144.7276414372975
 30
0.0
  0
LINE
  5
D1
330
1F
100
AcDbEntity
  8
0
  6
Continuous
 62
     7
370
    30
100
AcDbLine
 10
307.8134524185
 20
145.1214912348
 30
0.0
 11
276.3441408534
 21
145.1214912348
 31
0.0
  0
SPLINE
  5
D2
330
1F
100
AcDbEntity
  8
0
  6
Continuous
 62
     7
370
    30
100
AcDbSpline
210
0.0
220
0.0
230
1.0
 70
     8
 71
     3
 72
    12
 73
     8
 74
     0
 42
0.00000001
 43
0.00000001
 12
1.0
 22
0.0
 32
0.0
 13
1.0
 23
0.0
 33
0.0
 40
0.0
 40
0.0
 40
0.0
 40
0.0
 40
0.2123966716126737
 40
0.384166211175043
 40
0.6064587714770356
 40
0.923998654677832
 40
1.0
 40
1.0
 40
1.0
 40
1.0
 10
251.0970401126889
 20
164.9328178727085
 30
0.0
 10
251.1401758561934
 20
165.0161162856252
 30
0.0
 10
251.2181963591632
 20
165.1667798315466
 30
0.0
 10
251.2983150533178
 20
165.4232512146744
 30
0.0
 10
251.3519037070838
 20
165.7319677565798
 30
0.0
 10
251.365523210413
 20
166.0083344472982
 30
0.0
 10
251.3270302341509
 20
166.1777233185803
 30
0.0
 10
251.3195964056996
 20
166.2104359828884
 30
0.0
  0
LINE
  5
D3
330
1F
100
AcDbEntity
  8
0
  6
Continuous
 62
     7
370
    30
100
AcDbLine
 10
308.1134524328
 20
137.1214908549
 30
0.0
 11
308.1134524328
 21
121.1214900949
 31
0.0
  0
LINE
  5
D4
330
1F
100
AcDbEntity
  8
0
  6
Continuous
 62
     7
370
    30
100
AcDbLine
 10
308.1134524328
 20
153.1214906835
 30
0.0
 11
308.1134524328
 21
137.1214908549
 31
0.0
  0
LINE
  5
D5
330
1F
100
AcDbEntity
  8
0
  6
Continuous
 62
     7
370
    30
100
AcDbLine
 10
307.8134524185
 20
137.1214908549
 30
0.0
 11
307.8134524185
 21
152.8214911931
 31
0.0
  0
LINE
  5
D6
330
1F
100
AcDbEntity
  8
0
  6
Continuous
 62
     7
370
    30
100
AcDbLine
 10
307.8134524185
 20
121.4214905166
 30
0.0
 11
307.8134524185
 21
137.1214908549
 31
0.0
  0
LINE
  5
D7
330
1F
100
AcDbEntity
  8
0
  6
Continuous
 62
     7
370
    30
100
AcDbLine
 10
309.3134524316
 20
164.9214892649
 30
0.0
 11
309.3134524316
 21
109.3214905822
 31
0.0
  0
LINE
  5
D8
330
1F
100
AcDbEntity
  8
0
  6
Continuous
 62
     7
370
    30
100
AcDbLine
 10
314.3134525526
 20
164.8494533264
 30
0.0
 11
314.3134525526
 21
109.7748267465
 31
0.0
  0
LINE
  5
D9
330
1F
100
AcDbEntity
  8
0
  6
Continuous
 62
     7
370
    30
100
AcDbLine
 10
313.3134523887
 20
109.7748267465
 30
0.0
 11
314.3134525526
 21
109.7748267465
 31
0.0
  0
LINE
  5
DA
330
1F
100
AcDbEntity
  8
0
  6
Continuous
 62
     7
370
    30
100
AcDbLine
 10
313.3134523887
 20
109.7748267465
 30
0.0
 11
313.3134523887
 21
109.4838350081
 31
0.0
  0
LINE
  5
DB
330
1F
100
AcDbEntity
  8
0
  6
Continuous
 62
     7
370
    30
100
AcDbLine
 10
313.3134523887
 20
109.4838350081
 30
0.0
 11
310.8134524446
 21
109.4838350081
 31
0.0
  0
LINE
  5
DC
330
1F
100
AcDbEntity
  8
0
  6
Continuous
 62
     7
370
    30
100
AcDbLine
 10
310.8134524446
 20
109.3214905822
 30
0.0
 11
310.8134524446
 21
109.4838350081
 31
0.0
  0
LINE
  5
DD
330
1F
100
AcDbEntity
  8
0
  6
Continuous
 62
     7
370
    30
100
AcDbLine
 10
313.3134523887
 20
164.9214892649
 30
0.0
 11
313.3134523887
 21
164.8494533264
 31
0.0
  0
LINE
  5
DE
330
1F
100
AcDbEntity
  8
0
  6
Continuous
 62
     7
370
    30
100
AcDbLine
 10
313.3134523887
 20
164.8494533264
 30
0.0
 11
314.3134525526
 21
164.8494533264
 31
0.0
  0
LINE
  5
DF
330
1F
100
AcDbEntity
  8
0
  6
Continuous
 62
     7
370
    30
100
AcDbLine
 10
308.3134524423
 20
162.1214902961
 30
0.0
 11
308.3134524423
 21
112.121489551
 31
0.0
  0
LINE
  5
E0
330
1F
100
AcDbEntity
  8
0
  6
Continuous
 62
     7
370
    30
100
AcDbLine
 10
313.3134523887
 20
109.7353163176
 30
0.0
 11
314.3134525526
 21
109.7353163176
 31
0.0
  0
LINE
  5
E1
330
1F
100
AcDbEntity
  8
0
  6
Continuous
 62
     7
370
    30
100
AcDbLine
 10
314.3134525526
 20
109.7353163176
 30
0.0
 11
314.3134525526
 21
109.7748267465
 31
0.0
  0
ARC
  5
E2
330
1F
100
AcDbEntity
  8
0
  6
Continuous
 62
     7
370
    30
100
AcDbCircle
 10
265.0634524185
 20
157.1214904749
 30
0.0
 40
16.00000000000003
100
AcDbArc
 50
166.4286867192
 51
293.2630896609
  0
LWPOLYLINE
  5
E3
330
1F
100
AcDbEntity
  8
0
  6
Continuous
 62
     7
370
    30
100
AcDbPolyline
 90
       13
 70
   128
 43
0.0
 10
235.318155821
 20
164.8900142872
 10
235.155502196
 20
165.8292009496
 10
234.9958884079
 20
166.7508936488
 10
234.8422723372
 20
167.6379187965
 10
234.6975224573
 20
168.4737584555
 10
234.5643358786
 20
169.242837187
 10
234.4451861937
 20
169.9308349752
 10
234.3423011262
 20
170.5249293708
 10
234.2575954754
 20
171.0140562617
 10
234.1926413137
 20
171.3891035878
 10
234.1486605365
 20
171.6430827045
 10
234.1264578063
 20
171.7712699437
 10
234.1236787397
 20
171.7873482966
  0
LWPOLYLINE
  5
E4
330
1F
100
AcDbEntity
  8
0
  6
Continuous
 62
     7
370
    30
100
AcDbPolyline
 90
       17
 70
   128
 43
0.0
 10
239.2594831545
 20
165.5725731515
 10
239.0436919887
 20
166.818626877
 10
238.8301210959
 20
168.0518991315
 10
238.6209460456
 20
169.2597276532
 10
238.4183275063
 20
170.4297221267
 10
238.2243441898
 20
171.5498759412
 10
238.0409779508
 20
172.608692851
 10
237.8701137859
 20
173.5953099095
 10
237.7135100324
 20
174.499605503
 10
237.5727685649
 20
175.3122962081
 10
237.4493347961
 20
176.0250410997
 10
237.3444753248
 20
176.6305311584
 10
237.2592704851
 20
177.1225525999
 10
237.1945845444
 20
177.4960576558
 10
237.1510880549
 20
177.7472092771
 10
237.1292280514
 20
177.8734332883
 10
237.1264936883
 20
177.889239695
  0
LINE
  5
E5
330
1F
100
AcDbEntity
  8
0
  6
Continuous
 62
     7
370
    30
100
AcDbLine
 10
261.7134506363
 20
133.1214906649
 30
0.0
 11
307.8134524185
 21
133.1214906649
 31
0.0
  0
ARC
  5
E6
330
1F
100
AcDbEntity
  8
0
  6
Continuous
 62
     7
370
    30
100
AcDbCircle
 10
261.7134524185
 20
153.1214904749
 30
0.0
 40
20.0
100
AcDbArc
 50
189.825
 51
270.0
  0
LINE
  5
E7
330
1F
100
AcDbEntity
  8
0
  6
Continuous
 62
     7
370
    30
100
AcDbLine
 10
242.0067804415
 20
149.7087019497
 30
0.0
 11
239.2594831545
 21
165.5725731515
 31
0.0
  0
LINE
  5
E8
330
1F
100
AcDbEntity
  8
0
  6
Continuous
 62
     7
370
    30
100
AcDbLine
 10
261.7134506363
 20
129.1214904749
 30
0.0
 11
307.8134524185
 21
129.1214904749
 31
0.0
  0
LINE
  5
E9
330
1F
100
AcDbEntity
  8
0
  6
Continuous
 62
     7
370
    30
100
AcDbLine
 10
238.0654456574
 20
149.0261430853
 30
0.0
 11
235.318155821
 21
164.8900142872
 31
0.0
  0
ARC
  5
EA
330
1F
100
AcDbEntity
  8
0
  6
Continuous
 62
     7
370
    30
100
AcDbCircle
 10
261.7134524185
 20
153.1214904749
 30
0.0
 40
24.0
100
AcDbArc
 50
189.825
 51
270.0
  0
SPLINE
  5
EB
330
1F
100
AcDbEntity
  8
0
  6
Continuous
 62
     7
370
    30
100
AcDbSpline
210
0.0
220
0.0
230
1.0
 70
     8
 71
     3
 72
    13
 73
     9
 74
     0
 42
0.00000001
 43
0.00000001
 12
1.0
 22
0.0
 32
0.0
 13
1.0
 23
0.0
 33
0.0
 40
0.0
 40
0.0
 40
0.0
 40
0.0
 40
0.1161112996503549
 40
0.3072283829788064
 40
0.5052430033696141
 40
0.7075543436489312
 40
0.914995108632746
 40
1.0
 40
1.0
 40
1.0
 40
1.0
 10
271.3827135521915
 20
142.4222744070942
 30
0.0
 10
271.6847329683142
 20
142.5593066105552
 30
0.0
 10
272.4838708396753
 20
142.9218913237756
 30
0.0
 10
273.4930591146083
 20
143.5074821644261
 30
0.0
 10
274.3466183893464
 20
144.0802340971834
 30
0.0
 10
274.8787359345092
 20
144.4826686581445
 30
0.0
 10
275.1193529554569
 20
144.676428008148
 30
0.0
 10
275.0975568658056
 20
144.6588805956781
 30
0.0
 10
275.0912214178589
 20
144.6537801065499
 30
0.0
  0
SPLINE
  5
EC
330
1F
100
AcDbEntity
  8
0
  6
Continuous
 62
     7
370
    30
100
AcDbSpline
210
0.0
220
0.0
230
1.0
 70
     8
 71
     3
 72
    13
 73
     9
 74
     0
 42
0.00000001
 43
0.00000001
 12
1.0
 22
0.0
 32
0.0
 13
1.0
 23
0.0
 33
0.0
 40
0.0
 40
0.0
 40
0.0
 40
0.0
 40
0.100790001302164
 40
0.293199734763958
 40
0.4704543718818955
 40
0.6514784979962217
 40
0.8230143005886401
 40
1.0
 40
1.0
 40
1.0
 40
1.0
 10
251.0786781568077
 20
164.8949093186314
 30
0.0
 10
251.0817450639578
 20
164.9004468707836
 30
0.0
 10
251.0906667461812
 20
164.9165556990533
 30
0.0
 10
250.9464138451644
 20
164.6563336140628
 30
0.0
 10
250.6766708795205
 20
164.1363072182544
 30
0.0
 10
250.3165788233401
 20
163.3495774951994
 30
0.0
 10
249.8984010329013
 20
162.298117801552
 30
0.0
 10
249.6409377486433
 20
161.3549399758134
 30
0.0
 10
249.5101931054142
 20
160.8759767376835
 30
0.0
  0
LINE
  5
ED
330
1F
100
AcDbEntity
  8
0
  6
Continuous
 62
     7
370
    30
100
AcDbLine
 10
155.5873273129
 20
281.521374986
 30
0.0
 11
155.5873273129
 21
281.3213749765
 31
0.0
  0
LINE
  5
EE
330
1F
100
AcDbEntity
  8
0
  6
Continuous
 62
     7
370
    30
100
AcDbLine
 10
187.5873288328
 20
281.3213749765
 30
0.0
 11
187.5873288328
 21
281.521374986
 31
0.0
  0
LINE
  5
EF
330
1F
100
AcDbEntity
  8
0
  6
Continuous
 62
     7
370
    30
100
AcDbLine
 10
155.5873273129
 20
281.3213749765
 30
0.0
 11
155.8873286659
 21
281.0213749623
 31
0.0
  0
LINE
  5
F0
330
1F
100
AcDbEntity
  8
0
  6
Continuous
 62
     7
370
    30
100
AcDbLine
 10
187.2873274798
 20
281.0213749623
 30
0.0
 11
187.5873288328
 21
281.3213749765
 31
0.0
  0
LINE
  5
F1
330
1F
100
AcDbEntity
  8
0
  6
Continuous
 62
     7
370
    30
100
AcDbLine
 10
143.7873287315
 20
287.5213750964
 30
0.0
 11
143.7873287315
 21
282.5213749753
 31
0.0
  0
LINE
  5
F2
330
1F
100
AcDbEntity
  8
0
  6
Continuous
 62
     7
370
    30
100
AcDbLine
 10
199.3873274142
 20
282.5213749753
 30
0.0
 11
199.3873274142
 21
287.5213750964
 31
0.0
  0
LINE
  5
F3
330
1F
100
AcDbEntity
  8
0
  6
Continuous
 62
     7
370
    30
100
AcDbLine
 10
143.7873287315
 20
282.5213749753
 30
0.0
 11
146.5873277003
 21
281.521374986
 31
0.0
  0
LINE
  5
F4
330
1F
100
AcDbEntity
  8
0
  6
Continuous
 62
     7
370
    30
100
AcDbLine
 10
196.5873284454
 20
281.521374986
 30
0.0
 11
199.3873274142
 21
282.5213749753
 31
0.0
  0
LINE
  5
F5
330
1F
100
AcDbEntity
  8
0
  6
Continuous
 62
     7
370
    30
100
AcDbLine
 10
159.4468863869
 20
211.959499619
 30
0.0
 11
164.7886807287
 21
208.2416449999
 31
0.0
  0
LINE
  5
F6
330
1F
100
AcDbEntity
  8
0
  6
Continuous
 62
     7
370
    30
100
AcDbLine
 10
178.385975417
 20
208.2416449999
 30
0.0
 11
183.7277697588
 21
211.959499619
 31
0.0
  0
SPLINE
  5
F7
330
1F
100
AcDbEntity
  8
0
  6
Continuous
 62
     7
370
    30
100
AcDbSpline
210
0.0
220
0.0
230
1.0
 70
     8
 71
     3
 72
    29
 73
    25
 74
     0
 42
0.00000001
 43
0.00000001
 12
1.0
 22
0.0
 32
0.0
 13
1.0
 23
0.0
 33
0.0
 40
0.0
 40
0.0
 40
0.0
 40
0.0
 40
0.0196989149561452
 40
0.0602508646309302
 40
0.1029366039675245
 40
0.1473592857231691
 40
0.1931270117587688
 40
0.2391894104287562
 40
0.2885145720559816
 40
0.338665273092536
 40
0.3897188075905982
 40
0.4416477288928954
 40
0.4943510322354405
 40
0.5474818224488132
 40
0.5998858106097373
 40
0.6521708702456193
 40
0.7040050491356491
 40
0.7550913503411467
 40
0.8052291775318247
 40
0.8482071902489627
 40
0.8931625383012605
 40
0.9376120844541056
 40
0.9811104438301271
 40
1.0
 40
1.0
 40
1.0
 40
1.0
 10
182.6530356148579
 20
222.691576681098
 30
0.0
 10
182.5540055912746
 20
222.721507574686
 30
0.0
 10
182.251113550845
 20
222.8130538462379
 30
0.0
 10
181.6527777754608
 20
222.9934201196365
 30
0.0
 10
180.8580858882421
 20
223.2235385627794
 30
0.0
 10
179.9631657548131
 20
223.4658285181242
 30
0.0
 10
178.9875711969513
 20
223.7047344986806
 30
0.0
 10
177.9295953075577
 20
223.9293961110872
 30
0.0
 10
176.7976533668977
 20
224.1326216930748
 30
0.0
 10
175.5919050341631
 20
224.3070463584488
 30
0.0
 10
174.3386682834144
 20
224.4426525781768
 30
0.0
 10
173.0463079669337
 20
224.5322884112749
 30
0.0
 10
171.7270724877868
 20
224.5688554311934
 30
0.0
 10
170.4028931246174
 20
224.5444492207168
 30
0.0
 10
169.0903437988144
 20
224.4634963552066
 30
0.0
 10
167.8053897444559
 20
224.3334679325282
 30
0.0
 10
166.5569518992645
 20
224.1605293757751
 30
0.0
 10
165.360525982194
 20
223.9519287677582
 30
0.0
 10
164.2749856602688
 20
223.7248907058443
 30
0.0
 10
163.2824865527189
 20
223.4839730843046
 30
0.0
 10
162.3864000348754
 20
223.2426636329257
 30
0.0
 10
161.556728573824
 20
223.0029949091453
 30
0.0
 10
160.9333375204199
 20
222.8150042445557
 30
0.0
 10
160.6224426276643
 20
222.7213145637038
 30
0.0
 10
160.5283111522295
 20
222.6929475879281
 30
0.0
  0
ARC
  5
F8
330
1F
100
AcDbEntity
  8
0
  6
Continuous
 62
     7
370
    30
100
AcDbCircle
 10
161.0873280729
 20
220.7739599974
 30
0.0
 40
2.000000000000022
100
AcDbArc
 50
106.8682431673
 51
180.0
  0
ARC
  5
F9
330
1F
100
AcDbEntity
  8
0
  6
Continuous
 62
     7
370
    30
100
AcDbCircle
 10
182.0873280729
 20
220.7739599974
 30
0.0
 40
2.00000000000003
100
AcDbArc
 50
0.0
 51
73.1317568327
  0
LINE
  5
FA
330
1F
100
AcDbEntity
  8
0
  6
Continuous
 62
     7
370
    30
100
AcDbLine
 10
155.5873273129
 20
281.3213749765
 30
0.0
 11
187.5873288328
 21
281.3213749765
 31
0.0
  0
LINE
  5
FB
330
1F
100
AcDbEntity
  8
0
  6
Continuous
 62
     7
370
    30
100
AcDbLine
 10
187.2873274798
 20
281.0213749623
 30
0.0
 11
155.8873286659
 21
281.0213749623
 31
0.0
  0
LINE
  5
FC
330
1F
100
AcDbEntity
  8
0
  6
Continuous
 62
     7
370
    30
100
AcDbLine
 10
143.7873287315
 20
282.5213749753
 30
0.0
 11
199.3873274142
 21
282.5213749753
 31
0.0
  0
LINE
  5
FD
330
1F
100
AcDbEntity
  8
0
  6
Continuous
 62
     7
370
    30
100
AcDbLine
 10
173.5873281679
 20
287.5213750964
 30
0.0
 11
199.3873274142
 21
287.5213750964
 31
0.0
  0
LINE
  5
FE
330
1F
100
AcDbEntity
  8
0
  6
Continuous
 62
     7
370
    30
100
AcDbLine
 10
143.7873287315
 20
287.5213750964
 30
0.0
 11
169.5873279779
 21
287.5213750964
 31
0.0
  0
LINE
  5
FF
330
1F
100
AcDbEntity
  8
0
  6
Continuous
 62
     7
370
    30
100
AcDbLine
 10
169.5873279779
 20
286.5213749325
 30
0.0
 11
169.5873279779
 21
287.5213750964
 31
0.0
  0
LINE
  5
100
330
1F
100
AcDbEntity
  8
0
  6
Continuous
 62
     7
370
    30
100
AcDbLine
 10
169.5873279779
 20
286.5213749325
 30
0.0
 11
173.5873281679
 21
286.5213749325
 31
0.0
  0
LINE
  5
101
330
1F
100
AcDbEntity
  8
0
  6
Continuous
 62
     7
370
    30
100
AcDbLine
 10
173.5873281679
 20
286.5213749325
 30
0.0
 11
173.5873281679
 21
287.5213750964
 31
0.0
  0
LINE
  5
102
330
1F
100
AcDbEntity
  8
0
  6
Continuous
 62
     7
370
    30
100
AcDbLine
 10
146.5873277003
 20
281.521374986
 30
0.0
 11
196.5873284454
 21
281.521374986
 31
0.0
  0
LINE
  5
103
330
1F
100
AcDbEntity
  8
0
  6
Continuous
 62
     7
370
    30
100
AcDbLine
 10
173.5873281679
 20
287.5213750964
 30
0.0
 11
169.5873279779
 21
287.5213750964
 31
0.0
  0
LINE
  5
104
330
1F
100
AcDbEntity
  8
0
  6
Continuous
 62
     7
370
    30
100
AcDbLine
 10
184.0873282591
 20
219.8213299131
 30
0.0
 11
184.0873282591
 21
212.4674056983
 31
0.0
  0
LWPOLYLINE
  5
105
330
1F
100
AcDbEntity
  8
0
  6
Continuous
 62
     7
370
    30
100
AcDbPolyline
 90
       32
 70
   128
 43
0.0
 10
184.0873282591
 20
212.4674056983
 10
184.0231945927
 20
212.2516145324
 10
183.8314520384
 20
212.0380436396
 10
183.5140684808
 20
211.8288685894
 10
183.074300755
 20
211.62625005
 10
182.5166611189
 20
211.4322667336
 10
181.8468706871
 20
211.2489004945
 10
181.0718044827
 20
211.0780363297
 10
180.199414138
 20
210.9214325761
 10
179.2386529224
 20
210.7806911087
 10
178.1993784199
 20
210.6572573399
 10
177.0922547395
 20
210.5523978686
 10
175.9286435509
 20
210.4671930289
 10
174.7204846425
 20
210.4025070881
 10
173.4801753147
 20
210.3590105986
 10
172.2204426725
 20
210.3371505951
 10
170.9542134732
 20
210.3371505951
 10
169.694480831
 20
210.3590105986
 10
168.4541715032
 20
210.4025070881
 10
167.2460125948
 20
210.4671930289
 10
166.0824014062
 20
210.5523978686
 10
164.9752777258
 20
210.6572573399
 10
163.9360032233
 20
210.7806911087
 10
162.9752420077
 20
210.9214325761
 10
162.102851663
 20
211.0780363297
 10
161.3277854586
 20
211.2489004945
 10
160.6579950268
 20
211.4322667336
 10
160.1003553907
 20
211.62625005
 10
159.6605876649
 20
211.8288685894
 10
159.3432041074
 20
212.0380436396
 10
159.151461553
 20
212.2516145324
 10
159.0873278866
 20
212.4674056983
  0
LINE
  5
106
330
1F
100
AcDbEntity
  8
0
  6
Continuous
 62
     7
370
    30
100
AcDbLine
 10
159.0873278866
 20
212.4674056983
 30
0.0
 11
159.0873278866
 21
219.8213299131
 31
0.0
  0
LWPOLYLINE
  5
107
330
1F
100
AcDbEntity
  8
0
  6
Continuous
 62
     7
370
    30
100
AcDbPolyline
 90
       22
 70
   128
 43
0.0
 10
178.385975417
 20
208.2416449999
 10
178.3277491296
 20
208.2038109517
 10
178.0078072289
 20
208.0501948809
 10
177.5682639519
 20
207.9054450011
 10
177.0173070209
 20
207.7722584223
 10
176.3652000765
 20
207.6531087374
 10
175.6240903588
 20
207.55022367
 10
174.8077833282
 20
207.4655180192
 10
173.9314853868
 20
207.4005638575
 10
173.0115201746
 20
207.3565830803
 10
172.0650249582
 20
207.3343803501
 10
171.1096311875
 20
207.3343803501
 10
170.1631359712
 20
207.3565830803
 10
169.2431707589
 20
207.4005638575
 10
168.3668728175
 20
207.4655180192
 10
167.5505657869
 20
207.55022367
 10
166.8094560692
 20
207.6531087374
 10
166.1573491248
 20
207.7722584223
 10
165.6063921938
 20
207.9054450011
 10
165.1668489168
 20
208.0501948809
 10
164.8469070161
 20
208.2038109517
 10
164.7886807287
 20
208.2416449999
  0
LINE
  5
108
330
1F
100
AcDbEntity
  8
0
  6
Continuous
 62
     7
370
    30
100
AcDbLine
 10
159.0873278866
 20
220.7739611482
 30
0.0
 11
159.0873278866
 21
219.8213299131
 31
0.0
  0
LINE
  5
109
330
1F
100
AcDbEntity
  8
0
  6
Continuous
 62
     7
370
    30
100
AcDbLine
 10
184.0873282591
 20
220.7739611482
 30
0.0
 11
184.0873282591
 21
219.8213299131
 31
0.0
  0
LINE
  5
10A
330
1F
100
AcDbEntity
  8
0
  6
Continuous
 62
     7
370
    30
100
AcDbLine
 10
159.0873278866
 20
220.7739611482
 30
0.0
 11
159.0873278866
 21
245.3805429256
 31
0.0
  0
LINE
  5
10B
330
1F
100
AcDbEntity
  8
0
  6
Continuous
 62
     7
370
    30
100
AcDbLine
 10
184.0873282591
 20
245.3805429256
 30
0.0
 11
184.0873282591
 21
220.7739611482
 31
0.0
  0
LINE
  5
10C
330
1F
100
AcDbEntity
  8
0
  6
Continuous
 62
     7
370
    30
100
AcDbLine
 10
159.0873278866
 20
245.3805429256
 30
0.0
 11
159.0873278866
 21
281.0213749623
 31
0.0
  0
LINE
  5
10D
330
1F
100
AcDbEntity
  8
0
  6
Continuous
 62
     7
370
    30
100
AcDbLine
 10
184.0873282591
 20
245.3805429256
 30
0.0
 11
184.0873282591
 21
281.0213749623
 31
0.0
  0
LINE
  5
10E
330
1F
100
AcDbEntity
  8
0
  6
Continuous
 62
     7
370
    30
100
AcDbLine
 10
187.5873288328
 20
17.200233569
 30
0.0
 11
187.5873288328
 21
17.4002335785
 31
0.0
  0
LINE
  5
10F
330
1F
100
AcDbEntity
  8
0
  6
Continuous
 62
     7
370
    30
100
AcDbLine
 10
155.5873273129
 20
17.4002335785
 30
0.0
 11
155.5873273129
 21
17.200233569
 31
0.0
  0
LINE
  5
110
330
1F
100
AcDbEntity
  8
0
  6
Continuous
 62
     7
370
    30
100
AcDbLine
 10
187.5873288328
 20
17.4002335785
 30
0.0
 11
187.2873274798
 21
17.7002335928
 31
0.0
  0
LINE
  5
111
330
1F
100
AcDbEntity
  8
0
  6
Continuous
 62
     7
370
    30
100
AcDbLine
 10
155.8873286659
 20
17.7002335928
 30
0.0
 11
155.5873273129
 21
17.4002335785
 31
0.0
  0
LINE
  5
112
330
1F
100
AcDbEntity
  8
0
  6
Continuous
 62
     7
370
    30
100
AcDbLine
 10
199.3873274142
 20
11.2002334587
 30
0.0
 11
199.3873274142
 21
16.2002335797
 31
0.0
  0
LINE
  5
113
330
1F
100
AcDbEntity
  8
0
  6
Continuous
 62
     7
370
    30
100
AcDbLine
 10
143.7873287315
 20
16.2002335797
 30
0.0
 11
143.7873287315
 21
11.2002334587
 31
0.0
  0
LINE
  5
114
330
1F
100
AcDbEntity
  8
0
  6
Continuous
 62
     7
370
    30
100
AcDbLine
 10
199.3873274142
 20
16.2002335797
 30
0.0
 11
196.5873284454
 21
17.200233569
 31
0.0
  0
LINE
  5
115
330
1F
100
AcDbEntity
  8
0
  6
Continuous
 62
     7
370
    30
100
AcDbLine
 10
146.5873277003
 20
17.200233569
 30
0.0
 11
143.7873287315
 21
16.2002335797
 31
0.0
  0
LINE
  5
116
330
1F
100
AcDbEntity
  8
0
  6
Continuous
 62
     7
370
    30
100
AcDbLine
 10
183.7277697588
 20
86.7621089361
 30
0.0
 11
178.385975417
 21
90.4799635551
 31
0.0
  0
LINE
  5
117
330
1F
100
AcDbEntity
  8
0
  6
Continuous
 62
     7
370
    30
100
AcDbLine
 10
164.7886807287
 20
90.4799635551
 30
0.0
 11
159.4468863869
 21
86.7621089361
 31
0.0
  0
LINE
  5
118
330
1F
100
AcDbEntity
  8
0
  6
Continuous
 62
     7
370
    30
100
AcDbLine
 10
168.5873280468
 20
12.2002336226
 30
0.0
 11
174.5873280989
 21
12.2002336226
 31
0.0
  0
LINE
  5
119
330
1F
100
AcDbEntity
  8
0
  6
Continuous
 62
     7
370
    30
100
AcDbLine
 10
168.5873280468
 20
11.2002334587
 30
0.0
 11
174.5873280989
 21
11.2002334587
 31
0.0
  0
LINE
  5
11A
330
1F
100
AcDbEntity
  8
0
  6
Continuous
 62
     7
370
    30
100
AcDbLine
 10
168.5873280468
 20
12.5002335786
 30
0.0
 11
174.5873280989
 21
12.5002335786
 31
0.0
  0
LINE
  5
11B
330
1F
100
AcDbEntity
  8
0
  6
Continuous
 62
     7
370
    30
100
AcDbLine
 10
187.5873288328
 20
17.4002335785
 30
0.0
 11
155.5873273129
 21
17.4002335785
 31
0.0
  0
LINE
  5
11C
330
1F
100
AcDbEntity
  8
0
  6
Continuous
 62
     7
370
    30
100
AcDbLine
 10
155.8873286659
 20
17.7002335928
 30
0.0
 11
187.2873274798
 21
17.7002335928
 31
0.0
  0
LINE
  5
11D
330
1F
100
AcDbEntity
  8
0
  6
Continuous
 62
     7
370
    30
100
AcDbLine
 10
199.3873274142
 20
16.2002335797
 30
0.0
 11
143.7873287315
 21
16.2002335797
 31
0.0
  0
LINE
  5
11E
330
1F
100
AcDbEntity
  8
0
  6
Continuous
 62
     7
370
    30
100
AcDbLine
 10
199.3873274142
 20
11.2002334587
 30
0.0
 11
176.5873279611
 21
11.2002334587
 31
0.0
  0
LINE
  5
11F
330
1F
100
AcDbEntity
  8
0
  6
Continuous
 62
     7
370
    30
100
AcDbLine
 10
176.5873279611
 20
12.2002336226
 30
0.0
 11
176.5873279611
 21
11.2002334587
 31
0.0
  0
LINE
  5
120
330
1F
100
AcDbEntity
  8
0
  6
Continuous
 62
     7
370
    30
100
AcDbLine
 10
176.5873279611
 20
12.2002336226
 30
0.0
 11
174.5873280989
 21
12.2002336226
 31
0.0
  0
LINE
  5
121
330
1F
100
AcDbEntity
  8
0
  6
Continuous
 62
     7
370
    30
100
AcDbLine
 10
174.5873280989
 20
12.2002336226
 30
0.0
 11
174.5873280989
 21
14.7002335667
 31
0.0
  0
LINE
  5
122
330
1F
100
AcDbEntity
  8
0
  6
Continuous
 62
     7
370
    30
100
AcDbLine
 10
168.5873280468
 20
14.7002335667
 30
0.0
 11
174.5873280989
 21
14.7002335667
 31
0.0
  0
LINE
  5
123
330
1F
100
AcDbEntity
  8
0
  6
Continuous
 62
     7
370
    30
100
AcDbLine
 10
168.5873280468
 20
14.7002335667
 30
0.0
 11
168.5873280468
 21
12.2002336226
 31
0.0
  0
LINE
  5
124
330
1F
100
AcDbEntity
  8
0
  6
Continuous
 62
     7
370
    30
100
AcDbLine
 10
168.5873280468
 20
12.2002336226
 30
0.0
 11
166.5873281846
 21
12.2002336226
 31
0.0
  0
LINE
  5
125
330
1F
100
AcDbEntity
  8
0
  6
Continuous
 62
     7
370
    30
100
AcDbLine
 10
166.5873281846
 20
12.2002336226
 30
0.0
 11
166.5873281846
 21
11.2002334587
 31
0.0
  0
LINE
  5
126
330
1F
100
AcDbEntity
  8
0
  6
Continuous
 62
     7
370
    30
100
AcDbLine
 10
166.5873281846
 20
11.2002334587
 30
0.0
 11
143.7873287315
 21
11.2002334587
 31
0.0
  0
LINE
  5
127
330
1F
100
AcDbEntity
  8
0
  6
Continuous
 62
     7
370
    30
100
AcDbLine
 10
196.5873284454
 20
17.200233569
 30
0.0
 11
146.5873277003
 21
17.200233569
 31
0.0
  0
LINE
  5
128
330
1F
100
AcDbEntity
  8
0
  6
Continuous
 62
     7
370
    30
100
AcDbLine
 10
174.5873280989
 20
11.2002334587
 30
0.0
 11
176.5873279611
 21
11.2002334587
 31
0.0
  0
LINE
  5
129
330
1F
100
AcDbEntity
  8
0
  6
Continuous
 62
     7
370
    30
100
AcDbLine
 10
174.5873280989
 20
12.2002336226
 30
0.0
 11
174.5873280989
 21
11.2002334587
 31
0.0
  0
LINE
  5
12A
330
1F
100
AcDbEntity
  8
0
  6
Continuous
 62
     7
370
    30
100
AcDbLine
 10
166.5873281846
 20
11.2002334587
 30
0.0
 11
168.5873280468
 21
11.2002334587
 31
0.0
  0
LINE
  5
12B
330
1F
100
AcDbEntity
  8
0
  6
Continuous
 62
     7
370
    30
100
AcDbLine
 10
168.5873280468
 20
11.2002334587
 30
0.0
 11
168.5873280468
 21
12.2002336226
 31
0.0
  0
LINE
  5
12C
330
1F
100
AcDbEntity
  8
0
  6
Continuous
 62
     7
370
    30
100
AcDbLine
 10
164.5873278568
 20
63.800235375
 30
0.0
 11
164.5873278568
 21
17.7002335928
 31
0.0
  0
LINE
  5
12D
330
1F
100
AcDbEntity
  8
0
  6
Continuous
 62
     7
370
    30
100
AcDbLine
 10
178.5873282889
 20
63.800235375
 30
0.0
 11
178.5873282889
 21
17.7002335928
 31
0.0
  0
LINE
  5
12E
330
1F
100
AcDbEntity
  8
0
  6
Continuous
 62
     7
370
    30
100
AcDbLine
 10
159.0873278866
 20
63.800235375
 30
0.0
 11
159.0873278866
 21
17.7002335928
 31
0.0
  0
LINE
  5
12F
330
1F
100
AcDbEntity
  8
0
  6
Continuous
 62
     7
370
    30
100
AcDbLine
 10
184.0873282591
 20
63.800235375
 30
0.0
 11
184.0873282591
 21
17.7002335928
 31
0.0
  0
LINE
  5
130
330
1F
100
AcDbEntity
  8
0
  6
Continuous
 62
     7
370
    30
100
AcDbLine
 10
178.5873282889
 20
63.800235375
 30
0.0
 11
178.5873282889
 21
87.4482403539
 31
0.0
  0
LINE
  5
131
330
1F
100
AcDbEntity
  8
0
  6
Continuous
 62
     7
370
    30
100
AcDbLine
 10
184.0873282591
 20
63.800235375
 30
0.0
 11
184.0873282591
 21
83.5069055698
 31
0.0
  0
LINE
  5
132
330
1F
100
AcDbEntity
  8
0
  6
Continuous
 62
     7
370
    30
100
AcDbLine
 10
164.5873278568
 20
63.800235375
 30
0.0
 11
164.5873278568
 21
87.4482403539
 31
0.0
  0
LINE
  5
133
330
1F
100
AcDbEntity
  8
0
  6
Continuous
 62
     7
370
    30
100
AcDbLine
 10
159.0873278866
 20
63.800235375
 30
0.0
 11
159.0873278866
 21
83.5069055698
 31
0.0
  0
LINE
  5
134
330
1F
100
AcDbEntity
  8
0
  6
Continuous
 62
     7
370
    30
100
AcDbLine
 10
164.5873278568
 20
87.4482403539
 30
0.0
 11
164.5873278568
 21
90.1955301903
 31
0.0
  0
LINE
  5
135
330
1F
100
AcDbEntity
  8
0
  6
Continuous
 62
     7
370
    30
100
AcDbLine
 10
159.0873278866
 20
83.5069055698
 30
0.0
 11
159.0873278866
 21
86.2542028568
 31
0.0
  0
LINE
  5
136
330
1F
100
AcDbEntity
  8
0
  6
Continuous
 62
     7
370
    30
100
AcDbLine
 10
178.5873282889
 20
87.4482403539
 30
0.0
 11
178.5873282889
 21
90.1955301903
 31
0.0
  0
LINE
  5
137
330
1F
100
AcDbEntity
  8
0
  6
Continuous
 62
     7
370
    30
100
AcDbLine
 10
184.0873282591
 20
83.5069055698
 30
0.0
 11
184.0873282591
 21
86.2542028568
 31
0.0
  0
LWPOLYLINE
  5
138
330
1F
100
AcDbEntity
  8
0
  6
Continuous
 62
     7
370
    30
100
AcDbPolyline
 90
       24
 70
   128
 43
0.0
 10
178.5873282889
 20
90.1955301903
 10
178.5221296551
 20
90.3581838153
 10
178.3277491296
 20
90.5177976034
 10
178.0078072289
 20
90.6714136741
 10
177.5682639519
 20
90.816163554
 10
177.0173070209
 20
90.9493501327
 10
176.3652000765
 20
91.0684998176
 10
175.6240903588
 20
91.1713848851
 10
174.8077833282
 20
91.2560905359
 10
173.9314853868
 20
91.3210446976
 10
173.0115201746
 20
91.3650254748
 10
172.0650249582
 20
91.387228205
 10
171.1096311875
 20
91.387228205
 10
170.1631359712
 20
91.3650254748
 10
169.2431707589
 20
91.3210446976
 10
168.3668728175
 20
91.2560905359
 10
167.5505657869
 20
91.1713848851
 10
166.8094560692
 20
91.0684998176
 10
166.1573491248
 20
90.9493501327
 10
165.6063921938
 20
90.816163554
 10
165.1668489168
 20
90.6714136741
 10
164.8469070161
 20
90.5177976034
 10
164.6525264906
 20
90.3581838153
 10
164.5873278568
 20
90.1955301903
  0
ARC
  5
139
330
1F
100
AcDbEntity
  8
0
  6
Continuous
 62
     7
370
    30
100
AcDbCircle
 10
183.3629949713
 20
86.1226534559
 30
0.0
 40
0.7361820133293789
100
AcDbArc
 50
10.2935473319
 51
60.2975783465
  0
ARC
  5
13A
330
1F
100
AcDbEntity
  8
0
  6
Continuous
 62
     7
370
    30
100
AcDbCircle
 10
159.8116611744
 20
86.1226534559
 30
0.0
 40
0.7361820133293789
100
AcDbArc
 50
119.7024216535
 51
169.7064526681
  0
SPLINE
  5
13B
330
1F
100
AcDbEntity
  8
0
  6
Continuous
 62
     7
370
    30
100
AcDbSpline
210
0.0
220
0.0
230
1.0
 70
     8
 71
     3
 72
    38
 73
    34
 74
     0
 42
0.00000001
 43
0.00000001
 12
1.0
 22
0.0
 32
0.0
 13
1.0
 23
0.0
 33
0.0
 40
0.0
 40
0.0
 40
0.0
 40
0.0
 40
0.0258630271922691
 40
0.0588864311455132
 40
0.0919128505203424
 40
0.1249439502371181
 40
0.157981238302722
 40
0.1910259942368949
 40
0.2240791245333131
 40
0.2571412628010867
 40
0.290212838439075
 40
0.3232936404472828
 40
0.3563835161985147
 40
0.3894817181436664
 40
0.422587439616305
 40
0.4556995613842853
 40
0.4888168223863523
 40
0.5219377882839665
 40
0.5550608006754627
 40
0.5881838655517584
 40
0.6213053668389568
 40
0.6544237426501134
 40
0.687537543845687
 40
0.7206452620978924
 40
0.7537458291476834
 40
0.7868381278937039
 40
0.8199214502787835
 40
0.8529953793831224
 40
0.8860598352419766
 40
0.9191150526897814
 40
0.9521616632165024
 40
0.9852004624456914
 40
1.0
 40
1.0
 40
1.0
 40
1.0
 10
381.4429455495788
 20
168.9003079199249
 30
0.0
 10
381.3894860328695
 20
169.1967503866603
 30
0.0
 10
381.2677663236345
 20
169.8717076828904
 30
0.0
 10
380.9515556976832
 20
170.8971204940109
 30
0.0
 10
380.5201555381019
 20
171.9692548602479
 30
0.0
 10
379.9861181360429
 20
172.9961422038909
 30
0.0
 10
379.358326942154
 20
173.9696059063546
 30
0.0
 10
378.6410944711727
 20
174.880978318246
 30
0.0
 10
377.8409467408518
 20
175.7223828023362
 30
0.0
 10
376.9647382051656
 20
176.4864610913586
 30
0.0
 10
376.0201113427242
 20
177.166563040884
 30
0.0
 10
375.0152484130384
 20
177.7567180115778
 30
0.0
 10
373.958904673611
 20
178.2517744979065
 30
0.0
 10
372.8602621319578
 20
178.6473627374288
 30
0.0
 10
371.7289013832437
 20
178.9400074335413
 30
0.0
 10
370.5746859185514
 20
179.1271060453366
 30
0.0
 10
369.4076963523897
 20
179.2069971492174
 30
0.0
 10
368.2381320819843
 20
179.1789436153016
 30
0.0
 10
367.076230660571
 20
179.0431582995865
 30
0.0
 10
365.9321677517466
 20
178.8008076444195
 30
0.0
 10
364.8159665503098
 20
178.4540022898339
 30
0.0
 10
363.7374030659996
 20
178.0057597925479
 30
0.0
 10
362.7059303019627
 20
177.4600003935565
 30
0.0
 10
361.7305714293607
 20
176.8215166907232
 30
0.0
 10
360.8198782018782
 20
176.0958957343515
 30
0.0
 10
359.9817971940857
 20
175.2895108084774
 30
0.0
 10
359.2236925075893
 20
174.4094326642202
 30
0.0
 10
358.5520264913951
 20
173.4634002507132
 30
0.0
 10
357.9732096032812
 20
172.459623750083
 30
0.0
 10
357.4901611587144
 20
171.4072053643419
 30
0.0
 10
357.1149230412036
 20
170.3142016291543
 30
0.0
 10
356.8754076920251
 20
169.4004346625704
 30
0.0
 10
356.8014027403232
 20
168.8483985273422
 30
0.0
 10
356.7785081512644
 20
168.6776175164635
 30
0.0
  0
LINE
  5
13C
330
1F
100
AcDbEntity
  8
0
  6
Continuous
 62
     7
370
    30
100
AcDbLine
 10
375.8230601496
 20
134.8321197555
 30
0.0
 11
377.9574652261
 21
135.7139630244
 31
0.0
  0
LINE
  5
13D
330
1F
100
AcDbEntity
  8
0
  6
Continuous
 62
     7
370
    30
100
AcDbLine
 10
377.9574652261
 20
135.7139630244
 30
0.0
 11
378.2609692834
 21
138.0033341237
 31
0.0
  0
LINE
  5
13E
330
1F
100
AcDbEntity
  8
0
  6
Continuous
 62
     7
370
    30
100
AcDbLine
 10
378.2609692834
 20
138.0033341237
 30
0.0
 11
376.4300677984
 21
139.4108614885
 31
0.0
  0
LINE
  5
13F
330
1F
100
AcDbEntity
  8
0
  6
Continuous
 62
     7
370
    30
100
AcDbLine
 10
376.4300677984
 20
139.4108614885
 30
0.0
 11
374.2956627219
 21
138.5290182197
 31
0.0
  0
LINE
  5
140
330
1F
100
AcDbEntity
  8
0
  6
Continuous
 62
     7
370
    30
100
AcDbLine
 10
374.2956627219
 20
138.5290182197
 30
0.0
 11
373.9921586647
 21
136.2396471203
 31
0.0
  0
LINE
  5
141
330
1F
100
AcDbEntity
  8
0
  6
Continuous
 62
     7
370
    30
100
AcDbLine
 10
373.9921586647
 20
136.2396471203
 30
0.0
 11
375.8230601496
 21
134.8321197555
 31
0.0
  0
CIRCLE
  5
142
330
1F
100
AcDbEntity
  8
0
  6
Continuous
 62
     7
370
    30
100
AcDbCircle
 10
376.1265639908
 20
137.1214904749
 30
0.0
 40
5.999999999999996
  0
LINE
  5
143
330
1F
100
AcDbEntity
  8
0
  6
Continuous
 62
     7
370
    30
100
AcDbLine
 10
361.8230601832
 20
134.8321197555
 30
0.0
 11
363.9574652597
 21
135.7139630244
 31
0.0
  0
LINE
  5
144
330
1F
100
AcDbEntity
  8
0
  6
Continuous
 62
     7
370
    30
100
AcDbLine
 10
363.9574652597
 20
135.7139630244
 30
0.0
 11
364.2609693169
 21
138.0033341237
 31
0.0
  0
LINE
  5
145
330
1F
100
AcDbEntity
  8
0
  6
Continuous
 62
     7
370
    30
100
AcDbLine
 10
364.2609693169
 20
138.0033341237
 30
0.0
 11
362.430067832
 21
139.4108614885
 31
0.0
  0
LINE
  5
146
330
1F
100
AcDbEntity
  8
0
  6
Continuous
 62
     7
370
    30
100
AcDbLine
 10
362.430067832
 20
139.4108614885
 30
0.0
 11
360.2956627555
 21
138.5290182197
 31
0.0
  0
LINE
  5
147
330
1F
100
AcDbEntity
  8
0
  6
Continuous
 62
     7
370
    30
100
AcDbLine
 10
360.2956627555
 20
138.5290182197
 30
0.0
 11
359.9921586982
 21
136.2396471203
 31
0.0
  0
LINE
  5
148
330
1F
100
AcDbEntity
  8
0
  6
Continuous
 62
     7
370
    30
100
AcDbLine
 10
359.9921586982
 20
136.2396471203
 30
0.0
 11
361.8230601832
 21
134.8321197555
 31
0.0
  0
CIRCLE
  5
149
330
1F
100
AcDbEntity
  8
0
  6
Continuous
 62
     7
370
    30
100
AcDbCircle
 10
362.1265639908
 20
137.1214904749
 30
0.0
 40
5.999999999999975
  0
CIRCLE
  5
14A
330
1F
100
AcDbEntity
  8
0
  6
Continuous
 62
     7
370
    30
100
AcDbCircle
 10
387.3130974703
 20
147.6214904749
 30
0.0
 40
2.250000000000012
  0
CIRCLE
  5
14B
330
1F
100
AcDbEntity
  8
0
  6
Continuous
 62
     7
370
    30
100
AcDbCircle
 10
369.1265639908
 20
116.1214904749
 30
0.0
 40
2.25
  0
CIRCLE
  5
14C
330
1F
100
AcDbEntity
  8
0
  6
Continuous
 62
     7
370
    30
100
AcDbCircle
 10
376.1265639908
 20
137.1214904749
 30
0.0
 40
6.500000000000057
  0
CIRCLE
  5
14D
330
1F
100
AcDbEntity
  8
0
  6
Continuous
 62
     7
370
    30
100
AcDbCircle
 10
369.1265639908
 20
137.1214904749
 30
0.0
 40
26.0
  0
CIRCLE
  5
14E
330
1F
100
AcDbEntity
  8
0
  6
Continuous
 62
     7
370
    30
100
AcDbCircle
 10
362.1265639908
 20
137.1214904749
 30
0.0
 40
6.5
  0
CIRCLE
  5
14F
330
1F
100
AcDbEntity
  8
0
  6
Continuous
 62
     7
370
    30
100
AcDbCircle
 10
350.9400305113
 20
147.6214904749
 30
0.0
 40
2.250000000000016
  0
ARC
  5
150
330
1F
100
AcDbEntity
  8
0
  6
Continuous
 62
     7
370
    30
100
AcDbCircle
 10
369.1265639908
 20
137.1214904749
 30
0.0
 40
26.94999999999999
100
AcDbArc
 50
94.2559184839
 51
180.0
  0
ARC
  5
151
330
1F
100
AcDbEntity
  8
0
  6
Continuous
 62
     7
370
    30
100
AcDbCircle
 10
369.1265639908
 20
137.1214904749
 30
0.0
 40
26.95000000000002
100
AcDbArc
 50
280.6919616339
 51
85.7440815161
  0
ARC
  5
152
330
1F
100
AcDbEntity
  8
0
  6
Continuous
 62
     7
370
    30
100
AcDbCircle
 10
369.1265639908
 20
137.1214904749
 30
0.0
 40
26.95000000000001
100
AcDbArc
 50
263.6087449359
 51
276.3912550641
  0
ARC
  5
153
330
1F
100
AcDbEntity
  8
0
  6
Continuous
 62
     7
370
    30
100
AcDbCircle
 10
369.1265639908
 20
137.1214904749
 30
0.0
 40
26.95000000000002
100
AcDbArc
 50
180.0
 51
259.3080383662
  0
ARC
  5
154
330
1F
100
AcDbEntity
  8
0
  6
Continuous
 62
     7
370
    30
100
AcDbCircle
 10
369.1265639908
 20
137.1214904749
 30
0.0
 40
27.55
100
AcDbArc
 50
85.8369346827
 51
94.1630653173
  0
LINE
  5
155
330
1F
100
AcDbEntity
  8
0
  6
Continuous
 62
     7
370
    30
100
AcDbLine
 10
371.1265640858
 20
164.598800894
 30
0.0
 11
371.1265640858
 21
164.8494533264
 31
0.0
  0
ARC
  5
156
330
1F
100
AcDbEntity
  8
0
  6
Continuous
 62
     7
370
    30
100
AcDbCircle
 10
369.1265639908
 20
137.1214904749
 30
0.0
 40
27.80000000000002
100
AcDbArc
 50
280.3613790323
 51
85.8744374515
  0
LINE
  5
157
330
1F
100
AcDbEntity
  8
0
  6
Continuous
 62
     7
370
    30
100
AcDbLine
 10
374.126563879
 20
109.7748267465
 30
0.0
 11
374.126563879
 21
110.0290107542
 31
0.0
  0
ARC
  5
158
330
1F
100
AcDbEntity
  8
0
  6
Continuous
 62
     7
370
    30
100
AcDbCircle
 10
369.1265639908
 20
137.1214904749
 30
0.0
 40
27.55000000000002
100
AcDbArc
 50
276.2515013148
 51
280.4564554442
  0
LINE
  5
159
330
1F
100
AcDbEntity
  8
0
  6
Continuous
 62
     7
370
    30
100
AcDbLine
 10
372.1265640169
 20
109.7353163176
 30
0.0
 11
372.1265640169
 21
110.540247243
 31
0.0
  0
ARC
  5
15A
330
1F
100
AcDbEntity
  8
0
  6
Continuous
 62
     7
370
    30
100
AcDbCircle
 10
369.1265639908
 20
137.1214904749
 30
0.0
 40
26.75000000000002
100
AcDbArc
 50
276.4392415942
 51
280.7728533751
  0
LINE
  5
15B
330
1F
100
AcDbEntity
  8
0
  6
Continuous
 62
     7
370
    30
100
AcDbLine
 10
374.126563879
 20
110.588491615
 30
0.0
 11
374.126563879
 21
110.8429345303
 31
0.0
  0
ARC
  5
15C
330
1F
100
AcDbEntity
  8
0
  6
Continuous
 62
     7
370
    30
100
AcDbCircle
 10
369.1265639908
 20
137.1214904749
 30
0.0
 40
27.00000000000001
100
AcDbArc
 50
280.6719292858
 51
85.7519773333
  0
LINE
  5
15D
330
1F
100
AcDbEntity
  8
0
  6
Continuous
 62
     7
370
    30
100
AcDbLine
 10
371.1265640858
 20
163.7966192328
 30
0.0
 11
371.1265640858
 21
164.0473163688
 31
0.0
  0
ARC
  5
15E
330
1F
100
AcDbEntity
  8
0
  6
Continuous
 62
     7
370
    30
100
AcDbCircle
 10
369.1265639908
 20
137.1214904749
 30
0.0
 40
26.75
100
AcDbArc
 50
85.7122022517
 51
94.2877977483
  0
LINE
  5
15F
330
1F
100
AcDbEntity
  8
0
  6
Continuous
 62
     7
370
    30
100
AcDbLine
 10
367.1265638958
 20
164.0473163688
 30
0.0
 11
367.1265638958
 21
163.7966192328
 31
0.0
  0
ARC
  5
160
330
1F
100
AcDbEntity
  8
0
  6
Continuous
 62
     7
370
    30
100
AcDbCircle
 10
369.1265639908
 20
137.1214904749
 30
0.0
 40
27.00000000000001
100
AcDbArc
 50
94.2480226667
 51
259.3280707142
  0
LINE
  5
161
330
1F
100
AcDbEntity
  8
0
  6
Continuous
 62
     7
370
    30
100
AcDbLine
 10
364.1265641026
 20
110.8429345303
 30
0.0
 11
364.1265641026
 21
110.588491615
 31
0.0
  0
ARC
  5
162
330
1F
100
AcDbEntity
  8
0
  6
Continuous
 62
     7
370
    30
100
AcDbCircle
 10
369.1265639908
 20
137.1214904749
 30
0.0
 40
26.75000000000002
100
AcDbArc
 50
259.2271466249
 51
263.5607584058
  0
LINE
  5
163
330
1F
100
AcDbEntity
  8
0
  6
Continuous
 62
     7
370
    30
100
AcDbLine
 10
366.1265639647
 20
110.540247243
 30
0.0
 11
366.1265639647
 21
109.7353163176
 31
0.0
  0
ARC
  5
164
330
1F
100
AcDbEntity
  8
0
  6
Continuous
 62
     7
370
    30
100
AcDbCircle
 10
369.1265639908
 20
137.1214904749
 30
0.0
 40
27.55000000000002
100
AcDbArc
 50
259.5435445558
 51
263.7484986852
  0
LINE
  5
165
330
1F
100
AcDbEntity
  8
0
  6
Continuous
 62
     7
370
    30
100
AcDbLine
 10
364.1265641026
 20
110.0290107542
 30
0.0
 11
364.1265641026
 21
109.7748267465
 31
0.0
  0
ARC
  5
166
330
1F
100
AcDbEntity
  8
0
  6
Continuous
 62
     7
370
    30
100
AcDbCircle
 10
369.1265639908
 20
137.1214904749
 30
0.0
 40
27.80000000000002
100
AcDbArc
 50
94.1255625485
 51
259.6386209677
  0
LINE
  5
167
330
1F
100
AcDbEntity
  8
0
  6
Continuous
 62
     7
370
    30
100
AcDbLine
 10
367.1265638958
 20
164.8494533264
 30
0.0
 11
367.1265638958
 21
164.598800894
 31
0.0
  0
LINE
  5
168
330
1F
100
AcDbEntity
  8
0
  6
Continuous
 62
     7
370
    30
100
AcDbLine
 10
372.1265640169
 20
109.4838350081
 30
0.0
 11
372.1265640169
 21
109.7353163176
 31
0.0
  0
ARC
  5
169
330
1F
100
AcDbEntity
  8
0
  6
Continuous
 62
     7
370
    30
100
AcDbCircle
 10
369.1265639908
 20
137.1214904749
 30
0.0
 40
27.80000000000002
100
AcDbArc
 50
276.1950616555
 51
280.3613790323
  0
ARC
  5
16A
330
1F
100
AcDbEntity
  8
0
  6
Continuous
 62
     7
370
    30
100
AcDbCircle
 10
369.1265639908
 20
137.1214904749
 30
0.0
 40
27.79999999999998
100
AcDbArc
 50
85.8744374515
 51
94.1255625485
  0
LINE
  5
16B
330
1F
100
AcDbEntity
  8
0
  6
Continuous
 62
     7
370
    30
100
AcDbLine
 10
366.1265639647
 20
109.7353163176
 30
0.0
 11
366.1265639647
 21
109.4838350081
 31
0.0
  0
ARC
  5
16C
330
1F
100
AcDbEntity
  8
0
  6
Continuous
 62
     7
370
    30
100
AcDbCircle
 10
369.1265639908
 20
137.1214904749
 30
0.0
 40
27.80000000000002
100
AcDbArc
 50
259.6386209677
 51
263.8049383445
  0
ARC
  5
16D
330
1F
100
AcDbEntity
  8
0
  6
Continuous
 62
     7
370
    30
100
AcDbCircle
 10
369.1265639908
 20
137.1214904749
 30
0.0
 40
27.00000000000001
100
AcDbArc
 50
263.6206297916
 51
276.3793702084
  0
ARC
  5
16E
330
1F
100
AcDbEntity
  8
0
  6
Continuous
 62
     7
370
    30
100
AcDbCircle
 10
369.1265639908
 20
137.1214904749
 30
0.0
 40
27.80000000000002
100
AcDbArc
 50
263.8049383445
 51
276.1950616555
  0
LINE
  5
16F
330
1F
100
AcDbEntity
  8
0
  6
Continuous
 62
     7
370
    30
100
AcDbLine
 10
381.6265641771
 20
161.9527197444
 30
0.0
 11
381.6265641771
 21
166.8461195194
 31
0.0
  0
LINE
  5
170
330
1F
100
AcDbEntity
  8
0
  6
Continuous
 62
     7
370
    30
100
AcDbLine
 10
356.6265638045
 20
161.9527197444
 30
0.0
 11
356.6265638045
 21
166.8461195194
 31
0.0
  0
LWPOLYLINE
  5
171
330
1F
100
AcDbEntity
  8
0
  6
Continuous
 62
     7
370
    30
100
AcDbPolyline
 90
        3
 70
   128
 43
0.0
 10
356.6265638045
 20
166.8461195194
 10
356.690697471
 20
168.0921769702
 10
356.7645243428
 20
168.6709715986
  0
LWPOLYLINE
  5
172
330
1F
100
AcDbEntity
  8
0
  6
Continuous
 62
     7
370
    30
100
AcDbPolyline
 90
        3
 70
   128
 43
0.0
 10
381.4529023192
 20
168.8920564019
 10
381.5624305106
 20
168.0921769702
 10
381.6265641771
 20
166.8461195194
  0
ENDSEC
  0
SECTION
  2
OBJECTS
  0
DICTIONARY
  5
C
330
0
100
AcDbDictionary
281
     1
  3
ACAD_GROUP
350
D
  3
ACAD_LAYOUT
350
1A
  3
ACAD_MLINESTYLE
350
17
  3
ACAD_PLOTSETTINGS
350
19
  3
ACAD_PLOTSTYLENAME
350
E
  0
DICTIONARY
  5
D
102
{ACAD_REACTORS
330
C
102
}
330
C
100
AcDbDictionary
281
     1
  0
DICTIONARY
  5
1A
102
{ACAD_REACTORS
330
C
102
}
330
C
100
AcDbDictionary
281
     1
  3
Layout1
350
1E
  3
Layout2
350
26
  3
Model
350
22
  0
DICTIONARY
  5
17
102
{ACAD_REACTORS
330
C
102
}
330
C
100
AcDbDictionary
281
     1
  3
Standard
350
18
  0
DICTIONARY
  5
19
102
{ACAD_REACTORS
330
C
102
}
330
C
100
AcDbDictionary
281
     1
  0
ACDBDICTIONARYWDFLT
  5
E
102
{ACAD_REACTORS
330
C
102
}
330
C
100
AcDbDictionary
281
     1
  3
Normal
350
F
100
AcDbDictionaryWithDefault
340
F
  0
LAYOUT
  5
1E
102
{ACAD_REACTORS
330
1A
102
}
330
1A
100
AcDbPlotSettings
  1

  2
none_device
  4

  6

 40
0.0
 41
0.0
 42
0.0
 43
0.0
 44
0.0
 45
0.0
 46
0.0
 47
0.0
 48
0.0
 49
0.0
140
0.0
141
0.0
142
1.0
143
1.0
 70
   688
 72
     0
 73
     0
 74
     5
  7

 75
    16
147
1.0
148
0.0
149
0.0
100
AcDbLayout
  1
Layout1
 70
     1
 71
     1
 10
0.0
 20
0.0
 11
420.0
 21
297.0
 12
0.0
 22
0.0
 32
0.0
 14
1.0000000000E+20
 24
1.0000000000E+20
 34
1.0000000000E+20
 15
-1.0000000000E+20
 25
-1.0000000000E+20
 35
-1.0000000000E+20
146
0.0
 13
0.0
 23
0.0
 33
0.0
 16
1.0
 26
0.0
 36
0.0
 17
0.0
 27
1.0
 37
0.0
 76
     0
330
1B
  0
LAYOUT
  5
26
102
{ACAD_REACTORS
330
1A
102
}
330
1A
100
AcDbPlotSettings
  1

  2
none_device
  4

  6

 40
0.0
 41
0.0
 42
0.0
 43
0.0
 44
0.0
 45
0.0
 46
0.0
 47
0.0
 48
0.0
 49
0.0
140
0.0
141
0.0
142
1.0
143
1.0
 70
   688
 72
     0
 73
     0
 74
     5
  7

 75
    16
147
1.0
148
0.0
149
0.0
100
AcDbLayout
  1
Layout2
 70
     1
 71
     2
 10
0.0
 20
0.0
 11
0.0
 21
0.0
 12
0.0
 22
0.0
 32
0.0
 14
0.0
 24
0.0
 34
0.0
 15
0.0
 25
0.0
 35
0.0
146
0.0
 13
0.0
 23
0.0
 33
0.0
 16
1.0
 26
0.0
 36
0.0
 17
0.0
 27
1.0
 37
0.0
 76
     0
330
23
  0
LAYOUT
  5
22
102
{ACAD_REACTORS
330
1A
102
}
330
1A
100
AcDbPlotSettings
  1

  2
none_device
  4

  6

 40
0.0
 41
0.0
 42
0.0
 43
0.0
 44
0.0
 45
0.0
 46
0.0
 47
0.0
 48
0.0
 49
0.0
140
0.0
141
0.0
142
1.0
143
1.0
 70
  1712
 72
     0
 73
     0
 74
     0
  7

 75
     0
147
1.0
148
0.0
149
0.0
100
AcDbLayout
  1
Model
 70
     1
 71
     0
 10
0.0
 20
0.0
 11
420.0
 21
297.0
 12
0.0
 22
0.0
 32
0.0
 14
0.0
 24
0.0
 34
0.0
 15
420.0
 25
297.0
 35
0.0
146
0.0
 13
0.0
 23
0.0
 33
0.0
 16
1.0
 26
0.0
 36
0.0
 17
0.0
 27
1.0
 37
0.0
 76
     0
330
1F
331
29
  0
MLINESTYLE
  5
18
102
{ACAD_REACTORS
330
17
102
}
330
17
100
AcDbMlineStyle
  2
Standard
 70
     0
  3

 62
   256
 51
90.0
 52
90.0
 71
     2
 49
0.5
 62
   256
  6
BYLAYER
 49
-0.5
 62
   256
  6
BYLAYER
  0
ACDBPLACEHOLDER
  5
F
102
{ACAD_REACTORS
330
E
102
}
330
E
  0
ENDSEC
  0
EOF
