  0
SECTION
  2
HEADER
  9
$ACADVER
  1
AC1015
  9
$ACADMAINTVER
 70
     6
  9
$DWGCODEPAGE
  3
DOS932
  9
$INSBASE
 10
0.0
 20
0.0
 30
0.0
  9
$EXTMIN
 10
0.0
 20
0.0
 30
0.0
  9
$EXTMAX
 10
420.0
 20
297.0
 30
0.0
  9
$LIMMIN
 10
0.0
 20
0.0
  9
$LIMMAX
 10
420.0
 20
297.0
  9
$ORTHOMODE
 70
     0
  9
$REGENMODE
 70
     1
  9
$FILLMODE
 70
     1
  9
$QTEXTMODE
 70
     0
  9
$MIRRTEXT
 70
     1
  9
$LTSCALE
 40
1.0
  9
$ATTMODE
 70
     1
  9
$TEXTSIZE
 40
3.8805555556
  9
$TRACEWID
 40
1.0
  9
$TEXTSTYLE
  7
Standard
  9
$CLAYER
  8
0
  9
$CELTYPE
  6
ByLayer
  9
$CECOLOR
 62
   256
  9
$CELTSCALE
 40
1.0
  9
$DISPSILH
 70
     0
  9
$DIMSCALE
 40
1.0
  9
$DIMASZ
 40
3.0
  9
$DIMEXO
 40
0.0
  9
$DIMDLI
 40
3.75
  9
$DIMRND
 40
0.0
  9
$DIMDLE
 40
0.0
  9
$DIMEXE
 40
1.0
  9
$DIMTP
 40
0.0
  9
$DIMTM
 40
0.0
  9
$DIMTXT
 40
3.5277777778
  9
$DIMCEN
 40
2.5
  9
$DIMTSZ
 40
0.0
  9
$DIMTOL
 70
     0
  9
$DIMLIM
 70
     0
  9
$DIMTIH
 70
     1
  9
$DIMTOH
 70
     1
  9
$DIMSE1
 70
     0
  9
$DIMSE2
 70
     0
  9
$DIMTAD
 70
     1
  9
$DIMZIN
 70
     0
  9
$DIMBLK
  1

  9
$DIMASO
 70
     1
  9
$DIMSHO
 70
     1
  9
$DIMPOST
  1

  9
$DIMAPOST
  1

  9
$DIMALT
 70
     0
  9
$DIMALTD
 70
     3
  9
$DIMALTF
 40
0.0393700787
  9
$DIMLFAC
 40
1.0
  9
$DIMTOFL
 70
     1
  9
$DIMTVP
 40
0.0
  9
$DIMTIX
 70
     0
  9
$DIMSOXD
 70
     0
  9
$DIMSAH
 70
     0
  9
$DIMBLK1
  1

  9
$DIMBLK2
  1

  9
$DIMSTYLE
  2
ISO-25
  9
$DIMCLRD
 70
     0
  9
$DIMCLRE
 70
     0
  9
$DIMCLRT
 70
     0
  9
$DIMTFAC
 40
1.0
  9
$DIMGAP
 40
1.0
  9
$DIMJUST
 70
     0
  9
$DIMSD1
 70
     0
  9
$DIMSD2
 70
     0
  9
$DIMTOLJ
 70
     0
  9
$DIMTZIN
 70
     0
  9
$DIMALTZ
 70
     0
  9
$DIMALTTZ
 70
     0
  9
$DIMUPT
 70
     0
  9
$DIMDEC
 70
     2
  9
$DIMTDEC
 70
     2
  9
$DIMALTU
 70
     2
  9
$DIMALTTD
 70
     3
  9
$DIMTXSTY
  7
Standard
  9
$DIMAUNIT
 70
     0
  9
$DIMADEC
 70
     2
  9
$DIMALTRND
 40
0.0
  9
$DIMAZIN
 70
     0
  9
$DIMDSEP
 70
    44
  9
$DIMATFIT
 70
     3
  9
$DIMFRAC
 70
     0
  9
$DIMLDRBLK
  1

  9
$DIMLUNIT
 70
     2
  9
$DIMLWD
 70
    -2
  9
$DIMLWE
 70
    -2
  9
$DIMTMOVE
 70
     0
  9
$LUNITS
 70
     2
  9
$LUPREC
 70
     2
  9
$SKETCHINC
 40
1.0
  9
$FILLETRAD
 40
10.0
  9
$AUNITS
 70
     0
  9
$AUPREC
 70
     2
  9
$MENU
  1
.
  9
$ELEVATION
 40
0.0
  9
$PELEVATION
 40
0.0
  9
$THICKNESS
 40
0.0
  9
$LIMCHECK
 70
     0
  9
$CHAMFERA
 40
0.0
  9
$CHAMFERB
 40
0.0
  9
$CHAMFERC
 40
0.0
  9
$CHAMFERD
 40
0.0
  9
$SKPOLY
 70
     0
  9
$TDCREATE
 40
2458620.809815417
  9
$TDUCREATE
 40
2458620.434815417
  9
$TDUPDATE
 40
2458620.809816065
  9
$TDUUPDATE
 40
2458620.434816065
  9
$TDINDWG
 40
0.0000000116
  9
$TDUSRTIMER
 40
0.0000000116
  9
$USRTIMER
 70
     1
  9
$ANGBASE
 50
0.0
  9
$ANGDIR
 70
     0
  9
$PDMODE
 70
     0
  9
$PDSIZE
 40
-1.0
  9
$PLINEWID
 40
0.0
  9
$SPLFRAME
 70
     0
  9
$SPLINETYPE
 70
     6
  9
$SPLINESEGS
 70
     8
  9
$HANDSEED
  5
201
  9
$SURFTAB1
 70
     6
  9
$SURFTAB2
 70
     6
  9
$SURFTYPE
 70
     6
  9
$SURFU
 70
     6
  9
$SURFV
 70
     6
  9
$UCSBASE
  2

  9
$UCSNAME
  2

  9
$UCSORG
 10
0.0
 20
0.0
 30
0.0
  9
$UCSXDIR
 10
1.0
 20
0.0
 30
0.0
  9
$UCSYDIR
 10
0.0
 20
1.0
 30
0.0
  9
$UCSORTHOREF
  2

  9
$UCSORTHOVIEW
 70
     0
  9
$UCSORGTOP
 10
0.0
 20
0.0
 30
0.0
  9
$UCSORGBOTTOM
 10
0.0
 20
0.0
 30
0.0
  9
$UCSORGLEFT
 10
0.0
 20
0.0
 30
0.0
  9
$UCSORGRIGHT
 10
0.0
 20
0.0
 30
0.0
  9
$UCSORGFRONT
 10
0.0
 20
0.0
 30
0.0
  9
$UCSORGBACK
 10
0.0
 20
0.0
 30
0.0
  9
$PUCSBASE
  2

  9
$PUCSNAME
  2

  9
$PUCSORG
 10
0.0
 20
0.0
 30
0.0
  9
$PUCSXDIR
 10
1.0
 20
0.0
 30
0.0
  9
$PUCSYDIR
 10
0.0
 20
1.0
 30
0.0
  9
$PUCSORTHOREF
  2

  9
$PUCSORTHOVIEW
 70
     0
  9
$PUCSORGTOP
 10
0.0
 20
0.0
 30
0.0
  9
$PUCSORGBOTTOM
 10
0.0
 20
0.0
 30
0.0
  9
$PUCSORGLEFT
 10
0.0
 20
0.0
 30
0.0
  9
$PUCSORGRIGHT
 10
0.0
 20
0.0
 30
0.0
  9
$PUCSORGFRONT
 10
0.0
 20
0.0
 30
0.0
  9
$PUCSORGBACK
 10
0.0
 20
0.0
 30
0.0
  9
$USERI1
 70
     0
  9
$USERI2
 70
     0
  9
$USERI3
 70
     0
  9
$USERI4
 70
     0
  9
$USERI5
 70
     0
  9
$USERR1
 40
0.0
  9
$USERR2
 40
0.0
  9
$USERR3
 40
0.0
  9
$USERR4
 40
0.0
  9
$USERR5
 40
0.0
  9
$WORLDVIEW
 70
     1
  9
$SHADEDGE
 70
     3
  9
$SHADEDIF
 70
    70
  9
$TILEMODE
 70
     1
  9
$MAXACTVP
 70
    64
  9
$PINSBASE
 10
0.0
 20
0.0
 30
0.0
  9
$PLIMCHECK
 70
     0
  9
$PEXTMIN
 10
1.0000000000E+20
 20
1.0000000000E+20
 30
1.0000000000E+20
  9
$PEXTMAX
 10
-1.0000000000E+20
 20
-1.0000000000E+20
 30
-1.0000000000E+20
  9
$PLIMMIN
 10
0.0
 20
0.0
  9
$PLIMMAX
 10
420.0
 20
297.0
  9
$UNITMODE
 70
     0
  9
$VISRETAIN
 70
     1
  9
$PLINEGEN
 70
     0
  9
$PSLTSCALE
 70
     1
  9
$TREEDEPTH
 70
  3020
  9
$CMLSTYLE
  2
Standard
  9
$CMLJUST
 70
     0
  9
$CMLSCALE
 40
20.0
  9
$PROXYGRAPHICS
 70
     1
  9
$MEASUREMENT
 70
     1
  9
$CELWEIGHT
370
    -1
  9
$ENDCAPS
280
     0
  9
$JOINSTYLE
280
     0
  9
$LWDISPLAY
290
     1
  9
$INSUNITS
 70
     4
  9
$HYPERLINKBASE
  1

  9
$STYLESHEET
  1

  9
$XEDIT
290
     1
  9
$CEPSNTYPE
380
     0
  9
$PSTYLEMODE
290
     1
  9
$FINGERPRINTGUID
  2
{C7ED89DB-5E8A-4196-BF09-40457E51BB19}
  9
$VERSIONGUID
  2
{FAEB1C32-E019-11D5-929B-00C0DF256EC4}
  9
$EXTNAMES
290
     1
  9
$PSVPSCALE
 40
0.0
  9
$OLESTARTUP
290
     0
  0
ENDSEC
  0
SECTION
  2
CLASSES
  0
CLASS
  1
ACDBDICTIONARYWDFLT
  2
AcDbDictionaryWithDefault
  3
ObjectDBX Classes
 90
        0
280
     0
281
     0
  0
CLASS
  1
VISUALSTYLE
  2
AcDbVisualStyle
  3
ObjectDBX Classes
 90
     4095
280
     0
281
     0
  0
CLASS
  1
MATERIAL
  2
AcDbMaterial
  3
ObjectDBX Classes
 90
     1153
280
     0
281
     0
  0
CLASS
  1
SCALE
  2
AcDbScale
  3
ObjectDBX Classes
 90
     1153
280
     0
281
     0
  0
CLASS
  1
TABLESTYLE
  2
AcDbTableStyle
  3
ObjectDBX Classes
 90
     4095
280
     0
281
     0
  0
CLASS
  1
MLEADERSTYLE
  2
AcDbMLeaderStyle
  3
ACDB_MLEADERSTYLE_CLASS
 90
     4095
280
     0
281
     0
  0
CLASS
  1
SUN
  2
AcDbSun
  3
SCENEOE
 90
     1153
280
     0
281
     0
  0
CLASS
  1
ACDBPLACEHOLDER
  2
AcDbPlaceHolder
  3
ObjectDBX Classes
 90
        0
280
     0
281
     0
  0
CLASS
  1
LAYOUT
  2
AcDbLayout
  3
ObjectDBX Classes
 90
        0
280
     0
281
     0
  0
ENDSEC
  0
SECTION
  2
TABLES
  0
TABLE
  2
VPORT
  5
8
330
0
100
AcDbSymbolTable
 70
     1
  0
VPORT
  5
29
330
8
100
AcDbSymbolTableRecord
100
AcDbViewportTableRecord
  2
*Active
 70
     0
 10
0.0
 20
0.0
 11
1.0
 21
1.0
 12
210.0
 22
148.5
 13
0.0
 23
0.0
 14
10.0
 24
10.0
 15
10.0
 25
10.0
 16
0.0
 26
0.0
 36
1.0
 17
0.0
 27
0.0
 37
0.0
 40
297.0
 41
1.4141414141
 42
50.0
 43
0.0
 44
0.0
 50
0.0
 51
0.0
 71
     0
 72
  2000
 73
     1
 74
     3
 75
     0
 76
     0
 77
     0
 78
     0
281
     0
 65
     1
110
0.0
120
0.0
130
0.0
111
1.0
121
0.0
131
0.0
112
0.0
122
1.0
132
0.0
 79
     0
146
0.0
  0
ENDTAB
  0
TABLE
  2
LTYPE
  5
5
330
0
100
AcDbSymbolTable
 70
     6
  0
LTYPE
  5
14
330
5
100
AcDbSymbolTableRecord
100
AcDbLinetypeTableRecord
  2
ByBlock
 70
     0
  3

 72
    65
 73
     0
 40
0.0
  0
LTYPE
  5
15
330
5
100
AcDbSymbolTableRecord
100
AcDbLinetypeTableRecord
  2
ByLayer
 70
     0
  3

 72
    65
 73
     0
 40
0.0
  0
LTYPE
  5
16
330
5
100
AcDbSymbolTableRecord
100
AcDbLinetypeTableRecord
  2
Continuous
 70
     0
  3
Solid line
 72
    65
 73
     0
 40
0.0
  0
LTYPE
  5
6E
330
5
100
AcDbSymbolTableRecord
100
AcDbLinetypeTableRecord
  2
HIDDEN
 70
     0
  3
Hidden __ __ __ __ __ __ __ __ __ __ __ __ __ __
 72
    65
 73
     2
 40
1.905
 49
1.27
 74
     0
 49
-0.635
 74
     0
  0
LTYPE
  5
6F
330
5
100
AcDbSymbolTableRecord
100
AcDbLinetypeTableRecord
  2
PHANTOM
 70
     0
  3
Phantom ______  __  __  ______  __  __  ______
 72
    65
 73
     6
 40
12.7
 49
6.35
 74
     0
 49
-1.27
 74
     0
 49
1.27
 74
     0
 49
-1.27
 74
     0
 49
1.27
 74
     0
 49
-1.27
 74
     0
  0
LTYPE
  5
70
330
5
100
AcDbSymbolTableRecord
100
AcDbLinetypeTableRecord
  2
CENTER
 70
     0
  3
Center ____ _ ____ _ ____ _ ____ _ ____ _ ____
 72
    65
 73
     4
 40
10.16
 49
6.35
 74
     0
 49
-1.27
 74
     0
 49
1.27
 74
     0
 49
-1.27
 74
     0
  0
LTYPE
  5
71
330
5
100
AcDbSymbolTableRecord
100
AcDbLinetypeTableRecord
  2
CENTERX2
 70
     0
  3
Center (2x) ________  __  ________  __  _____
 72
    65
 73
     4
 40
20.32
 49
12.7
 74
     0
 49
-2.54
 74
     0
 49
2.54
 74
     0
 49
-2.54
 74
     0
  0
LTYPE
  5
72
330
5
100
AcDbSymbolTableRecord
100
AcDbLinetypeTableRecord
  2
DOT2
 70
     0
  3
Dot (.5x) ........................................
 72
    65
 73
     2
 40
0.635
 49
0.0
 74
     0
 49
-0.635
 74
     0
  0
ENDTAB
  0
TABLE
  2
LAYER
  5
2
330
0
100
AcDbSymbolTable
 70
     6
  0
LAYER
  5
10
330
2
100
AcDbSymbolTableRecord
100
AcDbLayerTableRecord
  2
0
 70
     0
 62
     7
  6
Continuous
370
    -3
390
F
  0
LAYER
  5
73
330
2
100
AcDbSymbolTableRecord
100
AcDbLayerTableRecord
  2
SLD-0
 70
     0
 62
     7
  6
Continuous
370
    -3
390
F
  0
LAYER
  5
74
330
2
100
AcDbSymbolTableRecord
100
AcDbLayerTableRecord
  2
8
 70
     0
 62
     7
  6
Continuous
370
    15
390
F
  0
LAYER
  5
75
330
2
100
AcDbSymbolTableRecord
100
AcDbLayerTableRecord
  2
9
 70
     0
 62
     7
  6
Continuous
370
    -3
390
F
  0
LAYER
  5
76
330
2
100
AcDbSymbolTableRecord
100
AcDbLayerTableRecord
  2
10
 70
     0
 62
     1
  6
Continuous
370
    -3
390
F
  0
LAYER
  5
77
330
2
100
AcDbSymbolTableRecord
100
AcDbLayerTableRecord
  2
11
 70
     0
 62
     7
  6
Continuous
370
    -3
390
F
  0
ENDTAB
  0
TABLE
  2
STYLE
  5
3
330
0
100
AcDbSymbolTable
 70
     2
  0
STYLE
  5
11
330
3
100
AcDbSymbolTableRecord
100
AcDbTextStyleTableRecord
  2
Standard
 70
     0
 40
0.0
 41
1.0
 50
0.0
 71
     0
 42
3.8805555556
  3
txt
  4
bigfont
  0
STYLE
  5
78
330
3
100
AcDbSymbolTableRecord
100
AcDbTextStyleTableRecord
  2
SLDTEXTSTYLE0
 70
     0
 40
0.0
 41
0.7
 50
0.0
 71
     0
 42
3.8805555556
  3
TXT
  4
bigfont
  0
ENDTAB
  0
TABLE
  2
VIEW
  5
6
330
0
100
AcDbSymbolTable
 70
     0
  0
ENDTAB
  0
TABLE
  2
UCS
  5
7
330
0
100
AcDbSymbolTable
 70
     0
  0
ENDTAB
  0
TABLE
  2
APPID
  5
9
330
0
100
AcDbSymbolTable
 70
     1
  0
APPID
  5
12
330
9
100
AcDbSymbolTableRecord
100
AcDbRegAppTableRecord
  2
ACAD
 70
     0
  0
ENDTAB
  0
TABLE
  2
DIMSTYLE
  5
A
330
0
100
AcDbSymbolTable
 70
     1
100
AcDbDimStyleTable
  0
DIMSTYLE
105
27
330
A
100
AcDbSymbolTableRecord
100
AcDbDimStyleTableRecord
  2
ISO-25
 70
     0
 41
2.5
 42
0.625
 43
3.75
 44
1.25
 73
     0
 74
     0
 77
     1
 78
     8
140
2.5
141
2.5
143
0.0393700787
147
0.625
171
     3
172
     1
178
     0
271
     2
272
     2
274
     3
278
    44
283
     0
284
     8
340
11
  0
ENDTAB
  0
TABLE
  2
BLOCK_RECORD
  5
1
330
0
100
AcDbSymbolTable
 70
     1
  0
BLOCK_RECORD
  5
1F
330
1
100
AcDbSymbolTableRecord
100
AcDbBlockTableRecord
  2
*Model_Space
340
22
  0
BLOCK_RECORD
  5
1B
330
1
100
AcDbSymbolTableRecord
100
AcDbBlockTableRecord
  2
*Paper_Space
340
1E
  0
BLOCK_RECORD
  5
23
330
1
100
AcDbSymbolTableRecord
100
AcDbBlockTableRecord
  2
*Paper_Space0
340
26
  0
ENDTAB
  0
ENDSEC
  0
SECTION
  2
BLOCKS
  0
BLOCK
  5
20
330
1F
100
AcDbEntity
  8
0
100
AcDbBlockBegin
  2
*Model_Space
 70
     0
 10
0.0
 20
0.0
 30
0.0
  3
*Model_Space
  1

  0
ENDBLK
  5
21
330
1F
100
AcDbEntity
  8
0
100
AcDbBlockEnd
  0
BLOCK
  5
1C
330
1B
100
AcDbEntity
 67
     1
  8
0
100
AcDbBlockBegin
  2
*Paper_Space
 70
     0
 10
0.0
 20
0.0
 30
0.0
  3
*Paper_Space
  1

  0
ENDBLK
  5
1D
330
1B
100
AcDbEntity
 67
     1
  8
0
100
AcDbBlockEnd
  0
BLOCK
  5
24
330
23
100
AcDbEntity
  8
0
100
AcDbBlockBegin
  2
*Paper_Space0
 70
     0
 10
0.0
 20
0.0
 30
0.0
  3
*Paper_Space0
  1

  0
ENDBLK
  5
25
330
23
100
AcDbEntity
  8
0
100
AcDbBlockEnd
  0
ENDSEC
  0
SECTION
  2
ENTITIES
  0
MTEXT
  5
79
330
1F
100
AcDbEntity
  8
9
 62
     7
100
AcDbMText
 10
22.9810592731
 20
14.7698939359
 30
0.0
 40
3.7041666667
 41
0.0
 71
     1
 72
     1
  1
2013/05/15
  7
SLDTEXTSTYLE0
 73
     1
 44
1.0
  0
MTEXT
  5
7A
330
1F
100
AcDbEntity
  8
9
 62
     7
100
AcDbMText
 10
22.9810592731
 20
39.3097759652
 30
0.0
 40
3.7041666667
 41
0.0
 71
     1
 72
     1
  1
ZL-3204
  7
SLDTEXTSTYLE0
 73
     1
 44
1.0
  0
MTEXT
  5
7B
330
1F
100
AcDbEntity
  8
9
 62
     7
100
AcDbMText
 10
22.9810592731
 20
22.271836236
 30
0.0
 40
3.7041666667
 41
0.0
 71
     1
 72
     1
  1
2019/05/08
  7
SLDTEXTSTYLE0
 73
     1
 44
1.0
  0
MTEXT
  5
7C
330
1F
100
AcDbEntity
  8
9
 62
     7
100
AcDbMText
 10
22.9810592731
 20
30.9293045781
 30
0.0
 40
3.7041666667
 41
0.0
 71
     1
 72
     1
  1
1:1
  7
SLDTEXTSTYLE0
 73
     1
 44
1.0
  0
LINE
  5
7D
330
1F
100
AcDbEntity
  8
0
  6
Continuous
 62
     7
370
    30
100
AcDbLine
 10
328.8689244639
 20
182.2571071123
 30
0.0
 11
178.8689185034
 21
182.2571071123
 31
0.0
  0
LINE
  5
7E
330
1F
100
AcDbEntity
  8
0
  6
Continuous
 62
     7
370
    30
100
AcDbLine
 10
178.8689185034
 20
170.2571051454
 30
0.0
 11
328.8689244639
 21
170.2571051454
 31
0.0
  0
ARC
  5
7F
330
1F
100
AcDbEntity
  8
0
  6
Continuous
 62
     7
370
    30
100
AcDbCircle
 10
178.8689214837
 20
216.2571045493
 30
0.0
 40
34.00000000000003
100
AcDbArc
 50
180.0
 51
270.0
  0
ARC
  5
80
330
1F
100
AcDbEntity
  8
0
  6
Continuous
 62
     7
370
    30
100
AcDbCircle
 10
178.8689214837
 20
216.2571045493
 30
0.0
 40
33.99999999999997
100
AcDbArc
 50
90.0
 51
180.0
  0
ARC
  5
81
330
1F
100
AcDbEntity
  8
0
  6
Continuous
 62
     7
370
    30
100
AcDbCircle
 10
178.8689214837
 20
216.2571045493
 30
0.0
 40
46.00000000000006
100
AcDbArc
 50
90.0
 51
270.0
  0
ARC
  5
82
330
1F
100
AcDbEntity
  8
0
  6
Continuous
 62
     7
370
    30
100
AcDbCircle
 10
328.8689214837
 20
216.2571045493
 30
0.0
 40
34.00000000000003
100
AcDbArc
 50
270.0
 51
90.0
  0
ARC
  5
83
330
1F
100
AcDbEntity
  8
0
  6
Continuous
 62
     7
370
    30
100
AcDbCircle
 10
328.8689214837
 20
216.2571045493
 30
0.0
 40
46.00000000000006
100
AcDbArc
 50
270.0
 51
0.0
  0
ARC
  5
84
330
1F
100
AcDbEntity
  8
0
  6
Continuous
 62
     7
370
    30
100
AcDbCircle
 10
328.8689214837
 20
216.2571045493
 30
0.0
 40
46.00000000000006
100
AcDbArc
 50
0.0
 51
90.0
  0
LINE
  5
85
330
1F
100
AcDbEntity
  8
0
  6
Continuous
 62
     7
370
    30
100
AcDbLine
 10
268.3689210664
 20
250.2571052199
 30
0.0
 11
328.8689244639
 21
250.2571052199
 31
0.0
  0
LINE
  5
86
330
1F
100
AcDbEntity
  8
0
  6
Continuous
 62
     7
370
    30
100
AcDbLine
 10
328.8689244639
 20
262.2571053242
 30
0.0
 11
268.3689210664
 21
262.2571053242
 31
0.0
  0
LINE
  5
87
330
1F
100
AcDbEntity
  8
0
  6
Continuous
 62
     7
370
    30
100
AcDbLine
 10
239.3689219009
 20
262.2571053242
 30
0.0
 11
178.8689185034
 21
262.2571053242
 31
0.0
  0
LINE
  5
88
330
1F
100
AcDbEntity
  8
0
  6
Continuous
 62
     7
370
    30
100
AcDbLine
 10
178.8689185034
 20
250.2571052199
 30
0.0
 11
239.3689219009
 21
250.2571052199
 31
0.0
  0
LINE
  5
89
330
1F
100
AcDbEntity
  8
0
  6
Continuous
 62
     7
370
    30
100
AcDbLine
 10
268.1689214062
 20
253.7571048623
 30
0.0
 11
268.3689210664
 21
253.7571048623
 31
0.0
  0
LINE
  5
8A
330
1F
100
AcDbEntity
  8
0
  6
Continuous
 62
     7
370
    30
100
AcDbLine
 10
268.3689210664
 20
258.7571038192
 30
0.0
 11
268.1689214062
 21
258.7571038192
 31
0.0
  0
LINE
  5
8B
330
1F
100
AcDbEntity
  8
0
  6
Continuous
 62
     7
370
    30
100
AcDbLine
 10
241.068921807
 20
240.2571054434
 30
0.0
 11
266.6689211603
 21
240.2571054434
 31
0.0
  0
LINE
  5
8C
330
1F
100
AcDbEntity
  8
0
  6
Continuous
 62
     7
370
    30
100
AcDbLine
 10
266.6689211603
 20
272.2571041694
 30
0.0
 11
266.3689216699
 21
272.2571041694
 31
0.0
  0
LINE
  5
8D
330
1F
100
AcDbEntity
  8
0
  6
Continuous
 62
     7
370
    30
100
AcDbLine
 10
241.3689212974
 20
272.2571041694
 30
0.0
 11
241.068921807
 21
272.2571041694
 31
0.0
  0
LINE
  5
8E
330
1F
100
AcDbEntity
  8
0
  6
Continuous
 62
     7
370
    30
100
AcDbLine
 10
241.068921807
 20
272.2571041694
 30
0.0
 11
239.5689215611
 21
269.2571046089
 31
0.0
  0
LINE
  5
8F
330
1F
100
AcDbEntity
  8
0
  6
Continuous
 62
     7
370
    30
100
AcDbLine
 10
239.5689215611
 20
243.2571040725
 30
0.0
 11
241.068921807
 21
240.2571054434
 31
0.0
  0
LINE
  5
90
330
1F
100
AcDbEntity
  8
0
  6
Continuous
 62
     7
370
    30
100
AcDbLine
 10
266.6689211603
 20
240.2571054434
 30
0.0
 11
268.1689214062
 21
243.2571040725
 31
0.0
  0
LINE
  5
91
330
1F
100
AcDbEntity
  8
0
  6
Continuous
 62
     7
370
    30
100
AcDbLine
 10
268.1689214062
 20
269.2571046089
 30
0.0
 11
266.6689211603
 21
272.2571041694
 31
0.0
  0
SPLINE
  5
92
330
1F
100
AcDbEntity
  8
0
  6
Continuous
 62
     7
370
    30
100
AcDbSpline
210
0.0
220
0.0
230
1.0
 70
     8
 71
     3
 72
    27
 73
    23
 74
     0
 42
0.000000001
 43
0.00000001
 40
0.0
 40
0.0
 40
0.0
 40
0.0
 40
0.0137875210766829
 40
0.0668718384607046
 40
0.1201185655468623
 40
0.1736897977170035
 40
0.2276184553079765
 40
0.281875398048551
 40
0.3363954003725201
 40
0.3911068790180425
 40
0.4459507558237465
 40
0.5008879863535081
 40
0.5558972799795284
 40
0.6109658334528019
 40
0.6660790092309216
 40
0.7212087703007469
 40
0.7763025334420741
 40
0.8312775763180164
 40
0.8860266827240355
 40
0.9404392324406831
 40
0.9944372026872994
 40
1.0
 40
1.0
 40
1.0
 40
1.0
 10
241.7208867247929
 20
254.5621382331086
 30
0.0
 10
241.7548720959358
 20
254.4312386514427
 30
0.0
 10
241.9197069662834
 20
253.7963532626154
 30
0.0
 10
242.4012817430323
 20
252.7013958261409
 30
0.0
 10
243.2390345469482
 20
251.3338467276473
 30
0.0
 10
244.3072602510733
 20
250.0872329101261
 30
0.0
 10
245.5732360325928
 20
248.9832528146646
 30
0.0
 10
247.0156917034601
 20
248.0457844861716
 30
0.0
 10
248.6043637477842
 20
247.2950175771123
 30
0.0
 10
250.3063197543414
 20
246.7476133746138
 30
0.0
 10
252.0856188704695
 20
246.415781295295
 30
0.0
 10
253.9048206891192
 20
246.3071499573275
 30
0.0
 10
255.7257831064867
 20
246.4247691799534
 30
0.0
 10
257.510341063425
 20
246.767306442762
 30
0.0
 10
259.2208136132754
 20
247.3290355018283
 30
0.0
 10
260.8203593385838
 20
248.0998301774806
 30
0.0
 10
262.2739296934081
 20
249.0648131341495
 30
0.0
 10
263.5475582021623
 20
250.2043863859478
 30
0.0
 10
264.6153435667377
 20
251.4929626554299
 30
0.0
 10
265.4395480454156
 20
252.9034336634396
 30
0.0
 10
265.8699864760783
 20
253.9516205388648
 30
0.0
 10
266.0129335416197
 20
254.5177786384503
 30
0.0
 10
266.026284369432
 20
254.5706561093761
 30
0.0
  0
ARC
  5
93
330
1F
100
AcDbEntity
  8
0
  6
Continuous
 62
     7
370
    30
100
AcDbCircle
 10
253.8689214837
 20
272.2571045493
 30
0.0
 40
25.0
100
AcDbArc
 50
336.4218215218
 51
180.0
  0
LINE
  5
94
330
1F
100
AcDbEntity
  8
0
  6
Continuous
 62
     7
370
    30
100
AcDbLine
 10
268.3689210664
 20
251.8916918223
 30
0.0
 11
268.1689214062
 21
251.7507640903
 31
0.0
  0
LINE
  5
95
330
1F
100
AcDbEntity
  8
0
  6
Continuous
 62
     7
370
    30
100
AcDbLine
 10
239.5689215611
 20
251.7507640903
 30
0.0
 11
239.3689219009
 21
251.8916918223
 31
0.0
  0
ARC
  5
96
330
1F
100
AcDbEntity
  8
0
  6
Continuous
 62
     7
370
    30
100
AcDbCircle
 10
253.8689214837
 20
272.2571045493
 30
0.0
 40
25.0
100
AcDbArc
 50
180.0
 51
203.5781784782
  0
ARC
  5
97
330
1F
100
AcDbEntity
  8
0
  6
Continuous
 62
     7
370
    30
100
AcDbCircle
 10
253.8689214837
 20
272.2571045493
 30
0.0
 40
16.5
100
AcDbArc
 50
330.0735651334
 51
180.0
  0
ARC
  5
98
330
1F
100
AcDbEntity
  8
0
  6
Continuous
 62
     7
370
    30
100
AcDbCircle
 10
253.8689214837
 20
272.2571045493
 30
0.0
 40
16.5
100
AcDbArc
 50
180.0
 51
209.9264348666
  0
ARC
  5
99
330
1F
100
AcDbEntity
  8
0
  6
Continuous
 62
     7
370
    30
100
AcDbCircle
 10
253.8689214837
 20
272.2571045493
 30
0.0
 40
27.80000000000001
100
AcDbArc
 50
338.9174758475
 51
180.0
  0
LWPOLYLINE
  5
9A
330
1F
100
AcDbEntity
  8
0
  6
Continuous
 62
     7
370
    30
100
AcDbPolyline
 90
        3
 70
   128
 43
0.0
 10
270.8642155032
 20
250.2571052199
 10
269.3880971622
 20
249.1920838391
 10
268.1689214062
 20
248.4170111155
  0
ARC
  5
9B
330
1F
100
AcDbEntity
  8
0
  6
Continuous
 62
     7
370
    30
100
AcDbCircle
 10
253.8689214837
 20
272.2571045493
 30
0.0
 40
27.8
100
AcDbArc
 50
232.3134351267
 51
239.0434104903
  0
ARC
  5
9C
330
1F
100
AcDbEntity
  8
0
  6
Continuous
 62
     7
370
    30
100
AcDbCircle
 10
253.8689214837
 20
272.2571045493
 30
0.0
 40
27.80000000000001
100
AcDbArc
 50
180.0
 51
201.0825241525
  0
ARC
  5
9D
330
1F
100
AcDbEntity
  8
0
  6
Continuous
 62
     7
370
    30
100
AcDbCircle
 10
253.8689214837
 20
272.2571045493
 30
0.0
 40
15.70000000000002
100
AcDbArc
 50
0.0
 51
204.3799695318
  0
ARC
  5
9E
330
1F
100
AcDbEntity
  8
0
  6
Continuous
 62
     7
370
    30
100
AcDbCircle
 10
253.8689214837
 20
272.2571045493
 30
0.0
 40
15.70000000000002
100
AcDbArc
 50
335.6200304682
 51
0.0
  0
ARC
  5
9F
330
1F
100
AcDbEntity
  8
0
  6
Continuous
 62
     7
370
    30
100
AcDbCircle
 10
253.8689214837
 20
272.2571045493
 30
0.0
 40
16.00000000000003
100
AcDbArc
 50
333.3483199154
 51
0.0
  0
ARC
  5
A0
330
1F
100
AcDbEntity
  8
0
  6
Continuous
 62
     7
370
    30
100
AcDbCircle
 10
253.8689214837
 20
272.2571045493
 30
0.0
 40
16.00000000000003
100
AcDbArc
 50
0.0
 51
206.6516800846
  0
LINE
  5
A1
330
1F
100
AcDbEntity
  8
0
  6
Continuous
 62
     7
370
    30
100
AcDbLine
 10
268.3689210664
 20
262.2571053242
 30
0.0
 11
268.3689210664
 21
250.2571052199
 31
0.0
  0
LINE
  5
A2
330
1F
100
AcDbEntity
  8
0
  6
Continuous
 62
     7
370
    30
100
AcDbLine
 10
239.3689219009
 20
262.2571053242
 30
0.0
 11
239.3689219009
 21
250.2571052199
 31
0.0
  0
LINE
  5
A3
330
1F
100
AcDbEntity
  8
0
  6
Continuous
 62
     7
370
    30
100
AcDbLine
 10
239.5689215611
 20
253.7571048623
 30
0.0
 11
239.3689219009
 21
253.7571048623
 31
0.0
  0
LINE
  5
A4
330
1F
100
AcDbEntity
  8
0
  6
Continuous
 62
     7
370
    30
100
AcDbLine
 10
239.5689215611
 20
258.7571038192
 30
0.0
 11
239.3689219009
 21
258.7571038192
 31
0.0
  0
LINE
  5
A5
330
1F
100
AcDbEntity
  8
0
  6
Continuous
 62
     7
370
    30
100
AcDbLine
 10
266.6689211603
 20
240.2571054434
 30
0.0
 11
266.6689211603
 21
272.2571041694
 31
0.0
  0
LINE
  5
A6
330
1F
100
AcDbEntity
  8
0
  6
Continuous
 62
     7
370
    30
100
AcDbLine
 10
241.068921807
 20
272.2571041694
 30
0.0
 11
241.068921807
 21
240.2571054434
 31
0.0
  0
LINE
  5
A7
330
1F
100
AcDbEntity
  8
0
  6
Continuous
 62
     7
370
    30
100
AcDbLine
 10
239.5689215611
 20
243.2571040725
 30
0.0
 11
239.5689215611
 21
269.2571046089
 31
0.0
  0
LINE
  5
A8
330
1F
100
AcDbEntity
  8
0
  6
Continuous
 62
     7
370
    30
100
AcDbLine
 10
268.1689214062
 20
269.2571046089
 30
0.0
 11
268.1689214062
 21
243.2571040725
 31
0.0
  0
LWPOLYLINE
  5
A9
330
1F
100
AcDbEntity
  8
0
  6
Continuous
 62
     7
370
    30
100
AcDbPolyline
 90
       16
 70
   128
 43
0.0
 10
246.8689212676
 20
263.4599531328
 10
247.0218882065
 20
262.2533856218
 10
247.4741030585
 20
261.0995533203
 10
248.2058026928
 20
260.0488798951
 10
249.185007355
 20
259.1472869997
 10
250.3689213756
 20
258.4341788923
 10
251.705802568
 20
257.9407213514
 10
253.1372222568
 20
257.6884800827
 10
254.6006207105
 20
257.6884800827
 10
256.0320403993
 20
257.9407213514
 10
257.3689215917
 20
258.4341788923
 10
258.5528356123
 20
259.1472869997
 10
259.5320402745
 20
260.0488798951
 10
260.2637399088
 20
261.0995533203
 10
260.7159547608
 20
262.2533856218
 10
260.8689216997
 20
263.4599531328
  0
LINE
  5
AA
330
1F
100
AcDbEntity
  8
0
  6
Continuous
 62
     7
370
    30
100
AcDbLine
 10
260.8689216997
 20
269.6777345871
 30
0.0
 11
260.8689216997
 21
263.4599531328
 31
0.0
  0
LINE
  5
AB
330
1F
100
AcDbEntity
  8
0
  6
Continuous
 62
     7
370
    30
100
AcDbLine
 10
246.8689212676
 20
269.6777345871
 30
0.0
 11
246.8689212676
 21
263.4599531328
 31
0.0
  0
LWPOLYLINE
  5
AC
330
1F
100
AcDbEntity
  8
0
  6
Continuous
 62
     7
370
    30
100
AcDbPolyline
 90
       21
 70
   128
 43
0.0
 10
266.3689216699
 20
261.0808039343
 10
266.2150262024
 20
259.4596786683
 10
265.7571274888
 20
257.8784698879
 10
265.006502914
 20
256.3761143272
 10
263.9816336434
 20
254.9896022563
 10
262.707756656
 20
253.7530778234
 10
261.2162370335
 20
252.6969841009
 10
259.5438028786
 20
251.8473292028
 10
257.7316340159
 20
251.2250343596
 10
255.8243522055
 20
250.8454198276
 10
253.8689214837
 20
250.7178342228
 10
251.9134907618
 20
250.8454198276
 10
250.0062089514
 20
251.2250343596
 10
248.1940400887
 20
251.8473292028
 10
246.5216059338
 20
252.6969841009
 10
245.0300863113
 20
253.7530778234
 10
243.7562093239
 20
254.9896022563
 10
242.7313400533
 20
256.3761143272
 10
241.9807154786
 20
257.8784698879
 10
241.5228167649
 20
259.4596786683
 10
241.3689212974
 20
261.0808039343
  0
SPLINE
  5
AD
330
1F
100
AcDbEntity
  8
0
  6
Continuous
 62
     7
370
    30
100
AcDbSpline
210
0.0
220
0.0
230
1.0
 70
     8
 71
     3
 72
     8
 73
     4
 74
     0
 42
0.000000001
 43
0.00000001
 40
0.0
 40
0.0
 40
0.0
 40
0.0
 40
1.0
 40
1.0
 40
1.0
 40
1.0
 10
266.1281682192576
 20
255.0256243402801
 30
0.0
 10
266.2796223045074
 20
255.9933212503781
 30
0.0
 10
266.3689214836588
 20
256.9649029518398
 30
0.0
 10
266.3689214836588
 20
257.9425604766719
 30
0.0
  0
SPLINE
  5
AE
330
1F
100
AcDbEntity
  8
0
  6
Continuous
 62
     7
370
    30
100
AcDbSpline
210
0.0
220
0.0
230
1.0
 70
     8
 71
     3
 72
     8
 73
     4
 74
     0
 42
0.000000001
 43
0.00000001
 40
0.0
 40
0.0
 40
0.0
 40
0.0
 40
1.0
 40
1.0
 40
1.0
 40
1.0
 10
241.3689214836588
 20
257.942560476672
 30
0.0
 10
241.3689214836588
 20
256.9649029518399
 30
0.0
 10
241.4582206628101
 20
255.9933212503781
 30
0.0
 10
241.60967474806
 20
255.0256243402801
 30
0.0
  0
LINE
  5
AF
330
1F
100
AcDbEntity
  8
0
  6
Continuous
 62
     7
370
    30
100
AcDbLine
 10
241.3689212974
 20
261.0808039343
 30
0.0
 11
241.3689212974
 21
257.9425597822
 31
0.0
  0
LINE
  5
B0
330
1F
100
AcDbEntity
  8
0
  6
Continuous
 62
     7
370
    30
100
AcDbLine
 10
266.3689216699
 20
257.9425597822
 30
0.0
 11
266.3689216699
 21
261.0808039343
 31
0.0
  0
LINE
  5
B1
330
1F
100
AcDbEntity
  8
0
  6
Continuous
 62
     7
370
    30
100
AcDbLine
 10
241.6096747022
 20
255.0256239509
 30
0.0
 11
241.7336076598
 21
254.5655692255
 31
0.0
  0
LINE
  5
B2
330
1F
100
AcDbEntity
  8
0
  6
Continuous
 62
     7
370
    30
100
AcDbLine
 10
265.9914221715
 20
254.5811707412
 30
0.0
 11
266.1281682651
 21
255.0256239509
 31
0.0
  0
LINE
  5
B3
330
1F
100
AcDbEntity
  8
0
  6
Continuous
 62
     7
370
    30
100
AcDbLine
 10
241.3689212974
 20
261.0808039343
 30
0.0
 11
241.3689212974
 21
267.2985853886
 31
0.0
  0
LINE
  5
B4
330
1F
100
AcDbEntity
  8
0
  6
Continuous
 62
     7
370
    30
100
AcDbLine
 10
266.3689216699
 20
267.2985853886
 30
0.0
 11
266.3689216699
 21
261.0808039343
 31
0.0
  0
LINE
  5
B5
330
1F
100
AcDbEntity
  8
0
  6
Continuous
 62
     7
370
    30
100
AcDbLine
 10
260.8689216997
 20
280.2571045493
 30
0.0
 11
260.8689216997
 21
269.6777345871
 31
0.0
  0
LINE
  5
B6
330
1F
100
AcDbEntity
  8
0
  6
Continuous
 62
     7
370
    30
100
AcDbLine
 10
246.8689212676
 20
280.2571045493
 30
0.0
 11
246.8689212676
 21
269.6777345871
 31
0.0
  0
LINE
  5
B7
330
1F
100
AcDbEntity
  8
0
  6
Continuous
 62
     7
370
    30
100
AcDbLine
 10
260.8689216997
 20
280.2571045493
 30
0.0
 11
246.8689212676
 21
280.2571045493
 31
0.0
  0
LINE
  5
B8
330
1F
100
AcDbEntity
  8
0
  6
Continuous
 62
     7
370
    30
100
AcDbLine
 10
246.8689212676
 20
280.2571045493
 30
0.0
 11
241.5748357873
 21
276.4068603308
 31
0.0
  0
LINE
  5
B9
330
1F
100
AcDbEntity
  8
0
  6
Continuous
 62
     7
370
    30
100
AcDbLine
 10
266.16300718
 20
276.4068603308
 30
0.0
 11
260.8689216997
 21
280.2571045493
 31
0.0
  0
ARC
  5
BA
330
1F
100
AcDbEntity
  8
0
  6
Continuous
 62
     7
370
    30
100
AcDbCircle
 10
241.8689214837
 20
276.0024922535
 30
0.0
 40
0.5000000000000053
100
AcDbArc
 50
126.0273733851
 51
180.0
  0
LINE
  5
BB
330
1F
100
AcDbEntity
  8
0
  6
Continuous
 62
     7
370
    30
100
AcDbLine
 10
241.3689212974
 20
267.2985853886
 30
0.0
 11
241.3689212974
 21
276.002492409
 31
0.0
  0
ARC
  5
BC
330
1F
100
AcDbEntity
  8
0
  6
Continuous
 62
     7
370
    30
100
AcDbCircle
 10
265.8689214837
 20
276.0024922535
 30
0.0
 40
0.5
100
AcDbArc
 50
0.0
 51
53.9726266149
  0
LINE
  5
BD
330
1F
100
AcDbEntity
  8
0
  6
Continuous
 62
     7
370
    30
100
AcDbLine
 10
266.3689216699
 20
276.002492409
 30
0.0
 11
266.3689216699
 21
267.2985853886
 31
0.0
  0
LINE
  5
BE
330
1F
100
AcDbEntity
  8
0
  6
Continuous
 62
     7
370
    30
100
AcDbLine
 10
-23.5313797478
 20
244.4571057593
 30
0.0
 11
-22.0313797347
 21
244.4571057593
 31
0.0
  0
LINE
  5
BF
330
1F
100
AcDbEntity
  8
0
  6
Continuous
 62
     7
370
    30
100
AcDbLine
 10
-22.0313797347
 20
300.057104442
 30
0.0
 11
-26.0313796919
 21
300.057104442
 31
0.0
  0
LINE
  5
C0
330
1F
100
AcDbEntity
  8
0
  6
Continuous
 62
     7
370
    30
100
AcDbLine
 10
-22.0313797347
 20
244.4571057593
 30
0.0
 11
-21.0313797454
 21
247.2571047281
 31
0.0
  0
LINE
  5
C1
330
1F
100
AcDbEntity
  8
0
  6
Continuous
 62
     7
370
    30
100
AcDbLine
 10
-21.0313797454
 20
297.2571054732
 30
0.0
 11
-22.0313797347
 21
300.057104442
 31
0.0
  0
LINE
  5
C2
330
1F
100
AcDbEntity
  8
0
  6
Continuous
 62
     7
370
    30
100
AcDbLine
 10
-21.0313797454
 20
256.2571043407
 30
0.0
 11
-20.8313797359
 21
256.2571043407
 31
0.0
  0
LINE
  5
C3
330
1F
100
AcDbEntity
  8
0
  6
Continuous
 62
     7
370
    30
100
AcDbLine
 10
-20.8313797359
 20
288.2571049293
 30
0.0
 11
-21.0313797454
 21
288.2571049293
 31
0.0
  0
LINE
  5
C4
330
1F
100
AcDbEntity
  8
0
  6
Continuous
 62
     7
370
    30
100
AcDbLine
 10
-20.8313797359
 20
256.2571043407
 30
0.0
 11
-20.5313797217
 21
256.5571038311
 31
0.0
  0
LINE
  5
C5
330
1F
100
AcDbEntity
  8
0
  6
Continuous
 62
     7
370
    30
100
AcDbLine
 10
-20.5313797217
 20
287.9571045076
 30
0.0
 11
-20.8313797359
 21
288.2571049293
 31
0.0
  0
LINE
  5
C6
330
1F
100
AcDbEntity
  8
0
  6
Continuous
 62
     7
370
    30
100
AcDbLine
 10
30.9686203379
 20
256.2571043407
 30
0.0
 11
30.9686203379
 21
176.2571024036
 31
0.0
  0
LINE
  5
C7
330
1F
100
AcDbEntity
  8
0
  6
Continuous
 62
     7
370
    30
100
AcDbLine
 10
42.9686223049
 20
176.2571024036
 30
0.0
 11
42.9686223049
 21
256.2571043407
 31
0.0
  0
LINE
  5
C8
330
1F
100
AcDbEntity
  8
0
  6
Continuous
 62
     7
370
    30
100
AcDbLine
 10
58.5458044786
 20
246.6867404317
 30
0.0
 11
64.5221461434
 21
250.7178342228
 31
0.0
  0
ARC
  5
C9
330
1F
100
AcDbEntity
  8
0
  6
Continuous
 62
     7
370
    30
100
AcDbCircle
 10
57.4274199538
 20
248.3448161018
 30
0.0
 40
1.999999999999986
100
AcDbArc
 50
241.1628884222
 51
304.0
  0
ARC
  5
CA
330
1F
100
AcDbEntity
  8
0
  6
Continuous
 62
     7
370
    30
100
AcDbCircle
 10
64.2425501874
 20
251.1323525649
 30
0.0
 40
0.4999999999999967
100
AcDbArc
 50
304.0
 51
357.9726266149
  0
LINE
  5
CB
330
1F
100
AcDbEntity
  8
0
  6
Continuous
 62
     7
370
    30
100
AcDbLine
 10
64.7422362942
 20
251.1146633213
 30
0.0
 11
64.9738226909
 21
257.6566903179
 31
0.0
  0
LINE
  5
CC
330
1F
100
AcDbEntity
  8
0
  6
Continuous
 62
     7
370
    30
100
AcDbLine
 10
-20.5313797217
 20
264.2571037894
 30
0.0
 11
23.1122140665
 21
264.2571037894
 31
0.0
  0
ARC
  5
CD
330
1F
100
AcDbEntity
  8
0
  6
Continuous
 62
     7
370
    30
100
AcDbCircle
 10
68.5208069487
 20
268.4926885697
 30
0.0
 40
25.0
100
AcDbArc
 50
227.6878322164
 51
241.1628884222
  0
LINE
  5
CE
330
1F
100
AcDbEntity
  8
0
  6
Continuous
 62
     7
370
    30
100
AcDbLine
 10
-22.0313797347
 20
272.2571041694
 30
0.0
 11
-22.0313797347
 21
300.057104442
 31
0.0
  0
LINE
  5
CF
330
1F
100
AcDbEntity
  8
0
  6
Continuous
 62
     7
370
    30
100
AcDbLine
 10
-22.0313797347
 20
244.4571057593
 30
0.0
 11
-22.0313797347
 21
272.2571041694
 31
0.0
  0
LINE
  5
D0
330
1F
100
AcDbEntity
  8
0
  6
Continuous
 62
     7
370
    30
100
AcDbLine
 10
-23.5313797478
 20
244.6194501852
 30
0.0
 11
-23.5313797478
 21
244.4571057593
 31
0.0
  0
LINE
  5
D1
330
1F
100
AcDbEntity
  8
0
  6
Continuous
 62
     7
370
    30
100
AcDbLine
 10
-23.5313797478
 20
244.6194501852
 30
0.0
 11
-26.0313796919
 21
244.6194501852
 31
0.0
  0
LINE
  5
D2
330
1F
100
AcDbEntity
  8
0
  6
Continuous
 62
     7
370
    30
100
AcDbLine
 10
-26.0313796919
 20
244.6194501852
 30
0.0
 11
-26.0313796919
 21
244.910440061
 31
0.0
  0
LINE
  5
D3
330
1F
100
AcDbEntity
  8
0
  6
Continuous
 62
     7
370
    30
100
AcDbLine
 10
-26.0313796919
 20
244.910440061
 30
0.0
 11
-27.0313798558
 21
244.910440061
 31
0.0
  0
LINE
  5
D4
330
1F
100
AcDbEntity
  8
0
  6
Continuous
 62
     7
370
    30
100
AcDbLine
 10
-26.0313796919
 20
299.9850685035
 30
0.0
 11
-27.0313798558
 21
299.9850685035
 31
0.0
  0
LINE
  5
D5
330
1F
100
AcDbEntity
  8
0
  6
Continuous
 62
     7
370
    30
100
AcDbLine
 10
-26.0313796919
 20
299.9850685035
 30
0.0
 11
-26.0313796919
 21
300.057104442
 31
0.0
  0
LINE
  5
D6
330
1F
100
AcDbEntity
  8
0
  6
Continuous
 62
     7
370
    30
100
AcDbLine
 10
-27.0313798558
 20
244.910440061
 30
0.0
 11
-27.0313798558
 21
299.9850685035
 31
0.0
  0
LINE
  5
D7
330
1F
100
AcDbEntity
  8
0
  6
Continuous
 62
     7
370
    30
100
AcDbLine
 10
-21.0313797454
 20
272.2571041694
 30
0.0
 11
-21.0313797454
 21
297.2571054732
 31
0.0
  0
LINE
  5
D8
330
1F
100
AcDbEntity
  8
0
  6
Continuous
 62
     7
370
    30
100
AcDbLine
 10
-21.0313797454
 20
247.2571047281
 30
0.0
 11
-21.0313797454
 21
272.2571041694
 31
0.0
  0
LINE
  5
D9
330
1F
100
AcDbEntity
  8
0
  6
Continuous
 62
     7
370
    30
100
AcDbLine
 10
-27.0313798558
 20
244.8709296321
 30
0.0
 11
-26.0313796919
 21
244.8709296321
 31
0.0
  0
LINE
  5
DA
330
1F
100
AcDbEntity
  8
0
  6
Continuous
 62
     7
370
    30
100
AcDbLine
 10
-20.8313797359
 20
256.2571043407
 30
0.0
 11
-20.8313797359
 21
288.2571049293
 31
0.0
  0
LINE
  5
DB
330
1F
100
AcDbEntity
  8
0
  6
Continuous
 62
     7
370
    30
100
AcDbLine
 10
-20.5313797217
 20
287.9571045076
 30
0.0
 11
-20.5313797217
 21
256.5571038311
 31
0.0
  0
ARC
  5
DC
330
1F
100
AcDbEntity
  8
0
  6
Continuous
 62
     7
370
    30
100
AcDbCircle
 10
36.9686202783
 20
176.2571045493
 30
0.0
 40
6.0
100
AcDbArc
 50
180.0
 51
0.0
  0
ARC
  5
DD
330
1F
100
AcDbEntity
  8
0
  6
Continuous
 62
     7
370
    30
100
AcDbCircle
 10
36.9686202783
 20
256.2571045493
 30
0.0
 40
6.0
100
AcDbArc
 50
0.0
 51
180.0
  0
ARC
  5
DE
330
1F
100
AcDbEntity
  8
0
  6
Continuous
 62
     7
370
    30
100
AcDbCircle
 10
36.9686202783
 20
256.2571045493
 30
0.0
 40
16.00000000000002
100
AcDbArc
 50
292.024312837
 51
180.0
  0
ARC
  5
DF
330
1F
100
AcDbEntity
  8
0
  6
Continuous
 62
     7
370
    30
100
AcDbCircle
 10
36.9686202783
 20
256.2571045493
 30
0.0
 40
16.00000000000003
100
AcDbArc
 50
180.0
 51
247.975687163
  0
ARC
  5
E0
330
1F
100
AcDbEntity
  8
0
  6
Continuous
 62
     7
370
    30
100
AcDbCircle
 10
36.9686202783
 20
256.2571045493
 30
0.0
 40
13.00000000000002
100
AcDbArc
 50
180.0
 51
242.5135737496
  0
ARC
  5
E1
330
1F
100
AcDbEntity
  8
0
  6
Continuous
 62
     7
370
    30
100
AcDbCircle
 10
36.9686202783
 20
256.2571045493
 30
0.0
 40
13.0
100
AcDbArc
 50
297.4864262504
 51
180.0
  0
SPLINE
  5
E2
330
1F
100
AcDbEntity
  8
0
  6
Continuous
 62
     7
370
    30
100
AcDbSpline
210
0.0
220
0.0
230
1.0
 70
     8
 71
     3
 72
     8
 73
     4
 74
     0
 42
0.000000001
 43
0.00000001
 40
0.0
 40
0.0
 40
0.0
 40
0.0
 40
1.0
 40
1.0
 40
1.0
 40
1.0
 10
52.87959882511695
 20
257.942560476672
 30
0.0
 10
52.9831624535443
 20
256.9649029518399
 30
0.0
 10
52.99586072052955
 20
255.9933212503781
 30
0.0
 10
52.921157897594
 20
255.0256243402801
 30
0.0
  0
SPLINE
  5
E3
330
1F
100
AcDbEntity
  8
0
  6
Continuous
 62
     7
370
    30
100
AcDbSpline
210
0.0
220
0.0
230
1.0
 70
     8
 71
     3
 72
     9
 73
     5
 74
     0
 42
0.000000001
 43
0.00000001
 40
0.0
 40
0.0
 40
0.0
 40
0.0
 40
0.2064135045846445
 40
1.0
 40
1.0
 40
1.0
 40
1.0
 10
25.88779748267917
 20
267.7919144069386
 30
0.0
 10
25.9561245988546
 20
267.8596647385108
 30
0.0
 10
26.28714516997919
 20
268.1878909934185
 30
0.0
 10
26.69971944442454
 20
268.5256674408321
 30
0.0
 10
27.02713281698015
 20
268.7937222679687
 30
0.0
  0
LINE
  5
E4
330
1F
100
AcDbEntity
  8
0
  6
Continuous
 62
     7
370
    30
100
AcDbLine
 10
36.9686213214
 20
280.2571045493
 30
0.0
 11
-20.5313797217
 21
280.2571045493
 31
0.0
  0
ARC
  5
E5
330
1F
100
AcDbEntity
  8
0
  6
Continuous
 62
     7
370
    30
100
AcDbCircle
 10
36.9686202783
 20
256.2571045493
 30
0.0
 40
23.99999999999999
100
AcDbArc
 50
34.0
 51
90.0
  0
LINE
  5
E6
330
1F
100
AcDbEntity
  8
0
  6
Continuous
 62
     7
370
    30
100
AcDbLine
 10
56.8655197401
 20
269.6777345871
 30
0.0
 11
61.0594664592
 21
263.4599531328
 31
0.0
  0
LWPOLYLINE
  5
E7
330
1F
100
AcDbEntity
  8
0
  6
Continuous
 62
     7
370
    30
100
AcDbPolyline
 90
        9
 70
   128
 43
0.0
 10
61.0594664592
 20
263.4599531328
 10
61.873308279
 20
262.2533856218
 10
62.651581027
 20
261.0995533203
 10
63.3602653522
 20
260.0488798951
 10
63.9683966417
 20
259.1472869997
 10
64.4493986744
 20
258.4341788923
 10
64.7822384614
 20
257.9407213514
 10
64.9523724694
 20
257.6884800827
 10
64.9738226909
 20
257.6566903179
  0
LINE
  5
E8
330
1F
100
AcDbEntity
  8
0
  6
Continuous
 62
     7
370
    30
100
AcDbLine
 10
553.4170580987
 20
300.057104442
 30
0.0
 11
549.4170581415
 21
300.057104442
 31
0.0
  0
LINE
  5
E9
330
1F
100
AcDbEntity
  8
0
  6
Continuous
 62
     7
370
    30
100
AcDbLine
 10
549.4170581415
 20
244.4571057593
 30
0.0
 11
550.9170581546
 21
244.4571057593
 31
0.0
  0
LINE
  5
EA
330
1F
100
AcDbEntity
  8
0
  6
Continuous
 62
     7
370
    30
100
AcDbLine
 10
549.4170581415
 20
300.057104442
 30
0.0
 11
548.4170581523
 21
297.2571054732
 31
0.0
  0
LINE
  5
EB
330
1F
100
AcDbEntity
  8
0
  6
Continuous
 62
     7
370
    30
100
AcDbLine
 10
548.4170581523
 20
247.2571047281
 30
0.0
 11
549.4170581415
 21
244.4571057593
 31
0.0
  0
LINE
  5
EC
330
1F
100
AcDbEntity
  8
0
  6
Continuous
 62
     7
370
    30
100
AcDbLine
 10
548.4170581523
 20
288.2571049293
 30
0.0
 11
548.2170581428
 21
288.2571049293
 31
0.0
  0
LINE
  5
ED
330
1F
100
AcDbEntity
  8
0
  6
Continuous
 62
     7
370
    30
100
AcDbLine
 10
548.2170581428
 20
256.2571043407
 30
0.0
 11
548.4170581523
 21
256.2571043407
 31
0.0
  0
LINE
  5
EE
330
1F
100
AcDbEntity
  8
0
  6
Continuous
 62
     7
370
    30
100
AcDbLine
 10
548.2170581428
 20
288.2571049293
 30
0.0
 11
547.9170581285
 21
287.9571045076
 31
0.0
  0
LINE
  5
EF
330
1F
100
AcDbEntity
  8
0
  6
Continuous
 62
     7
370
    30
100
AcDbLine
 10
547.9170581285
 20
256.5571038311
 30
0.0
 11
548.2170581428
 21
256.2571043407
 31
0.0
  0
LINE
  5
F0
330
1F
100
AcDbEntity
  8
0
  6
Continuous
 62
     7
370
    30
100
AcDbLine
 10
496.4170580689
 20
176.2571024036
 30
0.0
 11
496.4170580689
 21
256.2571043407
 31
0.0
  0
LINE
  5
F1
330
1F
100
AcDbEntity
  8
0
  6
Continuous
 62
     7
370
    30
100
AcDbLine
 10
484.4170561019
 20
256.2571043407
 30
0.0
 11
484.4170561019
 21
176.2571024036
 31
0.0
  0
LINE
  5
F2
330
1F
100
AcDbEntity
  8
0
  6
Continuous
 62
     7
370
    30
100
AcDbLine
 10
462.8635322634
 20
250.7178342228
 30
0.0
 11
468.8398739282
 21
246.6867404317
 31
0.0
  0
ARC
  5
F3
330
1F
100
AcDbEntity
  8
0
  6
Continuous
 62
     7
370
    30
100
AcDbCircle
 10
463.1431282194
 20
251.1323525649
 30
0.0
 40
0.4999999999999839
100
AcDbArc
 50
182.0273733851
 51
236.0
  0
ARC
  5
F4
330
1F
100
AcDbEntity
  8
0
  6
Continuous
 62
     7
370
    30
100
AcDbCircle
 10
469.958258453
 20
248.3448161018
 30
0.0
 40
1.999999999999986
100
AcDbArc
 50
236.0
 51
298.8371115778
  0
LINE
  5
F5
330
1F
100
AcDbEntity
  8
0
  6
Continuous
 62
     7
370
    30
100
AcDbLine
 10
462.4118557159
 20
257.6566903179
 30
0.0
 11
462.6434421126
 21
251.1146633213
 31
0.0
  0
LINE
  5
F6
330
1F
100
AcDbEntity
  8
0
  6
Continuous
 62
     7
370
    30
100
AcDbLine
 10
504.2734643404
 20
264.2571037894
 30
0.0
 11
547.9170581285
 21
264.2571037894
 31
0.0
  0
ARC
  5
F7
330
1F
100
AcDbEntity
  8
0
  6
Continuous
 62
     7
370
    30
100
AcDbCircle
 10
458.8648714582
 20
268.4926885697
 30
0.0
 40
24.99999999999998
100
AcDbArc
 50
298.8371115778
 51
312.3092911138
  0
LINE
  5
F8
330
1F
100
AcDbEntity
  8
0
  6
Continuous
 62
     7
370
    30
100
AcDbLine
 10
549.4170581415
 20
300.057104442
 30
0.0
 11
549.4170581415
 21
244.4571057593
 31
0.0
  0
LINE
  5
F9
330
1F
100
AcDbEntity
  8
0
  6
Continuous
 62
     7
370
    30
100
AcDbLine
 10
553.4170580987
 20
244.910440061
 30
0.0
 11
554.4170582626
 21
244.910440061
 31
0.0
  0
LINE
  5
FA
330
1F
100
AcDbEntity
  8
0
  6
Continuous
 62
     7
370
    30
100
AcDbLine
 10
553.4170580987
 20
244.910440061
 30
0.0
 11
553.4170580987
 21
244.6194501852
 31
0.0
  0
LINE
  5
FB
330
1F
100
AcDbEntity
  8
0
  6
Continuous
 62
     7
370
    30
100
AcDbLine
 10
553.4170580987
 20
244.6194501852
 30
0.0
 11
550.9170581546
 21
244.6194501852
 31
0.0
  0
LINE
  5
FC
330
1F
100
AcDbEntity
  8
0
  6
Continuous
 62
     7
370
    30
100
AcDbLine
 10
550.9170581546
 20
244.4571057593
 30
0.0
 11
550.9170581546
 21
244.6194501852
 31
0.0
  0
LINE
  5
FD
330
1F
100
AcDbEntity
  8
0
  6
Continuous
 62
     7
370
    30
100
AcDbLine
 10
553.4170580987
 20
300.057104442
 30
0.0
 11
553.4170580987
 21
299.9850685035
 31
0.0
  0
LINE
  5
FE
330
1F
100
AcDbEntity
  8
0
  6
Continuous
 62
     7
370
    30
100
AcDbLine
 10
553.4170580987
 20
299.9850685035
 30
0.0
 11
554.4170582626
 21
299.9850685035
 31
0.0
  0
LINE
  5
FF
330
1F
100
AcDbEntity
  8
0
  6
Continuous
 62
     7
370
    30
100
AcDbLine
 10
554.4170582626
 20
299.9850685035
 30
0.0
 11
554.4170582626
 21
244.910440061
 31
0.0
  0
LINE
  5
100
330
1F
100
AcDbEntity
  8
0
  6
Continuous
 62
     7
370
    30
100
AcDbLine
 10
548.4170581523
 20
297.2571054732
 30
0.0
 11
548.4170581523
 21
247.2571047281
 31
0.0
  0
LINE
  5
101
330
1F
100
AcDbEntity
  8
0
  6
Continuous
 62
     7
370
    30
100
AcDbLine
 10
553.4170580987
 20
244.8709296321
 30
0.0
 11
554.4170582626
 21
244.8709296321
 31
0.0
  0
LINE
  5
102
330
1F
100
AcDbEntity
  8
0
  6
Continuous
 62
     7
370
    30
100
AcDbLine
 10
548.2170581428
 20
272.2571041694
 30
0.0
 11
548.2170581428
 21
256.2571043407
 31
0.0
  0
LINE
  5
103
330
1F
100
AcDbEntity
  8
0
  6
Continuous
 62
     7
370
    30
100
AcDbLine
 10
548.2170581428
 20
288.2571049293
 30
0.0
 11
548.2170581428
 21
272.2571041694
 31
0.0
  0
LINE
  5
104
330
1F
100
AcDbEntity
  8
0
  6
Continuous
 62
     7
370
    30
100
AcDbLine
 10
547.9170581285
 20
272.2571041694
 30
0.0
 11
547.9170581285
 21
287.9571045076
 31
0.0
  0
LINE
  5
105
330
1F
100
AcDbEntity
  8
0
  6
Continuous
 62
     7
370
    30
100
AcDbLine
 10
547.9170581285
 20
256.5571038311
 30
0.0
 11
547.9170581285
 21
272.2571041694
 31
0.0
  0
ARC
  5
106
330
1F
100
AcDbEntity
  8
0
  6
Continuous
 62
     7
370
    30
100
AcDbCircle
 10
490.4170581285
 20
256.2571045493
 30
0.0
 40
6.0
100
AcDbArc
 50
0.0
 51
180.0
  0
ARC
  5
107
330
1F
100
AcDbEntity
  8
0
  6
Continuous
 62
     7
370
    30
100
AcDbCircle
 10
490.4170581285
 20
176.2571045493
 30
0.0
 40
6.0
100
AcDbArc
 50
180.0
 51
0.0
  0
ARC
  5
108
330
1F
100
AcDbEntity
  8
0
  6
Continuous
 62
     7
370
    30
100
AcDbCircle
 10
490.4170581285
 20
256.2571045493
 30
0.0
 40
13.0
100
AcDbArc
 50
0.0
 51
242.5135737496
  0
ARC
  5
109
330
1F
100
AcDbEntity
  8
0
  6
Continuous
 62
     7
370
    30
100
AcDbCircle
 10
490.4170581285
 20
256.2571045493
 30
0.0
 40
13.0
100
AcDbArc
 50
297.4864262504
 51
0.0
  0
ARC
  5
10A
330
1F
100
AcDbEntity
  8
0
  6
Continuous
 62
     7
370
    30
100
AcDbCircle
 10
490.4170581285
 20
256.2571045493
 30
0.0
 40
16.00000000000001
100
AcDbArc
 50
292.024312837
 51
0.0
  0
ARC
  5
10B
330
1F
100
AcDbEntity
  8
0
  6
Continuous
 62
     7
370
    30
100
AcDbCircle
 10
490.4170581285
 20
256.2571045493
 30
0.0
 40
16.00000000000002
100
AcDbArc
 50
0.0
 51
247.975687163
  0
SPLINE
  5
10C
330
1F
100
AcDbEntity
  8
0
  6
Continuous
 62
     7
370
    30
100
AcDbSpline
210
0.0
220
0.0
230
1.0
 70
     8
 71
     3
 72
     8
 73
     4
 74
     0
 42
0.000000001
 43
0.00000001
 40
0.0
 40
0.0
 40
0.0
 40
0.0
 40
1.0
 40
1.0
 40
1.0
 40
1.0
 10
474.4645205092164
 20
255.0256243402801
 30
0.0
 10
474.3898176862809
 20
255.9933212503781
 30
0.0
 10
474.4025159532661
 20
256.9649029518398
 30
0.0
 10
474.5060795816934
 20
257.9425604766719
 30
0.0
  0
LINE
  5
10D
330
1F
100
AcDbEntity
  8
0
  6
Continuous
 62
     7
370
    30
100
AcDbLine
 10
490.4170570854
 20
280.2571045493
 30
0.0
 11
547.9170581285
 21
280.2571045493
 31
0.0
  0
ARC
  5
10E
330
1F
100
AcDbEntity
  8
0
  6
Continuous
 62
     7
370
    30
100
AcDbCircle
 10
490.4170581285
 20
256.2571045493
 30
0.0
 40
23.99999999999995
100
AcDbArc
 50
90.0
 51
146.0
  0
LINE
  5
10F
330
1F
100
AcDbEntity
  8
0
  6
Continuous
 62
     7
370
    30
100
AcDbLine
 10
470.5201586668
 20
269.6777345871
 30
0.0
 11
466.3262119476
 21
263.4599531328
 31
0.0
  0
LWPOLYLINE
  5
110
330
1F
100
AcDbEntity
  8
0
  6
Continuous
 62
     7
370
    30
100
AcDbPolyline
 90
        9
 70
   128
 43
0.0
 10
462.4118557159
 20
257.6566903179
 10
462.4333059374
 20
257.6884800827
 10
462.6034399454
 20
257.9407213514
 10
462.9362797324
 20
258.4341788923
 10
463.4172817651
 20
259.1472869997
 10
464.0254130546
 20
260.0488798951
 10
464.7340973798
 20
261.0995533203
 10
465.5123701278
 20
262.2533856218
 10
466.3262119476
 20
263.4599531328
  0
LINE
  5
111
330
1F
100
AcDbEntity
  8
0
  6
Continuous
 62
     7
370
    30
100
AcDbLine
 10
226.0689221423
 20
440.6653134186
 30
0.0
 11
226.0689221423
 21
435.6653132975
 31
0.0
  0
LINE
  5
112
330
1F
100
AcDbEntity
  8
0
  6
Continuous
 62
     7
370
    30
100
AcDbLine
 10
281.668920825
 20
435.6653132975
 30
0.0
 11
281.668920825
 21
440.6653134186
 31
0.0
  0
LINE
  5
113
330
1F
100
AcDbEntity
  8
0
  6
Continuous
 62
     7
370
    30
100
AcDbLine
 10
226.0689221423
 20
435.6653132975
 30
0.0
 11
228.8689211111
 21
434.6653133082
 31
0.0
  0
LINE
  5
114
330
1F
100
AcDbEntity
  8
0
  6
Continuous
 62
     7
370
    30
100
AcDbLine
 10
278.8689218562
 20
434.6653133082
 30
0.0
 11
281.668920825
 21
435.6653132975
 31
0.0
  0
LINE
  5
115
330
1F
100
AcDbEntity
  8
0
  6
Continuous
 62
     7
370
    30
100
AcDbLine
 10
237.8689207237
 20
434.6653133082
 30
0.0
 11
237.8689207237
 21
434.4653132987
 31
0.0
  0
LINE
  5
116
330
1F
100
AcDbEntity
  8
0
  6
Continuous
 62
     7
370
    30
100
AcDbLine
 10
269.8689222436
 20
434.4653132987
 30
0.0
 11
269.8689222436
 21
434.6653133082
 31
0.0
  0
LINE
  5
117
330
1F
100
AcDbEntity
  8
0
  6
Continuous
 62
     7
370
    30
100
AcDbLine
 10
237.8689207237
 20
434.4653132987
 30
0.0
 11
238.1689220767
 21
434.1653132845
 31
0.0
  0
LINE
  5
118
330
1F
100
AcDbEntity
  8
0
  6
Continuous
 62
     7
370
    30
100
AcDbLine
 10
269.5689208906
 20
434.1653132845
 30
0.0
 11
269.8689222436
 21
434.4653132987
 31
0.0
  0
LINE
  5
119
330
1F
100
AcDbEntity
  8
0
  6
Continuous
 62
     7
370
    30
100
AcDbLine
 10
268.3689210664
 20
370.6653112579
 30
0.0
 11
328.8689244639
 21
370.6653112579
 31
0.0
  0
LINE
  5
11A
330
1F
100
AcDbEntity
  8
0
  6
Continuous
 62
     7
370
    30
100
AcDbLine
 10
328.8689244639
 20
382.6653132249
 30
0.0
 11
268.3689210664
 21
382.6653132249
 31
0.0
  0
ARC
  5
11B
330
1F
100
AcDbEntity
  8
0
  6
Continuous
 62
     7
370
    30
100
AcDbCircle
 10
368.8689214837
 20
376.6653132845
 30
0.0
 40
6.0
100
AcDbArc
 50
270.0
 51
90.0
  0
LINE
  5
11C
330
1F
100
AcDbEntity
  8
0
  6
Continuous
 62
     7
370
    30
100
AcDbLine
 10
368.8689235698
 20
382.6653132249
 30
0.0
 11
328.8689244639
 21
382.6653132249
 31
0.0
  0
LINE
  5
11D
330
1F
100
AcDbEntity
  8
0
  6
Continuous
 62
     7
370
    30
100
AcDbLine
 10
328.8689244639
 20
370.6653112579
 30
0.0
 11
368.8689235698
 21
370.6653112579
 31
0.0
  0
LINE
  5
11E
330
1F
100
AcDbEntity
  8
0
  6
Continuous
 62
     7
370
    30
100
AcDbLine
 10
239.3689219009
 20
382.6653132249
 30
0.0
 11
178.8689185034
 21
382.6653132249
 31
0.0
  0
LINE
  5
11F
330
1F
100
AcDbEntity
  8
0
  6
Continuous
 62
     7
370
    30
100
AcDbLine
 10
178.8689185034
 20
370.6653112579
 30
0.0
 11
239.3689219009
 21
370.6653112579
 31
0.0
  0
ARC
  5
120
330
1F
100
AcDbEntity
  8
0
  6
Continuous
 62
     7
370
    30
100
AcDbCircle
 10
138.8689214837
 20
376.6653132845
 30
0.0
 40
6.0
100
AcDbArc
 50
90.0
 51
270.0
  0
LINE
  5
121
330
1F
100
AcDbEntity
  8
0
  6
Continuous
 62
     7
370
    30
100
AcDbLine
 10
178.8689185034
 20
382.6653132249
 30
0.0
 11
138.8689193975
 21
382.6653132249
 31
0.0
  0
LINE
  5
122
330
1F
100
AcDbEntity
  8
0
  6
Continuous
 62
     7
370
    30
100
AcDbLine
 10
138.8689193975
 20
370.6653112579
 30
0.0
 11
178.8689185034
 21
370.6653112579
 31
0.0
  0
LINE
  5
123
330
1F
100
AcDbEntity
  8
0
  6
Continuous
 62
     7
370
    30
100
AcDbLine
 10
268.3689210664
 20
382.6653132249
 30
0.0
 11
268.1689214062
 21
382.6653132249
 31
0.0
  0
LINE
  5
124
330
1F
100
AcDbEntity
  8
0
  6
Continuous
 62
     7
370
    30
100
AcDbLine
 10
239.5689215611
 20
382.6653132249
 30
0.0
 11
239.3689219009
 21
382.6653132249
 31
0.0
  0
LINE
  5
125
330
1F
100
AcDbEntity
  8
0
  6
Continuous
 62
     7
370
    30
100
AcDbLine
 10
239.3689219009
 20
370.6653112579
 30
0.0
 11
239.5689215611
 21
370.6653112579
 31
0.0
  0
LINE
  5
126
330
1F
100
AcDbEntity
  8
0
  6
Continuous
 62
     7
370
    30
100
AcDbLine
 10
268.1689214062
 20
370.6653112579
 30
0.0
 11
268.3689210664
 21
370.6653112579
 31
0.0
  0
LINE
  5
127
330
1F
100
AcDbEntity
  8
0
  6
Continuous
 62
     7
370
    30
100
AcDbLine
 10
239.3689219009
 20
374.1653146256
 30
0.0
 11
239.5689215611
 21
374.1653146256
 31
0.0
  0
LINE
  5
128
330
1F
100
AcDbEntity
  8
0
  6
Continuous
 62
     7
370
    30
100
AcDbLine
 10
268.1689214062
 20
374.1653146256
 30
0.0
 11
268.3689210664
 21
374.1653146256
 31
0.0
  0
LINE
  5
129
330
1F
100
AcDbEntity
  8
0
  6
Continuous
 62
     7
370
    30
100
AcDbLine
 10
268.3689210664
 20
379.1653135825
 30
0.0
 11
268.1689214062
 21
379.1653135825
 31
0.0
  0
LINE
  5
12A
330
1F
100
AcDbEntity
  8
0
  6
Continuous
 62
     7
370
    30
100
AcDbLine
 10
241.068921807
 20
360.6653133441
 30
0.0
 11
241.3689212974
 21
360.6653133441
 31
0.0
  0
LINE
  5
12B
330
1F
100
AcDbEntity
  8
0
  6
Continuous
 62
     7
370
    30
100
AcDbLine
 10
266.3689216699
 20
360.6653133441
 30
0.0
 11
266.6689211603
 21
360.6653133441
 31
0.0
  0
LINE
  5
12C
330
1F
100
AcDbEntity
  8
0
  6
Continuous
 62
     7
370
    30
100
AcDbLine
 10
266.6689211603
 20
392.665314864
 30
0.0
 11
266.3689216699
 21
392.665314864
 31
0.0
  0
LINE
  5
12D
330
1F
100
AcDbEntity
  8
0
  6
Continuous
 62
     7
370
    30
100
AcDbLine
 10
241.3689212974
 20
392.665314864
 30
0.0
 11
241.068921807
 21
392.665314864
 31
0.0
  0
LINE
  5
12E
330
1F
100
AcDbEntity
  8
0
  6
Continuous
 62
     7
370
    30
100
AcDbLine
 10
241.068921807
 20
392.665314864
 30
0.0
 11
239.5689215611
 21
389.6653125096
 31
0.0
  0
LINE
  5
12F
330
1F
100
AcDbEntity
  8
0
  6
Continuous
 62
     7
370
    30
100
AcDbLine
 10
239.5689215611
 20
363.6653119732
 30
0.0
 11
241.068921807
 21
360.6653133441
 31
0.0
  0
LINE
  5
130
330
1F
100
AcDbEntity
  8
0
  6
Continuous
 62
     7
370
    30
100
AcDbLine
 10
266.6689211603
 20
360.6653133441
 30
0.0
 11
268.1689214062
 21
363.6653119732
 31
0.0
  0
LINE
  5
131
330
1F
100
AcDbEntity
  8
0
  6
Continuous
 62
     7
370
    30
100
AcDbLine
 10
268.1689214062
 20
389.6653125096
 30
0.0
 11
266.6689211603
 21
392.665314864
 31
0.0
  0
LINE
  5
132
330
1F
100
AcDbEntity
  8
0
  6
Continuous
 62
     7
370
    30
100
AcDbLine
 10
249.2715584215
 20
349.3904689361
 30
0.0
 11
251.2512775704
 21
348.9441046525
 31
0.0
  0
LINE
  5
133
330
1F
100
AcDbEntity
  8
0
  6
Continuous
 62
     7
370
    30
100
AcDbLine
 10
256.4865653969
 20
348.9441046525
 30
0.0
 11
258.4662845459
 21
349.3904689361
 31
0.0
  0
SPLINE
  5
134
330
1F
100
AcDbEntity
  8
0
  6
Continuous
 62
     7
370
    30
100
AcDbSpline
210
0.0
220
0.0
230
1.0
 70
     8
 71
     3
 72
     9
 73
     5
 74
     0
 42
0.000000001
 43
0.00000001
 40
0.0
 40
0.0
 40
0.0
 40
0.0
 40
0.2474149949242822
 40
1.0
 40
1.0
 40
1.0
 40
1.0
 10
265.6514344837299
 20
353.7127593565857
 30
0.0
 10
265.7023790231192
 20
353.783299434581
 30
0.0
 10
265.9082862657464
 20
354.0684077725658
 30
0.0
 10
266.0031019956662
 20
354.3806354183517
 30
0.0
 10
266.0744588922491
 20
354.6156132627403
 30
0.0
  0
SPLINE
  5
135
330
1F
100
AcDbEntity
  8
0
  6
Continuous
 62
     7
370
    30
100
AcDbSpline
210
0.0
220
0.0
230
1.0
 70
     8
 71
     3
 72
    10
 73
     6
 74
     0
 42
0.000000001
 43
0.00000001
 40
0.0
 40
0.0
 40
0.0
 40
0.0
 40
0.2803403019322059
 40
0.7817742594788195
 40
1.0
 40
1.0
 40
1.0
 40
1.0
 10
241.3689212973943
 20
356.1016986180221
 30
0.0
 10
241.3781787066702
 20
355.9057020287709
 30
0.0
 10
241.403994489244
 20
355.3591338494325
 30
0.0
 10
241.5657229266746
 20
354.6612297895499
 30
0.0
 10
241.829068154495
 20
354.1917244983364
 30
0.0
 10
241.9089235465756
 20
354.0493542362129
 30
0.0
  0
LINE
  5
136
330
1F
100
AcDbEntity
  8
0
  6
Continuous
 62
     7
370
    30
100
AcDbLine
 10
226.0689221423
 20
435.6653132975
 30
0.0
 11
281.668920825
 21
435.6653132975
 31
0.0
  0
LINE
  5
137
330
1F
100
AcDbEntity
  8
0
  6
Continuous
 62
     7
370
    30
100
AcDbLine
 10
255.8689215787
 20
440.6653134186
 30
0.0
 11
281.668920825
 21
440.6653134186
 31
0.0
  0
LINE
  5
138
330
1F
100
AcDbEntity
  8
0
  6
Continuous
 62
     7
370
    30
100
AcDbLine
 10
226.0689221423
 20
440.6653134186
 30
0.0
 11
251.8689213887
 21
440.6653134186
 31
0.0
  0
LINE
  5
139
330
1F
100
AcDbEntity
  8
0
  6
Continuous
 62
     7
370
    30
100
AcDbLine
 10
251.8689213887
 20
439.6653132547
 30
0.0
 11
251.8689213887
 21
440.6653134186
 31
0.0
  0
LINE
  5
13A
330
1F
100
AcDbEntity
  8
0
  6
Continuous
 62
     7
370
    30
100
AcDbLine
 10
251.8689213887
 20
439.6653132547
 30
0.0
 11
255.8689215787
 21
439.6653132547
 31
0.0
  0
LINE
  5
13B
330
1F
100
AcDbEntity
  8
0
  6
Continuous
 62
     7
370
    30
100
AcDbLine
 10
255.8689215787
 20
439.6653132547
 30
0.0
 11
255.8689215787
 21
440.6653134186
 31
0.0
  0
LINE
  5
13C
330
1F
100
AcDbEntity
  8
0
  6
Continuous
 62
     7
370
    30
100
AcDbLine
 10
228.8689211111
 20
434.6653133082
 30
0.0
 11
278.8689218562
 21
434.6653133082
 31
0.0
  0
LINE
  5
13D
330
1F
100
AcDbEntity
  8
0
  6
Continuous
 62
     7
370
    30
100
AcDbLine
 10
255.8689215787
 20
440.6653134186
 30
0.0
 11
251.8689213887
 21
440.6653134186
 31
0.0
  0
LINE
  5
13E
330
1F
100
AcDbEntity
  8
0
  6
Continuous
 62
     7
370
    30
100
AcDbLine
 10
237.8689207237
 20
434.4653132987
 30
0.0
 11
269.8689222436
 21
434.4653132987
 31
0.0
  0
LINE
  5
13F
330
1F
100
AcDbEntity
  8
0
  6
Continuous
 62
     7
370
    30
100
AcDbLine
 10
269.5689208906
 20
434.1653132845
 30
0.0
 11
238.1689220767
 21
434.1653132845
 31
0.0
  0
LINE
  5
140
330
1F
100
AcDbEntity
  8
0
  6
Continuous
 62
     7
370
    30
100
AcDbLine
 10
268.3689210664
 20
382.6653132249
 30
0.0
 11
268.3689210664
 21
370.6653112579
 31
0.0
  0
LINE
  5
141
330
1F
100
AcDbEntity
  8
0
  6
Continuous
 62
     7
370
    30
100
AcDbLine
 10
239.3689219009
 20
382.6653132249
 30
0.0
 11
239.3689219009
 21
370.6653112579
 31
0.0
  0
LINE
  5
142
330
1F
100
AcDbEntity
  8
0
  6
Continuous
 62
     7
370
    30
100
AcDbLine
 10
239.5689215611
 20
381.1653139103
 30
0.0
 11
239.3689219009
 21
381.1653139103
 31
0.0
  0
LINE
  5
143
330
1F
100
AcDbEntity
  8
0
  6
Continuous
 62
     7
370
    30
100
AcDbLine
 10
266.6689211603
 20
360.6653133441
 30
0.0
 11
266.6689211603
 21
392.665314864
 31
0.0
  0
LINE
  5
144
330
1F
100
AcDbEntity
  8
0
  6
Continuous
 62
     7
370
    30
100
AcDbLine
 10
241.068921807
 20
392.665314864
 30
0.0
 11
241.068921807
 21
360.6653133441
 31
0.0
  0
LINE
  5
145
330
1F
100
AcDbEntity
  8
0
  6
Continuous
 62
     7
370
    30
100
AcDbLine
 10
239.5689215611
 20
363.6653119732
 30
0.0
 11
239.5689215611
 21
389.6653125096
 31
0.0
  0
LINE
  5
146
330
1F
100
AcDbEntity
  8
0
  6
Continuous
 62
     7
370
    30
100
AcDbLine
 10
268.1689214062
 20
389.6653125096
 30
0.0
 11
268.1689214062
 21
363.6653119732
 31
0.0
  0
LINE
  5
147
330
1F
100
AcDbEntity
  8
0
  6
Continuous
 62
     7
370
    30
100
AcDbLine
 10
260.8689216997
 20
376.6653122414
 30
0.0
 11
260.8689216997
 21
434.1653132845
 31
0.0
  0
LINE
  5
148
330
1F
100
AcDbEntity
  8
0
  6
Continuous
 62
     7
370
    30
100
AcDbLine
 10
246.8689212676
 20
376.6653122414
 30
0.0
 11
246.8689212676
 21
434.1653132845
 31
0.0
  0
LINE
  5
149
330
1F
100
AcDbEntity
  8
0
  6
Continuous
 62
     7
370
    30
100
AcDbLine
 10
260.8689216997
 20
376.6653122414
 30
0.0
 11
260.8689216997
 21
356.7684138227
 31
0.0
  0
LINE
  5
14A
330
1F
100
AcDbEntity
  8
0
  6
Continuous
 62
     7
370
    30
100
AcDbLine
 10
246.8689212676
 20
376.6653122414
 30
0.0
 11
246.8689212676
 21
356.7684138227
 31
0.0
  0
LINE
  5
14B
330
1F
100
AcDbEntity
  8
0
  6
Continuous
 62
     7
370
    30
100
AcDbLine
 10
266.3689216699
 20
434.1653132845
 30
0.0
 11
266.3689216699
 21
376.6653122414
 31
0.0
  0
LINE
  5
14C
330
1F
100
AcDbEntity
  8
0
  6
Continuous
 62
     7
370
    30
100
AcDbLine
 10
241.3689212974
 20
376.6653122414
 30
0.0
 11
241.3689212974
 21
434.1653132845
 31
0.0
  0
LINE
  5
14D
330
1F
100
AcDbEntity
  8
0
  6
Continuous
 62
     7
370
    30
100
AcDbLine
 10
241.3689212974
 20
360.2956453372
 30
0.0
 11
241.3689212974
 21
376.6653122414
 31
0.0
  0
LINE
  5
14E
330
1F
100
AcDbEntity
  8
0
  6
Continuous
 62
     7
370
    30
100
AcDbLine
 10
266.3689216699
 20
376.6653122414
 30
0.0
 11
266.3689216699
 21
360.2956453372
 31
0.0
  0
LINE
  5
14F
330
1F
100
AcDbEntity
  8
0
  6
Continuous
 62
     7
370
    30
100
AcDbLine
 10
260.8689216997
 20
356.7684138227
 30
0.0
 11
260.8689216997
 21
352.5744671036
 31
0.0
  0
LINE
  5
150
330
1F
100
AcDbEntity
  8
0
  6
Continuous
 62
     7
370
    30
100
AcDbLine
 10
246.8689212676
 20
356.7684138227
 30
0.0
 11
246.8689212676
 21
352.5744671036
 31
0.0
  0
LWPOLYLINE
  5
151
330
1F
100
AcDbEntity
  8
0
  6
Continuous
 62
     7
370
    30
100
AcDbPolyline
 90
       16
 70
   128
 43
0.0
 10
246.8689212676
 20
352.5744671036
 10
247.0218882065
 20
351.7606252838
 10
247.4741030585
 20
350.9823525358
 10
248.2058026928
 20
350.2736682106
 10
249.185007355
 20
349.6655369211
 10
250.3689213756
 20
349.1845348884
 10
251.705802568
 20
348.8516951013
 10
253.1372222568
 20
348.6815610934
 10
254.6006207105
 20
348.6815610934
 10
256.0320403993
 20
348.8516951013
 10
257.3689215917
 20
349.1845348884
 10
258.5528356123
 20
349.6655369211
 10
259.5320402745
 20
350.2736682106
 10
260.2637399088
 20
350.9823525358
 10
260.7159547608
 20
351.7606252838
 10
260.8689216997
 20
352.5744671036
  0
LINE
  5
152
330
1F
100
AcDbEntity
  8
0
  6
Continuous
 62
     7
370
    30
100
AcDbLine
 10
266.3689216699
 20
360.2956453372
 30
0.0
 11
266.3689216699
 21
356.101698618
 31
0.0
  0
LINE
  5
153
330
1F
100
AcDbEntity
  8
0
  6
Continuous
 62
     7
370
    30
100
AcDbLine
 10
241.3689212974
 20
356.101698618
 30
0.0
 11
241.3689212974
 21
360.2956453372
 31
0.0
  0
ARC
  5
154
330
1F
100
AcDbEntity
  8
0
  6
Continuous
 62
     7
370
    30
100
AcDbCircle
 10
250.8881965406
 20
360.0506304333
 30
0.0
 40
10.78204813364359
100
AcDbArc
 50
214.9203903017
 51
261.3766697133
  0
ARC
  5
155
330
1F
100
AcDbEntity
  8
0
  6
Continuous
 62
     7
370
    30
100
AcDbCircle
 10
256.7463695213
 20
360.332825468
 30
0.0
 40
11.07669960608769
100
AcDbArc
 50
278.932643554
 51
322.3606934672
  0
LWPOLYLINE
  5
156
330
1F
100
AcDbEntity
  8
0
  6
Continuous
 62
     7
370
    30
100
AcDbPolyline
 90
        3
 70
   128
 43
0.0
 10
266.3689216699
 20
356.101698618
 10
266.2150262024
 20
355.0082365085
 10
266.1239884894
 20
354.7247493673
  0
LINE
  5
157
330
1F
100
AcDbEntity
  8
0
  6
Continuous
 62
     7
370
    30
100
AcDbLine
 10
281.668920825
 20
21.4515265781
 30
0.0
 11
281.668920825
 21
26.4515266992
 31
0.0
  0
LINE
  5
158
330
1F
100
AcDbEntity
  8
0
  6
Continuous
 62
     7
370
    30
100
AcDbLine
 10
226.0689221423
 20
26.4515266992
 30
0.0
 11
226.0689221423
 21
21.4515265781
 31
0.0
  0
LINE
  5
159
330
1F
100
AcDbEntity
  8
0
  6
Continuous
 62
     7
370
    30
100
AcDbLine
 10
281.668920825
 20
26.4515266992
 30
0.0
 11
278.8689218562
 21
27.4515266885
 31
0.0
  0
LINE
  5
15A
330
1F
100
AcDbEntity
  8
0
  6
Continuous
 62
     7
370
    30
100
AcDbLine
 10
228.8689211111
 20
27.4515266885
 30
0.0
 11
226.0689221423
 21
26.4515266992
 31
0.0
  0
LINE
  5
15B
330
1F
100
AcDbEntity
  8
0
  6
Continuous
 62
     7
370
    30
100
AcDbLine
 10
269.8689222436
 20
27.4515266885
 30
0.0
 11
269.8689222436
 21
27.651526698
 31
0.0
  0
LINE
  5
15C
330
1F
100
AcDbEntity
  8
0
  6
Continuous
 62
     7
370
    30
100
AcDbLine
 10
237.8689207237
 20
27.651526698
 30
0.0
 11
237.8689207237
 21
27.4515266885
 31
0.0
  0
LINE
  5
15D
330
1F
100
AcDbEntity
  8
0
  6
Continuous
 62
     7
370
    30
100
AcDbLine
 10
269.8689222436
 20
27.651526698
 30
0.0
 11
269.5689208906
 21
27.9515267122
 31
0.0
  0
LINE
  5
15E
330
1F
100
AcDbEntity
  8
0
  6
Continuous
 62
     7
370
    30
100
AcDbLine
 10
238.1689220767
 20
27.9515267122
 30
0.0
 11
237.8689207237
 21
27.651526698
 31
0.0
  0
LINE
  5
15F
330
1F
100
AcDbEntity
  8
0
  6
Continuous
 62
     7
370
    30
100
AcDbLine
 10
328.8689244639
 20
91.4515287388
 30
0.0
 11
178.8689185034
 21
91.4515287388
 31
0.0
  0
LINE
  5
160
330
1F
100
AcDbEntity
  8
0
  6
Continuous
 62
     7
370
    30
100
AcDbLine
 10
178.8689185034
 20
79.4515267718
 30
0.0
 11
328.8689244639
 21
79.4515267718
 31
0.0
  0
ARC
  5
161
330
1F
100
AcDbEntity
  8
0
  6
Continuous
 62
     7
370
    30
100
AcDbCircle
 10
138.8689214837
 20
85.4515267122
 30
0.0
 40
6.0
100
AcDbArc
 50
90.0
 51
270.0
  0
LINE
  5
162
330
1F
100
AcDbEntity
  8
0
  6
Continuous
 62
     7
370
    30
100
AcDbLine
 10
138.8689193975
 20
79.4515267718
 30
0.0
 11
178.8689185034
 21
79.4515267718
 31
0.0
  0
LINE
  5
163
330
1F
100
AcDbEntity
  8
0
  6
Continuous
 62
     7
370
    30
100
AcDbLine
 10
178.8689185034
 20
91.4515287388
 30
0.0
 11
138.8689193975
 21
91.4515287388
 31
0.0
  0
ARC
  5
164
330
1F
100
AcDbEntity
  8
0
  6
Continuous
 62
     7
370
    30
100
AcDbCircle
 10
368.8689214837
 20
85.4515267122
 30
0.0
 40
6.0
100
AcDbArc
 50
270.0
 51
90.0
  0
LINE
  5
165
330
1F
100
AcDbEntity
  8
0
  6
Continuous
 62
     7
370
    30
100
AcDbLine
 10
328.8689244639
 20
79.4515267718
 30
0.0
 11
368.8689235698
 21
79.4515267718
 31
0.0
  0
LINE
  5
166
330
1F
100
AcDbEntity
  8
0
  6
Continuous
 62
     7
370
    30
100
AcDbLine
 10
368.8689235698
 20
91.4515287388
 30
0.0
 11
328.8689244639
 21
91.4515287388
 31
0.0
  0
LINE
  5
167
330
1F
100
AcDbEntity
  8
0
  6
Continuous
 62
     7
370
    30
100
AcDbLine
 10
266.6689211603
 20
69.4515251327
 30
0.0
 11
268.1689214062
 21
72.4515274871
 31
0.0
  0
LINE
  5
168
330
1F
100
AcDbEntity
  8
0
  6
Continuous
 62
     7
370
    30
100
AcDbLine
 10
268.1689214062
 20
98.4515280235
 30
0.0
 11
266.6689211603
 21
101.4515266526
 31
0.0
  0
LINE
  5
169
330
1F
100
AcDbEntity
  8
0
  6
Continuous
 62
     7
370
    30
100
AcDbLine
 10
241.068921807
 20
69.4515251327
 30
0.0
 11
266.6689211603
 21
69.4515251327
 31
0.0
  0
LINE
  5
16A
330
1F
100
AcDbEntity
  8
0
  6
Continuous
 62
     7
370
    30
100
AcDbLine
 10
266.6689211603
 20
101.4515266526
 30
0.0
 11
266.2848763268
 21
101.4515266526
 31
0.0
  0
LINE
  5
16B
330
1F
100
AcDbEntity
  8
0
  6
Continuous
 62
     7
370
    30
100
AcDbLine
 10
241.4529666405
 20
101.4515266526
 30
0.0
 11
241.068921807
 21
101.4515266526
 31
0.0
  0
LINE
  5
16C
330
1F
100
AcDbEntity
  8
0
  6
Continuous
 62
     7
370
    30
100
AcDbLine
 10
241.068921807
 20
101.4515266526
 30
0.0
 11
239.5689215611
 21
98.4515280235
 31
0.0
  0
LINE
  5
16D
330
1F
100
AcDbEntity
  8
0
  6
Continuous
 62
     7
370
    30
100
AcDbLine
 10
239.5689215611
 20
72.4515274871
 30
0.0
 11
241.068921807
 21
69.4515251327
 31
0.0
  0
SPLINE
  5
16E
330
1F
100
AcDbEntity
  8
0
  6
Continuous
 62
     7
370
    30
100
AcDbSpline
210
0.0
220
0.0
230
1.0
 70
     8
 71
     3
 72
     9
 73
     5
 74
     0
 42
0.000000001
 43
0.00000001
 40
0.0
 40
0.0
 40
0.0
 40
0.0
 40
0.7254015717083921
 40
1.0
 40
1.0
 40
1.0
 40
1.0
 10
241.9187322359314
 20
108.1369251716787
 30
0.0
 10
241.7559996265503
 20
107.8097498981524
 30
0.0
 10
241.5316651120856
 20
107.3587234787365
 30
0.0
 10
241.4766501988045
 20
106.8847901131569
 30
0.0
 10
241.4615431900849
 20
106.7546487558539
 30
0.0
  0
LINE
  5
16F
330
1F
100
AcDbEntity
  8
0
  6
Continuous
 62
     7
370
    30
100
AcDbLine
 10
265.9620026227
 20
107.8142628778
 30
0.0
 11
265.6506205078
 21
108.4067404974
 31
0.0
  0
LINE
  5
170
330
1F
100
AcDbEntity
  8
0
  6
Continuous
 62
     7
370
    30
100
AcDbLine
 10
258.4662845459
 20
112.7263710607
 30
0.0
 11
256.4865653969
 21
113.1727353442
 31
0.0
  0
LINE
  5
171
330
1F
100
AcDbEntity
  8
0
  6
Continuous
 62
     7
370
    30
100
AcDbLine
 10
251.2512775704
 20
113.1727353442
 30
0.0
 11
249.2715584215
 21
112.7263710607
 31
0.0
  0
LINE
  5
172
330
1F
100
AcDbEntity
  8
0
  6
Continuous
 62
     7
370
    30
100
AcDbLine
 10
281.668920825
 20
26.4515266992
 30
0.0
 11
226.0689221423
 21
26.4515266992
 31
0.0
  0
LINE
  5
173
330
1F
100
AcDbEntity
  8
0
  6
Continuous
 62
     7
370
    30
100
AcDbLine
 10
281.668920825
 20
21.4515265781
 30
0.0
 11
258.8689213719
 21
21.4515265781
 31
0.0
  0
LINE
  5
174
330
1F
100
AcDbEntity
  8
0
  6
Continuous
 62
     7
370
    30
100
AcDbLine
 10
258.8689213719
 20
22.451526742
 30
0.0
 11
258.8689213719
 21
21.4515265781
 31
0.0
  0
LINE
  5
175
330
1F
100
AcDbEntity
  8
0
  6
Continuous
 62
     7
370
    30
100
AcDbLine
 10
258.8689213719
 20
22.451526742
 30
0.0
 11
256.8689215097
 21
22.451526742
 31
0.0
  0
LINE
  5
176
330
1F
100
AcDbEntity
  8
0
  6
Continuous
 62
     7
370
    30
100
AcDbLine
 10
256.8689215097
 20
22.451526742
 30
0.0
 11
256.8689215097
 21
24.9515266862
 31
0.0
  0
LINE
  5
177
330
1F
100
AcDbEntity
  8
0
  6
Continuous
 62
     7
370
    30
100
AcDbLine
 10
250.8689214576
 20
24.9515266862
 30
0.0
 11
256.8689215097
 21
24.9515266862
 31
0.0
  0
LINE
  5
178
330
1F
100
AcDbEntity
  8
0
  6
Continuous
 62
     7
370
    30
100
AcDbLine
 10
250.8689214576
 20
24.9515266862
 30
0.0
 11
250.8689214576
 21
22.451526742
 31
0.0
  0
LINE
  5
179
330
1F
100
AcDbEntity
  8
0
  6
Continuous
 62
     7
370
    30
100
AcDbLine
 10
250.8689214576
 20
22.451526742
 30
0.0
 11
248.8689215954
 21
22.451526742
 31
0.0
  0
LINE
  5
17A
330
1F
100
AcDbEntity
  8
0
  6
Continuous
 62
     7
370
    30
100
AcDbLine
 10
248.8689215954
 20
22.451526742
 30
0.0
 11
248.8689215954
 21
21.4515265781
 31
0.0
  0
LINE
  5
17B
330
1F
100
AcDbEntity
  8
0
  6
Continuous
 62
     7
370
    30
100
AcDbLine
 10
248.8689215954
 20
21.4515265781
 30
0.0
 11
226.0689221423
 21
21.4515265781
 31
0.0
  0
LINE
  5
17C
330
1F
100
AcDbEntity
  8
0
  6
Continuous
 62
     7
370
    30
100
AcDbLine
 10
278.8689218562
 20
27.4515266885
 30
0.0
 11
228.8689211111
 21
27.4515266885
 31
0.0
  0
LINE
  5
17D
330
1F
100
AcDbEntity
  8
0
  6
Continuous
 62
     7
370
    30
100
AcDbLine
 10
248.8689215954
 20
21.4515265781
 30
0.0
 11
250.8689214576
 21
21.4515265781
 31
0.0
  0
LINE
  5
17E
330
1F
100
AcDbEntity
  8
0
  6
Continuous
 62
     7
370
    30
100
AcDbLine
 10
250.8689214576
 20
21.4515265781
 30
0.0
 11
250.8689214576
 21
22.451526742
 31
0.0
  0
LINE
  5
17F
330
1F
100
AcDbEntity
  8
0
  6
Continuous
 62
     7
370
    30
100
AcDbLine
 10
256.8689215097
 20
21.4515265781
 30
0.0
 11
258.8689213719
 21
21.4515265781
 31
0.0
  0
LINE
  5
180
330
1F
100
AcDbEntity
  8
0
  6
Continuous
 62
     7
370
    30
100
AcDbLine
 10
256.8689215097
 20
22.451526742
 30
0.0
 11
256.8689215097
 21
21.4515265781
 31
0.0
  0
LINE
  5
181
330
1F
100
AcDbEntity
  8
0
  6
Continuous
 62
     7
370
    30
100
AcDbLine
 10
250.8689214576
 20
22.451526742
 30
0.0
 11
256.8689215097
 21
22.451526742
 31
0.0
  0
LINE
  5
182
330
1F
100
AcDbEntity
  8
0
  6
Continuous
 62
     7
370
    30
100
AcDbLine
 10
250.8689214576
 20
21.4515265781
 30
0.0
 11
256.8689215097
 21
21.4515265781
 31
0.0
  0
LINE
  5
183
330
1F
100
AcDbEntity
  8
0
  6
Continuous
 62
     7
370
    30
100
AcDbLine
 10
250.8689214576
 20
22.7515266981
 30
0.0
 11
256.8689215097
 21
22.7515266981
 31
0.0
  0
LINE
  5
184
330
1F
100
AcDbEntity
  8
0
  6
Continuous
 62
     7
370
    30
100
AcDbLine
 10
269.8689222436
 20
27.651526698
 30
0.0
 11
237.8689207237
 21
27.651526698
 31
0.0
  0
LINE
  5
185
330
1F
100
AcDbEntity
  8
0
  6
Continuous
 62
     7
370
    30
100
AcDbLine
 10
238.1689220767
 20
27.9515267122
 30
0.0
 11
269.5689208906
 21
27.9515267122
 31
0.0
  0
LWPOLYLINE
  5
186
330
1F
100
AcDbEntity
  8
0
  6
Continuous
 62
     7
370
    30
100
AcDbPolyline
 90
        9
 70
   128
 43
0.0
 10
253.8689214837
 20
71.9104327965
 10
255.2124867782
 20
72.013753723
 10
256.4932283114
 20
72.3188959766
 10
257.6512604121
 20
72.8115805197
 10
258.6324343558
 20
73.4687776077
 10
259.3908717956
 20
74.2597573209
 10
259.8911088992
 20
75.147531252
 10
260.1097555
 20
76.090588491
 10
260.1189215768
 20
76.3298489857
  0
LWPOLYLINE
  5
187
330
1F
100
AcDbEntity
  8
0
  6
Continuous
 62
     7
370
    30
100
AcDbPolyline
 90
        9
 70
   128
 43
0.0
 10
247.6189213905
 20
76.3298489857
 10
247.6280874673
 20
76.090588491
 10
247.8467340681
 20
75.147531252
 10
248.3469711717
 20
74.2597573209
 10
249.1054086115
 20
73.4687776077
 10
250.0865825552
 20
72.8115805197
 10
251.2446146559
 20
72.3188959766
 10
252.5253561891
 20
72.013753723
 10
253.8689214837
 20
71.9104327965
  0
LWPOLYLINE
  5
188
330
1F
100
AcDbEntity
  8
0
  6
Continuous
 62
     7
370
    30
100
AcDbPolyline
 90
       25
 70
   128
 43
0.0
 10
253.8689214837
 20
72.2993419278
 10
255.0336071856
 20
72.4077627767
 10
256.1189213868
 20
72.7256455231
 10
257.0509019408
 20
73.2313201535
 10
257.7660359077
 20
73.8903314579
 10
258.2155878756
 20
74.6577636111
 10
258.3689212899
 20
75.481320988
 10
258.2155878756
 20
76.3048783649
 10
257.7660359077
 20
77.0723105181
 10
257.0509019408
 20
77.7313218225
 10
256.1189213868
 20
78.2369964529
 10
255.0336071856
 20
78.5548791993
 10
253.8689214837
 20
78.6633000482
 10
252.7042357817
 20
78.5548791993
 10
251.6189215805
 20
78.2369964529
 10
250.6869410265
 20
77.7313218225
 10
249.9718070596
 20
77.0723105181
 10
249.5222550917
 20
76.3048783649
 10
249.3689216774
 20
75.481320988
 10
249.5222550917
 20
74.6577636111
 10
249.9718070596
 20
73.8903314579
 10
250.6869410265
 20
73.2313201535
 10
251.6189215805
 20
72.7256455231
 10
252.7042357817
 20
72.4077627767
 10
253.8689214837
 20
72.2993419278
  0
ARC
  5
189
330
1F
100
AcDbEntity
  8
0
  6
Continuous
 62
     7
370
    30
100
AcDbCircle
 10
252.8564225637
 20
76.3828803612
 30
0.0
 40
0.624873428645079
100
AcDbArc
 50
261.9504133493
 51
348.578458443
  0
LINE
  5
18A
330
1F
100
AcDbEntity
  8
0
  6
Continuous
 62
     7
370
    30
100
AcDbLine
 10
252.7689214896
 20
75.7641636539
 30
0.0
 11
251.3689215395
 21
75.7641636539
 31
0.0
  0
LINE
  5
18B
330
1F
100
AcDbEntity
  8
0
  6
Continuous
 62
     7
370
    30
100
AcDbLine
 10
251.3689215395
 20
75.7641636539
 30
0.0
 11
251.3689215395
 21
75.1984783221
 31
0.0
  0
LINE
  5
18C
330
1F
100
AcDbEntity
  8
0
  6
Continuous
 62
     7
370
    30
100
AcDbLine
 10
251.3689215395
 20
75.1984783221
 30
0.0
 11
252.7689214896
 21
75.1984783221
 31
0.0
  0
ARC
  5
18D
330
1F
100
AcDbEntity
  8
0
  6
Continuous
 62
     7
370
    30
100
AcDbCircle
 10
252.8564225637
 20
74.5797616148
 30
0.0
 40
0.6248734286450649
100
AcDbArc
 50
11.421541557
 51
98.0495866507
  0
LINE
  5
18E
330
1F
100
AcDbEntity
  8
0
  6
Continuous
 62
     7
370
    30
100
AcDbLine
 10
253.4689214938
 20
74.7035027254
 30
0.0
 11
253.4689214938
 21
73.7135552574
 31
0.0
  0
LINE
  5
18F
330
1F
100
AcDbEntity
  8
0
  6
Continuous
 62
     7
370
    30
100
AcDbLine
 10
253.4689214938
 20
73.7135552574
 30
0.0
 11
254.2689214736
 21
73.7135552574
 31
0.0
  0
LINE
  5
190
330
1F
100
AcDbEntity
  8
0
  6
Continuous
 62
     7
370
    30
100
AcDbLine
 10
254.2689214736
 20
73.7135552574
 30
0.0
 11
254.2689214736
 21
74.7035027254
 31
0.0
  0
ARC
  5
191
330
1F
100
AcDbEntity
  8
0
  6
Continuous
 62
     7
370
    30
100
AcDbCircle
 10
254.8814204037
 20
74.5797616148
 30
0.0
 40
0.624873428645075
100
AcDbArc
 50
81.9504133493
 51
168.578458443
  0
LINE
  5
192
330
1F
100
AcDbEntity
  8
0
  6
Continuous
 62
     7
370
    30
100
AcDbLine
 10
254.9689214777
 20
75.1984783221
 30
0.0
 11
256.3689214278
 21
75.1984783221
 31
0.0
  0
LINE
  5
193
330
1F
100
AcDbEntity
  8
0
  6
Continuous
 62
     7
370
    30
100
AcDbLine
 10
256.3689214278
 20
75.1984783221
 30
0.0
 11
256.3689214278
 21
75.7641636539
 31
0.0
  0
LINE
  5
194
330
1F
100
AcDbEntity
  8
0
  6
Continuous
 62
     7
370
    30
100
AcDbLine
 10
256.3689214278
 20
75.7641636539
 30
0.0
 11
254.9689214777
 21
75.7641636539
 31
0.0
  0
ARC
  5
195
330
1F
100
AcDbEntity
  8
0
  6
Continuous
 62
     7
370
    30
100
AcDbCircle
 10
254.8814204037
 20
76.3828803612
 30
0.0
 40
0.624873428645066
100
AcDbArc
 50
191.421541557
 51
278.0495866507
  0
LINE
  5
196
330
1F
100
AcDbEntity
  8
0
  6
Continuous
 62
     7
370
    30
100
AcDbLine
 10
254.2689214736
 20
76.2591392506
 30
0.0
 11
254.2689214736
 21
77.2490867186
 31
0.0
  0
LINE
  5
197
330
1F
100
AcDbEntity
  8
0
  6
Continuous
 62
     7
370
    30
100
AcDbLine
 10
254.2689214736
 20
77.2490867186
 30
0.0
 11
253.4689214938
 21
77.2490867186
 31
0.0
  0
LINE
  5
198
330
1F
100
AcDbEntity
  8
0
  6
Continuous
 62
     7
370
    30
100
AcDbLine
 10
253.4689214938
 20
77.2490867186
 30
0.0
 11
253.4689214938
 21
76.2591392506
 31
0.0
  0
LINE
  5
199
330
1F
100
AcDbEntity
  8
0
  6
Continuous
 62
     7
370
    30
100
AcDbLine
 10
254.2689214736
 20
76.117716055
 30
0.0
 11
254.2761011557
 21
76.1884295154
 31
0.0
  0
LINE
  5
19A
330
1F
100
AcDbEntity
  8
0
  6
Continuous
 62
     7
370
    30
100
AcDbLine
 10
253.4689214938
 20
75.1277685869
 30
0.0
 11
254.2689214736
 21
75.1277685869
 31
0.0
  0
LINE
  5
19B
330
1F
100
AcDbEntity
  8
0
  6
Continuous
 62
     7
370
    30
100
AcDbLine
 10
253.4617418116
 20
76.1884295154
 30
0.0
 11
253.4689214938
 21
76.117716055
 31
0.0
  0
LINE
  5
19C
330
1F
100
AcDbEntity
  8
0
  6
Continuous
 62
     7
370
    30
100
AcDbLine
 10
254.2689214736
 20
76.117716055
 30
0.0
 11
254.2689214736
 21
74.7035027254
 31
0.0
  0
LINE
  5
19D
330
1F
100
AcDbEntity
  8
0
  6
Continuous
 62
     7
370
    30
100
AcDbLine
 10
253.4689214938
 20
76.117716055
 30
0.0
 11
253.4689214938
 21
74.7035027254
 31
0.0
  0
LINE
  5
19E
330
1F
100
AcDbEntity
  8
0
  6
Continuous
 62
     7
370
    30
100
AcDbLine
 10
268.1689214062
 20
98.4515280235
 30
0.0
 11
268.1689214062
 21
91.4515287388
 31
0.0
  0
LINE
  5
19F
330
1F
100
AcDbEntity
  8
0
  6
Continuous
 62
     7
370
    30
100
AcDbLine
 10
268.1689214062
 20
79.4515267718
 30
0.0
 11
268.1689214062
 21
72.4515274871
 31
0.0
  0
LINE
  5
1A0
330
1F
100
AcDbEntity
  8
0
  6
Continuous
 62
     7
370
    30
100
AcDbLine
 10
266.6689211603
 20
69.4515251327
 30
0.0
 11
266.6689211603
 21
79.4515267718
 31
0.0
  0
LINE
  5
1A1
330
1F
100
AcDbEntity
  8
0
  6
Continuous
 62
     7
370
    30
100
AcDbLine
 10
266.6689211603
 20
91.4515287388
 30
0.0
 11
266.6689211603
 21
101.4515266526
 31
0.0
  0
LINE
  5
1A2
330
1F
100
AcDbEntity
  8
0
  6
Continuous
 62
     7
370
    30
100
AcDbLine
 10
241.068921807
 20
101.4515266526
 30
0.0
 11
241.068921807
 21
91.4515287388
 31
0.0
  0
LINE
  5
1A3
330
1F
100
AcDbEntity
  8
0
  6
Continuous
 62
     7
370
    30
100
AcDbLine
 10
241.068921807
 20
79.4515267718
 30
0.0
 11
241.068921807
 21
69.4515251327
 31
0.0
  0
SPLINE
  5
1A4
330
1F
100
AcDbEntity
  8
0
  6
Continuous
 62
     7
370
    30
100
AcDbSpline
210
0.0
220
0.0
230
1.0
 70
     8
 71
     3
 72
    17
 73
    13
 74
     0
 42
0.000000001
 43
0.00000001
 40
0.0
 40
0.0
 40
0.0
 40
0.0
 40
0.0706174518740949
 40
0.1437724385747688
 40
0.289061187560811
 40
0.4366656761897797
 40
0.5122222095225809
 40
0.586652912095828
 40
0.6611330713295253
 40
0.7369780504252114
 40
0.884986092306617
 40
1.0
 40
1.0
 40
1.0
 40
1.0
 10
253.8689214836588
 20
70.26431269532986
 30
0.0
 10
253.4218898592356
 20
70.27377836883103
 30
0.0
 10
252.5117631829298
 20
70.29304985096327
 30
0.0
 10
250.783992496471
 20
70.50693208709191
 30
0.0
 10
248.8936028411921
 20
71.04175711891106
 30
0.0
 10
247.6558860715484
 20
72.05826827196523
 30
0.0
 10
247.1225988515362
 20
73.15917912300621
 30
0.0
 10
246.9861240174252
 20
74.11737590855297
 30
0.0
 10
247.1196536067025
 20
75.16972773688082
 30
0.0
 10
247.659387345674
 20
76.60471382567205
 30
0.0
 10
248.7518315467582
 20
78.29567391395737
 30
0.0
 10
250.1597964148558
 20
79.1447973322345
 30
0.0
 10
250.7754695236465
 20
79.51610095388241
 30
0.0
  0
SPLINE
  5
1A5
330
1F
100
AcDbEntity
  8
0
  6
Continuous
 62
     7
370
    30
100
AcDbSpline
210
0.0
220
0.0
230
1.0
 70
     8
 71
     3
 72
    17
 73
    13
 74
     0
 42
0.000000001
 43
0.00000001
 40
0.0
 40
0.0
 40
0.0
 40
0.0
 40
0.1095145869974613
 40
0.2582577873913938
 40
0.3343218959107117
 40
0.4092868014518877
 40
0.4842199741846079
 40
0.5604402588467563
 40
0.7092622092733967
 40
0.855427364087459
 40
0.9289585535855137
 40
0.9999999999999999
 40
0.9999999999999999
 40
0.9999999999999999
 40
0.9999999999999999
 10
257.0507603797844
 20
79.45152677184888
 30
0.0
 10
257.6333256303946
 20
79.10034271348684
 30
0.0
 10
259.0071336020869
 20
78.27217890110074
 30
0.0
 10
260.0756905571419
 20
76.61011120603648
 30
0.0
 10
260.6158744075842
 20
75.1770193117072
 30
0.0
 10
260.7516177646471
 20
74.12482072597385
 30
0.0
 10
260.6180545820556
 20
73.16447523519604
 30
0.0
 10
260.0853017846562
 20
72.06036316381123
 30
0.0
 10
258.8458280874073
 20
71.0419997086379
 30
0.0
 10
256.9526793773018
 20
70.50749034326466
 30
0.0
 10
255.2255041333302
 20
70.29357339452741
 30
0.0
 10
254.3158941144505
 20
70.27395363515929
 30
0.0
 10
253.8689214836588
 20
70.26431269532986
 30
0.0
  0
LINE
  5
1A6
330
1F
100
AcDbEntity
  8
0
  6
Continuous
 62
     7
370
    30
100
AcDbLine
 10
239.5689215611
 20
72.4515274871
 30
0.0
 11
239.5689215611
 21
79.4515267718
 31
0.0
  0
LINE
  5
1A7
330
1F
100
AcDbEntity
  8
0
  6
Continuous
 62
     7
370
    30
100
AcDbLine
 10
239.5689215611
 20
91.4515287388
 30
0.0
 11
239.5689215611
 21
98.4515280235
 31
0.0
  0
SPLINE
  5
1A8
330
1F
100
AcDbEntity
  8
0
  6
Continuous
 62
     7
370
    30
100
AcDbSpline
210
0.0
220
0.0
230
1.0
 70
     8
 71
     3
 72
    21
 73
    17
 74
     0
 42
0.000000001
 43
0.00000001
 40
0.0
 40
0.0
 40
0.0
 40
0.0
 40
0.0898250262569858
 40
0.1384674946774499
 40
0.1896755613419545
 40
0.2717354410494287
 40
0.3798560393032664
 40
0.4509376091248802
 40
0.5143738329874318
 40
0.5702040456048098
 40
0.6691677779419772
 40
0.7598603816094325
 40
0.8505175097047522
 40
0.8989589303872104
 40
0.9495395926639802
 40
1.0
 40
1.0
 40
1.0
 40
1.0
 10
253.8689214836588
 20
71.22440196163008
 30
0.0
 10
254.2777484704906
 20
71.23031079319168
 30
0.0
 10
254.9079653597257
 20
71.23941940286204
 30
0.0
 10
255.740000221738
 20
71.31021847931763
 30
0.0
 10
256.5095688858755
 20
71.40954467721953
 30
0.0
 10
257.4651361227614
 20
71.5998941287577
 30
0.0
 10
258.3720456380744
 20
71.91039793289836
 30
0.0
 10
259.0744662148882
 20
72.29672930428274
 30
0.0
 10
259.5361262715948
 20
72.66806259513048
 30
0.0
 10
259.9638586856543
 20
73.15735689287048
 30
0.0
 10
260.2870276546561
 20
73.80625461043967
 30
0.0
 10
260.408077615852
 20
74.66159228856644
 30
0.0
 10
260.30884464683
 20
75.44009896130311
 30
0.0
 10
260.1006273377254
 20
76.0966223527285
 30
0.0
 10
259.884240159454
 20
76.61854866729779
 30
0.0
 10
259.6613581146461
 20
76.96099342394803
 30
0.0
 10
259.5500497247806
 20
77.13201202041455
 30
0.0
  0
SPLINE
  5
1A9
330
1F
100
AcDbEntity
  8
0
  6
Continuous
 62
     7
370
    30
100
AcDbSpline
210
0.0
220
0.0
230
1.0
 70
     8
 71
     3
 72
    20
 73
    16
 74
     0
 42
0.000000001
 43
0.00000001
 40
0.0
 40
0.0
 40
0.0
 40
0.0
 40
0.036929984414088
 40
0.1374648838796415
 40
0.2295381016359538
 40
0.3214705845463424
 40
0.3705803407232277
 40
0.4218508642024402
 40
0.5094575645853198
 40
0.614440408980175
 40
0.6906942181486502
 40
0.755072506637079
 40
0.807595847690689
 40
0.9088498289575615
 40
1.0
 40
1.0
 40
1.0
 40
1.0
 10
248.0840229529669
 20
76.9860886741335
 30
0.0
 10
248.0103656648657
 20
76.86158125152132
 30
0.0
 10
247.7361903377873
 20
76.39812591399331
 30
0.0
 10
247.4539876148776
 20
75.60301570498586
 30
0.0
 10
247.3284303340407
 20
74.65587800988989
 30
0.0
 10
247.4307756956077
 20
73.95472824601207
 30
0.0
 10
247.6357307596811
 20
73.43504069638377
 30
0.0
 10
247.9172163987898
 20
72.969620612165
 30
0.0
 10
248.4202481439037
 20
72.4481129628774
 30
0.0
 10
249.1619307514963
 20
72.00276931916743
 30
0.0
 10
249.9744507366104
 20
71.69962407817255
 30
0.0
 10
250.6873423012291
 20
71.51458447411807
 30
0.0
 10
251.5504557623629
 20
71.35857672764278
 30
0.0
 10
252.5980467450373
 20
71.24375570368696
 30
0.0
 10
253.4603914763234
 20
71.23062333352783
 30
0.0
 10
253.8689214836588
 20
71.22440196163006
 30
0.0
  0
SPLINE
  5
1AA
330
1F
100
AcDbEntity
  8
0
  6
Continuous
 62
     7
370
    30
100
AcDbSpline
210
0.0
220
0.0
230
1.0
 70
     8
 71
     3
 72
    16
 73
    12
 74
     0
 42
0.000000001
 43
0.00000001
 40
0.0
 40
0.0
 40
0.0
 40
0.0
 40
0.2499999999999998
 40
0.2499999999999998
 40
0.4999999999999997
 40
0.4999999999999997
 40
0.6250000000000004
 40
0.6250000000000004
 40
0.7500000000000012
 40
0.7500000000000012
 40
1.0
 40
1.0
 40
1.0
 40
1.0
 10
241.60967474806
 20
101.4040643315296
 30
0.0
 10
241.6508895876464
 20
101.3837356302016
 30
0.0
 10
241.7162543738444
 20
101.3572515776291
 30
0.0
 10
241.9014217706634
 20
101.2935307886173
 30
0.0
 10
242.0194932883122
 20
101.2569805522548
 30
0.0
 10
242.2328588545513
 20
101.1994319469546
 30
0.0
 10
242.3102405763164
 20
101.1797380818696
 30
0.0
 10
242.4785318568279
 20
101.1399326010485
 30
0.0
 10
242.5702167692243
 20
101.1196662813395
 30
0.0
 10
242.8614202288398
 20
101.0606861776998
 30
0.0
 10
243.0760087171948
 20
101.0237088094389
 30
0.0
 10
243.3149494093602
 20
100.992782948452
 30
0.0
  0
SPLINE
  5
1AB
330
1F
100
AcDbEntity
  8
0
  6
Continuous
 62
     7
370
    30
100
AcDbSpline
210
0.0
220
0.0
230
1.0
 70
     8
 71
     3
 72
    14
 73
    10
 74
     0
 42
0.000000001
 43
0.00000001
 40
0.0
 40
0.0
 40
0.0
 40
0.0
 40
0.25
 40
0.25
 40
0.5
 40
0.5
 40
0.75
 40
0.75
 40
1.0
 40
1.0
 40
1.0
 40
1.0
 10
264.4228935579574
 20
100.992782948452
 30
0.0
 10
264.6609598127463
 20
101.0235956318611
 30
0.0
 10
264.8754082792213
 20
101.0605334676563
 30
0.0
 10
265.2611280819144
 20
101.1385519393785
 30
0.0
 10
265.4314639010602
 20
101.1796353792119
 30
0.0
 10
265.7178010455517
 20
101.2567997342339
 30
0.0
 10
265.8367770530772
 20
101.2936654474126
 30
0.0
 10
266.0204060154412
 20
101.3568324778147
 30
0.0
 10
266.0864584512176
 20
101.3834915129659
 30
0.0
 10
266.1281682192576
 20
101.4040643315296
 30
0.0
  0
SPLINE
  5
1AC
330
1F
100
AcDbEntity
  8
0
  6
Continuous
 62
     7
370
    30
100
AcDbSpline
210
0.0
220
0.0
230
1.0
 70
     8
 71
     3
 72
    28
 73
    24
 74
     0
 42
0.000000001
 43
0.00000001
 40
0.0
 40
0.0
 40
0.0
 40
0.0
 40
0.125
 40
0.125
 40
0.25
 40
0.25
 40
0.3125000000000001
 40
0.3125000000000001
 40
0.3750000000000001
 40
0.3750000000000001
 40
0.5000000000000002
 40
0.5000000000000002
 40
0.6250000000000003
 40
0.6250000000000003
 40
0.6875000000000003
 40
0.6875000000000003
 40
0.7500000000000002
 40
0.7500000000000002
 40
0.875
 40
0.875
 40
0.9375
 40
0.9375
 40
1.0
 40
1.0
 40
1.0
 40
1.0
 10
243.3149494093602
 20
100.992782948452
 30
0.0
 10
244.1207345880264
 20
100.8884909578546
 30
0.0
 10
244.9489837355857
 20
100.7822080265268
 30
0.0
 10
246.6450645863193
 20
100.5855483102599
 30
0.0
 10
247.5129509680294
 20
100.4950380475451
 30
0.0
 10
248.8431625490058
 20
100.3812614346335
 30
0.0
 10
249.2913187949121
 20
100.3469647573816
 30
0.0
 10
250.1971549028387
 20
100.2869813019757
 30
0.0
 10
250.6544603378333
 20
100.2613612765522
 30
0.0
 10
252.0222944016226
 20
100.1996979977487
 30
0.0
 10
252.9348025111429
 20
100.1785198364002
 30
0.0
 10
254.761022171633
 20
100.1778841893432
 30
0.0
 10
255.6747336770854
 20
100.1984273630244
 30
0.0
 10
257.046235620369
 20
100.2594195309699
 30
0.0
 10
257.5036605563881
 20
100.2847973665191
 30
0.0
 10
258.4077138547127
 20
100.3441483650211
 30
0.0
 10
258.8557397393076
 20
100.378173663764
 30
0.0
 10
260.1877429429324
 20
100.4914048756202
 30
0.0
 10
261.0597250071488
 20
100.5819258863189
 30
0.0
 10
262.3420828811733
 20
100.7303042347362
 30
0.0
 10
262.7652481655483
 20
100.7818281690245
 30
0.0
 10
263.6024631942553
 20
100.8867646925598
 30
0.0
 10
264.0172275354169
 20
100.9402779903954
 30
0.0
 10
264.4228935579574
 20
100.992782948452
 30
0.0
  0
LINE
  5
1AD
330
1F
100
AcDbEntity
  8
0
  6
Continuous
 62
     7
370
    30
100
AcDbLine
 10
266.1281682651
 20
101.4040664542
 30
0.0
 11
266.2297336485
 21
101.3865352381
 31
0.0
  0
LINE
  5
1AE
330
1F
100
AcDbEntity
  8
0
  6
Continuous
 62
     7
370
    30
100
AcDbLine
 10
241.5081093188
 20
101.3865352381
 30
0.0
 11
241.6096747022
 21
101.4040664542
 31
0.0
  0
LINE
  5
1AF
330
1F
100
AcDbEntity
  8
0
  6
Continuous
 62
     7
370
    30
100
AcDbLine
 10
241.3689212974
 20
106.0151413787
 30
0.0
 11
241.3689212974
 21
101.4515266526
 31
0.0
  0
LWPOLYLINE
  5
1B0
330
1F
100
AcDbEntity
  8
0
  6
Continuous
 62
     7
370
    30
100
AcDbPolyline
 90
        3
 70
   128
 43
0.0
 10
266.3689216699
 20
106.0151413787
 10
266.2150262024
 20
107.1086034883
 10
266.0080118205
 20
107.6826707233
  0
LINE
  5
1B1
330
1F
100
AcDbEntity
  8
0
  6
Continuous
 62
     7
370
    30
100
AcDbLine
 10
241.4291350271
 20
106.7004010785
 30
0.0
 11
241.3689212974
 21
106.0151413787
 31
0.0
  0
LINE
  5
1B2
330
1F
100
AcDbEntity
  8
0
  6
Continuous
 62
     7
370
    30
100
AcDbLine
 10
266.3689216699
 20
101.4515266526
 30
0.0
 11
266.3689216699
 21
106.0151413787
 31
0.0
  0
LWPOLYLINE
  5
1B3
330
1F
100
AcDbEntity
  8
0
  6
Continuous
 62
     7
370
    30
100
AcDbPolyline
 90
       18
 70
   128
 43
0.0
 10
242.0794319462
 20
108.29975016
 10
242.1765511956
 20
108.4747941006
 10
242.9148106005
 20
109.471458267
 10
243.9227968555
 20
110.3912622441
 10
245.1756902139
 20
111.2115711678
 10
246.6426392186
 20
111.9121790636
 10
248.2875234548
 20
112.4758378375
 10
250.0698399365
 20
112.8886670578
 10
251.9457027649
 20
113.1405041326
 10
253.8689214837
 20
113.2251427282
 10
255.7921402024
 20
113.1405041326
 10
257.6680030308
 20
112.8886670578
 10
259.4503195125
 20
112.4758378375
 10
261.0952037487
 20
111.9121790636
 10
262.5621527534
 20
111.2115711678
 10
263.8150461118
 20
110.3912622441
 10
264.8230323668
 20
109.471458267
 10
265.5162362482
 20
108.5508272756
  0
ARC
  5
1B4
330
1F
100
AcDbEntity
  8
0
  6
Continuous
 62
     7
370
    30
100
AcDbCircle
 10
253.8689214837
 20
101.3991640059
 30
0.0
 40
12.06105475134351
100
AcDbArc
 50
77.4651881816
 51
102.5348118184
  0
LINE
  5
1B5
330
1F
100
AcDbEntity
  8
0
  6
Continuous
 62
     7
370
    30
100
AcDbLine
 10
266.3689216699
 20
69.4515251327
 30
0.0
 11
266.3689216699
 21
27.9515267122
 31
0.0
  0
LINE
  5
1B6
330
1F
100
AcDbEntity
  8
0
  6
Continuous
 62
     7
370
    30
100
AcDbLine
 10
241.3689212974
 20
69.4515251327
 30
0.0
 11
241.3689212974
 21
27.9515267122
 31
0.0
  0
ARC
  5
1B7
330
1F
100
AcDbEntity
  8
0
  6
Continuous
 62
     7
370
    30
100
AcDbCircle
 10
801.8914320813
 20
216.2571045493
 30
0.0
 40
34.00000000000003
100
AcDbArc
 50
270.0
 51
90.0
  0
ARC
  5
1B8
330
1F
100
AcDbEntity
  8
0
  6
Continuous
 62
     7
370
    30
100
AcDbCircle
 10
801.8914320813
 20
216.2571045493
 30
0.0
 40
46.00000000000006
100
AcDbArc
 50
270.0
 51
0.0
  0
ARC
  5
1B9
330
1F
100
AcDbEntity
  8
0
  6
Continuous
 62
     7
370
    30
100
AcDbCircle
 10
801.8914320813
 20
216.2571045493
 30
0.0
 40
46.0
100
AcDbArc
 50
0.0
 51
90.0
  0
LINE
  5
1BA
330
1F
100
AcDbEntity
  8
0
  6
Continuous
 62
     7
370
    30
100
AcDbLine
 10
743.8867261009
 20
250.2571052199
 30
0.0
 11
801.8914350616
 21
250.2571052199
 31
0.0
  0
LINE
  5
1BB
330
1F
100
AcDbEntity
  8
0
  6
Continuous
 62
     7
370
    30
100
AcDbLine
 10
801.8914350616
 20
262.2571053242
 30
0.0
 11
752.8305911766
 21
262.2571053242
 31
0.0
  0
LINE
  5
1BC
330
1F
100
AcDbEntity
  8
0
  6
Continuous
 62
     7
370
    30
100
AcDbLine
 10
651.8914291011
 20
170.2571051454
 30
0.0
 11
801.8914350616
 21
170.2571051454
 31
0.0
  0
LINE
  5
1BD
330
1F
100
AcDbEntity
  8
0
  6
Continuous
 62
     7
370
    30
100
AcDbLine
 10
801.8914350616
 20
182.2571071123
 30
0.0
 11
651.8914291011
 21
182.2571071123
 31
0.0
  0
LINE
  5
1BE
330
1F
100
AcDbEntity
  8
0
  6
Continuous
 62
     7
370
    30
100
AcDbLine
 10
700.952272986
 20
262.2571053242
 30
0.0
 11
651.8914291011
 21
262.2571053242
 31
0.0
  0
LINE
  5
1BF
330
1F
100
AcDbEntity
  8
0
  6
Continuous
 62
     7
370
    30
100
AcDbLine
 10
651.8914291011
 20
250.2571052199
 30
0.0
 11
709.8961380618
 21
250.2571052199
 31
0.0
  0
ARC
  5
1C0
330
1F
100
AcDbEntity
  8
0
  6
Continuous
 62
     7
370
    30
100
AcDbCircle
 10
651.8914320813
 20
216.2571045493
 30
0.0
 40
34.00000000000003
100
AcDbArc
 50
180.0
 51
270.0
  0
ARC
  5
1C1
330
1F
100
AcDbEntity
  8
0
  6
Continuous
 62
     7
370
    30
100
AcDbCircle
 10
651.8914320813
 20
216.2571045493
 30
0.0
 40
34.0
100
AcDbArc
 50
90.0
 51
180.0
  0
ARC
  5
1C2
330
1F
100
AcDbEntity
  8
0
  6
Continuous
 62
     7
370
    30
100
AcDbCircle
 10
651.8914320813
 20
216.2571045493
 30
0.0
 40
46.00000000000006
100
AcDbArc
 50
90.0
 51
270.0
  0
LINE
  5
1C3
330
1F
100
AcDbEntity
  8
0
  6
Continuous
 62
     7
370
    30
100
AcDbLine
 10
739.691431758
 20
240.2571054434
 30
0.0
 11
741.1914320038
 21
243.2571040725
 31
0.0
  0
LINE
  5
1C4
330
1F
100
AcDbEntity
  8
0
  6
Continuous
 62
     7
370
    30
100
AcDbLine
 10
714.0914324047
 20
240.2571054434
 30
0.0
 11
739.691431758
 21
240.2571054434
 31
0.0
  0
LINE
  5
1C5
330
1F
100
AcDbEntity
  8
0
  6
Continuous
 62
     7
370
    30
100
AcDbLine
 10
712.5914321588
 20
243.2571040725
 30
0.0
 11
714.0914324047
 21
240.2571054434
 31
0.0
  0
ARC
  5
1C6
330
1F
100
AcDbEntity
  8
0
  6
Continuous
 62
     7
370
    30
100
AcDbCircle
 10
726.8914320813
 20
272.2571045493
 30
0.0
 40
27.55
100
AcDbArc
 50
85.8369346827
 51
94.1630653173
  0
LINE
  5
1C7
330
1F
100
AcDbEntity
  8
0
  6
Continuous
 62
     7
370
    30
100
AcDbLine
 10
728.8914321763
 20
299.7344142085
 30
0.0
 11
728.8914321763
 21
299.9850685035
 31
0.0
  0
ARC
  5
1C8
330
1F
100
AcDbEntity
  8
0
  6
Continuous
 62
     7
370
    30
100
AcDbCircle
 10
726.8914320813
 20
272.2571045493
 30
0.0
 40
27.80000000000001
100
AcDbArc
 50
280.3613790323
 51
85.8744374515
  0
LINE
  5
1C9
330
1F
100
AcDbEntity
  8
0
  6
Continuous
 62
     7
370
    30
100
AcDbLine
 10
731.8914319696
 20
244.910440061
 30
0.0
 11
731.8914319696
 21
245.1646240687
 31
0.0
  0
ARC
  5
1CA
330
1F
100
AcDbEntity
  8
0
  6
Continuous
 62
     7
370
    30
100
AcDbCircle
 10
726.8914320813
 20
272.2571045493
 30
0.0
 40
27.54999999999998
100
AcDbArc
 50
276.2515013148
 51
280.4564554442
  0
LINE
  5
1CB
330
1F
100
AcDbEntity
  8
0
  6
Continuous
 62
     7
370
    30
100
AcDbLine
 10
729.8914321074
 20
244.8709296321
 30
0.0
 11
729.8914321074
 21
245.6758605575
 31
0.0
  0
ARC
  5
1CC
330
1F
100
AcDbEntity
  8
0
  6
Continuous
 62
     7
370
    30
100
AcDbCircle
 10
726.8914320813
 20
272.2571045493
 30
0.0
 40
26.74999999999996
100
AcDbArc
 50
276.4392415942
 51
280.7728533751
  0
LINE
  5
1CD
330
1F
100
AcDbEntity
  8
0
  6
Continuous
 62
     7
370
    30
100
AcDbLine
 10
731.8914319696
 20
245.7241067921
 30
0.0
 11
731.8914319696
 21
245.9785478448
 31
0.0
  0
ARC
  5
1CE
330
1F
100
AcDbEntity
  8
0
  6
Continuous
 62
     7
370
    30
100
AcDbCircle
 10
726.8914320813
 20
272.2571045493
 30
0.0
 40
27.0
100
AcDbArc
 50
280.6719292858
 51
85.7519773333
  0
LINE
  5
1CF
330
1F
100
AcDbEntity
  8
0
  6
Continuous
 62
     7
370
    30
100
AcDbLine
 10
728.8914321763
 20
298.9322325473
 30
0.0
 11
728.8914321763
 21
299.1829278206
 31
0.0
  0
ARC
  5
1D0
330
1F
100
AcDbEntity
  8
0
  6
Continuous
 62
     7
370
    30
100
AcDbCircle
 10
726.8914320813
 20
272.2571045493
 30
0.0
 40
26.75000000000006
100
AcDbArc
 50
85.7122022517
 51
94.2877977483
  0
LINE
  5
1D1
330
1F
100
AcDbEntity
  8
0
  6
Continuous
 62
     7
370
    30
100
AcDbLine
 10
724.8914319863
 20
299.1829278206
 30
0.0
 11
724.8914319863
 21
298.9322325473
 31
0.0
  0
ARC
  5
1D2
330
1F
100
AcDbEntity
  8
0
  6
Continuous
 62
     7
370
    30
100
AcDbCircle
 10
726.8914320813
 20
272.2571045493
 30
0.0
 40
27.0
100
AcDbArc
 50
94.2480226667
 51
259.3280707142
  0
LINE
  5
1D3
330
1F
100
AcDbEntity
  8
0
  6
Continuous
 62
     7
370
    30
100
AcDbLine
 10
721.8914321931
 20
245.9785478448
 30
0.0
 11
721.8914321931
 21
245.7241067921
 31
0.0
  0
ARC
  5
1D4
330
1F
100
AcDbEntity
  8
0
  6
Continuous
 62
     7
370
    30
100
AcDbCircle
 10
726.8914320813
 20
272.2571045493
 30
0.0
 40
26.74999999999996
100
AcDbArc
 50
259.2271466249
 51
263.5607584058
  0
LINE
  5
1D5
330
1F
100
AcDbEntity
  8
0
  6
Continuous
 62
     7
370
    30
100
AcDbLine
 10
723.8914320553
 20
245.6758605575
 30
0.0
 11
723.8914320553
 21
244.8709296321
 31
0.0
  0
ARC
  5
1D6
330
1F
100
AcDbEntity
  8
0
  6
Continuous
 62
     7
370
    30
100
AcDbCircle
 10
726.8914320813
 20
272.2571045493
 30
0.0
 40
27.54999999999998
100
AcDbArc
 50
259.5435445558
 51
263.7484986852
  0
LINE
  5
1D7
330
1F
100
AcDbEntity
  8
0
  6
Continuous
 62
     7
370
    30
100
AcDbLine
 10
721.8914321931
 20
245.1646240687
 30
0.0
 11
721.8914321931
 21
244.910440061
 31
0.0
  0
ARC
  5
1D8
330
1F
100
AcDbEntity
  8
0
  6
Continuous
 62
     7
370
    30
100
AcDbCircle
 10
726.8914320813
 20
272.2571045493
 30
0.0
 40
27.80000000000001
100
AcDbArc
 50
94.1255625485
 51
259.6386209677
  0
LINE
  5
1D9
330
1F
100
AcDbEntity
  8
0
  6
Continuous
 62
     7
370
    30
100
AcDbLine
 10
724.8914319863
 20
299.9850685035
 30
0.0
 11
724.8914319863
 21
299.7344142085
 31
0.0
  0
LINE
  5
1DA
330
1F
100
AcDbEntity
  8
0
  6
Continuous
 62
     7
370
    30
100
AcDbLine
 10
729.8914321074
 20
244.6194501852
 30
0.0
 11
729.8914321074
 21
244.8709296321
 31
0.0
  0
ARC
  5
1DB
330
1F
100
AcDbEntity
  8
0
  6
Continuous
 62
     7
370
    30
100
AcDbCircle
 10
726.8914320813
 20
272.2571045493
 30
0.0
 40
27.79999999999998
100
AcDbArc
 50
276.1950616555
 51
280.3613790323
  0
ARC
  5
1DC
330
1F
100
AcDbEntity
  8
0
  6
Continuous
 62
     7
370
    30
100
AcDbCircle
 10
726.8914320813
 20
272.2571045493
 30
0.0
 40
27.80000000000001
100
AcDbArc
 50
85.8744374515
 51
94.1255625485
  0
LINE
  5
1DD
330
1F
100
AcDbEntity
  8
0
  6
Continuous
 62
     7
370
    30
100
AcDbLine
 10
723.8914320553
 20
244.8709296321
 30
0.0
 11
723.8914320553
 21
244.6194501852
 31
0.0
  0
ARC
  5
1DE
330
1F
100
AcDbEntity
  8
0
  6
Continuous
 62
     7
370
    30
100
AcDbCircle
 10
726.8914320813
 20
272.2571045493
 30
0.0
 40
27.79999999999998
100
AcDbArc
 50
259.6386209677
 51
263.8049383445
  0
ARC
  5
1DF
330
1F
100
AcDbEntity
  8
0
  6
Continuous
 62
     7
370
    30
100
AcDbCircle
 10
726.8914320813
 20
272.2571045493
 30
0.0
 40
26.99999999999996
100
AcDbArc
 50
263.6206297916
 51
276.3793702084
  0
ARC
  5
1E0
330
1F
100
AcDbEntity
  8
0
  6
Continuous
 62
     7
370
    30
100
AcDbCircle
 10
726.8914320813
 20
272.2571045493
 30
0.0
 40
27.79999999999995
100
AcDbArc
 50
263.8049383445
 51
276.1950616555
  0
CIRCLE
  5
1E1
330
1F
100
AcDbEntity
  8
0
  6
Continuous
 62
     7
370
    30
100
AcDbCircle
 10
733.8914320813
 20
272.2571045493
 30
0.0
 40
6.0
  0
LINE
  5
1E2
330
1F
100
AcDbEntity
  8
0
  6
Continuous
 62
     7
370
    30
100
AcDbLine
 10
733.8914322974
 20
274.5665056889
 30
0.0
 11
731.8914319696
 21
273.4118049292
 31
0.0
  0
LINE
  5
1E3
330
1F
100
AcDbEntity
  8
0
  6
Continuous
 62
     7
370
    30
100
AcDbLine
 10
731.8914319696
 20
273.4118049292
 30
0.0
 11
731.8914319696
 21
271.1024038752
 31
0.0
  0
LINE
  5
1E4
330
1F
100
AcDbEntity
  8
0
  6
Continuous
 62
     7
370
    30
100
AcDbLine
 10
731.8914319696
 20
271.1024038752
 30
0.0
 11
733.8914322974
 21
269.9477035811
 31
0.0
  0
LINE
  5
1E5
330
1F
100
AcDbEntity
  8
0
  6
Continuous
 62
     7
370
    30
100
AcDbLine
 10
733.8914322974
 20
269.9477035811
 30
0.0
 11
735.8914316939
 21
271.1024038752
 31
0.0
  0
LINE
  5
1E6
330
1F
100
AcDbEntity
  8
0
  6
Continuous
 62
     7
370
    30
100
AcDbLine
 10
735.8914316939
 20
271.1024038752
 30
0.0
 11
735.8914316939
 21
273.4118049292
 31
0.0
  0
LINE
  5
1E7
330
1F
100
AcDbEntity
  8
0
  6
Continuous
 62
     7
370
    30
100
AcDbLine
 10
735.8914316939
 20
273.4118049292
 30
0.0
 11
733.8914322974
 21
274.5665056889
 31
0.0
  0
LINE
  5
1E8
330
1F
100
AcDbEntity
  8
0
  6
Continuous
 62
     7
370
    30
100
AcDbLine
 10
719.8914318653
 20
274.5665056889
 30
0.0
 11
717.8914324688
 21
273.4118049292
 31
0.0
  0
LINE
  5
1E9
330
1F
100
AcDbEntity
  8
0
  6
Continuous
 62
     7
370
    30
100
AcDbLine
 10
717.8914324688
 20
273.4118049292
 30
0.0
 11
717.8914324688
 21
271.1024038752
 31
0.0
  0
LINE
  5
1EA
330
1F
100
AcDbEntity
  8
0
  6
Continuous
 62
     7
370
    30
100
AcDbLine
 10
717.8914324688
 20
271.1024038752
 30
0.0
 11
719.8914318653
 21
269.9477035811
 31
0.0
  0
LINE
  5
1EB
330
1F
100
AcDbEntity
  8
0
  6
Continuous
 62
     7
370
    30
100
AcDbLine
 10
719.8914318653
 20
269.9477035811
 30
0.0
 11
721.8914321931
 21
271.1024038752
 31
0.0
  0
LINE
  5
1EC
330
1F
100
AcDbEntity
  8
0
  6
Continuous
 62
     7
370
    30
100
AcDbLine
 10
721.8914321931
 20
271.1024038752
 30
0.0
 11
721.8914321931
 21
273.4118049292
 31
0.0
  0
LINE
  5
1ED
330
1F
100
AcDbEntity
  8
0
  6
Continuous
 62
     7
370
    30
100
AcDbLine
 10
721.8914321931
 20
273.4118049292
 30
0.0
 11
719.8914318653
 21
274.5665056889
 31
0.0
  0
CIRCLE
  5
1EE
330
1F
100
AcDbEntity
  8
0
  6
Continuous
 62
     7
370
    30
100
AcDbCircle
 10
719.8914320813
 20
272.2571045493
 30
0.0
 40
6.0
  0
ARC
  5
1EF
330
1F
100
AcDbEntity
  8
0
  6
Continuous
 62
     7
370
    30
100
AcDbCircle
 10
726.8914320813
 20
272.2571045493
 30
0.0
 40
26.95000000000005
100
AcDbArc
 50
94.2559184839
 51
180.0
  0
ARC
  5
1F0
330
1F
100
AcDbEntity
  8
0
  6
Continuous
 62
     7
370
    30
100
AcDbCircle
 10
726.8914320813
 20
272.2571045493
 30
0.0
 40
26.95000000000004
100
AcDbArc
 50
280.6919616339
 51
85.7440815161
  0
ARC
  5
1F1
330
1F
100
AcDbEntity
  8
0
  6
Continuous
 62
     7
370
    30
100
AcDbCircle
 10
726.8914320813
 20
272.2571045493
 30
0.0
 40
26.94999999999994
100
AcDbArc
 50
263.6087449359
 51
276.3912550641
  0
ARC
  5
1F2
330
1F
100
AcDbEntity
  8
0
  6
Continuous
 62
     7
370
    30
100
AcDbCircle
 10
726.8914320813
 20
272.2571045493
 30
0.0
 40
26.95000000000005
100
AcDbArc
 50
180.0
 51
259.3080383662
  0
CIRCLE
  5
1F3
330
1F
100
AcDbEntity
  8
0
  6
Continuous
 62
     7
370
    30
100
AcDbCircle
 10
726.8914320813
 20
272.2571045493
 30
0.0
 40
26.0
  0
CIRCLE
  5
1F4
330
1F
100
AcDbEntity
  8
0
  6
Continuous
 62
     7
370
    30
100
AcDbCircle
 10
745.0779655608
 20
282.7571045493
 30
0.0
 40
2.24999999999998
  0
CIRCLE
  5
1F5
330
1F
100
AcDbEntity
  8
0
  6
Continuous
 62
     7
370
    30
100
AcDbCircle
 10
726.8914320813
 20
251.2571045493
 30
0.0
 40
2.250000000000114
  0
CIRCLE
  5
1F6
330
1F
100
AcDbEntity
  8
0
  6
Continuous
 62
     7
370
    30
100
AcDbCircle
 10
733.8914320813
 20
272.2571045493
 30
0.0
 40
6.500000000000114
  0
CIRCLE
  5
1F7
330
1F
100
AcDbEntity
  8
0
  6
Continuous
 62
     7
370
    30
100
AcDbCircle
 10
719.8914320813
 20
272.2571045493
 30
0.0
 40
6.499999999999886
  0
CIRCLE
  5
1F8
330
1F
100
AcDbEntity
  8
0
  6
Continuous
 62
     7
370
    30
100
AcDbCircle
 10
708.7048986019
 20
282.7571045493
 30
0.0
 40
2.250000000000037
  0
ARC
  5
1F9
330
1F
100
AcDbEntity
  8
0
  6
Continuous
 62
     7
370
    30
100
AcDbCircle
 10
726.8914320813
 20
250.1006937566
 30
0.0
 40
7.480479747348171
100
AcDbArc
 50
222.977831444
 51
317.022168556
  0
ARC
  5
1FA
330
1F
100
AcDbEntity
  8
0
  6
Continuous
 62
     7
370
    30
100
AcDbCircle
 10
726.8914320813
 20
248.3425826154
 30
0.0
 40
5.333540577428863
100
AcDbArc
 50
222.5448809694
 51
317.4551190306
  0
LINE
  5
1FB
330
1F
100
AcDbEntity
  8
0
  6
Continuous
 62
     7
370
    30
100
AcDbLine
 10
739.691431758
 20
240.2571054434
 30
0.0
 11
739.691431758
 21
247.5791784262
 31
0.0
  0
LINE
  5
1FC
330
1F
100
AcDbEntity
  8
0
  6
Continuous
 62
     7
370
    30
100
AcDbLine
 10
741.1914320038
 20
248.4170111155
 30
0.0
 11
741.1914320038
 21
243.2571040725
 31
0.0
  0
LINE
  5
1FD
330
1F
100
AcDbEntity
  8
0
  6
Continuous
 62
     7
370
    30
100
AcDbLine
 10
714.0914324047
 20
247.5791784262
 30
0.0
 11
714.0914324047
 21
240.2571054434
 31
0.0
  0
SPLINE
  5
1FE
330
1F
100
AcDbEntity
  8
0
  6
Continuous
 62
     7
370
    30
100
AcDbSpline
210
0.0
220
0.0
230
1.0
 70
     8
 71
     3
 72
    21
 73
    17
 74
     0
 42
0.000000001
 43
0.00000001
 40
0.0
 40
0.0
 40
0.0
 40
0.0
 40
0.0277007017387269
 40
0.0877381305110745
 40
0.14887572174406
 40
0.2681829622711346
 40
0.3851125479227154
 40
0.4439121602036046
 40
0.500855069413155
 40
0.557843761201189
 40
0.6168360184597456
 40
0.7340675338531442
 40
0.8532503362336981
 40
0.9141978860369943
 40
0.9742646823606488
 40
1.0
 40
1.0
 40
1.0
 40
1.0
 10
733.6672545717854
 20
245.4267690216733
 30
0.0
 10
733.6936481720682
 20
245.2657505349449
 30
0.0
 10
733.77724624002
 20
244.7557468124209
 30
0.0
 10
733.6304289513839
 20
243.9747180503867
 30
0.0
 10
733.111600357588
 20
242.8663599255343
 30
0.0
 10
731.8680795946766
 20
241.849967631528
 30
0.0
 10
729.9815347436505
 20
241.310174569252
 30
0.0
 10
728.2561260126981
 20
241.1035792573256
 30
0.0
 10
726.8998986184035
 20
241.0534973824712
 30
0.0
 10
725.5418671945507
 20
241.1028992758373
 30
0.0
 10
723.8114829640537
 20
241.3089416164399
 30
0.0
 10
721.9192404198229
 20
241.847389978377
 30
0.0
 10
720.673143515287
 20
242.862561073694
 30
0.0
 10
720.1553860874327
 20
243.9689500178343
 30
0.0
 10
720.0065275302653
 20
244.7373781894022
 30
0.0
 10
720.0861579521077
 20
245.2357252639181
 30
0.0
 10
720.1100421445269
 20
245.3851985072328
 30
0.0
  0
LINE
  5
1FF
330
1F
100
AcDbEntity
  8
0
  6
Continuous
 62
     7
370
    30
100
AcDbLine
 10
712.5914321588
 20
243.2571040725
 30
0.0
 11
712.5914321588
 21
248.4170111155
 31
0.0
  0
SPLINE
  5
200
330
1F
100
AcDbEntity
  8
0
  6
Continuous
 62
     7
370
    30
100
AcDbSpline
210
0.0
220
0.0
230
1.0
 70
     8
 71
     3
 72
    28
 73
    24
 74
     0
 42
0.000000001
 43
0.00000001
 40
0.0
 40
0.0
 40
0.0
 40
0.0
 40
0.0001358834350376
 40
0.059806344935683
 40
0.0916904558555658
 40
0.1249826141720056
 40
0.1818737106975856
 40
0.2501025323450532
 40
0.2996306766970465
 40
0.3414279631819309
 40
0.3755075787950488
 40
0.4411981609185447
 40
0.5003964979907933
 40
0.5594885965087377
 40
0.5914616655358262
 40
0.6251051736752049
 40
0.6787937537890045
 40
0.7500454633521892
 40
0.7967776055207476
 40
0.8385570427552965
 40
0.8754099383467353
 40
0.9406113507795048
 40
1.0
 40
1.0
 40
1.0
 40
1.0
 10
720.3916983054776
 20
245.4806180929376
 30
0.0
 10
720.3916096398943
 20
245.479927610455
 30
0.0
 10
720.3525852772015
 20
245.1760257145534
 30
0.0
 10
720.4619844018074
 20
244.7653590409574
 30
0.0
 10
720.6557160762482
 20
244.2417192655047
 30
0.0
 10
720.9401201741175
 20
243.7764729622873
 30
0.0
 10
721.4426125262428
 20
243.2535440906203
 30
0.0
 10
722.1862849606248
 20
242.8074542155222
 30
0.0
 10
723.000549321182
 20
242.5037823503796
 30
0.0
 10
723.7146461667157
 20
242.3188819589392
 30
0.0
 10
724.5786920072019
 20
242.1625505339781
 30
0.0
 10
725.6275434569233
 20
242.0517399865975
 30
0.0
 10
726.8988792296202
 20
242.0192271758925
 30
0.0
 10
727.9380478382743
 20
242.0473185533933
 30
0.0
 10
728.7688869379153
 20
242.1167863084463
 30
0.0
 10
729.5354047325583
 20
242.2164643637029
 30
0.0
 10
730.4887956547984
 20
242.4058997265017
 30
0.0
 10
731.3942918642123
 20
242.7157582545742
 30
0.0
 10
732.0968153786938
 20
243.1024279375193
 30
0.0
 10
732.5593570511772
 20
243.4739623261065
 30
0.0
 10
732.9853942362959
 20
243.9650734779084
 30
0.0
 10
733.321488624668
 20
244.6082728502589
 30
0.0
 10
733.3684241715774
 20
245.1991547084243
 30
0.0
 10
733.3907970534462
 20
245.4808118080331
 30
0.0
  0
ENDSEC
  0
SECTION
  2
OBJECTS
  0
DICTIONARY
  5
C
330
0
100
AcDbDictionary
281
     1
  3
ACAD_GROUP
350
D
  3
ACAD_LAYOUT
350
1A
  3
ACAD_MLINESTYLE
350
17
  3
ACAD_PLOTSETTINGS
350
19
  3
ACAD_PLOTSTYLENAME
350
E
  3
ACAD_SCALELIST
350
47
  0
DICTIONARY
  5
D
102
{ACAD_REACTORS
330
C
102
}
330
C
100
AcDbDictionary
281
     1
  0
DICTIONARY
  5
1A
102
{ACAD_REACTORS
330
C
102
}
330
C
100
AcDbDictionary
281
     1
  3
Layout1
350
1E
  3
Layout2
350
26
  3
Model
350
22
  0
DICTIONARY
  5
17
102
{ACAD_REACTORS
330
C
102
}
330
C
100
AcDbDictionary
281
     1
  3
Standard
350
18
  0
DICTIONARY
  5
19
102
{ACAD_REACTORS
330
C
102
}
330
C
100
AcDbDictionary
281
     1
  0
ACDBDICTIONARYWDFLT
  5
E
102
{ACAD_REACTORS
330
C
102
}
330
C
100
AcDbDictionary
281
     1
  3
Normal
350
F
100
AcDbDictionaryWithDefault
340
F
  0
DICTIONARY
  5
47
102
{ACAD_REACTORS
330
C
102
}
330
C
100
AcDbDictionary
281
     1
  3
A0
350
48
  3
A1
350
49
  3
A2
350
4A
  3
A3
350
4B
  3
A4
350
4C
  3
A5
350
4D
  3
A6
350
4E
  3
A7
350
4F
  3
A8
350
50
  3
A9
350
51
  3
B0
350
52
  3
B1
350
53
  3
B2
350
54
  3
B3
350
55
  3
B4
350
56
  3
B5
350
57
  3
B6
350
58
  3
B7
350
59
  3
B8
350
5A
  3
B9
350
5B
  3
C0
350
5C
  3
C1
350
5D
  3
C2
350
5E
  3
C3
350
5F
  3
C4
350
60
  3
C5
350
61
  3
C6
350
62
  3
C7
350
63
  3
C8
350
64
  3
C9
350
65
  3
D0
350
66
  3
D1
350
67
  3
D2
350
68
  0
LAYOUT
  5
1E
102
{ACAD_REACTORS
330
1A
102
}
330
1A
100
AcDbPlotSettings
  1

  2
none_device
  4

  6

 40
0.0
 41
0.0
 42
0.0
 43
0.0
 44
0.0
 45
0.0
 46
0.0
 47
0.0
 48
0.0
 49
0.0
140
0.0
141
0.0
142
1.0
143
1.0
 70
   688
 72
     1
 73
     0
 74
     5
  7

 75
    16
147
1.0
148
0.0
149
0.0
100
AcDbLayout
  1
Layout1
 70
     1
 71
     1
 10
0.0
 20
0.0
 11
420.0
 21
297.0
 12
0.0
 22
0.0
 32
0.0
 14
1.0000000000E+20
 24
1.0000000000E+20
 34
1.0000000000E+20
 15
-1.0000000000E+20
 25
-1.0000000000E+20
 35
-1.0000000000E+20
146
0.0
 13
0.0
 23
0.0
 33
0.0
 16
1.0
 26
0.0
 36
0.0
 17
0.0
 27
1.0
 37
0.0
 76
     0
330
1B
  0
LAYOUT
  5
26
102
{ACAD_REACTORS
330
1A
102
}
330
1A
100
AcDbPlotSettings
  1

  2
none_device
  4

  6

 40
0.0
 41
0.0
 42
0.0
 43
0.0
 44
0.0
 45
0.0
 46
0.0
 47
0.0
 48
0.0
 49
0.0
140
0.0
141
0.0
142
1.0
143
1.0
 70
   688
 72
     1
 73
     0
 74
     5
  7

 75
    16
147
1.0
148
0.0
149
0.0
100
AcDbLayout
  1
Layout2
 70
     1
 71
     2
 10
0.0
 20
0.0
 11
0.0
 21
0.0
 12
0.0
 22
0.0
 32
0.0
 14
0.0
 24
0.0
 34
0.0
 15
0.0
 25
0.0
 35
0.0
146
0.0
 13
0.0
 23
0.0
 33
0.0
 16
1.0
 26
0.0
 36
0.0
 17
0.0
 27
1.0
 37
0.0
 76
     0
330
23
  0
LAYOUT
  5
22
102
{ACAD_REACTORS
330
1A
102
}
330
1A
100
AcDbPlotSettings
  1

  2
none_device
  4
Letter_(8.50_x_11.00_Inches)
  6

 40
6.35
 41
6.35
 42
6.35000508
 43
6.35000508
 44
215.9
 45
279.4
 46
0.0
 47
0.0
 48
0.0
 49
0.0
140
0.0
141
0.0
142
1.0
143
1.0
 70
  1712
 72
     1
 73
     0
 74
     0
  7

 75
     0
147
1.0
148
0.0
149
0.0
100
AcDbLayout
  1
Model
 70
     1
 71
     0
 10
0.0
 20
0.0
 11
420.0
 21
297.0
 12
0.0
 22
0.0
 32
0.0
 14
0.0
 24
0.0
 34
0.0
 15
420.0
 25
297.0
 35
0.0
146
0.0
 13
0.0
 23
0.0
 33
0.0
 16
1.0
 26
0.0
 36
0.0
 17
0.0
 27
1.0
 37
0.0
 76
     0
330
1F
331
29
  0
MLINESTYLE
  5
18
102
{ACAD_REACTORS
330
17
102
}
330
17
100
AcDbMlineStyle
  2
Standard
 70
     0
  3

 62
   256
 51
90.0
 52
90.0
 71
     2
 49
0.5
 62
   256
  6
BYLAYER
 49
-0.5
 62
   256
  6
BYLAYER
  0
ACDBPLACEHOLDER
  5
F
102
{ACAD_REACTORS
330
E
102
}
330
E
  0
SCALE
  5
48
102
{ACAD_REACTORS
330
47
102
}
330
47
100
AcDbScale
 70
     0
300
1:1
140
1.0
141
1.0
290
     1
  0
SCALE
  5
49
102
{ACAD_REACTORS
330
47
102
}
330
47
100
AcDbScale
 70
     0
300
1:2
140
1.0
141
2.0
290
     0
  0
SCALE
  5
4A
102
{ACAD_REACTORS
330
47
102
}
330
47
100
AcDbScale
 70
     0
300
1:4
140
1.0
141
4.0
290
     0
  0
SCALE
  5
4B
102
{ACAD_REACTORS
330
47
102
}
330
47
100
AcDbScale
 70
     0
300
1:5
140
1.0
141
5.0
290
     0
  0
SCALE
  5
4C
102
{ACAD_REACTORS
330
47
102
}
330
47
100
AcDbScale
 70
     0
300
1:8
140
1.0
141
8.0
290
     0
  0
SCALE
  5
4D
102
{ACAD_REACTORS
330
47
102
}
330
47
100
AcDbScale
 70
     0
300
1:10
140
1.0
141
10.0
290
     0
  0
SCALE
  5
4E
102
{ACAD_REACTORS
330
47
102
}
330
47
100
AcDbScale
 70
     0
300
1:16
140
1.0
141
16.0
290
     0
  0
SCALE
  5
4F
102
{ACAD_REACTORS
330
47
102
}
330
47
100
AcDbScale
 70
     0
300
1:20
140
1.0
141
20.0
290
     0
  0
SCALE
  5
50
102
{ACAD_REACTORS
330
47
102
}
330
47
100
AcDbScale
 70
     0
300
1:30
140
1.0
141
30.0
290
     0
  0
SCALE
  5
51
102
{ACAD_REACTORS
330
47
102
}
330
47
100
AcDbScale
 70
     0
300
1:40
140
1.0
141
40.0
290
     0
  0
SCALE
  5
52
102
{ACAD_REACTORS
330
47
102
}
330
47
100
AcDbScale
 70
     0
300
1:50
140
1.0
141
50.0
290
     0
  0
SCALE
  5
53
102
{ACAD_REACTORS
330
47
102
}
330
47
100
AcDbScale
 70
     0
300
1:100
140
1.0
141
100.0
290
     0
  0
SCALE
  5
54
102
{ACAD_REACTORS
330
47
102
}
330
47
100
AcDbScale
 70
     0
300
2:1
140
2.0
141
1.0
290
     0
  0
SCALE
  5
55
102
{ACAD_REACTORS
330
47
102
}
330
47
100
AcDbScale
 70
     0
300
4:1
140
4.0
141
1.0
290
     0
  0
SCALE
  5
56
102
{ACAD_REACTORS
330
47
102
}
330
47
100
AcDbScale
 70
     0
300
8:1
140
8.0
141
1.0
290
     0
  0
SCALE
  5
57
102
{ACAD_REACTORS
330
47
102
}
330
47
100
AcDbScale
 70
     0
300
10:1
140
10.0
141
1.0
290
     0
  0
SCALE
  5
58
102
{ACAD_REACTORS
330
47
102
}
330
47
100
AcDbScale
 70
     0
300
100:1
140
100.0
141
1.0
290
     0
  0
SCALE
  5
59
102
{ACAD_REACTORS
330
47
102
}
330
47
100
AcDbScale
 70
     0
300
1/128" = 1'-0"
140
0.0078125
141
12.0
290
     0
  0
SCALE
  5
5A
102
{ACAD_REACTORS
330
47
102
}
330
47
100
AcDbScale
 70
     0
300
1/64" = 1'-0"
140
0.015625
141
12.0
290
     0
  0
SCALE
  5
5B
102
{ACAD_REACTORS
330
47
102
}
330
47
100
AcDbScale
 70
     0
300
1/32" = 1'-0"
140
0.03125
141
12.0
290
     0
  0
SCALE
  5
5C
102
{ACAD_REACTORS
330
47
102
}
330
47
100
AcDbScale
 70
     0
300
1/16" = 1'-0"
140
0.0625
141
12.0
290
     0
  0
SCALE
  5
5D
102
{ACAD_REACTORS
330
47
102
}
330
47
100
AcDbScale
 70
     0
300
3/32" = 1'-0"
140
0.09375
141
12.0
290
     0
  0
SCALE
  5
5E
102
{ACAD_REACTORS
330
47
102
}
330
47
100
AcDbScale
 70
     0
300
1/8" = 1'-0"
140
0.125
141
12.0
290
     0
  0
SCALE
  5
5F
102
{ACAD_REACTORS
330
47
102
}
330
47
100
AcDbScale
 70
     0
300
3/16" = 1'-0"
140
0.1875
141
12.0
290
     0
  0
SCALE
  5
60
102
{ACAD_REACTORS
330
47
102
}
330
47
100
AcDbScale
 70
     0
300
1/4" = 1'-0"
140
0.25
141
12.0
290
     0
  0
SCALE
  5
61
102
{ACAD_REACTORS
330
47
102
}
330
47
100
AcDbScale
 70
     0
300
3/8" = 1'-0"
140
0.375
141
12.0
290
     0
  0
SCALE
  5
62
102
{ACAD_REACTORS
330
47
102
}
330
47
100
AcDbScale
 70
     0
300
1/2" = 1'-0"
140
0.5
141
12.0
290
     0
  0
SCALE
  5
63
102
{ACAD_REACTORS
330
47
102
}
330
47
100
AcDbScale
 70
     0
300
3/4" = 1'-0"
140
0.75
141
12.0
290
     0
  0
SCALE
  5
64
102
{ACAD_REACTORS
330
47
102
}
330
47
100
AcDbScale
 70
     0
300
1" = 1'-0"
140
1.0
141
12.0
290
     0
  0
SCALE
  5
65
102
{ACAD_REACTORS
330
47
102
}
330
47
100
AcDbScale
 70
     0
300
1-1/2" = 1'-0"
140
1.5
141
12.0
290
     0
  0
SCALE
  5
66
102
{ACAD_REACTORS
330
47
102
}
330
47
100
AcDbScale
 70
     0
300
3" = 1'-0"
140
3.0
141
12.0
290
     0
  0
SCALE
  5
67
102
{ACAD_REACTORS
330
47
102
}
330
47
100
AcDbScale
 70
     0
300
6" = 1'-0"
140
6.0
141
12.0
290
     0
  0
SCALE
  5
68
102
{ACAD_REACTORS
330
47
102
}
330
47
100
AcDbScale
 70
     0
300
1'-0" = 1'-0"
140
12.0
141
12.0
290
     0
  0
ENDSEC
  0
EOF
