  0
SECTION
  2
HEADER
  9
$ACADVER
  1
AC1015
  9
$ACADMAINTVER
 70
     6
  9
$DWGCODEPAGE
  3
DOS932
  9
$INSBASE
 10
0.0
 20
0.0
 30
0.0
  9
$EXTMIN
 10
0.0
 20
0.0
 30
0.0
  9
$EXTMAX
 10
420.0
 20
297.0
 30
0.0
  9
$LIMMIN
 10
0.0
 20
0.0
  9
$LIMMAX
 10
420.0
 20
297.0
  9
$ORTHOMODE
 70
     0
  9
$REGENMODE
 70
     1
  9
$FILLMODE
 70
     1
  9
$QTEXTMODE
 70
     0
  9
$MIRRTEXT
 70
     1
  9
$LTSCALE
 40
1.0
  9
$ATTMODE
 70
     1
  9
$TEXTSIZE
 40
3.8805555556
  9
$TRACEWID
 40
1.0
  9
$TEXTSTYLE
  7
Standard
  9
$CLAYER
  8
0
  9
$CELTYPE
  6
ByLayer
  9
$CECOLOR
 62
   256
  9
$CELTSCALE
 40
1.0
  9
$DISPSILH
 70
     0
  9
$DIMSCALE
 40
1.0
  9
$DIMASZ
 40
3.0
  9
$DIMEXO
 40
0.0
  9
$DIMDLI
 40
3.75
  9
$DIMRND
 40
0.0
  9
$DIMDLE
 40
0.0
  9
$DIMEXE
 40
1.0
  9
$DIMTP
 40
0.0
  9
$DIMTM
 40
0.0
  9
$DIMTXT
 40
3.5277777778
  9
$DIMCEN
 40
2.5
  9
$DIMTSZ
 40
0.0
  9
$DIMTOL
 70
     0
  9
$DIMLIM
 70
     0
  9
$DIMTIH
 70
     1
  9
$DIMTOH
 70
     1
  9
$DIMSE1
 70
     0
  9
$DIMSE2
 70
     0
  9
$DIMTAD
 70
     1
  9
$DIMZIN
 70
     0
  9
$DIMBLK
  1

  9
$DIMASO
 70
     1
  9
$DIMSHO
 70
     1
  9
$DIMPOST
  1

  9
$DIMAPOST
  1

  9
$DIMALT
 70
     0
  9
$DIMALTD
 70
     3
  9
$DIMALTF
 40
0.0393700787
  9
$DIMLFAC
 40
1.0
  9
$DIMTOFL
 70
     1
  9
$DIMTVP
 40
0.0
  9
$DIMTIX
 70
     0
  9
$DIMSOXD
 70
     0
  9
$DIMSAH
 70
     0
  9
$DIMBLK1
  1

  9
$DIMBLK2
  1

  9
$DIMSTYLE
  2
ISO-25
  9
$DIMCLRD
 70
     0
  9
$DIMCLRE
 70
     0
  9
$DIMCLRT
 70
     0
  9
$DIMTFAC
 40
1.0
  9
$DIMGAP
 40
1.0
  9
$DIMJUST
 70
     0
  9
$DIMSD1
 70
     0
  9
$DIMSD2
 70
     0
  9
$DIMTOLJ
 70
     0
  9
$DIMTZIN
 70
     0
  9
$DIMALTZ
 70
     0
  9
$DIMALTTZ
 70
     0
  9
$DIMUPT
 70
     0
  9
$DIMDEC
 70
     2
  9
$DIMTDEC
 70
     2
  9
$DIMALTU
 70
     2
  9
$DIMALTTD
 70
     3
  9
$DIMTXSTY
  7
Standard
  9
$DIMAUNIT
 70
     0
  9
$DIMADEC
 70
     2
  9
$DIMALTRND
 40
0.0
  9
$DIMAZIN
 70
     0
  9
$DIMDSEP
 70
    44
  9
$DIMATFIT
 70
     3
  9
$DIMFRAC
 70
     0
  9
$DIMLDRBLK
  1

  9
$DIMLUNIT
 70
     2
  9
$DIMLWD
 70
    -2
  9
$DIMLWE
 70
    -2
  9
$DIMTMOVE
 70
     0
  9
$LUNITS
 70
     2
  9
$LUPREC
 70
     2
  9
$SKETCHINC
 40
1.0
  9
$FILLETRAD
 40
10.0
  9
$AUNITS
 70
     0
  9
$AUPREC
 70
     2
  9
$MENU
  1
.
  9
$ELEVATION
 40
0.0
  9
$PELEVATION
 40
0.0
  9
$THICKNESS
 40
0.0
  9
$LIMCHECK
 70
     0
  9
$CHAMFERA
 40
0.0
  9
$CHAMFERB
 40
0.0
  9
$CHAMFERC
 40
0.0
  9
$CHAMFERD
 40
0.0
  9
$SKPOLY
 70
     0
  9
$TDCREATE
 40
2458620.812803843
  9
$TDUCREATE
 40
2458620.437803843
  9
$TDUPDATE
 40
2458620.812804363
  9
$TDUUPDATE
 40
2458620.437804363
  9
$TDINDWG
 40
0.0000000116
  9
$TDUSRTIMER
 40
0.0000000116
  9
$USRTIMER
 70
     1
  9
$ANGBASE
 50
0.0
  9
$ANGDIR
 70
     0
  9
$PDMODE
 70
     0
  9
$PDSIZE
 40
-1.0
  9
$PLINEWID
 40
0.0
  9
$SPLFRAME
 70
     0
  9
$SPLINETYPE
 70
     6
  9
$SPLINESEGS
 70
     8
  9
$HANDSEED
  5
20C
  9
$SURFTAB1
 70
     6
  9
$SURFTAB2
 70
     6
  9
$SURFTYPE
 70
     6
  9
$SURFU
 70
     6
  9
$SURFV
 70
     6
  9
$UCSBASE
  2

  9
$UCSNAME
  2

  9
$UCSORG
 10
0.0
 20
0.0
 30
0.0
  9
$UCSXDIR
 10
1.0
 20
0.0
 30
0.0
  9
$UCSYDIR
 10
0.0
 20
1.0
 30
0.0
  9
$UCSORTHOREF
  2

  9
$UCSORTHOVIEW
 70
     0
  9
$UCSORGTOP
 10
0.0
 20
0.0
 30
0.0
  9
$UCSORGBOTTOM
 10
0.0
 20
0.0
 30
0.0
  9
$UCSORGLEFT
 10
0.0
 20
0.0
 30
0.0
  9
$UCSORGRIGHT
 10
0.0
 20
0.0
 30
0.0
  9
$UCSORGFRONT
 10
0.0
 20
0.0
 30
0.0
  9
$UCSORGBACK
 10
0.0
 20
0.0
 30
0.0
  9
$PUCSBASE
  2

  9
$PUCSNAME
  2

  9
$PUCSORG
 10
0.0
 20
0.0
 30
0.0
  9
$PUCSXDIR
 10
1.0
 20
0.0
 30
0.0
  9
$PUCSYDIR
 10
0.0
 20
1.0
 30
0.0
  9
$PUCSORTHOREF
  2

  9
$PUCSORTHOVIEW
 70
     0
  9
$PUCSORGTOP
 10
0.0
 20
0.0
 30
0.0
  9
$PUCSORGBOTTOM
 10
0.0
 20
0.0
 30
0.0
  9
$PUCSORGLEFT
 10
0.0
 20
0.0
 30
0.0
  9
$PUCSORGRIGHT
 10
0.0
 20
0.0
 30
0.0
  9
$PUCSORGFRONT
 10
0.0
 20
0.0
 30
0.0
  9
$PUCSORGBACK
 10
0.0
 20
0.0
 30
0.0
  9
$USERI1
 70
     0
  9
$USERI2
 70
     0
  9
$USERI3
 70
     0
  9
$USERI4
 70
     0
  9
$USERI5
 70
     0
  9
$USERR1
 40
0.0
  9
$USERR2
 40
0.0
  9
$USERR3
 40
0.0
  9
$USERR4
 40
0.0
  9
$USERR5
 40
0.0
  9
$WORLDVIEW
 70
     1
  9
$SHADEDGE
 70
     3
  9
$SHADEDIF
 70
    70
  9
$TILEMODE
 70
     1
  9
$MAXACTVP
 70
    64
  9
$PINSBASE
 10
0.0
 20
0.0
 30
0.0
  9
$PLIMCHECK
 70
     0
  9
$PEXTMIN
 10
1.0000000000E+20
 20
1.0000000000E+20
 30
1.0000000000E+20
  9
$PEXTMAX
 10
-1.0000000000E+20
 20
-1.0000000000E+20
 30
-1.0000000000E+20
  9
$PLIMMIN
 10
0.0
 20
0.0
  9
$PLIMMAX
 10
420.0
 20
297.0
  9
$UNITMODE
 70
     0
  9
$VISRETAIN
 70
     1
  9
$PLINEGEN
 70
     0
  9
$PSLTSCALE
 70
     1
  9
$TREEDEPTH
 70
  3020
  9
$CMLSTYLE
  2
Standard
  9
$CMLJUST
 70
     0
  9
$CMLSCALE
 40
20.0
  9
$PROXYGRAPHICS
 70
     1
  9
$MEASUREMENT
 70
     1
  9
$CELWEIGHT
370
    -1
  9
$ENDCAPS
280
     0
  9
$JOINSTYLE
280
     0
  9
$LWDISPLAY
290
     1
  9
$INSUNITS
 70
     4
  9
$HYPERLINKBASE
  1

  9
$STYLESHEET
  1

  9
$XEDIT
290
     1
  9
$CEPSNTYPE
380
     0
  9
$PSTYLEMODE
290
     1
  9
$FINGERPRINTGUID
  2
{932578FE-01BC-4E2B-AB4B-D11ED9C307D9}
  9
$VERSIONGUID
  2
{FAEB1C32-E019-11D5-929B-00C0DF256EC4}
  9
$EXTNAMES
290
     1
  9
$PSVPSCALE
 40
0.0
  9
$OLESTARTUP
290
     0
  0
ENDSEC
  0
SECTION
  2
CLASSES
  0
CLASS
  1
ACDBDICTIONARYWDFLT
  2
AcDbDictionaryWithDefault
  3
ObjectDBX Classes
 90
        0
280
     0
281
     0
  0
CLASS
  1
VISUALSTYLE
  2
AcDbVisualStyle
  3
ObjectDBX Classes
 90
     4095
280
     0
281
     0
  0
CLASS
  1
MATERIAL
  2
AcDbMaterial
  3
ObjectDBX Classes
 90
     1153
280
     0
281
     0
  0
CLASS
  1
SCALE
  2
AcDbScale
  3
ObjectDBX Classes
 90
     1153
280
     0
281
     0
  0
CLASS
  1
TABLESTYLE
  2
AcDbTableStyle
  3
ObjectDBX Classes
 90
     4095
280
     0
281
     0
  0
CLASS
  1
MLEADERSTYLE
  2
AcDbMLeaderStyle
  3
ACDB_MLEADERSTYLE_CLASS
 90
     4095
280
     0
281
     0
  0
CLASS
  1
SUN
  2
AcDbSun
  3
SCENEOE
 90
     1153
280
     0
281
     0
  0
CLASS
  1
ACDBPLACEHOLDER
  2
AcDbPlaceHolder
  3
ObjectDBX Classes
 90
        0
280
     0
281
     0
  0
CLASS
  1
LAYOUT
  2
AcDbLayout
  3
ObjectDBX Classes
 90
        0
280
     0
281
     0
  0
ENDSEC
  0
SECTION
  2
TABLES
  0
TABLE
  2
VPORT
  5
8
330
0
100
AcDbSymbolTable
 70
     1
  0
VPORT
  5
29
330
8
100
AcDbSymbolTableRecord
100
AcDbViewportTableRecord
  2
*Active
 70
     0
 10
0.0
 20
0.0
 11
1.0
 21
1.0
 12
210.0
 22
148.5
 13
0.0
 23
0.0
 14
10.0
 24
10.0
 15
10.0
 25
10.0
 16
0.0
 26
0.0
 36
1.0
 17
0.0
 27
0.0
 37
0.0
 40
297.0
 41
1.4141414141
 42
50.0
 43
0.0
 44
0.0
 50
0.0
 51
0.0
 71
     0
 72
  2000
 73
     1
 74
     3
 75
     0
 76
     0
 77
     0
 78
     0
281
     0
 65
     1
110
0.0
120
0.0
130
0.0
111
1.0
121
0.0
131
0.0
112
0.0
122
1.0
132
0.0
 79
     0
146
0.0
  0
ENDTAB
  0
TABLE
  2
LTYPE
  5
5
330
0
100
AcDbSymbolTable
 70
     6
  0
LTYPE
  5
14
330
5
100
AcDbSymbolTableRecord
100
AcDbLinetypeTableRecord
  2
ByBlock
 70
     0
  3

 72
    65
 73
     0
 40
0.0
  0
LTYPE
  5
15
330
5
100
AcDbSymbolTableRecord
100
AcDbLinetypeTableRecord
  2
ByLayer
 70
     0
  3

 72
    65
 73
     0
 40
0.0
  0
LTYPE
  5
16
330
5
100
AcDbSymbolTableRecord
100
AcDbLinetypeTableRecord
  2
Continuous
 70
     0
  3
Solid line
 72
    65
 73
     0
 40
0.0
  0
LTYPE
  5
6E
330
5
100
AcDbSymbolTableRecord
100
AcDbLinetypeTableRecord
  2
HIDDEN
 70
     0
  3
Hidden __ __ __ __ __ __ __ __ __ __ __ __ __ __
 72
    65
 73
     2
 40
1.905
 49
1.27
 74
     0
 49
-0.635
 74
     0
  0
LTYPE
  5
6F
330
5
100
AcDbSymbolTableRecord
100
AcDbLinetypeTableRecord
  2
PHANTOM
 70
     0
  3
Phantom ______  __  __  ______  __  __  ______
 72
    65
 73
     6
 40
12.7
 49
6.35
 74
     0
 49
-1.27
 74
     0
 49
1.27
 74
     0
 49
-1.27
 74
     0
 49
1.27
 74
     0
 49
-1.27
 74
     0
  0
LTYPE
  5
70
330
5
100
AcDbSymbolTableRecord
100
AcDbLinetypeTableRecord
  2
CENTER
 70
     0
  3
Center ____ _ ____ _ ____ _ ____ _ ____ _ ____
 72
    65
 73
     4
 40
10.16
 49
6.35
 74
     0
 49
-1.27
 74
     0
 49
1.27
 74
     0
 49
-1.27
 74
     0
  0
LTYPE
  5
71
330
5
100
AcDbSymbolTableRecord
100
AcDbLinetypeTableRecord
  2
CENTERX2
 70
     0
  3
Center (2x) ________  __  ________  __  _____
 72
    65
 73
     4
 40
20.32
 49
12.7
 74
     0
 49
-2.54
 74
     0
 49
2.54
 74
     0
 49
-2.54
 74
     0
  0
LTYPE
  5
72
330
5
100
AcDbSymbolTableRecord
100
AcDbLinetypeTableRecord
  2
DOT2
 70
     0
  3
Dot (.5x) ........................................
 72
    65
 73
     2
 40
0.635
 49
0.0
 74
     0
 49
-0.635
 74
     0
  0
ENDTAB
  0
TABLE
  2
LAYER
  5
2
330
0
100
AcDbSymbolTable
 70
     6
  0
LAYER
  5
10
330
2
100
AcDbSymbolTableRecord
100
AcDbLayerTableRecord
  2
0
 70
     0
 62
     7
  6
Continuous
370
    -3
390
F
  0
LAYER
  5
73
330
2
100
AcDbSymbolTableRecord
100
AcDbLayerTableRecord
  2
SLD-0
 70
     0
 62
     7
  6
Continuous
370
    -3
390
F
  0
LAYER
  5
74
330
2
100
AcDbSymbolTableRecord
100
AcDbLayerTableRecord
  2
8
 70
     0
 62
     7
  6
Continuous
370
    15
390
F
  0
LAYER
  5
75
330
2
100
AcDbSymbolTableRecord
100
AcDbLayerTableRecord
  2
9
 70
     0
 62
     7
  6
Continuous
370
    -3
390
F
  0
LAYER
  5
76
330
2
100
AcDbSymbolTableRecord
100
AcDbLayerTableRecord
  2
10
 70
     0
 62
     1
  6
Continuous
370
    -3
390
F
  0
LAYER
  5
77
330
2
100
AcDbSymbolTableRecord
100
AcDbLayerTableRecord
  2
11
 70
     0
 62
     7
  6
Continuous
370
    -3
390
F
  0
ENDTAB
  0
TABLE
  2
STYLE
  5
3
330
0
100
AcDbSymbolTable
 70
     2
  0
STYLE
  5
11
330
3
100
AcDbSymbolTableRecord
100
AcDbTextStyleTableRecord
  2
Standard
 70
     0
 40
0.0
 41
1.0
 50
0.0
 71
     0
 42
3.8805555556
  3
txt
  4
bigfont
  0
STYLE
  5
78
330
3
100
AcDbSymbolTableRecord
100
AcDbTextStyleTableRecord
  2
SLDTEXTSTYLE0
 70
     0
 40
0.0
 41
0.7
 50
0.0
 71
     0
 42
3.8805555556
  3
TXT
  4
bigfont
  0
ENDTAB
  0
TABLE
  2
VIEW
  5
6
330
0
100
AcDbSymbolTable
 70
     0
  0
ENDTAB
  0
TABLE
  2
UCS
  5
7
330
0
100
AcDbSymbolTable
 70
     0
  0
ENDTAB
  0
TABLE
  2
APPID
  5
9
330
0
100
AcDbSymbolTable
 70
     1
  0
APPID
  5
12
330
9
100
AcDbSymbolTableRecord
100
AcDbRegAppTableRecord
  2
ACAD
 70
     0
  0
ENDTAB
  0
TABLE
  2
DIMSTYLE
  5
A
330
0
100
AcDbSymbolTable
 70
     1
100
AcDbDimStyleTable
  0
DIMSTYLE
105
27
330
A
100
AcDbSymbolTableRecord
100
AcDbDimStyleTableRecord
  2
ISO-25
 70
     0
 41
2.5
 42
0.625
 43
3.75
 44
1.25
 73
     0
 74
     0
 77
     1
 78
     8
140
2.5
141
2.5
143
0.0393700787
147
0.625
171
     3
172
     1
178
     0
271
     2
272
     2
274
     3
278
    44
283
     0
284
     8
340
11
  0
ENDTAB
  0
TABLE
  2
BLOCK_RECORD
  5
1
330
0
100
AcDbSymbolTable
 70
     1
  0
BLOCK_RECORD
  5
1F
330
1
100
AcDbSymbolTableRecord
100
AcDbBlockTableRecord
  2
*Model_Space
340
22
  0
BLOCK_RECORD
  5
1B
330
1
100
AcDbSymbolTableRecord
100
AcDbBlockTableRecord
  2
*Paper_Space
340
1E
  0
BLOCK_RECORD
  5
23
330
1
100
AcDbSymbolTableRecord
100
AcDbBlockTableRecord
  2
*Paper_Space0
340
26
  0
ENDTAB
  0
ENDSEC
  0
SECTION
  2
BLOCKS
  0
BLOCK
  5
20
330
1F
100
AcDbEntity
  8
0
100
AcDbBlockBegin
  2
*Model_Space
 70
     0
 10
0.0
 20
0.0
 30
0.0
  3
*Model_Space
  1

  0
ENDBLK
  5
21
330
1F
100
AcDbEntity
  8
0
100
AcDbBlockEnd
  0
BLOCK
  5
1C
330
1B
100
AcDbEntity
 67
     1
  8
0
100
AcDbBlockBegin
  2
*Paper_Space
 70
     0
 10
0.0
 20
0.0
 30
0.0
  3
*Paper_Space
  1

  0
ENDBLK
  5
1D
330
1B
100
AcDbEntity
 67
     1
  8
0
100
AcDbBlockEnd
  0
BLOCK
  5
24
330
23
100
AcDbEntity
  8
0
100
AcDbBlockBegin
  2
*Paper_Space0
 70
     0
 10
0.0
 20
0.0
 30
0.0
  3
*Paper_Space0
  1

  0
ENDBLK
  5
25
330
23
100
AcDbEntity
  8
0
100
AcDbBlockEnd
  0
ENDSEC
  0
SECTION
  2
ENTITIES
  0
MTEXT
  5
79
330
1F
100
AcDbEntity
  8
9
 62
     7
100
AcDbMText
 10
22.9810592731
 20
14.7698939359
 30
0.0
 40
3.7041666667
 41
0.0
 71
     1
 72
     1
  1
2013/05/15
  7
SLDTEXTSTYLE0
 73
     1
 44
1.0
  0
MTEXT
  5
7A
330
1F
100
AcDbEntity
  8
9
 62
     7
100
AcDbMText
 10
22.9810592731
 20
39.3097759652
 30
0.0
 40
3.7041666667
 41
0.0
 71
     1
 72
     1
  1
ZL-3301
  7
SLDTEXTSTYLE0
 73
     1
 44
1.0
  0
MTEXT
  5
7B
330
1F
100
AcDbEntity
  8
9
 62
     7
100
AcDbMText
 10
22.9810592731
 20
22.271836236
 30
0.0
 40
3.7041666667
 41
0.0
 71
     1
 72
     1
  1
2019/05/08
  7
SLDTEXTSTYLE0
 73
     1
 44
1.0
  0
MTEXT
  5
7C
330
1F
100
AcDbEntity
  8
9
 62
     7
100
AcDbMText
 10
22.9810592731
 20
30.9293045781
 30
0.0
 40
3.7041666667
 41
0.0
 71
     1
 72
     1
  1
1:1
  7
SLDTEXTSTYLE0
 73
     1
 44
1.0
  0
LINE
  5
7D
330
1F
100
AcDbEntity
  8
0
  6
Continuous
 62
     7
370
    30
100
AcDbLine
 10
294.9175938338
 20
128.6574130171
 30
0.0
 11
296.4175938338
 21
131.6574130171
 31
0.0
  0
LINE
  5
7E
330
1F
100
AcDbEntity
  8
0
  6
Continuous
 62
     7
370
    30
100
AcDbLine
 10
296.4175938338
 20
157.6574130171
 30
0.0
 11
294.9175938338
 21
160.6574130171
 31
0.0
  0
LINE
  5
7F
330
1F
100
AcDbEntity
  8
0
  6
Continuous
 62
     7
370
    30
100
AcDbLine
 10
294.9175938338
 20
160.6574130171
 30
0.0
 11
287.7175938338
 21
160.6574130171
 31
0.0
  0
LINE
  5
80
330
1F
100
AcDbEntity
  8
0
  6
Continuous
 62
     7
370
    30
100
AcDbLine
 10
287.7175938338
 20
128.6574130171
 30
0.0
 11
294.9175938338
 21
128.6574130171
 31
0.0
  0
LINE
  5
81
330
1F
100
AcDbEntity
  8
0
  6
Continuous
 62
     7
370
    30
100
AcDbLine
 10
287.7175938338
 20
160.6574130171
 30
0.0
 11
286.7175938338
 21
158.6574130171
 31
0.0
  0
LINE
  5
82
330
1F
100
AcDbEntity
  8
0
  6
Continuous
 62
     7
370
    30
100
AcDbLine
 10
286.7175938338
 20
130.6574130171
 30
0.0
 11
287.7175938338
 21
128.6574130171
 31
0.0
  0
LINE
  5
83
330
1F
100
AcDbEntity
  8
0
  6
Continuous
 62
     7
370
    30
100
AcDbLine
 10
286.7175938338
 20
150.1574130171
 30
0.0
 11
166.7175938338
 21
150.1574130171
 31
0.0
  0
LINE
  5
84
330
1F
100
AcDbEntity
  8
0
  6
Continuous
 62
     7
370
    30
100
AcDbLine
 10
166.7175938338
 20
139.1574130171
 30
0.0
 11
286.7175938338
 21
139.1574130171
 31
0.0
  0
LINE
  5
85
330
1F
100
AcDbEntity
  8
0
  6
Continuous
 62
     7
370
    30
100
AcDbLine
 10
139.6175938338
 20
128.6574130171
 30
0.0
 11
165.2175938338
 21
128.6574130171
 31
0.0
  0
LINE
  5
86
330
1F
100
AcDbEntity
  8
0
  6
Continuous
 62
     7
370
    30
100
AcDbLine
 10
139.9175938338
 20
160.6574130171
 30
0.0
 11
139.6175938338
 21
160.6574130171
 31
0.0
  0
LINE
  5
87
330
1F
100
AcDbEntity
  8
0
  6
Continuous
 62
     7
370
    30
100
AcDbLine
 10
165.2175938338
 20
160.6574130171
 30
0.0
 11
164.9175938338
 21
160.6574130171
 31
0.0
  0
LINE
  5
88
330
1F
100
AcDbEntity
  8
0
  6
Continuous
 62
     7
370
    30
100
AcDbLine
 10
139.6175938338
 20
160.6574130171
 30
0.0
 11
138.1175938338
 21
157.6574130171
 31
0.0
  0
LINE
  5
89
330
1F
100
AcDbEntity
  8
0
  6
Continuous
 62
     7
370
    30
100
AcDbLine
 10
138.1175938338
 20
131.6574130171
 30
0.0
 11
139.6175938338
 21
128.6574130171
 31
0.0
  0
LINE
  5
8A
330
1F
100
AcDbEntity
  8
0
  6
Continuous
 62
     7
370
    30
100
AcDbLine
 10
165.2175938338
 20
128.6574130171
 30
0.0
 11
166.7175938338
 21
131.6574130171
 31
0.0
  0
LINE
  5
8B
330
1F
100
AcDbEntity
  8
0
  6
Continuous
 62
     7
370
    30
100
AcDbLine
 10
166.7175938338
 20
157.6574130171
 30
0.0
 11
165.2175938338
 21
160.6574130171
 31
0.0
  0
SPLINE
  5
8C
330
1F
100
AcDbEntity
  8
0
  6
Continuous
 62
     7
370
    30
100
AcDbSpline
210
0.0
220
0.0
230
1.0
 70
     8
 71
     3
 72
    30
 73
    26
 74
     0
 42
0.000000001
 43
0.00000001
 40
0.0
 40
0.0
 40
0.0
 40
0.0
 40
0.0091038652890286
 40
0.0541803423287197
 40
0.0993696801035054
 40
0.1447842760225806
 40
0.1904552241068413
 40
0.2363773793953777
 40
0.282519306386587
 40
0.3288367603493591
 40
0.3752849249203903
 40
0.4218264640844979
 40
0.468434785713454
 40
0.5150935098061891
 40
0.5617935766975758
 40
0.6085275731980629
 40
0.655286538966441
 40
0.7020539257607866
 40
0.7488009397426066
 40
0.7954837622400414
 40
0.8420441508230228
 40
0.8884154295765488
 40
0.93453473903587
 40
0.980359583714638
 40
1.0
 40
1.0
 40
1.0
 40
1.0
 10
140.2656397555027
 20
142.9624254978141
 30
0.0
 10
140.287733901312
 20
142.8759196074553
 30
0.0
 10
140.4192240261547
 20
142.3610922671676
 30
0.0
 10
140.7918821160208
 20
141.4478085245254
 30
0.0
 10
141.4412282260273
 20
140.2596133625294
 30
0.0
 10
142.2632405769368
 20
139.1512533690821
 30
0.0
 10
143.2362436753826
 20
138.1360486553896
 30
0.0
 10
144.3495509531704
 20
137.2297868429602
 30
0.0
 10
145.5862632212417
 20
136.4463171245296
 30
0.0
 10
146.9281407792972
 20
135.7980223613506
 30
0.0
 10
148.3547635373421
 20
135.2951514130619
 30
0.0
 10
149.8443911626783
 20
134.9456518902731
 30
0.0
 10
151.3743689251126
 20
134.7550720733406
 30
0.0
 10
152.9215661126183
 20
134.7265899227975
 30
0.0
 10
154.4626715970624
 20
134.8610750896331
 30
0.0
 10
155.9744439561221
 20
135.1571376054766
 30
0.0
 10
157.4338996422059
 20
135.6111385369568
 30
0.0
 10
158.8185415574258
 20
136.217142356608
 30
0.0
 10
160.1065019429984
 20
136.9668321905653
 30
0.0
 10
161.2772094313044
 20
137.8493040946
 30
0.0
 10
162.3106384750907
 20
138.8512420022517
 30
0.0
 10
163.1924811703211
 20
139.9559410667578
 30
0.0
 10
163.8979348113246
 20
141.1473436437269
 30
0.0
 10
164.3499699874845
 20
142.1614743101218
 30
0.0
 10
164.5136709954956
 20
142.7827538489034
 30
0.0
 10
164.5627833933738
 20
142.969145663303
 30
0.0
  0
ARC
  5
8D
330
1F
100
AcDbEntity
  8
0
  6
Continuous
 62
     7
370
    30
100
AcDbCircle
 10
152.4175938338
 20
160.6574130171
 30
0.0
 40
25.0
100
AcDbArc
 50
335.1654125103
 51
180.0
  0
ARC
  5
8E
330
1F
100
AcDbEntity
  8
0
  6
Continuous
 62
     7
370
    30
100
AcDbCircle
 10
152.4175938338
 20
160.6574130171
 30
0.0
 40
25.0
100
AcDbArc
 50
180.0
 51
235.1101900814
  0
ARC
  5
8F
330
1F
100
AcDbEntity
  8
0
  6
Continuous
 62
     7
370
    30
100
AcDbCircle
 10
152.4175938338
 20
160.6574130171
 30
0.0
 40
16.50000000000003
100
AcDbArc
 50
330.0735651334
 51
180.0
  0
ARC
  5
90
330
1F
100
AcDbEntity
  8
0
  6
Continuous
 62
     7
370
    30
100
AcDbCircle
 10
152.4175938338
 20
160.6574130171
 30
0.0
 40
16.50000000000003
100
AcDbArc
 50
180.0
 51
209.9264348666
  0
ARC
  5
91
330
1F
100
AcDbEntity
  8
0
  6
Continuous
 62
     7
370
    30
100
AcDbCircle
 10
152.4175938338
 20
160.6574130171
 30
0.0
 40
27.80000000000003
100
AcDbArc
 50
337.8088456126
 51
180.0
  0
LWPOLYLINE
  5
92
330
1F
100
AcDbEntity
  8
0
  6
Continuous
 62
     7
370
    30
100
AcDbPolyline
 90
        3
 70
   128
 43
0.0
 10
170.0411576051
 20
139.1574130171
 10
168.3630187644
 20
137.8849861859
 10
166.7175938338
 20
136.8173207354
  0
ARC
  5
93
330
1F
100
AcDbEntity
  8
0
  6
Continuous
 62
     7
370
    30
100
AcDbCircle
 10
152.4175938338
 20
160.6574130171
 30
0.0
 40
27.80000000000003
100
AcDbArc
 50
180.0
 51
239.0434104903
  0
ARC
  5
94
330
1F
100
AcDbEntity
  8
0
  6
Continuous
 62
     7
370
    30
100
AcDbCircle
 10
152.4175938338
 20
160.6574130171
 30
0.0
 40
15.70000000000002
100
AcDbArc
 50
0.0
 51
204.3799695318
  0
ARC
  5
95
330
1F
100
AcDbEntity
  8
0
  6
Continuous
 62
     7
370
    30
100
AcDbCircle
 10
152.4175938338
 20
160.6574130171
 30
0.0
 40
15.70000000000002
100
AcDbArc
 50
335.6200304682
 51
0.0
  0
ARC
  5
96
330
1F
100
AcDbEntity
  8
0
  6
Continuous
 62
     7
370
    30
100
AcDbCircle
 10
152.4175938338
 20
160.6574130171
 30
0.0
 40
16.00000000000002
100
AcDbArc
 50
333.3483199154
 51
0.0
  0
ARC
  5
97
330
1F
100
AcDbEntity
  8
0
  6
Continuous
 62
     7
370
    30
100
AcDbCircle
 10
152.4175938338
 20
160.6574130171
 30
0.0
 40
16.0
100
AcDbArc
 50
0.0
 51
206.6516800846
  0
LINE
  5
98
330
1F
100
AcDbEntity
  8
0
  6
Continuous
 62
     7
370
    30
100
AcDbLine
 10
294.9175938338
 20
129.2238853962
 30
0.0
 11
294.9175938338
 21
128.6574130171
 31
0.0
  0
LINE
  5
99
330
1F
100
AcDbEntity
  8
0
  6
Continuous
 62
     7
370
    30
100
AcDbLine
 10
294.9175938338
 20
160.6574130171
 30
0.0
 11
294.9175938338
 21
129.2238853962
 31
0.0
  0
LINE
  5
9A
330
1F
100
AcDbEntity
  8
0
  6
Continuous
 62
     7
370
    30
100
AcDbLine
 10
296.4175938338
 20
132.1176718251
 30
0.0
 11
296.4175938338
 21
131.6574130171
 31
0.0
  0
LINE
  5
9B
330
1F
100
AcDbEntity
  8
0
  6
Continuous
 62
     7
370
    30
100
AcDbLine
 10
296.4175938338
 20
157.6574130171
 30
0.0
 11
296.4175938338
 21
132.1176718251
 31
0.0
  0
LINE
  5
9C
330
1F
100
AcDbEntity
  8
0
  6
Continuous
 62
     7
370
    30
100
AcDbLine
 10
287.7175938338
 20
129.2238853962
 30
0.0
 11
287.7175938338
 21
128.6574130171
 31
0.0
  0
LINE
  5
9D
330
1F
100
AcDbEntity
  8
0
  6
Continuous
 62
     7
370
    30
100
AcDbLine
 10
287.7175938338
 20
160.6574130171
 30
0.0
 11
287.7175938338
 21
129.2238853962
 31
0.0
  0
LINE
  5
9E
330
1F
100
AcDbEntity
  8
0
  6
Continuous
 62
     7
370
    30
100
AcDbLine
 10
286.7175938338
 20
131.1530763488
 30
0.0
 11
286.7175938338
 21
130.6574130171
 31
0.0
  0
LINE
  5
9F
330
1F
100
AcDbEntity
  8
0
  6
Continuous
 62
     7
370
    30
100
AcDbLine
 10
286.7175938338
 20
158.6574130171
 30
0.0
 11
286.7175938338
 21
131.1530763488
 31
0.0
  0
LINE
  5
A0
330
1F
100
AcDbEntity
  8
0
  6
Continuous
 62
     7
370
    30
100
AcDbLine
 10
165.2175938338
 20
128.6574130171
 30
0.0
 11
165.2175938338
 21
160.6574130171
 31
0.0
  0
LINE
  5
A1
330
1F
100
AcDbEntity
  8
0
  6
Continuous
 62
     7
370
    30
100
AcDbLine
 10
139.6175938338
 20
160.6574130171
 30
0.0
 11
139.6175938338
 21
128.6574130171
 31
0.0
  0
LINE
  5
A2
330
1F
100
AcDbEntity
  8
0
  6
Continuous
 62
     7
370
    30
100
AcDbLine
 10
138.1175938338
 20
131.6574130171
 30
0.0
 11
138.1175938338
 21
157.6574130171
 31
0.0
  0
LINE
  5
A3
330
1F
100
AcDbEntity
  8
0
  6
Continuous
 62
     7
370
    30
100
AcDbLine
 10
166.7175938338
 20
157.6574130171
 30
0.0
 11
166.7175938338
 21
131.6574130171
 31
0.0
  0
LWPOLYLINE
  5
A4
330
1F
100
AcDbEntity
  8
0
  6
Continuous
 62
     7
370
    30
100
AcDbPolyline
 90
       19
 70
   128
 43
0.0
 10
145.4175938338
 20
151.8602609062
 10
145.5239395628
 20
150.8525348604
 10
145.8397454883
 20
149.8754280605
 10
146.3554160074
 20
148.9586294023
 10
147.055282732
 20
148.129995349
 10
147.918080566
 20
147.4147035271
 10
148.9175938338
 20
146.8344877166
 10
150.0234528306
 20
146.4069774812
 10
151.2020565902
 20
146.1451625033
 10
152.4175938338
 20
146.0569978983
 10
153.6331310775
 20
146.1451625033
 10
154.8117348371
 20
146.4069774812
 10
155.9175938338
 20
146.8344877166
 10
156.9171071017
 20
147.4147035271
 10
157.7799049357
 20
148.129995349
 10
158.4797716603
 20
148.9586294023
 10
158.9954421793
 20
149.8754280605
 10
159.3112481049
 20
150.8525348604
 10
159.4175938338
 20
151.8602609062
  0
LINE
  5
A5
330
1F
100
AcDbEntity
  8
0
  6
Continuous
 62
     7
370
    30
100
AcDbLine
 10
159.4175938338
 20
158.0780427004
 30
0.0
 11
159.4175938338
 21
151.8602609062
 31
0.0
  0
LINE
  5
A6
330
1F
100
AcDbEntity
  8
0
  6
Continuous
 62
     7
370
    30
100
AcDbLine
 10
145.4175938338
 20
158.0780427004
 30
0.0
 11
145.4175938338
 21
151.8602609062
 31
0.0
  0
LWPOLYLINE
  5
A7
330
1F
100
AcDbEntity
  8
0
  6
Continuous
 62
     7
370
    30
100
AcDbPolyline
 90
       25
 70
   128
 43
0.0
 10
164.9175938338
 20
149.4811119034
 10
164.810654601
 20
148.128472934
 10
164.4916666625
 20
146.7989779923
 10
163.9660879902
 20
145.5153751056
 10
163.2429113812
 20
144.2996270749
 10
162.3345105875
 20
143.1725356862
 10
161.2564285987
 20
142.1533857857
 10
160.0271116965
 20
141.2596153107
 10
158.6675938338
 20
140.5065169218
 10
157.2011367384
 20
139.9069763413
 10
155.6528318976
 20
139.4712518747
 10
154.0491712366
 20
139.2067988884
 10
152.4175938338
 20
139.1181422464
 10
150.7860164311
 20
139.2067988884
 10
149.1823557701
 20
139.4712518747
 10
147.6340509293
 20
139.9069763413
 10
146.1675938338
 20
140.5065169218
 10
144.8080759712
 20
141.2596153107
 10
143.578759069
 20
142.1533857857
 10
142.5006770802
 20
143.1725356862
 10
141.5922762865
 20
144.2996270749
 10
140.8690996775
 20
145.5153751056
 10
140.3435210052
 20
146.7989779923
 10
140.0245330667
 20
148.128472934
 10
139.9175938338
 20
149.4811119034
  0
SPLINE
  5
A8
330
1F
100
AcDbEntity
  8
0
  6
Continuous
 62
     7
370
    30
100
AcDbSpline
210
0.0
220
0.0
230
1.0
 70
     8
 71
     3
 72
     8
 73
     4
 74
     0
 42
0.000000001
 43
0.00000001
 40
0.0
 40
0.0
 40
0.0
 40
0.0
 40
1.0
 40
1.0
 40
1.0
 40
1.0
 10
164.6768405694449
 20
143.4259328080356
 30
0.0
 10
164.8282946546947
 20
144.3936297181336
 30
0.0
 10
164.9175938338461
 20
145.3652114195953
 30
0.0
 10
164.9175938338461
 20
146.3428689444274
 30
0.0
  0
SPLINE
  5
A9
330
1F
100
AcDbEntity
  8
0
  6
Continuous
 62
     7
370
    30
100
AcDbSpline
210
0.0
220
0.0
230
1.0
 70
     8
 71
     3
 72
     8
 73
     4
 74
     0
 42
0.000000001
 43
0.00000001
 40
0.0
 40
0.0
 40
0.0
 40
0.0
 40
1.0
 40
1.0
 40
1.0
 40
1.0
 10
139.917593833846
 20
146.3428689444275
 30
0.0
 10
139.917593833846
 20
145.3652114195954
 30
0.0
 10
140.0068930129974
 20
144.3936297181337
 30
0.0
 10
140.1583470982472
 20
143.4259328080356
 30
0.0
  0
LINE
  5
AA
330
1F
100
AcDbEntity
  8
0
  6
Continuous
 62
     7
370
    30
100
AcDbLine
 10
139.9175938338
 20
149.4811119034
 30
0.0
 11
139.9175938338
 21
146.3428689444
 31
0.0
  0
LINE
  5
AB
330
1F
100
AcDbEntity
  8
0
  6
Continuous
 62
     7
370
    30
100
AcDbLine
 10
164.9175938338
 20
146.3428689444
 30
0.0
 11
164.9175938338
 21
149.4811119034
 31
0.0
  0
LINE
  5
AC
330
1F
100
AcDbEntity
  8
0
  6
Continuous
 62
     7
370
    30
100
AcDbLine
 10
140.1583470982
 20
143.425932808
 30
0.0
 11
140.2820251658
 21
142.9668242054
 31
0.0
  0
LINE
  5
AD
330
1F
100
AcDbEntity
  8
0
  6
Continuous
 62
     7
370
    30
100
AcDbLine
 10
164.5386313539
 20
142.9767229881
 30
0.0
 11
164.6768405694
 21
143.425932808
 31
0.0
  0
LINE
  5
AE
330
1F
100
AcDbEntity
  8
0
  6
Continuous
 62
     7
370
    30
100
AcDbLine
 10
164.9175938338
 20
155.6988936975
 30
0.0
 11
164.9175938338
 21
149.4811119034
 31
0.0
  0
LINE
  5
AF
330
1F
100
AcDbEntity
  8
0
  6
Continuous
 62
     7
370
    30
100
AcDbLine
 10
139.9175938338
 20
149.4811119034
 30
0.0
 11
139.9175938338
 21
155.6988936975
 31
0.0
  0
LINE
  5
B0
330
1F
100
AcDbEntity
  8
0
  6
Continuous
 62
     7
370
    30
100
AcDbLine
 10
145.4175938338
 20
168.6574130171
 30
0.0
 11
145.4175938338
 21
158.0780427004
 31
0.0
  0
LINE
  5
B1
330
1F
100
AcDbEntity
  8
0
  6
Continuous
 62
     7
370
    30
100
AcDbLine
 10
145.4175938338
 20
168.6574130171
 30
0.0
 11
140.123507985
 21
164.8071687634
 31
0.0
  0
LINE
  5
B2
330
1F
100
AcDbEntity
  8
0
  6
Continuous
 62
     7
370
    30
100
AcDbLine
 10
159.4175938338
 20
168.6574130171
 30
0.0
 11
159.4175938338
 21
158.0780427004
 31
0.0
  0
LINE
  5
B3
330
1F
100
AcDbEntity
  8
0
  6
Continuous
 62
     7
370
    30
100
AcDbLine
 10
164.7116796827
 20
164.8071687634
 30
0.0
 11
159.4175938338
 21
168.6574130171
 31
0.0
  0
LINE
  5
B4
330
1F
100
AcDbEntity
  8
0
  6
Continuous
 62
     7
370
    30
100
AcDbLine
 10
159.4175938338
 20
168.6574130171
 30
0.0
 11
145.4175938338
 21
168.6574130171
 31
0.0
  0
ARC
  5
B5
330
1F
100
AcDbEntity
  8
0
  6
Continuous
 62
     7
370
    30
100
AcDbCircle
 10
164.4175938338
 20
164.4028007212
 30
0.0
 40
0.5000000000000053
100
AcDbArc
 50
0.0
 51
53.9726266149
  0
LINE
  5
B6
330
1F
100
AcDbEntity
  8
0
  6
Continuous
 62
     7
370
    30
100
AcDbLine
 10
164.9175938338
 20
164.4028007212
 30
0.0
 11
164.9175938338
 21
155.6988936975
 31
0.0
  0
ARC
  5
B7
330
1F
100
AcDbEntity
  8
0
  6
Continuous
 62
     7
370
    30
100
AcDbCircle
 10
140.4175938338
 20
164.4028007212
 30
0.0
 40
0.5
100
AcDbArc
 50
126.0273733851
 51
180.0
  0
LINE
  5
B8
330
1F
100
AcDbEntity
  8
0
  6
Continuous
 62
     7
370
    30
100
AcDbLine
 10
139.9175938338
 20
155.6988936975
 30
0.0
 11
139.9175938338
 21
164.4028007212
 31
0.0
  0
LINE
  5
B9
330
1F
100
AcDbEntity
  8
0
  6
Continuous
 62
     7
370
    30
100
AcDbLine
 10
9.6823759544
 20
132.8574130171
 30
0.0
 11
11.1823759544
 21
132.8574130171
 31
0.0
  0
LINE
  5
BA
330
1F
100
AcDbEntity
  8
0
  6
Continuous
 62
     7
370
    30
100
AcDbLine
 10
11.1823759544
 20
188.4574130171
 30
0.0
 11
7.1823759544
 21
188.4574130171
 31
0.0
  0
LINE
  5
BB
330
1F
100
AcDbEntity
  8
0
  6
Continuous
 62
     7
370
    30
100
AcDbLine
 10
11.1823759544
 20
132.8574130171
 30
0.0
 11
12.1823759544
 21
135.6574130171
 31
0.0
  0
LINE
  5
BC
330
1F
100
AcDbEntity
  8
0
  6
Continuous
 62
     7
370
    30
100
AcDbLine
 10
12.1823759544
 20
185.6574130171
 30
0.0
 11
11.1823759544
 21
188.4574130171
 31
0.0
  0
LINE
  5
BD
330
1F
100
AcDbEntity
  8
0
  6
Continuous
 62
     7
370
    30
100
AcDbLine
 10
12.1823759544
 20
138.7453600123
 30
0.0
 11
12.1948759544
 21
138.7453600123
 31
0.0
  0
LINE
  5
BE
330
1F
100
AcDbEntity
  8
0
  6
Continuous
 62
     7
370
    30
100
AcDbLine
 10
12.1948759544
 20
141.654952597
 30
0.0
 11
12.1823759544
 21
141.654952597
 31
0.0
  0
LINE
  5
BF
330
1F
100
AcDbEntity
  8
0
  6
Continuous
 62
     7
370
    30
100
AcDbLine
 10
12.1823759544
 20
144.6574130171
 30
0.0
 11
12.3823759544
 21
144.6574130171
 31
0.0
  0
LINE
  5
C0
330
1F
100
AcDbEntity
  8
0
  6
Continuous
 62
     7
370
    30
100
AcDbLine
 10
12.3823759544
 20
176.6574130171
 30
0.0
 11
12.1823759544
 21
176.6574130171
 31
0.0
  0
LINE
  5
C1
330
1F
100
AcDbEntity
  8
0
  6
Continuous
 62
     7
370
    30
100
AcDbLine
 10
12.3823759544
 20
144.6574130171
 30
0.0
 11
12.6823759544
 21
144.9574130171
 31
0.0
  0
LINE
  5
C2
330
1F
100
AcDbEntity
  8
0
  6
Continuous
 62
     7
370
    30
100
AcDbLine
 10
12.6823759544
 20
176.3574130171
 30
0.0
 11
12.3823759544
 21
176.6574130171
 31
0.0
  0
LINE
  5
C3
330
1F
100
AcDbEntity
  8
0
  6
Continuous
 62
     7
370
    30
100
AcDbLine
 10
99.7595614369
 20
135.0870494244
 30
0.0
 11
105.7359023152
 21
139.1181422464
 31
0.0
  0
ARC
  5
C4
330
1F
100
AcDbEntity
  8
0
  6
Continuous
 62
     7
370
    30
100
AcDbCircle
 10
98.64117563
 20
136.7451245695
 30
0.0
 40
2.000000000000039
100
AcDbArc
 50
241.1628884222
 51
304.0
  0
ARC
  5
C5
330
1F
100
AcDbEntity
  8
0
  6
Continuous
 62
     7
370
    30
100
AcDbCircle
 10
105.4563058635
 20
139.5326610327
 30
0.0
 40
0.4999999999999977
100
AcDbArc
 50
304.0
 51
357.9726266149
  0
LINE
  5
C6
330
1F
100
AcDbEntity
  8
0
  6
Continuous
 62
     7
370
    30
100
AcDbLine
 10
105.9559928833
 20
139.514972554
 30
0.0
 11
106.1875747961
 21
146.0569978983
 31
0.0
  0
LINE
  5
C7
330
1F
100
AcDbEntity
  8
0
  6
Continuous
 62
     7
370
    30
100
AcDbLine
 10
12.6823759544
 20
152.6574130171
 30
0.0
 11
64.3259694939
 21
152.6574130171
 31
0.0
  0
ARC
  5
C8
330
1F
100
AcDbEntity
  8
0
  6
Continuous
 62
     7
370
    30
100
AcDbCircle
 10
109.7345626248
 20
156.8929970375
 30
0.0
 40
25.00000000000003
100
AcDbArc
 50
227.6895300105
 51
241.1628884222
  0
LINE
  5
C9
330
1F
100
AcDbEntity
  8
0
  6
Continuous
 62
     7
370
    30
100
AcDbLine
 10
11.1823759544
 20
160.6574130171
 30
0.0
 11
11.1823759544
 21
188.4574130171
 31
0.0
  0
LINE
  5
CA
330
1F
100
AcDbEntity
  8
0
  6
Continuous
 62
     7
370
    30
100
AcDbLine
 10
11.1823759544
 20
132.8574130171
 30
0.0
 11
11.1823759544
 21
160.6574130171
 31
0.0
  0
LINE
  5
CB
330
1F
100
AcDbEntity
  8
0
  6
Continuous
 62
     7
370
    30
100
AcDbLine
 10
9.6823759544
 20
133.0197575449
 30
0.0
 11
9.6823759544
 21
132.8574130171
 31
0.0
  0
LINE
  5
CC
330
1F
100
AcDbEntity
  8
0
  6
Continuous
 62
     7
370
    30
100
AcDbLine
 10
9.6823759544
 20
133.0197575449
 30
0.0
 11
7.1823759544
 21
133.0197575449
 31
0.0
  0
LINE
  5
CD
330
1F
100
AcDbEntity
  8
0
  6
Continuous
 62
     7
370
    30
100
AcDbLine
 10
7.1823759544
 20
133.0197575449
 30
0.0
 11
7.1823759544
 21
133.3107496009
 31
0.0
  0
LINE
  5
CE
330
1F
100
AcDbEntity
  8
0
  6
Continuous
 62
     7
370
    30
100
AcDbLine
 10
7.1823759544
 20
133.3107496009
 30
0.0
 11
6.1823759544
 21
133.3107496009
 31
0.0
  0
LINE
  5
CF
330
1F
100
AcDbEntity
  8
0
  6
Continuous
 62
     7
370
    30
100
AcDbLine
 10
7.1823759544
 20
188.385377241
 30
0.0
 11
6.1823759544
 21
188.385377241
 31
0.0
  0
LINE
  5
D0
330
1F
100
AcDbEntity
  8
0
  6
Continuous
 62
     7
370
    30
100
AcDbLine
 10
7.1823759544
 20
188.385377241
 30
0.0
 11
7.1823759544
 21
188.4574130171
 31
0.0
  0
LINE
  5
D1
330
1F
100
AcDbEntity
  8
0
  6
Continuous
 62
     7
370
    30
100
AcDbLine
 10
6.1823759544
 20
133.3107496009
 30
0.0
 11
6.1823759544
 21
188.385377241
 31
0.0
  0
LINE
  5
D2
330
1F
100
AcDbEntity
  8
0
  6
Continuous
 62
     7
370
    30
100
AcDbLine
 10
12.1823759544
 20
160.6574130171
 30
0.0
 11
12.1823759544
 21
185.6574130171
 31
0.0
  0
LINE
  5
D3
330
1F
100
AcDbEntity
  8
0
  6
Continuous
 62
     7
370
    30
100
AcDbLine
 10
12.1823759544
 20
135.6574130171
 30
0.0
 11
12.1823759544
 21
160.6574130171
 31
0.0
  0
LINE
  5
D4
330
1F
100
AcDbEntity
  8
0
  6
Continuous
 62
     7
370
    30
100
AcDbLine
 10
6.1823759544
 20
133.2712394983
 30
0.0
 11
7.1823759544
 21
133.2712394983
 31
0.0
  0
LINE
  5
D5
330
1F
100
AcDbEntity
  8
0
  6
Continuous
 62
     7
370
    30
100
AcDbLine
 10
6.1823759544
 20
133.3107496009
 30
0.0
 11
6.1823759544
 21
133.2712394983
 31
0.0
  0
LINE
  5
D6
330
1F
100
AcDbEntity
  8
0
  6
Continuous
 62
     7
370
    30
100
AcDbLine
 10
12.3823759544
 20
144.6574130171
 30
0.0
 11
12.3823759544
 21
176.6574130171
 31
0.0
  0
LINE
  5
D7
330
1F
100
AcDbEntity
  8
0
  6
Continuous
 62
     7
370
    30
100
AcDbLine
 10
12.6823759544
 20
176.3574130171
 30
0.0
 11
12.6823759544
 21
144.9574130171
 31
0.0
  0
CIRCLE
  5
D8
330
1F
100
AcDbEntity
  8
0
  6
Continuous
 62
     7
370
    30
100
AcDbCircle
 10
78.1823759544
 20
144.6574130171
 30
0.0
 40
16.00000000000001
  0
CIRCLE
  5
D9
330
1F
100
AcDbEntity
  8
0
  6
Continuous
 62
     7
370
    30
100
AcDbCircle
 10
78.1823759544
 20
144.6574130171
 30
0.0
 40
12.99999999999999
  0
LINE
  5
DA
330
1F
100
AcDbEntity
  8
0
  6
Continuous
 62
     7
370
    30
100
AcDbLine
 10
94.0933545012
 20
146.3428689444
 30
0.0
 11
94.1324357804
 21
143.5998434503
 31
0.0
  0
LINE
  5
DB
330
1F
100
AcDbEntity
  8
0
  6
Continuous
 62
     7
370
    30
100
AcDbLine
 10
78.1823759544
 20
168.6574130171
 30
0.0
 11
12.6823759544
 21
168.6574130171
 31
0.0
  0
ARC
  5
DC
330
1F
100
AcDbEntity
  8
0
  6
Continuous
 62
     7
370
    30
100
AcDbCircle
 10
78.1823759544
 20
144.6574130171
 30
0.0
 40
24.00000000000001
100
AcDbArc
 50
34.0
 51
90.0
  0
LINE
  5
DD
330
1F
100
AcDbEntity
  8
0
  6
Continuous
 62
     7
370
    30
100
AcDbLine
 10
102.2732244718
 20
151.8602609062
 30
0.0
 11
106.1875747961
 21
146.0569978983
 31
0.0
  0
LINE
  5
DE
330
1F
100
AcDbEntity
  8
0
  6
Continuous
 62
     7
370
    30
100
AcDbLine
 10
98.0792776957
 20
158.0780427004
 30
0.0
 11
102.2732244718
 21
151.8602609062
 31
0.0
  0
LINE
  5
DF
330
1F
100
AcDbEntity
  8
0
  6
Continuous
 62
     7
370
    30
100
AcDbLine
 10
412.3100210148
 20
188.4574130171
 30
0.0
 11
408.3100210148
 21
188.4574130171
 31
0.0
  0
LINE
  5
E0
330
1F
100
AcDbEntity
  8
0
  6
Continuous
 62
     7
370
    30
100
AcDbLine
 10
408.3100210148
 20
132.8574130171
 30
0.0
 11
409.8100210148
 21
132.8574130171
 31
0.0
  0
LINE
  5
E1
330
1F
100
AcDbEntity
  8
0
  6
Continuous
 62
     7
370
    30
100
AcDbLine
 10
408.3100210148
 20
188.4574130171
 30
0.0
 11
407.3100210148
 21
185.6574130171
 31
0.0
  0
LINE
  5
E2
330
1F
100
AcDbEntity
  8
0
  6
Continuous
 62
     7
370
    30
100
AcDbLine
 10
407.3100210148
 20
135.6574130171
 30
0.0
 11
408.3100210148
 21
132.8574130171
 31
0.0
  0
LINE
  5
E3
330
1F
100
AcDbEntity
  8
0
  6
Continuous
 62
     7
370
    30
100
AcDbLine
 10
407.3100210148
 20
141.654952597
 30
0.0
 11
407.2975210148
 21
141.654952597
 31
0.0
  0
LINE
  5
E4
330
1F
100
AcDbEntity
  8
0
  6
Continuous
 62
     7
370
    30
100
AcDbLine
 10
407.2975210148
 20
138.7453600123
 30
0.0
 11
407.3100210148
 21
138.7453600123
 31
0.0
  0
LINE
  5
E5
330
1F
100
AcDbEntity
  8
0
  6
Continuous
 62
     7
370
    30
100
AcDbLine
 10
407.3100210148
 20
176.6574130171
 30
0.0
 11
407.1100210148
 21
176.6574130171
 31
0.0
  0
LINE
  5
E6
330
1F
100
AcDbEntity
  8
0
  6
Continuous
 62
     7
370
    30
100
AcDbLine
 10
407.1100210148
 20
144.6574130171
 30
0.0
 11
407.3100210148
 21
144.6574130171
 31
0.0
  0
LINE
  5
E7
330
1F
100
AcDbEntity
  8
0
  6
Continuous
 62
     7
370
    30
100
AcDbLine
 10
407.1100210148
 20
176.6574130171
 30
0.0
 11
406.8100210148
 21
176.3574130171
 31
0.0
  0
LINE
  5
E8
330
1F
100
AcDbEntity
  8
0
  6
Continuous
 62
     7
370
    30
100
AcDbLine
 10
406.8100210148
 20
144.9574130171
 30
0.0
 11
407.1100210148
 21
144.6574130171
 31
0.0
  0
LINE
  5
E9
330
1F
100
AcDbEntity
  8
0
  6
Continuous
 62
     7
370
    30
100
AcDbLine
 10
313.7564946539
 20
139.1181422464
 30
0.0
 11
319.7328355323
 21
135.0870494244
 31
0.0
  0
ARC
  5
EA
330
1F
100
AcDbEntity
  8
0
  6
Continuous
 62
     7
370
    30
100
AcDbCircle
 10
314.0360911057
 20
139.5326610327
 30
0.0
 40
0.5000000000000545
100
AcDbArc
 50
182.0273733851
 51
236.0
  0
ARC
  5
EB
330
1F
100
AcDbEntity
  8
0
  6
Continuous
 62
     7
370
    30
100
AcDbCircle
 10
320.8512213392
 20
136.7451245695
 30
0.0
 40
2.000000000000039
100
AcDbArc
 50
236.0
 51
298.8371115778
  0
LINE
  5
EC
330
1F
100
AcDbEntity
  8
0
  6
Continuous
 62
     7
370
    30
100
AcDbLine
 10
313.3048221731
 20
146.0569978983
 30
0.0
 11
313.5364040859
 21
139.514972554
 31
0.0
  0
LINE
  5
ED
330
1F
100
AcDbEntity
  8
0
  6
Continuous
 62
     7
370
    30
100
AcDbLine
 10
355.1664274753
 20
152.6574130171
 30
0.0
 11
406.8100210148
 21
152.6574130171
 31
0.0
  0
ARC
  5
EE
330
1F
100
AcDbEntity
  8
0
  6
Continuous
 62
     7
370
    30
100
AcDbCircle
 10
309.7578343444
 20
156.8929970375
 30
0.0
 40
25.00000000000008
100
AcDbArc
 50
298.8371115778
 51
312.3114949481
  0
LINE
  5
EF
330
1F
100
AcDbEntity
  8
0
  6
Continuous
 62
     7
370
    30
100
AcDbLine
 10
408.3100210148
 20
188.4574130171
 30
0.0
 11
408.3100210148
 21
132.8574130171
 31
0.0
  0
LINE
  5
F0
330
1F
100
AcDbEntity
  8
0
  6
Continuous
 62
     7
370
    30
100
AcDbLine
 10
412.3100210148
 20
133.3107496009
 30
0.0
 11
413.3100210148
 21
133.3107496009
 31
0.0
  0
LINE
  5
F1
330
1F
100
AcDbEntity
  8
0
  6
Continuous
 62
     7
370
    30
100
AcDbLine
 10
412.3100210148
 20
133.3107496009
 30
0.0
 11
412.3100210148
 21
133.0197575449
 31
0.0
  0
LINE
  5
F2
330
1F
100
AcDbEntity
  8
0
  6
Continuous
 62
     7
370
    30
100
AcDbLine
 10
412.3100210148
 20
133.0197575449
 30
0.0
 11
409.8100210148
 21
133.0197575449
 31
0.0
  0
LINE
  5
F3
330
1F
100
AcDbEntity
  8
0
  6
Continuous
 62
     7
370
    30
100
AcDbLine
 10
409.8100210148
 20
132.8574130171
 30
0.0
 11
409.8100210148
 21
133.0197575449
 31
0.0
  0
LINE
  5
F4
330
1F
100
AcDbEntity
  8
0
  6
Continuous
 62
     7
370
    30
100
AcDbLine
 10
412.3100210148
 20
188.4574130171
 30
0.0
 11
412.3100210148
 21
188.385377241
 31
0.0
  0
LINE
  5
F5
330
1F
100
AcDbEntity
  8
0
  6
Continuous
 62
     7
370
    30
100
AcDbLine
 10
412.3100210148
 20
188.385377241
 30
0.0
 11
413.3100210148
 21
188.385377241
 31
0.0
  0
LINE
  5
F6
330
1F
100
AcDbEntity
  8
0
  6
Continuous
 62
     7
370
    30
100
AcDbLine
 10
413.3100210148
 20
188.385377241
 30
0.0
 11
413.3100210148
 21
133.3107496009
 31
0.0
  0
LINE
  5
F7
330
1F
100
AcDbEntity
  8
0
  6
Continuous
 62
     7
370
    30
100
AcDbLine
 10
407.3100210148
 20
185.6574130171
 30
0.0
 11
407.3100210148
 21
135.6574130171
 31
0.0
  0
LINE
  5
F8
330
1F
100
AcDbEntity
  8
0
  6
Continuous
 62
     7
370
    30
100
AcDbLine
 10
412.3100210148
 20
133.2712394983
 30
0.0
 11
413.3100210148
 21
133.2712394983
 31
0.0
  0
LINE
  5
F9
330
1F
100
AcDbEntity
  8
0
  6
Continuous
 62
     7
370
    30
100
AcDbLine
 10
413.3100210148
 20
133.2712394983
 30
0.0
 11
413.3100210148
 21
133.3107496009
 31
0.0
  0
LINE
  5
FA
330
1F
100
AcDbEntity
  8
0
  6
Continuous
 62
     7
370
    30
100
AcDbLine
 10
407.1100210148
 20
160.6574130171
 30
0.0
 11
407.1100210148
 21
144.6574130171
 31
0.0
  0
LINE
  5
FB
330
1F
100
AcDbEntity
  8
0
  6
Continuous
 62
     7
370
    30
100
AcDbLine
 10
407.1100210148
 20
176.6574130171
 30
0.0
 11
407.1100210148
 21
160.6574130171
 31
0.0
  0
LINE
  5
FC
330
1F
100
AcDbEntity
  8
0
  6
Continuous
 62
     7
370
    30
100
AcDbLine
 10
406.8100210148
 20
160.6574130171
 30
0.0
 11
406.8100210148
 21
176.3574130171
 31
0.0
  0
LINE
  5
FD
330
1F
100
AcDbEntity
  8
0
  6
Continuous
 62
     7
370
    30
100
AcDbLine
 10
406.8100210148
 20
144.9574130171
 30
0.0
 11
406.8100210148
 21
160.6574130171
 31
0.0
  0
CIRCLE
  5
FE
330
1F
100
AcDbEntity
  8
0
  6
Continuous
 62
     7
370
    30
100
AcDbCircle
 10
341.3100210148
 20
144.6574130171
 30
0.0
 40
16.00000000000001
  0
CIRCLE
  5
FF
330
1F
100
AcDbEntity
  8
0
  6
Continuous
 62
     7
370
    30
100
AcDbCircle
 10
341.3100210148
 20
144.6574130171
 30
0.0
 40
13.00000000000001
  0
LINE
  5
100
330
1F
100
AcDbEntity
  8
0
  6
Continuous
 62
     7
370
    30
100
AcDbLine
 10
341.3100210148
 20
168.6574130171
 30
0.0
 11
406.8100210148
 21
168.6574130171
 31
0.0
  0
ARC
  5
101
330
1F
100
AcDbEntity
  8
0
  6
Continuous
 62
     7
370
    30
100
AcDbCircle
 10
341.3100210148
 20
144.6574130171
 30
0.0
 40
24.00000000000002
100
AcDbArc
 50
90.0
 51
146.0
  0
LINE
  5
102
330
1F
100
AcDbEntity
  8
0
  6
Continuous
 62
     7
370
    30
100
AcDbLine
 10
313.3048221731
 20
146.0569978983
 30
0.0
 11
317.2191724974
 21
151.8602609062
 31
0.0
  0
LINE
  5
103
330
1F
100
AcDbEntity
  8
0
  6
Continuous
 62
     7
370
    30
100
AcDbLine
 10
321.4131192734
 20
158.0780427004
 30
0.0
 11
317.2191724974
 21
151.8602609062
 31
0.0
  0
LINE
  5
104
330
1F
100
AcDbEntity
  8
0
  6
Continuous
 62
     7
370
    30
100
AcDbLine
 10
124.6175938338
 20
314.4532379326
 30
0.0
 11
124.6175938338
 21
309.4532379326
 31
0.0
  0
LINE
  5
105
330
1F
100
AcDbEntity
  8
0
  6
Continuous
 62
     7
370
    30
100
AcDbLine
 10
180.2175938338
 20
309.4532379326
 30
0.0
 11
180.2175938338
 21
314.4532379326
 31
0.0
  0
LINE
  5
106
330
1F
100
AcDbEntity
  8
0
  6
Continuous
 62
     7
370
    30
100
AcDbLine
 10
124.6175938338
 20
309.4532379326
 30
0.0
 11
127.4175938338
 21
308.4532379326
 31
0.0
  0
LINE
  5
107
330
1F
100
AcDbEntity
  8
0
  6
Continuous
 62
     7
370
    30
100
AcDbLine
 10
177.4175938338
 20
308.4532379326
 30
0.0
 11
180.2175938338
 21
309.4532379326
 31
0.0
  0
LINE
  5
108
330
1F
100
AcDbEntity
  8
0
  6
Continuous
 62
     7
370
    30
100
AcDbLine
 10
136.4175938338
 20
308.4532379326
 30
0.0
 11
136.4175938338
 21
308.2532379326
 31
0.0
  0
LINE
  5
109
330
1F
100
AcDbEntity
  8
0
  6
Continuous
 62
     7
370
    30
100
AcDbLine
 10
168.4175938338
 20
308.2532379326
 30
0.0
 11
168.4175938338
 21
308.4532379326
 31
0.0
  0
LINE
  5
10A
330
1F
100
AcDbEntity
  8
0
  6
Continuous
 62
     7
370
    30
100
AcDbLine
 10
136.4175938338
 20
308.2532379326
 30
0.0
 11
136.7175938338
 21
307.9532379326
 31
0.0
  0
LINE
  5
10B
330
1F
100
AcDbEntity
  8
0
  6
Continuous
 62
     7
370
    30
100
AcDbLine
 10
168.1175938338
 20
307.9532379326
 30
0.0
 11
168.4175938338
 21
308.2532379326
 31
0.0
  0
LINE
  5
10C
330
1F
100
AcDbEntity
  8
0
  6
Continuous
 62
     7
370
    30
100
AcDbLine
 10
294.9175938338
 20
226.4532379326
 30
0.0
 11
296.4175938338
 21
229.4532379326
 31
0.0
  0
LINE
  5
10D
330
1F
100
AcDbEntity
  8
0
  6
Continuous
 62
     7
370
    30
100
AcDbLine
 10
296.4175938338
 20
255.4532379326
 30
0.0
 11
294.9175938338
 21
258.4532379326
 31
0.0
  0
LINE
  5
10E
330
1F
100
AcDbEntity
  8
0
  6
Continuous
 62
     7
370
    30
100
AcDbLine
 10
294.9175938338
 20
258.4532379326
 30
0.0
 11
287.7175938338
 21
258.4532379326
 31
0.0
  0
LINE
  5
10F
330
1F
100
AcDbEntity
  8
0
  6
Continuous
 62
     7
370
    30
100
AcDbLine
 10
287.7175938338
 20
226.4532379326
 30
0.0
 11
294.9175938338
 21
226.4532379326
 31
0.0
  0
LINE
  5
110
330
1F
100
AcDbEntity
  8
0
  6
Continuous
 62
     7
370
    30
100
AcDbLine
 10
287.7175938338
 20
258.4532379326
 30
0.0
 11
286.7175938338
 21
256.4532379326
 31
0.0
  0
LINE
  5
111
330
1F
100
AcDbEntity
  8
0
  6
Continuous
 62
     7
370
    30
100
AcDbLine
 10
286.7175938338
 20
228.4532379326
 30
0.0
 11
287.7175938338
 21
226.4532379326
 31
0.0
  0
LINE
  5
112
330
1F
100
AcDbEntity
  8
0
  6
Continuous
 62
     7
370
    30
100
AcDbLine
 10
286.7175938338
 20
254.9532379326
 30
0.0
 11
166.7175938338
 21
254.9532379326
 31
0.0
  0
LINE
  5
113
330
1F
100
AcDbEntity
  8
0
  6
Continuous
 62
     7
370
    30
100
AcDbLine
 10
166.7175938338
 20
243.9532379326
 30
0.0
 11
286.7175938338
 21
243.9532379326
 31
0.0
  0
LINE
  5
114
330
1F
100
AcDbEntity
  8
0
  6
Continuous
 62
     7
370
    30
100
AcDbLine
 10
286.7175938338
 20
240.9532379326
 30
0.0
 11
166.7175938338
 21
240.9532379326
 31
0.0
  0
LINE
  5
115
330
1F
100
AcDbEntity
  8
0
  6
Continuous
 62
     7
370
    30
100
AcDbLine
 10
166.7175938338
 20
229.9532379326
 30
0.0
 11
286.7175938338
 21
229.9532379326
 31
0.0
  0
LINE
  5
116
330
1F
100
AcDbEntity
  8
0
  6
Continuous
 62
     7
370
    30
100
AcDbLine
 10
139.6175938338
 20
226.4532379326
 30
0.0
 11
139.9175938338
 21
226.4532379326
 31
0.0
  0
LINE
  5
117
330
1F
100
AcDbEntity
  8
0
  6
Continuous
 62
     7
370
    30
100
AcDbLine
 10
164.9175938338
 20
226.4532379326
 30
0.0
 11
165.2175938338
 21
226.4532379326
 31
0.0
  0
LINE
  5
118
330
1F
100
AcDbEntity
  8
0
  6
Continuous
 62
     7
370
    30
100
AcDbLine
 10
165.2175938338
 20
258.4532379326
 30
0.0
 11
164.9175938338
 21
258.4532379326
 31
0.0
  0
LINE
  5
119
330
1F
100
AcDbEntity
  8
0
  6
Continuous
 62
     7
370
    30
100
AcDbLine
 10
139.9175938338
 20
258.4532379326
 30
0.0
 11
139.6175938338
 21
258.4532379326
 31
0.0
  0
LINE
  5
11A
330
1F
100
AcDbEntity
  8
0
  6
Continuous
 62
     7
370
    30
100
AcDbLine
 10
139.6175938338
 20
258.4532379326
 30
0.0
 11
138.1175938338
 21
255.4532379326
 31
0.0
  0
LINE
  5
11B
330
1F
100
AcDbEntity
  8
0
  6
Continuous
 62
     7
370
    30
100
AcDbLine
 10
138.1175938338
 20
229.4532379326
 30
0.0
 11
139.6175938338
 21
226.4532379326
 31
0.0
  0
LINE
  5
11C
330
1F
100
AcDbEntity
  8
0
  6
Continuous
 62
     7
370
    30
100
AcDbLine
 10
165.2175938338
 20
226.4532379326
 30
0.0
 11
166.7175938338
 21
229.4532379326
 31
0.0
  0
LINE
  5
11D
330
1F
100
AcDbEntity
  8
0
  6
Continuous
 62
     7
370
    30
100
AcDbLine
 10
166.7175938338
 20
255.4532379326
 30
0.0
 11
165.2175938338
 21
258.4532379326
 31
0.0
  0
LINE
  5
11E
330
1F
100
AcDbEntity
  8
0
  6
Continuous
 62
     7
370
    30
100
AcDbLine
 10
147.8202309651
 20
215.1783906718
 30
0.0
 11
149.7999498319
 21
214.7320282967
 31
0.0
  0
LINE
  5
11F
330
1F
100
AcDbEntity
  8
0
  6
Continuous
 62
     7
370
    30
100
AcDbLine
 10
155.0352378358
 20
214.7320282967
 30
0.0
 11
157.0149567026
 21
215.1783906718
 31
0.0
  0
SPLINE
  5
120
330
1F
100
AcDbEntity
  8
0
  6
Continuous
 62
     7
370
    30
100
AcDbSpline
210
0.0
220
0.0
230
1.0
 70
     8
 71
     3
 72
    11
 73
     7
 74
     0
 42
0.000000001
 43
0.00000001
 40
0.0
 40
0.0
 40
0.0
 40
0.0
 40
0.0295260153466863
 40
0.3665713582286455
 40
0.7009820837483179
 40
1.0
 40
1.0
 40
1.0
 40
1.0
 10
163.3800572598066
 20
218.409231636299
 30
0.0
 10
163.4040537457875
 20
218.4314776469491
 30
0.0
 10
163.701974896184
 20
218.70766629765
 30
0.0
 10
164.1144085468802
 20
219.2955525840999
 30
0.0
 10
164.5930625522654
 20
220.1324677568267
 30
0.0
 10
164.7418797036146
 20
220.7103278476384
 30
0.0
 10
164.8121307020135
 20
220.9831139340969
 30
0.0
  0
SPLINE
  5
121
330
1F
100
AcDbEntity
  8
0
  6
Continuous
 62
     7
370
    30
100
AcDbSpline
210
0.0
220
0.0
230
1.0
 70
     8
 71
     3
 72
    10
 73
     6
 74
     0
 42
0.000000001
 43
0.00000001
 40
0.0
 40
0.0
 40
0.0
 40
0.0
 40
0.3896942951263514
 40
0.826376873691269
 40
1.0
 40
1.0
 40
1.0
 40
1.0
 10
140.181600234375
 20
220.4238022234137
 30
0.0
 10
140.286690216607
 20
220.1643315279645
 30
0.0
 10
140.5095416467132
 20
219.6141038628397
 30
0.0
 10
140.9244799752752
 20
218.9787943794628
 30
0.0
 10
141.2685057031102
 20
218.6240517356098
 30
0.0
 10
141.3663760358309
 20
218.5231325956297
 30
0.0
  0
LINE
  5
122
330
1F
100
AcDbEntity
  8
0
  6
Continuous
 62
     7
370
    30
100
AcDbLine
 10
124.6175938338
 20
309.4532379326
 30
0.0
 11
180.2175938338
 21
309.4532379326
 31
0.0
  0
LINE
  5
123
330
1F
100
AcDbEntity
  8
0
  6
Continuous
 62
     7
370
    30
100
AcDbLine
 10
154.4175938338
 20
314.4532379326
 30
0.0
 11
180.2175938338
 21
314.4532379326
 31
0.0
  0
LINE
  5
124
330
1F
100
AcDbEntity
  8
0
  6
Continuous
 62
     7
370
    30
100
AcDbLine
 10
124.6175938338
 20
314.4532379326
 30
0.0
 11
150.4175938338
 21
314.4532379326
 31
0.0
  0
LINE
  5
125
330
1F
100
AcDbEntity
  8
0
  6
Continuous
 62
     7
370
    30
100
AcDbLine
 10
150.4175938338
 20
313.4532379326
 30
0.0
 11
150.4175938338
 21
314.4532379326
 31
0.0
  0
LINE
  5
126
330
1F
100
AcDbEntity
  8
0
  6
Continuous
 62
     7
370
    30
100
AcDbLine
 10
150.4175938338
 20
313.4532379326
 30
0.0
 11
154.4175938338
 21
313.4532379326
 31
0.0
  0
LINE
  5
127
330
1F
100
AcDbEntity
  8
0
  6
Continuous
 62
     7
370
    30
100
AcDbLine
 10
154.4175938338
 20
313.4532379326
 30
0.0
 11
154.4175938338
 21
314.4532379326
 31
0.0
  0
LINE
  5
128
330
1F
100
AcDbEntity
  8
0
  6
Continuous
 62
     7
370
    30
100
AcDbLine
 10
127.4175938338
 20
308.4532379326
 30
0.0
 11
177.4175938338
 21
308.4532379326
 31
0.0
  0
LINE
  5
129
330
1F
100
AcDbEntity
  8
0
  6
Continuous
 62
     7
370
    30
100
AcDbLine
 10
154.4175938338
 20
314.4532379326
 30
0.0
 11
150.4175938338
 21
314.4532379326
 31
0.0
  0
LINE
  5
12A
330
1F
100
AcDbEntity
  8
0
  6
Continuous
 62
     7
370
    30
100
AcDbLine
 10
136.4175938338
 20
308.2532379326
 30
0.0
 11
168.4175938338
 21
308.2532379326
 31
0.0
  0
LINE
  5
12B
330
1F
100
AcDbEntity
  8
0
  6
Continuous
 62
     7
370
    30
100
AcDbLine
 10
168.1175938338
 20
307.9532379326
 30
0.0
 11
136.7175938338
 21
307.9532379326
 31
0.0
  0
LINE
  5
12C
330
1F
100
AcDbEntity
  8
0
  6
Continuous
 62
     7
370
    30
100
AcDbLine
 10
294.9175938338
 20
258.4532379326
 30
0.0
 11
294.9175938338
 21
226.4532379326
 31
0.0
  0
LINE
  5
12D
330
1F
100
AcDbEntity
  8
0
  6
Continuous
 62
     7
370
    30
100
AcDbLine
 10
296.4175938338
 20
255.4532379326
 30
0.0
 11
296.4175938338
 21
229.4532379326
 31
0.0
  0
LINE
  5
12E
330
1F
100
AcDbEntity
  8
0
  6
Continuous
 62
     7
370
    30
100
AcDbLine
 10
287.7175938338
 20
258.4532379326
 30
0.0
 11
287.7175938338
 21
226.4532379326
 31
0.0
  0
LINE
  5
12F
330
1F
100
AcDbEntity
  8
0
  6
Continuous
 62
     7
370
    30
100
AcDbLine
 10
286.7175938338
 20
256.4532379326
 30
0.0
 11
286.7175938338
 21
228.4532379326
 31
0.0
  0
LINE
  5
130
330
1F
100
AcDbEntity
  8
0
  6
Continuous
 62
     7
370
    30
100
AcDbLine
 10
165.2175938338
 20
226.4532379326
 30
0.0
 11
165.2175938338
 21
258.4532379326
 31
0.0
  0
LINE
  5
131
330
1F
100
AcDbEntity
  8
0
  6
Continuous
 62
     7
370
    30
100
AcDbLine
 10
139.6175938338
 20
258.4532379326
 30
0.0
 11
139.6175938338
 21
226.4532379326
 31
0.0
  0
LINE
  5
132
330
1F
100
AcDbEntity
  8
0
  6
Continuous
 62
     7
370
    30
100
AcDbLine
 10
138.1175938338
 20
229.4532379326
 30
0.0
 11
138.1175938338
 21
255.4532379326
 31
0.0
  0
LINE
  5
133
330
1F
100
AcDbEntity
  8
0
  6
Continuous
 62
     7
370
    30
100
AcDbLine
 10
166.7175938338
 20
255.4532379326
 30
0.0
 11
166.7175938338
 21
229.4532379326
 31
0.0
  0
LINE
  5
134
330
1F
100
AcDbEntity
  8
0
  6
Continuous
 62
     7
370
    30
100
AcDbLine
 10
159.4175938338
 20
242.4532379326
 30
0.0
 11
159.4175938338
 21
307.9532379326
 31
0.0
  0
LINE
  5
135
330
1F
100
AcDbEntity
  8
0
  6
Continuous
 62
     7
370
    30
100
AcDbLine
 10
145.4175938338
 20
242.4532379326
 30
0.0
 11
145.4175938338
 21
307.9532379326
 31
0.0
  0
LINE
  5
136
330
1F
100
AcDbEntity
  8
0
  6
Continuous
 62
     7
370
    30
100
AcDbLine
 10
159.4175938338
 20
242.4532379326
 30
0.0
 11
159.4175938338
 21
222.5563361913
 31
0.0
  0
LINE
  5
137
330
1F
100
AcDbEntity
  8
0
  6
Continuous
 62
     7
370
    30
100
AcDbLine
 10
145.4175938338
 20
242.4532379326
 30
0.0
 11
145.4175938338
 21
222.5563361913
 31
0.0
  0
LINE
  5
138
330
1F
100
AcDbEntity
  8
0
  6
Continuous
 62
     7
370
    30
100
AcDbLine
 10
164.9175938338
 20
307.9532379326
 30
0.0
 11
164.9175938338
 21
242.4532379326
 31
0.0
  0
LINE
  5
139
330
1F
100
AcDbEntity
  8
0
  6
Continuous
 62
     7
370
    30
100
AcDbLine
 10
139.9175938338
 20
242.4532379326
 30
0.0
 11
139.9175938338
 21
307.9532379326
 31
0.0
  0
LINE
  5
13A
330
1F
100
AcDbEntity
  8
0
  6
Continuous
 62
     7
370
    30
100
AcDbLine
 10
164.9175938338
 20
242.4532379326
 30
0.0
 11
164.9175938338
 21
226.0835696412
 31
0.0
  0
LINE
  5
13B
330
1F
100
AcDbEntity
  8
0
  6
Continuous
 62
     7
370
    30
100
AcDbLine
 10
139.9175938338
 20
226.0835696412
 30
0.0
 11
139.9175938338
 21
242.4532379326
 31
0.0
  0
LINE
  5
13C
330
1F
100
AcDbEntity
  8
0
  6
Continuous
 62
     7
370
    30
100
AcDbLine
 10
159.4175938338
 20
222.5563361913
 30
0.0
 11
159.4175938338
 21
218.3623894152
 31
0.0
  0
LINE
  5
13D
330
1F
100
AcDbEntity
  8
0
  6
Continuous
 62
     7
370
    30
100
AcDbLine
 10
145.4175938338
 20
222.5563361913
 30
0.0
 11
145.4175938338
 21
218.3623894152
 31
0.0
  0
LWPOLYLINE
  5
13E
330
1F
100
AcDbEntity
  8
0
  6
Continuous
 62
     7
370
    30
100
AcDbPolyline
 90
       19
 70
   128
 43
0.0
 10
145.4175938338
 20
218.3623894152
 10
145.5239395628
 20
217.6826696147
 10
145.8397454883
 20
217.0236027563
 10
146.3554160074
 20
216.4052142531
 10
147.055282732
 20
215.8462935268
 10
147.918080566
 20
215.3638231009
 10
148.9175938338
 20
214.9724625951
 10
150.0234528306
 20
214.6841033003
 10
151.2020565902
 20
214.5075068679
 10
152.4175938338
 20
214.4480390909
 10
153.6331310775
 20
214.5075068679
 10
154.8117348371
 20
214.6841033003
 10
155.9175938338
 20
214.9724625951
 10
156.9171071017
 20
215.3638231009
 10
157.7799049357
 20
215.8462935268
 10
158.4797716603
 20
216.4052142531
 10
158.9954421793
 20
217.0236027563
 10
159.3112481049
 20
217.6826696147
 10
159.4175938338
 20
218.3623894152
  0
LINE
  5
13F
330
1F
100
AcDbEntity
  8
0
  6
Continuous
 62
     7
370
    30
100
AcDbLine
 10
164.9175938338
 20
226.0835696412
 30
0.0
 11
164.9175938338
 21
221.8896228652
 31
0.0
  0
LINE
  5
140
330
1F
100
AcDbEntity
  8
0
  6
Continuous
 62
     7
370
    30
100
AcDbLine
 10
139.9175938338
 20
221.8896228652
 30
0.0
 11
139.9175938338
 21
226.0835696412
 31
0.0
  0
ARC
  5
141
330
1F
100
AcDbEntity
  8
0
  6
Continuous
 62
     7
370
    30
100
AcDbCircle
 10
150.2290435236
 20
227.7155801811
 30
0.0
 40
12.7664990790791
100
AcDbArc
 50
226.6116911361
 51
259.1241045996
  0
ARC
  5
142
330
1F
100
AcDbEntity
  8
0
  6
Continuous
 62
     7
370
    30
100
AcDbCircle
 10
154.9295282236
 20
227.1143830552
 30
0.0
 40
12.11680346120884
100
AcDbArc
 50
279.9105477216
 51
313.5541469894
  0
LINE
  5
143
330
1F
100
AcDbEntity
  8
0
  6
Continuous
 62
     7
370
    30
100
AcDbLine
 10
164.9175938338
 20
221.8896228652
 30
0.0
 11
164.8279777338
 21
221.0541258902
 31
0.0
  0
LWPOLYLINE
  5
144
330
1F
100
AcDbEntity
  8
0
  6
Continuous
 62
     7
370
    30
100
AcDbPolyline
 90
        3
 70
   128
 43
0.0
 10
140.1546584476
 20
220.5347576908
 10
140.0245330667
 20
220.9772563601
 10
139.9175938338
 20
221.8896228652
  0
LINE
  5
145
330
1F
100
AcDbEntity
  8
0
  6
Continuous
 62
     7
370
    30
100
AcDbLine
 10
180.2175938338
 20
-14.3410215727
 30
0.0
 11
180.2175938338
 21
-9.3410215727
 31
0.0
  0
LINE
  5
146
330
1F
100
AcDbEntity
  8
0
  6
Continuous
 62
     7
370
    30
100
AcDbLine
 10
124.6175938338
 20
-9.3410215727
 30
0.0
 11
124.6175938338
 21
-14.3410215727
 31
0.0
  0
LINE
  5
147
330
1F
100
AcDbEntity
  8
0
  6
Continuous
 62
     7
370
    30
100
AcDbLine
 10
180.2175938338
 20
-9.3410215727
 30
0.0
 11
177.4175938338
 21
-8.3410215727
 31
0.0
  0
LINE
  5
148
330
1F
100
AcDbEntity
  8
0
  6
Continuous
 62
     7
370
    30
100
AcDbLine
 10
127.4175938338
 20
-8.3410215727
 30
0.0
 11
124.6175938338
 21
-9.3410215727
 31
0.0
  0
LINE
  5
149
330
1F
100
AcDbEntity
  8
0
  6
Continuous
 62
     7
370
    30
100
AcDbLine
 10
168.4175938338
 20
-8.3410215727
 30
0.0
 11
168.4175938338
 21
-8.1410215727
 31
0.0
  0
LINE
  5
14A
330
1F
100
AcDbEntity
  8
0
  6
Continuous
 62
     7
370
    30
100
AcDbLine
 10
136.4175938338
 20
-8.1410215727
 30
0.0
 11
136.4175938338
 21
-8.3410215727
 31
0.0
  0
LINE
  5
14B
330
1F
100
AcDbEntity
  8
0
  6
Continuous
 62
     7
370
    30
100
AcDbLine
 10
168.4175938338
 20
-8.1410215727
 30
0.0
 11
168.1175938338
 21
-7.8410215727
 31
0.0
  0
LINE
  5
14C
330
1F
100
AcDbEntity
  8
0
  6
Continuous
 62
     7
370
    30
100
AcDbLine
 10
136.7175938338
 20
-7.8410215727
 30
0.0
 11
136.4175938338
 21
-8.1410215727
 31
0.0
  0
LINE
  5
14D
330
1F
100
AcDbEntity
  8
0
  6
Continuous
 62
     7
370
    30
100
AcDbLine
 10
294.9175938338
 20
73.6589784273
 30
0.0
 11
287.7175938338
 21
73.6589784273
 31
0.0
  0
LINE
  5
14E
330
1F
100
AcDbEntity
  8
0
  6
Continuous
 62
     7
370
    30
100
AcDbLine
 10
287.7175938338
 20
41.6589784273
 30
0.0
 11
294.9175938338
 21
41.6589784273
 31
0.0
  0
LINE
  5
14F
330
1F
100
AcDbEntity
  8
0
  6
Continuous
 62
     7
370
    30
100
AcDbLine
 10
294.9175938338
 20
41.6589784273
 30
0.0
 11
296.4175938338
 21
44.6589784273
 31
0.0
  0
LINE
  5
150
330
1F
100
AcDbEntity
  8
0
  6
Continuous
 62
     7
370
    30
100
AcDbLine
 10
296.4175938338
 20
70.6589784273
 30
0.0
 11
294.9175938338
 21
73.6589784273
 31
0.0
  0
LINE
  5
151
330
1F
100
AcDbEntity
  8
0
  6
Continuous
 62
     7
370
    30
100
AcDbLine
 10
287.7175938338
 20
73.6589784273
 30
0.0
 11
286.7175938338
 21
71.6589784273
 31
0.0
  0
LINE
  5
152
330
1F
100
AcDbEntity
  8
0
  6
Continuous
 62
     7
370
    30
100
AcDbLine
 10
286.7175938338
 20
43.6589784273
 30
0.0
 11
287.7175938338
 21
41.6589784273
 31
0.0
  0
LINE
  5
153
330
1F
100
AcDbEntity
  8
0
  6
Continuous
 62
     7
370
    30
100
AcDbLine
 10
286.7175938338
 20
56.1589784273
 30
0.0
 11
166.7175938338
 21
56.1589784273
 31
0.0
  0
LINE
  5
154
330
1F
100
AcDbEntity
  8
0
  6
Continuous
 62
     7
370
    30
100
AcDbLine
 10
166.7175938338
 20
45.1589784273
 30
0.0
 11
286.7175938338
 21
45.1589784273
 31
0.0
  0
LINE
  5
155
330
1F
100
AcDbEntity
  8
0
  6
Continuous
 62
     7
370
    30
100
AcDbLine
 10
286.7175938338
 20
70.1589784273
 30
0.0
 11
166.7175938338
 21
70.1589784273
 31
0.0
  0
LINE
  5
156
330
1F
100
AcDbEntity
  8
0
  6
Continuous
 62
     7
370
    30
100
AcDbLine
 10
166.7175938338
 20
59.1589784273
 30
0.0
 11
286.7175938338
 21
59.1589784273
 31
0.0
  0
LINE
  5
157
330
1F
100
AcDbEntity
  8
0
  6
Continuous
 62
     7
370
    30
100
AcDbLine
 10
158.0175938338
 20
50.7589784273
 30
0.0
 11
158.0175938338
 21
51.6589784273
 31
0.0
  0
LINE
  5
158
330
1F
100
AcDbEntity
  8
0
  6
Continuous
 62
     7
370
    30
100
AcDbLine
 10
146.8175938338
 20
51.6589784273
 30
0.0
 11
146.8175938338
 21
50.7589784273
 31
0.0
  0
LINE
  5
159
330
1F
100
AcDbEntity
  8
0
  6
Continuous
 62
     7
370
    30
100
AcDbLine
 10
165.2175938338
 20
41.6589784273
 30
0.0
 11
166.7175938338
 21
44.6589784273
 31
0.0
  0
LINE
  5
15A
330
1F
100
AcDbEntity
  8
0
  6
Continuous
 62
     7
370
    30
100
AcDbLine
 10
166.7175938338
 20
70.6589784273
 30
0.0
 11
165.2175938338
 21
73.6589784273
 31
0.0
  0
LINE
  5
15B
330
1F
100
AcDbEntity
  8
0
  6
Continuous
 62
     7
370
    30
100
AcDbLine
 10
139.6175938338
 20
73.6589784273
 30
0.0
 11
138.1175938338
 21
70.6589784273
 31
0.0
  0
LINE
  5
15C
330
1F
100
AcDbEntity
  8
0
  6
Continuous
 62
     7
370
    30
100
AcDbLine
 10
138.1175938338
 20
44.6589784273
 30
0.0
 11
139.6175938338
 21
41.6589784273
 31
0.0
  0
LINE
  5
15D
330
1F
100
AcDbEntity
  8
0
  6
Continuous
 62
     7
370
    30
100
AcDbLine
 10
139.6175938338
 20
41.6589784273
 30
0.0
 11
165.2175938338
 21
41.6589784273
 31
0.0
  0
LINE
  5
15E
330
1F
100
AcDbEntity
  8
0
  6
Continuous
 62
     7
370
    30
100
AcDbLine
 10
165.2175938338
 20
73.6589784273
 30
0.0
 11
164.8335489236
 21
73.6589784273
 31
0.0
  0
LINE
  5
15F
330
1F
100
AcDbEntity
  8
0
  6
Continuous
 62
     7
370
    30
100
AcDbLine
 10
140.0016387441
 20
73.6589784273
 30
0.0
 11
139.6175938338
 21
73.6589784273
 31
0.0
  0
SPLINE
  5
160
330
1F
100
AcDbEntity
  8
0
  6
Continuous
 62
     7
370
    30
100
AcDbSpline
210
0.0
220
0.0
230
1.0
 70
     8
 71
     3
 72
    10
 73
     6
 74
     0
 42
0.000000001
 43
0.00000001
 40
0.0
 40
0.0
 40
0.0
 40
0.0
 40
0.0190755454733087
 40
0.5159451629044045
 40
1.0
 40
1.0
 40
1.0
 40
1.0
 10
141.4149897817535
 20
81.66538051483228
 30
0.0
 10
141.4045185342735
 20
81.65561474082229
 30
0.0
 10
141.1212978266676
 20
81.39147530273836
 30
0.0
 10
140.7120014559447
 20
80.82396817965649
 30
0.0
 10
140.4218651199652
 20
80.242911671199
 30
0.0
 10
140.2786921200465
 20
79.95617887312596
 30
0.0
  0
SPLINE
  5
161
330
1F
100
AcDbEntity
  8
0
  6
Continuous
 62
     7
370
    30
100
AcDbSpline
210
0.0
220
0.0
230
1.0
 70
     8
 71
     3
 72
    10
 73
     6
 74
     0
 42
0.000000001
 43
0.00000001
 40
0.0
 40
0.0
 40
0.0
 40
0.0
 40
0.3806554808797066
 40
0.8049090292248903
 40
1.0
 40
1.0
 40
1.0
 40
1.0
 10
164.6554415982476
 20
79.68422392962981
 30
0.0
 10
164.5499591690555
 20
79.94516237789374
 30
0.0
 10
164.326912966003
 20
80.49692564843487
 30
0.0
 10
163.8977548408024
 20
81.15008220923143
 30
0.0
 10
163.5374784272882
 20
81.5202892573617
 30
0.0
 10
163.42399284198
 20
81.63690295164304
 30
0.0
  0
LINE
  5
162
330
1F
100
AcDbEntity
  8
0
  6
Continuous
 62
     7
370
    30
100
AcDbLine
 10
157.0149567026
 20
84.9338256882
 30
0.0
 11
155.0352378358
 21
85.3801880632
 31
0.0
  0
LINE
  5
163
330
1F
100
AcDbEntity
  8
0
  6
Continuous
 62
     7
370
    30
100
AcDbLine
 10
149.7999498319
 20
85.3801880632
 30
0.0
 11
147.8202309651
 21
84.9338256882
 31
0.0
  0
LINE
  5
164
330
1F
100
AcDbEntity
  8
0
  6
Continuous
 62
     7
370
    30
100
AcDbLine
 10
180.2175938338
 20
-9.3410215727
 30
0.0
 11
124.6175938338
 21
-9.3410215727
 31
0.0
  0
LINE
  5
165
330
1F
100
AcDbEntity
  8
0
  6
Continuous
 62
     7
370
    30
100
AcDbLine
 10
180.2175938338
 20
-14.3410215727
 30
0.0
 11
157.4175938338
 21
-14.3410215727
 31
0.0
  0
LINE
  5
166
330
1F
100
AcDbEntity
  8
0
  6
Continuous
 62
     7
370
    30
100
AcDbLine
 10
157.4175938338
 20
-13.3410215727
 30
0.0
 11
157.4175938338
 21
-14.3410215727
 31
0.0
  0
LINE
  5
167
330
1F
100
AcDbEntity
  8
0
  6
Continuous
 62
     7
370
    30
100
AcDbLine
 10
157.4175938338
 20
-13.3410215727
 30
0.0
 11
155.4175938338
 21
-13.3410215727
 31
0.0
  0
LINE
  5
168
330
1F
100
AcDbEntity
  8
0
  6
Continuous
 62
     7
370
    30
100
AcDbLine
 10
155.4175938338
 20
-13.3410215727
 30
0.0
 11
155.4175938338
 21
-10.8410215727
 31
0.0
  0
LINE
  5
169
330
1F
100
AcDbEntity
  8
0
  6
Continuous
 62
     7
370
    30
100
AcDbLine
 10
149.4175938338
 20
-10.8410215727
 30
0.0
 11
155.4175938338
 21
-10.8410215727
 31
0.0
  0
LINE
  5
16A
330
1F
100
AcDbEntity
  8
0
  6
Continuous
 62
     7
370
    30
100
AcDbLine
 10
149.4175938338
 20
-10.8410215727
 30
0.0
 11
149.4175938338
 21
-13.3410215727
 31
0.0
  0
LINE
  5
16B
330
1F
100
AcDbEntity
  8
0
  6
Continuous
 62
     7
370
    30
100
AcDbLine
 10
149.4175938338
 20
-13.3410215727
 30
0.0
 11
147.4175938338
 21
-13.3410215727
 31
0.0
  0
LINE
  5
16C
330
1F
100
AcDbEntity
  8
0
  6
Continuous
 62
     7
370
    30
100
AcDbLine
 10
147.4175938338
 20
-13.3410215727
 30
0.0
 11
147.4175938338
 21
-14.3410215727
 31
0.0
  0
LINE
  5
16D
330
1F
100
AcDbEntity
  8
0
  6
Continuous
 62
     7
370
    30
100
AcDbLine
 10
147.4175938338
 20
-14.3410215727
 30
0.0
 11
124.6175938338
 21
-14.3410215727
 31
0.0
  0
LINE
  5
16E
330
1F
100
AcDbEntity
  8
0
  6
Continuous
 62
     7
370
    30
100
AcDbLine
 10
177.4175938338
 20
-8.3410215727
 30
0.0
 11
127.4175938338
 21
-8.3410215727
 31
0.0
  0
LINE
  5
16F
330
1F
100
AcDbEntity
  8
0
  6
Continuous
 62
     7
370
    30
100
AcDbLine
 10
147.4175938338
 20
-14.3410215727
 30
0.0
 11
149.4175938338
 21
-14.3410215727
 31
0.0
  0
LINE
  5
170
330
1F
100
AcDbEntity
  8
0
  6
Continuous
 62
     7
370
    30
100
AcDbLine
 10
149.4175938338
 20
-14.3410215727
 30
0.0
 11
149.4175938338
 21
-13.3410215727
 31
0.0
  0
LINE
  5
171
330
1F
100
AcDbEntity
  8
0
  6
Continuous
 62
     7
370
    30
100
AcDbLine
 10
155.4175938338
 20
-14.3410215727
 30
0.0
 11
157.4175938338
 21
-14.3410215727
 31
0.0
  0
LINE
  5
172
330
1F
100
AcDbEntity
  8
0
  6
Continuous
 62
     7
370
    30
100
AcDbLine
 10
155.4175938338
 20
-13.3410215727
 30
0.0
 11
155.4175938338
 21
-14.3410215727
 31
0.0
  0
LINE
  5
173
330
1F
100
AcDbEntity
  8
0
  6
Continuous
 62
     7
370
    30
100
AcDbLine
 10
149.4175938338
 20
-13.3410215727
 30
0.0
 11
155.4175938338
 21
-13.3410215727
 31
0.0
  0
LINE
  5
174
330
1F
100
AcDbEntity
  8
0
  6
Continuous
 62
     7
370
    30
100
AcDbLine
 10
149.4175938338
 20
-14.3410215727
 30
0.0
 11
155.4175938338
 21
-14.3410215727
 31
0.0
  0
LINE
  5
175
330
1F
100
AcDbEntity
  8
0
  6
Continuous
 62
     7
370
    30
100
AcDbLine
 10
149.4175938338
 20
-13.0410215727
 30
0.0
 11
155.4175938338
 21
-13.0410215727
 31
0.0
  0
LINE
  5
176
330
1F
100
AcDbEntity
  8
0
  6
Continuous
 62
     7
370
    30
100
AcDbLine
 10
168.4175938338
 20
-8.1410215727
 30
0.0
 11
136.4175938338
 21
-8.1410215727
 31
0.0
  0
LINE
  5
177
330
1F
100
AcDbEntity
  8
0
  6
Continuous
 62
     7
370
    30
100
AcDbLine
 10
136.7175938338
 20
-7.8410215727
 30
0.0
 11
168.1175938338
 21
-7.8410215727
 31
0.0
  0
LINE
  5
178
330
1F
100
AcDbEntity
  8
0
  6
Continuous
 62
     7
370
    30
100
AcDbLine
 10
287.7175938338
 20
61.8787207389
 30
0.0
 11
287.7175938338
 21
41.6589784273
 31
0.0
  0
LINE
  5
179
330
1F
100
AcDbEntity
  8
0
  6
Continuous
 62
     7
370
    30
100
AcDbLine
 10
287.7175938338
 20
73.6589784273
 30
0.0
 11
287.7175938338
 21
61.8787207389
 31
0.0
  0
LINE
  5
17A
330
1F
100
AcDbEntity
  8
0
  6
Continuous
 62
     7
370
    30
100
AcDbLine
 10
294.9175938338
 20
61.8787207389
 30
0.0
 11
294.9175938338
 21
41.6589784273
 31
0.0
  0
LINE
  5
17B
330
1F
100
AcDbEntity
  8
0
  6
Continuous
 62
     7
370
    30
100
AcDbLine
 10
294.9175938338
 20
73.6589784273
 30
0.0
 11
294.9175938338
 21
61.8787207389
 31
0.0
  0
LINE
  5
17C
330
1F
100
AcDbEntity
  8
0
  6
Continuous
 62
     7
370
    30
100
AcDbLine
 10
296.4175938338
 20
61.0875190555
 30
0.0
 11
296.4175938338
 21
44.6589784273
 31
0.0
  0
LINE
  5
17D
330
1F
100
AcDbEntity
  8
0
  6
Continuous
 62
     7
370
    30
100
AcDbLine
 10
296.4175938338
 20
70.6589784273
 30
0.0
 11
296.4175938338
 21
61.0875190555
 31
0.0
  0
LINE
  5
17E
330
1F
100
AcDbEntity
  8
0
  6
Continuous
 62
     7
370
    30
100
AcDbLine
 10
286.7175938338
 20
61.35125295
 30
0.0
 11
286.7175938338
 21
43.6589784273
 31
0.0
  0
LINE
  5
17F
330
1F
100
AcDbEntity
  8
0
  6
Continuous
 62
     7
370
    30
100
AcDbLine
 10
286.7175938338
 20
71.6589784273
 30
0.0
 11
286.7175938338
 21
61.35125295
 31
0.0
  0
LWPOLYLINE
  5
180
330
1F
100
AcDbEntity
  8
0
  6
Continuous
 62
     7
370
    30
100
AcDbPolyline
 90
       11
 70
   128
 43
0.0
 10
152.4175938338
 20
45.9092361661
 10
153.5100996371
 20
46.0024226038
 10
154.5606210551
 20
46.2784008142
 10
155.5287871388
 20
46.7265651096
 10
156.3773918085
 20
47.3296927874
 10
157.0738236627
 20
48.0646059892
 10
157.5913192159
 20
48.9030624127
 10
157.9099914041
 20
49.8128406479
 10
158.0175938338
 20
50.7589784273
 10
157.9099914041
 20
51.7051162067
 10
157.7969352562
 20
52.106945191
  0
LWPOLYLINE
  5
181
330
1F
100
AcDbEntity
  8
0
  6
Continuous
 62
     7
370
    30
100
AcDbPolyline
 90
       11
 70
   128
 43
0.0
 10
147.0522388119
 20
52.1481235301
 10
146.9251962636
 20
51.7051162067
 10
146.8175938338
 20
50.7589784273
 10
146.9251962636
 20
49.8128406479
 10
147.2438684518
 20
48.9030624127
 10
147.761364005
 20
48.0646059892
 10
148.4577958592
 20
47.3296927874
 10
149.3064005289
 20
46.7265651096
 10
150.2745666126
 20
46.2784008142
 10
151.3250880306
 20
46.0024226038
 10
152.4175938338
 20
45.9092361661
  0
LWPOLYLINE
  5
182
330
1F
100
AcDbEntity
  8
0
  6
Continuous
 62
     7
370
    30
100
AcDbPolyline
 90
       28
 70
   128
 43
0.0
 10
152.4175938338
 20
46.7948768122
 10
153.3400573168
 20
46.8882521195
 10
154.2127905546
 20
47.1633441546
 10
154.9887442726
 20
47.6053226346
 10
155.6260866049
 20
48.1903603853
 10
156.0904582614
 20
48.8869178701
 10
156.3568248459
 20
49.6574434946
 10
156.4108264669
 20
50.4603980231
 10
156.2495518831
 20
51.252493969
 10
155.881695449
 20
51.9910292349
 10
155.3270884001
 20
52.6361891934
 10
154.6156297461
 20
53.1531931043
 10
153.7856744071
 20
53.5141691527
 10
152.8819654903
 20
53.6996570266
 10
151.9532221773
 20
53.6996570266
 10
151.0495132605
 20
53.5141691527
 10
150.2195579216
 20
53.1531931043
 10
149.5080992676
 20
52.6361891934
 10
148.9534922187
 20
51.9910292349
 10
148.5856357846
 20
51.252493969
 10
148.4243612008
 20
50.4603980231
 10
148.4783628218
 20
49.6574434946
 10
148.7447294063
 20
48.8869178701
 10
149.2091010628
 20
48.1903603853
 10
149.8464433951
 20
47.6053226346
 10
150.622397113
 20
47.1633441546
 10
151.4951303509
 20
46.8882521195
 10
152.4175938338
 20
46.7948768122
  0
ARC
  5
183
330
1F
100
AcDbEntity
  8
0
  6
Continuous
 62
     7
370
    30
100
AcDbCircle
 10
151.5488438338
 20
51.0744856825
 30
0.0
 40
0.4701368373499293
100
AcDbArc
 50
266.1887389505
 51
355.5980503477
  0
LINE
  5
184
330
1F
100
AcDbEntity
  8
0
  6
Continuous
 62
     7
370
    30
100
AcDbLine
 10
151.5175938338
 20
50.6053885888
 30
0.0
 11
150.2675938338
 21
50.6053885888
 31
0.0
  0
LINE
  5
185
330
1F
100
AcDbEntity
  8
0
  6
Continuous
 62
     7
370
    30
100
AcDbLine
 10
150.2675938338
 20
50.6053885888
 30
0.0
 11
150.2675938338
 21
49.9125682658
 31
0.0
  0
LINE
  5
186
330
1F
100
AcDbEntity
  8
0
  6
Continuous
 62
     7
370
    30
100
AcDbLine
 10
150.2675938338
 20
49.9125682658
 30
0.0
 11
151.5175938338
 21
49.9125682658
 31
0.0
  0
ARC
  5
187
330
1F
100
AcDbEntity
  8
0
  6
Continuous
 62
     7
370
    30
100
AcDbCircle
 10
151.5488438338
 20
49.4434711721
 30
0.0
 40
0.4701368373498571
100
AcDbArc
 50
4.4019496523
 51
93.8112610495
  0
LINE
  5
188
330
1F
100
AcDbEntity
  8
0
  6
Continuous
 62
     7
370
    30
100
AcDbLine
 10
152.0175938338
 20
49.4795555639
 30
0.0
 11
152.0175938338
 21
48.3970238092
 31
0.0
  0
LINE
  5
189
330
1F
100
AcDbEntity
  8
0
  6
Continuous
 62
     7
370
    30
100
AcDbLine
 10
152.0175938338
 20
48.3970238092
 30
0.0
 11
152.8175938338
 21
48.3970238092
 31
0.0
  0
LINE
  5
18A
330
1F
100
AcDbEntity
  8
0
  6
Continuous
 62
     7
370
    30
100
AcDbLine
 10
152.8175938338
 20
48.3970238092
 30
0.0
 11
152.8175938338
 21
49.4795555639
 31
0.0
  0
ARC
  5
18B
330
1F
100
AcDbEntity
  8
0
  6
Continuous
 62
     7
370
    30
100
AcDbCircle
 10
153.2863438338
 20
49.4434711721
 30
0.0
 40
0.4701368373499245
100
AcDbArc
 50
86.1887389505
 51
175.5980503477
  0
LINE
  5
18C
330
1F
100
AcDbEntity
  8
0
  6
Continuous
 62
     7
370
    30
100
AcDbLine
 10
153.3175938338
 20
49.9125682658
 30
0.0
 11
154.5675938338
 21
49.9125682658
 31
0.0
  0
LINE
  5
18D
330
1F
100
AcDbEntity
  8
0
  6
Continuous
 62
     7
370
    30
100
AcDbLine
 10
154.5675938338
 20
49.9125682658
 30
0.0
 11
154.5675938338
 21
50.6053885888
 31
0.0
  0
LINE
  5
18E
330
1F
100
AcDbEntity
  8
0
  6
Continuous
 62
     7
370
    30
100
AcDbLine
 10
154.5675938338
 20
50.6053885888
 30
0.0
 11
153.3175938338
 21
50.6053885888
 31
0.0
  0
ARC
  5
18F
330
1F
100
AcDbEntity
  8
0
  6
Continuous
 62
     7
370
    30
100
AcDbCircle
 10
153.2863438338
 20
51.0744856825
 30
0.0
 40
0.4701368373498939
100
AcDbArc
 50
184.4019496523
 51
273.8112610495
  0
LINE
  5
190
330
1F
100
AcDbEntity
  8
0
  6
Continuous
 62
     7
370
    30
100
AcDbLine
 10
152.8175938338
 20
51.0384012907
 30
0.0
 11
152.8175938338
 21
52.1209330454
 31
0.0
  0
LINE
  5
191
330
1F
100
AcDbEntity
  8
0
  6
Continuous
 62
     7
370
    30
100
AcDbLine
 10
152.8175938338
 20
52.1209330454
 30
0.0
 11
152.0175938338
 21
52.1209330454
 31
0.0
  0
LINE
  5
192
330
1F
100
AcDbEntity
  8
0
  6
Continuous
 62
     7
370
    30
100
AcDbLine
 10
152.0175938338
 20
52.1209330454
 30
0.0
 11
152.0175938338
 21
51.0384012907
 31
0.0
  0
LINE
  5
193
330
1F
100
AcDbEntity
  8
0
  6
Continuous
 62
     7
370
    30
100
AcDbLine
 10
152.8175938338
 20
50.4795555639
 30
0.0
 11
152.8175938338
 21
49.4795555639
 31
0.0
  0
ARC
  5
194
330
1F
100
AcDbEntity
  8
0
  6
Continuous
 62
     7
370
    30
100
AcDbCircle
 10
153.2198147539
 20
50.4742893939
 30
0.0
 40
0.402255392799365
100
AcDbArc
 50
134.9493130652
 51
179.24988467
  0
ARC
  5
195
330
1F
100
AcDbEntity
  8
0
  6
Continuous
 62
     7
370
    30
100
AcDbCircle
 10
151.6153729138
 20
50.4742893939
 30
0.0
 40
0.4022553927986591
100
AcDbArc
 50
0.75011533
 51
45.0506869349
  0
LINE
  5
196
330
1F
100
AcDbEntity
  8
0
  6
Continuous
 62
     7
370
    30
100
AcDbLine
 10
152.0175938338
 20
50.4795555639
 30
0.0
 11
152.0175938338
 21
49.4795555639
 31
0.0
  0
LINE
  5
197
330
1F
100
AcDbEntity
  8
0
  6
Continuous
 62
     7
370
    30
100
AcDbLine
 10
152.0175938338
 20
49.3970238092
 30
0.0
 11
152.8175938338
 21
49.3970238092
 31
0.0
  0
LINE
  5
198
330
1F
100
AcDbEntity
  8
0
  6
Continuous
 62
     7
370
    30
100
AcDbLine
 10
166.7175938338
 20
70.6589784273
 30
0.0
 11
166.7175938338
 21
44.6589784273
 31
0.0
  0
LINE
  5
199
330
1F
100
AcDbEntity
  8
0
  6
Continuous
 62
     7
370
    30
100
AcDbLine
 10
165.2175938338
 20
41.6589784273
 30
0.0
 11
165.2175938338
 21
73.6589784273
 31
0.0
  0
LINE
  5
19A
330
1F
100
AcDbEntity
  8
0
  6
Continuous
 62
     7
370
    30
100
AcDbLine
 10
139.6175938338
 20
73.6589784273
 30
0.0
 11
139.6175938338
 21
41.6589784273
 31
0.0
  0
LINE
  5
19B
330
1F
100
AcDbEntity
  8
0
  6
Continuous
 62
     7
370
    30
100
AcDbLine
 10
138.1175938338
 20
44.6589784273
 30
0.0
 11
138.1175938338
 21
70.6589784273
 31
0.0
  0
SPLINE
  5
19C
330
1F
100
AcDbEntity
  8
0
  6
Continuous
 62
     7
370
    30
100
AcDbSpline
210
0.0
220
0.0
230
1.0
 70
    11
 71
     3
 72
    27
 73
    23
 74
     0
 42
0.000000001
 43
0.00000001
 40
0.0
 40
0.0
 40
0.0
 40
0.0
 40
0.0510628068603193
 40
0.1020347391619625
 40
0.1553194500476739
 40
0.2103815971496316
 40
0.2630486926509829
 40
0.3131290240447412
 40
0.3639627068866303
 40
0.4177728642521253
 40
0.4727357660429902
 40
0.5246493092745685
 40
0.5741291636434014
 40
0.6254864665556867
 40
0.6800844670971203
 40
0.7344567426229908
 40
0.7856601064039974
 40
0.8356399349713237
 40
0.8877382402749948
 40
0.9425724138217867
 40
0.9712910200127637
 40
1.0
 40
1.0
 40
1.0
 40
1.0
 10
152.4175938338461
 20
55.43893236292433
 30
0.0
 10
151.7698712006577
 20
55.37282324117945
 30
0.0
 10
150.4755786619129
 20
55.24072264960962
 30
0.0
 10
148.7357703819341
 20
54.24012680217432
 30
0.0
 10
147.3489272306034
 20
52.79304106539848
 30
0.0
 10
146.499963596301
 20
51.01778952000531
 30
0.0
 10
146.3285904931984
 20
49.22946017336702
 30
0.0
 10
146.8021727354016
 20
47.66504542746429
 30
0.0
 10
147.8409831632369
 20
46.40464251087736
 30
0.0
 10
149.3962799445869
 20
45.50181024306682
 30
0.0
 10
151.3281257729464
 20
45.03405637702765
 30
0.0
 10
153.3452056359292
 20
45.02415627581049
 30
0.0
 10
155.1974544816287
 20
45.4267921727182
 30
0.0
 10
156.7799463975887
 20
46.23461272160245
 30
0.0
 10
157.946975430776
 20
47.47964779802977
 30
0.0
 10
158.4980656281794
 20
49.09177142965814
 30
0.0
 10
158.3671380002438
 20
50.84885413388028
 30
0.0
 10
157.6319651609695
 20
52.54701023106538
 30
0.0
 10
156.3534683130087
 20
54.04859369125896
 30
0.0
 10
154.8725400926112
 20
54.95936570054064
 30
0.0
 10
153.5067848479783
 20
55.37536709725555
 30
0.0
 10
152.7806169309932
 20
55.41774630894972
 30
0.0
 10
152.4175938338461
 20
55.43893236292433
 30
0.0
  0
LWPOLYLINE
  5
19D
330
1F
100
AcDbEntity
  8
0
  6
Continuous
 62
     7
370
    30
100
AcDbPolyline
 90
        3
 70
   128
 43
0.0
 10
158.3489888422
 20
50.8754511841
 10
158.0875987461
 20
49.9594834373
 10
157.7492255068
 20
49.275645094
  0
LWPOLYLINE
  5
19E
330
1F
100
AcDbEntity
  8
0
  6
Continuous
 62
     7
370
    30
100
AcDbPolyline
 90
        3
 70
   128
 43
0.0
 10
147.0859621609
 20
49.275645094
 10
146.7475889216
 20
49.9594834373
 10
146.5428505299
 20
50.6027855783
  0
SPLINE
  5
19F
330
1F
100
AcDbEntity
  8
0
  6
Continuous
 62
     7
370
    30
100
AcDbSpline
210
0.0
220
0.0
230
1.0
 70
     8
 71
     3
 72
    16
 73
    12
 74
     0
 42
0.000000001
 43
0.00000001
 40
0.0
 40
0.0
 40
0.0
 40
0.0
 40
0.249999999999999
 40
0.249999999999999
 40
0.499999999999998
 40
0.499999999999998
 40
0.6249999999999988
 40
0.6249999999999988
 40
0.7499999999999997
 40
0.7499999999999997
 40
1.0
 40
1.0
 40
1.0
 40
1.0
 10
140.1583470982472
 20
73.61151604659871
 30
0.0
 10
140.1995619378336
 20
73.59118734527077
 30
0.0
 10
140.2649267240316
 20
73.56470329269821
 30
0.0
 10
140.4500941208507
 20
73.50098250368647
 30
0.0
 10
140.5681656384995
 20
73.46443226732389
 30
0.0
 10
140.7815312047385
 20
73.40688366202369
 30
0.0
 10
140.8589129265036
 20
73.38718979693871
 30
0.0
 10
141.0272042070152
 20
73.34738431611761
 30
0.0
 10
141.1188891194116
 20
73.3271179964086
 30
0.0
 10
141.4100925790271
 20
73.26813789276888
 30
0.0
 10
141.6246810673821
 20
73.23116052450797
 30
0.0
 10
141.8636217595474
 20
73.20023466352117
 30
0.0
  0
SPLINE
  5
1A0
330
1F
100
AcDbEntity
  8
0
  6
Continuous
 62
     7
370
    30
100
AcDbSpline
210
0.0
220
0.0
230
1.0
 70
     8
 71
     3
 72
    14
 73
    10
 74
     0
 42
0.000000001
 43
0.00000001
 40
0.0
 40
0.0
 40
0.0
 40
0.0
 40
0.25
 40
0.25
 40
0.5
 40
0.5
 40
0.75
 40
0.75
 40
1.0
 40
1.0
 40
1.0
 40
1.0
 10
162.9715659081447
 20
73.20023466352117
 30
0.0
 10
163.2096321629336
 20
73.23104734693031
 30
0.0
 10
163.4240806294086
 20
73.26798518272543
 30
0.0
 10
163.8098004321018
 20
73.34600365444766
 30
0.0
 10
163.9801362512475
 20
73.387087094281
 30
0.0
 10
164.2664733957391
 20
73.46425144930296
 30
0.0
 10
164.3854494032645
 20
73.50111716248175
 30
0.0
 10
164.5690783656285
 20
73.56428419288386
 30
0.0
 10
164.635130801405
 20
73.59094322803502
 30
0.0
 10
164.6768405694449
 20
73.61151604659871
 30
0.0
  0
SPLINE
  5
1A1
330
1F
100
AcDbEntity
  8
0
  6
Continuous
 62
     7
370
    30
100
AcDbSpline
210
0.0
220
0.0
230
1.0
 70
     8
 71
     3
 72
    28
 73
    24
 74
     0
 42
0.000000001
 43
0.00000001
 40
0.0
 40
0.0
 40
0.0
 40
0.0
 40
0.1249999999999999
 40
0.1249999999999999
 40
0.2499999999999999
 40
0.2499999999999999
 40
0.3124999999999999
 40
0.3124999999999999
 40
0.3749999999999998
 40
0.3749999999999998
 40
0.4999999999999997
 40
0.4999999999999997
 40
0.6249999999999996
 40
0.6249999999999996
 40
0.6874999999999994
 40
0.6874999999999994
 40
0.7499999999999994
 40
0.7499999999999994
 40
0.8749999999999996
 40
0.8749999999999996
 40
0.9374999999999998
 40
0.9374999999999998
 40
1.0
 40
1.0
 40
1.0
 40
1.0
 10
141.8636217595474
 20
73.20023466352117
 30
0.0
 10
142.6694069382137
 20
73.0959426729237
 30
0.0
 10
143.4976560857729
 20
72.98965974159597
 30
0.0
 10
145.1937369365065
 20
72.79300002532904
 30
0.0
 10
146.0616233182166
 20
72.70248976261423
 30
0.0
 10
147.3918348991931
 20
72.58871314970267
 30
0.0
 10
147.8399911450994
 20
72.55441647245071
 30
0.0
 10
148.745827253026
 20
72.49443301704487
 30
0.0
 10
149.2031326880206
 20
72.46881299162138
 30
0.0
 10
150.5709667518099
 20
72.40714971281783
 30
0.0
 10
151.4834748613302
 20
72.38597155146931
 30
0.0
 10
153.3096945218203
 20
72.3853359044123
 30
0.0
 10
154.2234060272727
 20
72.40587907809352
 30
0.0
 10
155.5949079705563
 20
72.46687124603895
 30
0.0
 10
156.0523329065754
 20
72.49224908158817
 30
0.0
 10
156.9563862049
 20
72.55160008009024
 30
0.0
 10
157.4044120894949
 20
72.58562537883316
 30
0.0
 10
158.7364152931197
 20
72.69885659068936
 30
0.0
 10
159.6083973573361
 20
72.78937760138804
 30
0.0
 10
160.8907552313607
 20
72.93775594980526
 30
0.0
 10
161.3139205157356
 20
72.98927988409363
 30
0.0
 10
162.1511355444426
 20
73.09421640762892
 30
0.0
 10
162.5658998856041
 20
73.14772970546454
 30
0.0
 10
162.9715659081447
 20
73.20023466352117
 30
0.0
  0
LINE
  5
1A2
330
1F
100
AcDbEntity
  8
0
  6
Continuous
 62
     7
370
    30
100
AcDbLine
 10
164.6768405694
 20
73.6115160466
 30
0.0
 11
164.7784060224
 21
73.5939837152
 31
0.0
  0
LINE
  5
1A3
330
1F
100
AcDbEntity
  8
0
  6
Continuous
 62
     7
370
    30
100
AcDbLine
 10
140.0567816453
 20
73.5939837152
 30
0.0
 11
140.1583470982
 21
73.6115160466
 31
0.0
  0
LINE
  5
1A4
330
1F
100
AcDbEntity
  8
0
  6
Continuous
 62
     7
370
    30
100
AcDbLine
 10
139.9175938338
 20
78.2225934947
 30
0.0
 11
139.9175938338
 21
73.6589784273
 31
0.0
  0
LWPOLYLINE
  5
1A5
330
1F
100
AcDbEntity
  8
0
  6
Continuous
 62
     7
370
    30
100
AcDbPolyline
 90
        3
 70
   128
 43
0.0
 10
164.9175938338
 20
78.2225934947
 10
164.810654601
 20
79.1349599998
 10
164.6819704476
 20
79.573373265
  0
LWPOLYLINE
  5
1A6
330
1F
100
AcDbEntity
  8
0
  6
Continuous
 62
     7
370
    30
100
AcDbPolyline
 90
        3
 70
   128
 43
0.0
 10
140.251058485
 20
79.8263581185
 10
140.0245330667
 20
79.1349599998
 10
139.9175938338
 20
78.2225934947
  0
LINE
  5
1A7
330
1F
100
AcDbEntity
  8
0
  6
Continuous
 62
     7
370
    30
100
AcDbLine
 10
164.9175938338
 20
73.6589784273
 30
0.0
 11
164.9175938338
 21
78.2225934947
 31
0.0
  0
LWPOLYLINE
  5
1A8
330
1F
100
AcDbEntity
  8
0
  6
Continuous
 62
     7
370
    30
100
AcDbPolyline
 90
       19
 70
   128
 43
0.0
 10
141.5223217415
 20
81.7426576332
 10
141.7706031724
 20
81.9952125755
 10
142.6640397598
 20
82.742921902
 10
143.7243623616
 20
83.4190231423
 10
144.9334285642
 20
84.0119480166
 10
146.2705509094
 20
84.511551416
 10
147.7128508634
 20
84.9092849878
 10
149.235650274
 20
85.1983434002
 10
150.8128936212
 20
85.3737807838
 10
152.4175938338
 20
85.4325953562
 10
154.0222940465
 20
85.3737807838
 10
155.5995373937
 20
85.1983434002
 10
157.1223368043
 20
84.9092849878
 10
158.5646367583
 20
84.511551416
 10
159.9017591035
 20
84.0119480166
 10
161.110825306
 20
83.4190231423
 10
162.1711479078
 20
82.742921902
 10
163.0645844952
 20
81.9952125755
 10
163.334188524
 20
81.7197433937
  0
ARC
  5
1A9
330
1F
100
AcDbEntity
  8
0
  6
Continuous
 62
     7
370
    30
100
AcDbCircle
 10
152.4175938338
 20
73.6311933704
 30
0.0
 40
12.03706510784377
100
AcDbArc
 50
77.4397985167
 51
102.5602014833
  0
LINE
  5
1AA
330
1F
100
AcDbEntity
  8
0
  6
Continuous
 62
     7
370
    30
100
AcDbLine
 10
164.9175938338
 20
41.6589784273
 30
0.0
 11
164.9175938338
 21
-7.8410215727
 31
0.0
  0
LINE
  5
1AB
330
1F
100
AcDbEntity
  8
0
  6
Continuous
 62
     7
370
    30
100
AcDbLine
 10
139.9175938338
 20
41.6589784273
 30
0.0
 11
139.9175938338
 21
-7.8410215727
 31
0.0
  0
LINE
  5
1AC
330
1F
100
AcDbEntity
  8
0
  6
Continuous
 62
     7
370
    30
100
AcDbLine
 10
453.3970219721
 20
128.6574130171
 30
0.0
 11
454.3970219721
 21
130.6574130171
 31
0.0
  0
LINE
  5
1AD
330
1F
100
AcDbEntity
  8
0
  6
Continuous
 62
     7
370
    30
100
AcDbLine
 10
454.3970219721
 20
158.6574130171
 30
0.0
 11
453.3970219721
 21
160.6574130171
 31
0.0
  0
LINE
  5
1AE
330
1F
100
AcDbEntity
  8
0
  6
Continuous
 62
     7
370
    30
100
AcDbLine
 10
446.1970219721
 20
128.6574130171
 30
0.0
 11
453.3970219721
 21
128.6574130171
 31
0.0
  0
LINE
  5
1AF
330
1F
100
AcDbEntity
  8
0
  6
Continuous
 62
     7
370
    30
100
AcDbLine
 10
453.3970219721
 20
160.6574130171
 30
0.0
 11
446.1970219721
 21
160.6574130171
 31
0.0
  0
LINE
  5
1B0
330
1F
100
AcDbEntity
  8
0
  6
Continuous
 62
     7
370
    30
100
AcDbLine
 10
446.1970219721
 20
160.6574130171
 30
0.0
 11
444.6970219721
 21
157.6574130171
 31
0.0
  0
LINE
  5
1B1
330
1F
100
AcDbEntity
  8
0
  6
Continuous
 62
     7
370
    30
100
AcDbLine
 10
444.6970219721
 20
131.6574130171
 30
0.0
 11
446.1970219721
 21
128.6574130171
 31
0.0
  0
LINE
  5
1B2
330
1F
100
AcDbEntity
  8
0
  6
Continuous
 62
     7
370
    30
100
AcDbLine
 10
454.3970219721
 20
139.1574130171
 30
0.0
 11
571.0734582008
 21
139.1574130171
 31
0.0
  0
LINE
  5
1B3
330
1F
100
AcDbEntity
  8
0
  6
Continuous
 62
     7
370
    30
100
AcDbLine
 10
562.9561983644
 20
150.1574130171
 30
0.0
 11
454.3970219721
 21
150.1574130171
 31
0.0
  0
LINE
  5
1B4
330
1F
100
AcDbEntity
  8
0
  6
Continuous
 62
     7
370
    30
100
AcDbLine
 10
586.5523852507
 20
130.1197332389
 30
0.0
 11
587.1651385996
 21
129.9927161797
 31
0.0
  0
LINE
  5
1B5
330
1F
100
AcDbEntity
  8
0
  6
Continuous
 62
     7
370
    30
100
AcDbLine
 10
590.2289053445
 20
129.9927161797
 30
0.0
 11
590.8416586934
 21
130.1197332389
 31
0.0
  0
LINE
  5
1B6
330
1F
100
AcDbEntity
  8
0
  6
Continuous
 62
     7
370
    30
100
AcDbLine
 10
601.4970219721
 20
128.6574130171
 30
0.0
 11
602.9970219721
 21
131.6574130171
 31
0.0
  0
LINE
  5
1B7
330
1F
100
AcDbEntity
  8
0
  6
Continuous
 62
     7
370
    30
100
AcDbLine
 10
575.8970219721
 20
128.6574130171
 30
0.0
 11
601.4970219721
 21
128.6574130171
 31
0.0
  0
LINE
  5
1B8
330
1F
100
AcDbEntity
  8
0
  6
Continuous
 62
     7
370
    30
100
AcDbLine
 10
574.3970219721
 20
131.6574130171
 30
0.0
 11
575.8970219721
 21
128.6574130171
 31
0.0
  0
ARC
  5
1B9
330
1F
100
AcDbEntity
  8
0
  6
Continuous
 62
     7
370
    30
100
AcDbCircle
 10
588.6970219721
 20
160.6574130171
 30
0.0
 40
27.55
100
AcDbArc
 50
85.8369346827
 51
94.1630653173
  0
LINE
  5
1BA
330
1F
100
AcDbEntity
  8
0
  6
Continuous
 62
     7
370
    30
100
AcDbLine
 10
590.6970219721
 20
188.1347218373
 30
0.0
 11
590.6970219721
 21
188.385377241
 31
0.0
  0
ARC
  5
1BB
330
1F
100
AcDbEntity
  8
0
  6
Continuous
 62
     7
370
    30
100
AcDbCircle
 10
588.6970219721
 20
160.6574130171
 30
0.0
 40
27.80000000000001
100
AcDbArc
 50
280.3613790323
 51
85.8744374515
  0
LINE
  5
1BC
330
1F
100
AcDbEntity
  8
0
  6
Continuous
 62
     7
370
    30
100
AcDbLine
 10
593.6970219721
 20
133.3107496009
 30
0.0
 11
593.6970219721
 21
133.5649325105
 31
0.0
  0
ARC
  5
1BD
330
1F
100
AcDbEntity
  8
0
  6
Continuous
 62
     7
370
    30
100
AcDbCircle
 10
588.6970219721
 20
160.6574130171
 30
0.0
 40
27.55000000000001
100
AcDbArc
 50
276.2515013148
 51
280.4564554442
  0
LINE
  5
1BE
330
1F
100
AcDbEntity
  8
0
  6
Continuous
 62
     7
370
    30
100
AcDbLine
 10
591.6970219721
 20
133.2712394983
 30
0.0
 11
591.6970219721
 21
134.0761696301
 31
0.0
  0
ARC
  5
1BF
330
1F
100
AcDbEntity
  8
0
  6
Continuous
 62
     7
370
    30
100
AcDbCircle
 10
588.6970219721
 20
160.6574130171
 30
0.0
 40
26.75000000000003
100
AcDbArc
 50
276.4392415942
 51
280.7728533751
  0
LINE
  5
1C0
330
1F
100
AcDbEntity
  8
0
  6
Continuous
 62
     7
370
    30
100
AcDbLine
 10
593.6970219721
 20
134.1244146942
 30
0.0
 11
593.6970219721
 21
134.3788571207
 31
0.0
  0
ARC
  5
1C1
330
1F
100
AcDbEntity
  8
0
  6
Continuous
 62
     7
370
    30
100
AcDbCircle
 10
588.6970219721
 20
160.6574130171
 30
0.0
 40
27.0
100
AcDbArc
 50
280.6719292858
 51
85.7519773333
  0
LINE
  5
1C2
330
1F
100
AcDbEntity
  8
0
  6
Continuous
 62
     7
370
    30
100
AcDbLine
 10
590.6970219721
 20
187.3325418828
 30
0.0
 11
590.6970219721
 21
187.5832370528
 31
0.0
  0
ARC
  5
1C3
330
1F
100
AcDbEntity
  8
0
  6
Continuous
 62
     7
370
    30
100
AcDbCircle
 10
588.6970219721
 20
160.6574130171
 30
0.0
 40
26.75
100
AcDbArc
 50
85.7122022517
 51
94.2877977483
  0
LINE
  5
1C4
330
1F
100
AcDbEntity
  8
0
  6
Continuous
 62
     7
370
    30
100
AcDbLine
 10
586.6970219721
 20
187.5832370528
 30
0.0
 11
586.6970219721
 21
187.3325418828
 31
0.0
  0
ARC
  5
1C5
330
1F
100
AcDbEntity
  8
0
  6
Continuous
 62
     7
370
    30
100
AcDbCircle
 10
588.6970219721
 20
160.6574130171
 30
0.0
 40
27.0
100
AcDbArc
 50
94.2480226667
 51
259.3280707142
  0
LINE
  5
1C6
330
1F
100
AcDbEntity
  8
0
  6
Continuous
 62
     7
370
    30
100
AcDbLine
 10
583.6970219721
 20
134.3788571207
 30
0.0
 11
583.6970219721
 21
134.1244146942
 31
0.0
  0
ARC
  5
1C7
330
1F
100
AcDbEntity
  8
0
  6
Continuous
 62
     7
370
    30
100
AcDbCircle
 10
588.6970219721
 20
160.6574130171
 30
0.0
 40
26.75000000000003
100
AcDbArc
 50
259.2271466249
 51
263.5607584058
  0
LINE
  5
1C8
330
1F
100
AcDbEntity
  8
0
  6
Continuous
 62
     7
370
    30
100
AcDbLine
 10
585.6970219721
 20
134.0761696301
 30
0.0
 11
585.6970219721
 21
133.2712394983
 31
0.0
  0
ARC
  5
1C9
330
1F
100
AcDbEntity
  8
0
  6
Continuous
 62
     7
370
    30
100
AcDbCircle
 10
588.6970219721
 20
160.6574130171
 30
0.0
 40
27.55000000000001
100
AcDbArc
 50
259.5435445558
 51
263.7484986852
  0
LINE
  5
1CA
330
1F
100
AcDbEntity
  8
0
  6
Continuous
 62
     7
370
    30
100
AcDbLine
 10
583.6970219721
 20
133.5649325105
 30
0.0
 11
583.6970219721
 21
133.3107496009
 31
0.0
  0
ARC
  5
1CB
330
1F
100
AcDbEntity
  8
0
  6
Continuous
 62
     7
370
    30
100
AcDbCircle
 10
588.6970219721
 20
160.6574130171
 30
0.0
 40
27.80000000000001
100
AcDbArc
 50
94.1255625485
 51
259.6386209677
  0
LINE
  5
1CC
330
1F
100
AcDbEntity
  8
0
  6
Continuous
 62
     7
370
    30
100
AcDbLine
 10
586.6970219721
 20
188.385377241
 30
0.0
 11
586.6970219721
 21
188.1347218373
 31
0.0
  0
LINE
  5
1CD
330
1F
100
AcDbEntity
  8
0
  6
Continuous
 62
     7
370
    30
100
AcDbLine
 10
591.6970219721
 20
133.0197575449
 30
0.0
 11
591.6970219721
 21
133.2712394983
 31
0.0
  0
ARC
  5
1CE
330
1F
100
AcDbEntity
  8
0
  6
Continuous
 62
     7
370
    30
100
AcDbCircle
 10
588.6970219721
 20
160.6574130171
 30
0.0
 40
27.8
100
AcDbArc
 50
276.1950616555
 51
280.3613790323
  0
ARC
  5
1CF
330
1F
100
AcDbEntity
  8
0
  6
Continuous
 62
     7
370
    30
100
AcDbCircle
 10
588.6970219721
 20
160.6574130171
 30
0.0
 40
27.80000000000001
100
AcDbArc
 50
85.8744374515
 51
94.1255625485
  0
LINE
  5
1D0
330
1F
100
AcDbEntity
  8
0
  6
Continuous
 62
     7
370
    30
100
AcDbLine
 10
585.6970219721
 20
133.2712394983
 30
0.0
 11
585.6970219721
 21
133.0197575449
 31
0.0
  0
ARC
  5
1D1
330
1F
100
AcDbEntity
  8
0
  6
Continuous
 62
     7
370
    30
100
AcDbCircle
 10
588.6970219721
 20
160.6574130171
 30
0.0
 40
27.8
100
AcDbArc
 50
259.6386209677
 51
263.8049383445
  0
ARC
  5
1D2
330
1F
100
AcDbEntity
  8
0
  6
Continuous
 62
     7
370
    30
100
AcDbCircle
 10
588.6970219721
 20
160.6574130171
 30
0.0
 40
27.00000000000001
100
AcDbArc
 50
263.6206297916
 51
276.3793702084
  0
ARC
  5
1D3
330
1F
100
AcDbEntity
  8
0
  6
Continuous
 62
     7
370
    30
100
AcDbCircle
 10
588.6970219721
 20
160.6574130171
 30
0.0
 40
27.79999999999998
100
AcDbArc
 50
263.8049383445
 51
276.1950616555
  0
CIRCLE
  5
1D4
330
1F
100
AcDbEntity
  8
0
  6
Continuous
 62
     7
370
    30
100
AcDbCircle
 10
595.6970219721
 20
160.6574130171
 30
0.0
 40
6.0
  0
LINE
  5
1D5
330
1F
100
AcDbEntity
  8
0
  6
Continuous
 62
     7
370
    30
100
AcDbLine
 10
595.6970219721
 20
162.9668140938
 30
0.0
 11
593.6970219721
 21
161.8121135555
 31
0.0
  0
LINE
  5
1D6
330
1F
100
AcDbEntity
  8
0
  6
Continuous
 62
     7
370
    30
100
AcDbLine
 10
593.6970219721
 20
161.8121135555
 30
0.0
 11
593.6970219721
 21
159.5027124787
 31
0.0
  0
LINE
  5
1D7
330
1F
100
AcDbEntity
  8
0
  6
Continuous
 62
     7
370
    30
100
AcDbLine
 10
593.6970219721
 20
159.5027124787
 30
0.0
 11
595.6970219721
 21
158.3480119403
 31
0.0
  0
LINE
  5
1D8
330
1F
100
AcDbEntity
  8
0
  6
Continuous
 62
     7
370
    30
100
AcDbLine
 10
595.6970219721
 20
158.3480119403
 30
0.0
 11
597.6970219721
 21
159.5027124787
 31
0.0
  0
LINE
  5
1D9
330
1F
100
AcDbEntity
  8
0
  6
Continuous
 62
     7
370
    30
100
AcDbLine
 10
597.6970219721
 20
159.5027124787
 30
0.0
 11
597.6970219721
 21
161.8121135555
 31
0.0
  0
LINE
  5
1DA
330
1F
100
AcDbEntity
  8
0
  6
Continuous
 62
     7
370
    30
100
AcDbLine
 10
597.6970219721
 20
161.8121135555
 30
0.0
 11
595.6970219721
 21
162.9668140938
 31
0.0
  0
CIRCLE
  5
1DB
330
1F
100
AcDbEntity
  8
0
  6
Continuous
 62
     7
370
    30
100
AcDbCircle
 10
581.6970219721
 20
160.6574130171
 30
0.0
 40
6.0
  0
LINE
  5
1DC
330
1F
100
AcDbEntity
  8
0
  6
Continuous
 62
     7
370
    30
100
AcDbLine
 10
581.6970219721
 20
162.9668140938
 30
0.0
 11
579.6970219721
 21
161.8121135555
 31
0.0
  0
LINE
  5
1DD
330
1F
100
AcDbEntity
  8
0
  6
Continuous
 62
     7
370
    30
100
AcDbLine
 10
579.6970219721
 20
161.8121135555
 30
0.0
 11
579.6970219721
 21
159.5027124787
 31
0.0
  0
LINE
  5
1DE
330
1F
100
AcDbEntity
  8
0
  6
Continuous
 62
     7
370
    30
100
AcDbLine
 10
579.6970219721
 20
159.5027124787
 30
0.0
 11
581.6970219721
 21
158.3480119403
 31
0.0
  0
LINE
  5
1DF
330
1F
100
AcDbEntity
  8
0
  6
Continuous
 62
     7
370
    30
100
AcDbLine
 10
581.6970219721
 20
158.3480119403
 30
0.0
 11
583.6970219721
 21
159.5027124787
 31
0.0
  0
LINE
  5
1E0
330
1F
100
AcDbEntity
  8
0
  6
Continuous
 62
     7
370
    30
100
AcDbLine
 10
583.6970219721
 20
159.5027124787
 30
0.0
 11
583.6970219721
 21
161.8121135555
 31
0.0
  0
LINE
  5
1E1
330
1F
100
AcDbEntity
  8
0
  6
Continuous
 62
     7
370
    30
100
AcDbLine
 10
583.6970219721
 20
161.8121135555
 30
0.0
 11
581.6970219721
 21
162.9668140938
 31
0.0
  0
ARC
  5
1E2
330
1F
100
AcDbEntity
  8
0
  6
Continuous
 62
     7
370
    30
100
AcDbCircle
 10
588.6970219721
 20
160.6574130171
 30
0.0
 40
26.95000000000005
100
AcDbArc
 50
94.2559184839
 51
180.0
  0
ARC
  5
1E3
330
1F
100
AcDbEntity
  8
0
  6
Continuous
 62
     7
370
    30
100
AcDbCircle
 10
588.6970219721
 20
160.6574130171
 30
0.0
 40
26.95000000000002
100
AcDbArc
 50
280.6919616339
 51
85.7440815161
  0
ARC
  5
1E4
330
1F
100
AcDbEntity
  8
0
  6
Continuous
 62
     7
370
    30
100
AcDbCircle
 10
588.6970219721
 20
160.6574130171
 30
0.0
 40
26.95
100
AcDbArc
 50
263.6087449359
 51
276.3912550641
  0
ARC
  5
1E5
330
1F
100
AcDbEntity
  8
0
  6
Continuous
 62
     7
370
    30
100
AcDbCircle
 10
588.6970219721
 20
160.6574130171
 30
0.0
 40
26.95000000000005
100
AcDbArc
 50
180.0
 51
259.3080383662
  0
CIRCLE
  5
1E6
330
1F
100
AcDbEntity
  8
0
  6
Continuous
 62
     7
370
    30
100
AcDbCircle
 10
588.6970219721
 20
160.6574130171
 30
0.0
 40
26.0
  0
CIRCLE
  5
1E7
330
1F
100
AcDbEntity
  8
0
  6
Continuous
 62
     7
370
    30
100
AcDbCircle
 10
606.8835554515
 20
171.1574130171
 30
0.0
 40
2.250000000000012
  0
CIRCLE
  5
1E8
330
1F
100
AcDbEntity
  8
0
  6
Continuous
 62
     7
370
    30
100
AcDbCircle
 10
588.6970219721
 20
139.6574130171
 30
0.0
 40
2.25
  0
CIRCLE
  5
1E9
330
1F
100
AcDbEntity
  8
0
  6
Continuous
 62
     7
370
    30
100
AcDbCircle
 10
595.6970219721
 20
160.6574130171
 30
0.0
 40
6.500000000000114
  0
CIRCLE
  5
1EA
330
1F
100
AcDbEntity
  8
0
  6
Continuous
 62
     7
370
    30
100
AcDbCircle
 10
581.6970219721
 20
160.6574130171
 30
0.0
 40
6.499999999999886
  0
CIRCLE
  5
1EB
330
1F
100
AcDbEntity
  8
0
  6
Continuous
 62
     7
370
    30
100
AcDbCircle
 10
570.5104884926
 20
171.1574130171
 30
0.0
 40
2.249999999999963
  0
LINE
  5
1EC
330
1F
100
AcDbEntity
  8
0
  6
Continuous
 62
     7
370
    30
100
AcDbLine
 10
454.3970219721
 20
130.6574130171
 30
0.0
 11
454.3970219721
 21
158.6574130171
 31
0.0
  0
LINE
  5
1ED
330
1F
100
AcDbEntity
  8
0
  6
Continuous
 62
     7
370
    30
100
AcDbLine
 10
453.3970219721
 20
128.6574130171
 30
0.0
 11
453.3970219721
 21
160.6574130171
 31
0.0
  0
LINE
  5
1EE
330
1F
100
AcDbEntity
  8
0
  6
Continuous
 62
     7
370
    30
100
AcDbLine
 10
446.1970219721
 20
128.6574130171
 30
0.0
 11
446.1970219721
 21
160.6574130171
 31
0.0
  0
LINE
  5
1EF
330
1F
100
AcDbEntity
  8
0
  6
Continuous
 62
     7
370
    30
100
AcDbLine
 10
444.6970219721
 20
131.6574130171
 30
0.0
 11
444.6970219721
 21
157.6574130171
 31
0.0
  0
ARC
  5
1F0
330
1F
100
AcDbEntity
  8
0
  6
Continuous
 62
     7
370
    30
100
AcDbCircle
 10
586.7796924895
 20
134.2265854513
 30
0.0
 40
4.113137935380203
100
AcDbArc
 50
208.6675036283
 51
266.8320090345
  0
ARC
  5
1F1
330
1F
100
AcDbEntity
  8
0
  6
Continuous
 62
     7
370
    30
100
AcDbCircle
 10
590.597111544
 20
134.2698773744
 30
0.0
 40
4.15734285980699
100
AcDbArc
 50
273.3722531276
 51
330.3063842384
  0
LWPOLYLINE
  5
1F2
330
1F
100
AcDbEntity
  8
0
  6
Continuous
 62
     7
370
    30
100
AcDbPolyline
 90
       22
 70
   128
 43
0.0
 10
585.4995326455
 20
133.041909002
 10
585.488529201
 20
133.0345542245
 10
585.0241575445
 20
132.6323965732
 10
584.75779096
 20
132.1875333964
 10
584.703789339
 20
131.7239473833
 10
584.8650639228
 20
131.2666305757
 10
585.2329203569
 20
130.8402370411
 10
585.7875274058
 20
130.4677537653
 10
586.4989860598
 20
130.1692614183
 10
587.3289413988
 20
129.9608517995
 10
588.2326503156
 20
129.8537603256
 10
589.1613936286
 20
129.8537603256
 10
590.0651025454
 20
129.9608517995
 10
590.8950578843
 20
130.1692614183
 10
591.6065165383
 20
130.4677537653
 10
592.1611235872
 20
130.8402370411
 10
592.5289800213
 20
131.2666305757
 10
592.6902546051
 20
131.7239473833
 10
592.6362529841
 20
132.1875333964
 10
592.3698863996
 20
132.6323965732
 10
591.9055147431
 20
133.0345542245
 10
591.8945112986
 20
133.041909002
  0
LWPOLYLINE
  5
1F3
330
1F
100
AcDbEntity
  8
0
  6
Continuous
 62
     7
370
    30
100
AcDbPolyline
 90
        9
 70
   128
 43
0.0
 10
589.0970219721
 20
131.3902370411
 10
589.1066293319
 20
131.4390096216
 10
589.1350822058
 20
131.4859078992
 10
589.1812871659
 20
131.5291295993
 10
589.2434685815
 20
131.5670137364
 10
589.3192368555
 20
131.5981044442
 10
589.4056802559
 20
131.6212069242
 10
589.499476811
 20
131.6354333612
 10
589.5970219721
 20
131.6402370411
  0
LINE
  5
1F4
330
1F
100
AcDbEntity
  8
0
  6
Continuous
 62
     7
370
    30
100
AcDbLine
 10
589.5970219721
 20
131.6402370411
 30
0.0
 11
590.8470219721
 21
131.6402370411
 31
0.0
  0
LINE
  5
1F5
330
1F
100
AcDbEntity
  8
0
  6
Continuous
 62
     7
370
    30
100
AcDbLine
 10
590.8470219721
 20
131.6402370411
 30
0.0
 11
590.8470219721
 21
132.0402370411
 31
0.0
  0
LINE
  5
1F6
330
1F
100
AcDbEntity
  8
0
  6
Continuous
 62
     7
370
    30
100
AcDbLine
 10
590.8470219721
 20
132.0402370411
 30
0.0
 11
589.5970219721
 21
132.0402370411
 31
0.0
  0
LWPOLYLINE
  5
1F7
330
1F
100
AcDbEntity
  8
0
  6
Continuous
 62
     7
370
    30
100
AcDbPolyline
 90
        9
 70
   128
 43
0.0
 10
589.5970219721
 20
132.0402370411
 10
589.499476811
 20
132.045040721
 10
589.4056802559
 20
132.0592671579
 10
589.3192368555
 20
132.082369638
 10
589.2434685815
 20
132.1134603458
 10
589.1812871659
 20
132.1513444828
 10
589.1350822058
 20
132.194566183
 10
589.1066293319
 20
132.2414644606
 10
589.0970219721
 20
132.2902370411
  0
LINE
  5
1F8
330
1F
100
AcDbEntity
  8
0
  6
Continuous
 62
     7
370
    30
100
AcDbLine
 10
589.0970219721
 20
132.2902370411
 30
0.0
 11
589.0970219721
 21
132.9152370411
 31
0.0
  0
LINE
  5
1F9
330
1F
100
AcDbEntity
  8
0
  6
Continuous
 62
     7
370
    30
100
AcDbLine
 10
589.0970219721
 20
132.9152370411
 30
0.0
 11
588.2970219721
 21
132.9152370411
 31
0.0
  0
LINE
  5
1FA
330
1F
100
AcDbEntity
  8
0
  6
Continuous
 62
     7
370
    30
100
AcDbLine
 10
588.2970219721
 20
132.9152370411
 30
0.0
 11
588.2970219721
 21
132.2902370411
 31
0.0
  0
LWPOLYLINE
  5
1FB
330
1F
100
AcDbEntity
  8
0
  6
Continuous
 62
     7
370
    30
100
AcDbPolyline
 90
        9
 70
   128
 43
0.0
 10
588.2970219721
 20
132.2902370411
 10
588.2874146123
 20
132.2414644606
 10
588.2589617383
 20
132.194566183
 10
588.2127567782
 20
132.1513444828
 10
588.1505753626
 20
132.1134603458
 10
588.0748070886
 20
132.082369638
 10
587.9883636882
 20
132.0592671579
 10
587.8945671331
 20
132.045040721
 10
587.7970219721
 20
132.0402370411
  0
LINE
  5
1FC
330
1F
100
AcDbEntity
  8
0
  6
Continuous
 62
     7
370
    30
100
AcDbLine
 10
587.7970219721
 20
132.0402370411
 30
0.0
 11
586.5470219721
 21
132.0402370411
 31
0.0
  0
LINE
  5
1FD
330
1F
100
AcDbEntity
  8
0
  6
Continuous
 62
     7
370
    30
100
AcDbLine
 10
586.5470219721
 20
132.0402370411
 30
0.0
 11
586.5470219721
 21
131.6402370411
 31
0.0
  0
LINE
  5
1FE
330
1F
100
AcDbEntity
  8
0
  6
Continuous
 62
     7
370
    30
100
AcDbLine
 10
586.5470219721
 20
131.6402370411
 30
0.0
 11
587.7970219721
 21
131.6402370411
 31
0.0
  0
LWPOLYLINE
  5
1FF
330
1F
100
AcDbEntity
  8
0
  6
Continuous
 62
     7
370
    30
100
AcDbPolyline
 90
        9
 70
   128
 43
0.0
 10
587.7970219721
 20
131.6402370411
 10
587.8945671331
 20
131.6354333612
 10
587.9883636882
 20
131.6212069242
 10
588.0748070886
 20
131.5981044442
 10
588.1505753626
 20
131.5670137364
 10
588.2127567782
 20
131.5291295993
 10
588.2589617383
 20
131.4859078992
 10
588.2874146123
 20
131.4390096216
 10
588.2970219721
 20
131.3902370411
  0
LINE
  5
200
330
1F
100
AcDbEntity
  8
0
  6
Continuous
 62
     7
370
    30
100
AcDbLine
 10
588.2970219721
 20
131.3902370411
 30
0.0
 11
588.2970219721
 21
130.7652370411
 31
0.0
  0
LINE
  5
201
330
1F
100
AcDbEntity
  8
0
  6
Continuous
 62
     7
370
    30
100
AcDbLine
 10
588.2970219721
 20
130.7652370411
 30
0.0
 11
589.0970219721
 21
130.7652370411
 31
0.0
  0
LINE
  5
202
330
1F
100
AcDbEntity
  8
0
  6
Continuous
 62
     7
370
    30
100
AcDbLine
 10
589.0970219721
 20
130.7652370411
 30
0.0
 11
589.0970219721
 21
131.3902370411
 31
0.0
  0
LINE
  5
203
330
1F
100
AcDbEntity
  8
0
  6
Continuous
 62
     7
370
    30
100
AcDbLine
 10
588.2970219721
 20
132.4972878486
 30
0.0
 11
589.0970219721
 21
132.4972878486
 31
0.0
  0
LINE
  5
204
330
1F
100
AcDbEntity
  8
0
  6
Continuous
 62
     7
370
    30
100
AcDbLine
 10
589.0970219721
 20
132.2902370411
 30
0.0
 11
589.0970219721
 21
131.3902370411
 31
0.0
  0
LINE
  5
205
330
1F
100
AcDbEntity
  8
0
  6
Continuous
 62
     7
370
    30
100
AcDbLine
 10
588.2970219721
 20
132.2902370411
 30
0.0
 11
588.2970219721
 21
131.3902370411
 31
0.0
  0
LINE
  5
206
330
1F
100
AcDbEntity
  8
0
  6
Continuous
 62
     7
370
    30
100
AcDbLine
 10
601.4970219721
 20
128.6574130171
 30
0.0
 11
601.4970219721
 21
135.9794876586
 31
0.0
  0
LINE
  5
207
330
1F
100
AcDbEntity
  8
0
  6
Continuous
 62
     7
370
    30
100
AcDbLine
 10
602.9970219721
 20
136.8173207354
 30
0.0
 11
602.9970219721
 21
131.6574130171
 31
0.0
  0
SPLINE
  5
208
330
1F
100
AcDbEntity
  8
0
  6
Continuous
 62
     7
370
    30
100
AcDbSpline
210
0.0
220
0.0
230
1.0
 70
     8
 71
     3
 72
    15
 73
    11
 74
     0
 42
0.000000001
 43
0.00000001
 40
0.0
 40
0.0
 40
0.0
 40
0.0
 40
0.1395894561407083
 40
0.2789304901714194
 40
0.4245939244886455
 40
0.5751163035056669
 40
0.7190913740037479
 40
0.8559950550278634
 40
0.994958159052658
 40
1.0
 40
1.0
 40
1.0
 40
1.0
 10
588.6970219720533
 20
128.8121804384221
 30
0.0
 10
589.3447580315234
 20
128.8207442487017
 30
0.0
 10
590.6390773989373
 20
128.8378566285693
 30
0.0
 10
592.3786817011023
 20
129.0100058929239
 30
0.0
 10
593.7663428940964
 20
129.3830306316746
 30
0.0
 10
594.6121689987582
 20
130.0521885913709
 30
0.0
 10
594.794653039306
 20
131.0147967554295
 30
0.0
 10
594.2817654457973
 20
132.1020752957153
 30
0.0
 10
593.6915951958694
 20
132.9095586266475
 30
0.0
 10
593.1834491539915
 20
133.2224823227195
 30
0.0
 10
593.16565815715
 20
133.2334382763817
 30
0.0
  0
SPLINE
  5
209
330
1F
100
AcDbEntity
  8
0
  6
Continuous
 62
     7
370
    30
100
AcDbSpline
210
0.0
220
0.0
230
1.0
 70
     8
 71
     3
 72
    15
 73
    11
 74
     0
 42
0.000000001
 43
0.00000001
 40
0.0
 40
0.0
 40
0.0
 40
0.0
 40
0.1259623485607971
 40
0.2745122347536135
 40
0.4144043725902736
 40
0.5509537035462717
 40
0.6932909011133782
 40
0.8431027337260742
 40
0.9215645166848567
 40
1.0
 40
1.0
 40
1.0
 40
1.0
 10
584.2580699432114
 20
133.2291193495523
 30
0.0
 10
583.89611103415
 20
132.9093999346938
 30
0.0
 10
583.1072868327066
 20
132.2126290974578
 30
0.0
 10
582.624897931703
 20
131.090113658589
 30
0.0
 10
582.7453590906003
 20
130.1380309774009
 30
0.0
 10
583.4832390056565
 20
129.4641775278211
 30
0.0
 10
584.7609743277277
 20
129.0502767482911
 30
0.0
 10
586.2420986835807
 20
128.883583283332
 30
0.0
 10
587.6078267949842
 20
128.8204299744584
 30
0.0
 10
588.3339974874157
 20
128.8149299764582
 30
0.0
 10
588.6970219720533
 20
128.8121804384221
 30
0.0
  0
LINE
  5
20A
330
1F
100
AcDbEntity
  8
0
  6
Continuous
 62
     7
370
    30
100
AcDbLine
 10
575.8970219721
 20
135.9794876586
 30
0.0
 11
575.8970219721
 21
128.6574130171
 31
0.0
  0
LINE
  5
20B
330
1F
100
AcDbEntity
  8
0
  6
Continuous
 62
     7
370
    30
100
AcDbLine
 10
574.3970219721
 20
131.6574130171
 30
0.0
 11
574.3970219721
 21
136.8173207354
 31
0.0
  0
ENDSEC
  0
SECTION
  2
OBJECTS
  0
DICTIONARY
  5
C
330
0
100
AcDbDictionary
281
     1
  3
ACAD_GROUP
350
D
  3
ACAD_LAYOUT
350
1A
  3
ACAD_MLINESTYLE
350
17
  3
ACAD_PLOTSETTINGS
350
19
  3
ACAD_PLOTSTYLENAME
350
E
  3
ACAD_SCALELIST
350
47
  0
DICTIONARY
  5
D
102
{ACAD_REACTORS
330
C
102
}
330
C
100
AcDbDictionary
281
     1
  0
DICTIONARY
  5
1A
102
{ACAD_REACTORS
330
C
102
}
330
C
100
AcDbDictionary
281
     1
  3
Layout1
350
1E
  3
Layout2
350
26
  3
Model
350
22
  0
DICTIONARY
  5
17
102
{ACAD_REACTORS
330
C
102
}
330
C
100
AcDbDictionary
281
     1
  3
Standard
350
18
  0
DICTIONARY
  5
19
102
{ACAD_REACTORS
330
C
102
}
330
C
100
AcDbDictionary
281
     1
  0
ACDBDICTIONARYWDFLT
  5
E
102
{ACAD_REACTORS
330
C
102
}
330
C
100
AcDbDictionary
281
     1
  3
Normal
350
F
100
AcDbDictionaryWithDefault
340
F
  0
DICTIONARY
  5
47
102
{ACAD_REACTORS
330
C
102
}
330
C
100
AcDbDictionary
281
     1
  3
A0
350
48
  3
A1
350
49
  3
A2
350
4A
  3
A3
350
4B
  3
A4
350
4C
  3
A5
350
4D
  3
A6
350
4E
  3
A7
350
4F
  3
A8
350
50
  3
A9
350
51
  3
B0
350
52
  3
B1
350
53
  3
B2
350
54
  3
B3
350
55
  3
B4
350
56
  3
B5
350
57
  3
B6
350
58
  3
B7
350
59
  3
B8
350
5A
  3
B9
350
5B
  3
C0
350
5C
  3
C1
350
5D
  3
C2
350
5E
  3
C3
350
5F
  3
C4
350
60
  3
C5
350
61
  3
C6
350
62
  3
C7
350
63
  3
C8
350
64
  3
C9
350
65
  3
D0
350
66
  3
D1
350
67
  3
D2
350
68
  0
LAYOUT
  5
1E
102
{ACAD_REACTORS
330
1A
102
}
330
1A
100
AcDbPlotSettings
  1

  2
none_device
  4

  6

 40
0.0
 41
0.0
 42
0.0
 43
0.0
 44
0.0
 45
0.0
 46
0.0
 47
0.0
 48
0.0
 49
0.0
140
0.0
141
0.0
142
1.0
143
1.0
 70
   688
 72
     1
 73
     0
 74
     5
  7

 75
    16
147
1.0
148
0.0
149
0.0
100
AcDbLayout
  1
Layout1
 70
     1
 71
     1
 10
0.0
 20
0.0
 11
420.0
 21
297.0
 12
0.0
 22
0.0
 32
0.0
 14
1.0000000000E+20
 24
1.0000000000E+20
 34
1.0000000000E+20
 15
-1.0000000000E+20
 25
-1.0000000000E+20
 35
-1.0000000000E+20
146
0.0
 13
0.0
 23
0.0
 33
0.0
 16
1.0
 26
0.0
 36
0.0
 17
0.0
 27
1.0
 37
0.0
 76
     0
330
1B
  0
LAYOUT
  5
26
102
{ACAD_REACTORS
330
1A
102
}
330
1A
100
AcDbPlotSettings
  1

  2
none_device
  4

  6

 40
0.0
 41
0.0
 42
0.0
 43
0.0
 44
0.0
 45
0.0
 46
0.0
 47
0.0
 48
0.0
 49
0.0
140
0.0
141
0.0
142
1.0
143
1.0
 70
   688
 72
     1
 73
     0
 74
     5
  7

 75
    16
147
1.0
148
0.0
149
0.0
100
AcDbLayout
  1
Layout2
 70
     1
 71
     2
 10
0.0
 20
0.0
 11
0.0
 21
0.0
 12
0.0
 22
0.0
 32
0.0
 14
0.0
 24
0.0
 34
0.0
 15
0.0
 25
0.0
 35
0.0
146
0.0
 13
0.0
 23
0.0
 33
0.0
 16
1.0
 26
0.0
 36
0.0
 17
0.0
 27
1.0
 37
0.0
 76
     0
330
23
  0
LAYOUT
  5
22
102
{ACAD_REACTORS
330
1A
102
}
330
1A
100
AcDbPlotSettings
  1

  2
none_device
  4
Letter_(8.50_x_11.00_Inches)
  6

 40
6.35
 41
6.35
 42
6.35000508
 43
6.35000508
 44
215.9
 45
279.4
 46
0.0
 47
0.0
 48
0.0
 49
0.0
140
0.0
141
0.0
142
1.0
143
1.0
 70
  1712
 72
     1
 73
     0
 74
     0
  7

 75
     0
147
1.0
148
0.0
149
0.0
100
AcDbLayout
  1
Model
 70
     1
 71
     0
 10
0.0
 20
0.0
 11
420.0
 21
297.0
 12
0.0
 22
0.0
 32
0.0
 14
0.0
 24
0.0
 34
0.0
 15
420.0
 25
297.0
 35
0.0
146
0.0
 13
0.0
 23
0.0
 33
0.0
 16
1.0
 26
0.0
 36
0.0
 17
0.0
 27
1.0
 37
0.0
 76
     0
330
1F
331
29
  0
MLINESTYLE
  5
18
102
{ACAD_REACTORS
330
17
102
}
330
17
100
AcDbMlineStyle
  2
Standard
 70
     0
  3

 62
   256
 51
90.0
 52
90.0
 71
     2
 49
0.5
 62
   256
  6
BYLAYER
 49
-0.5
 62
   256
  6
BYLAYER
  0
ACDBPLACEHOLDER
  5
F
102
{ACAD_REACTORS
330
E
102
}
330
E
  0
SCALE
  5
48
102
{ACAD_REACTORS
330
47
102
}
330
47
100
AcDbScale
 70
     0
300
1:1
140
1.0
141
1.0
290
     1
  0
SCALE
  5
49
102
{ACAD_REACTORS
330
47
102
}
330
47
100
AcDbScale
 70
     0
300
1:2
140
1.0
141
2.0
290
     0
  0
SCALE
  5
4A
102
{ACAD_REACTORS
330
47
102
}
330
47
100
AcDbScale
 70
     0
300
1:4
140
1.0
141
4.0
290
     0
  0
SCALE
  5
4B
102
{ACAD_REACTORS
330
47
102
}
330
47
100
AcDbScale
 70
     0
300
1:5
140
1.0
141
5.0
290
     0
  0
SCALE
  5
4C
102
{ACAD_REACTORS
330
47
102
}
330
47
100
AcDbScale
 70
     0
300
1:8
140
1.0
141
8.0
290
     0
  0
SCALE
  5
4D
102
{ACAD_REACTORS
330
47
102
}
330
47
100
AcDbScale
 70
     0
300
1:10
140
1.0
141
10.0
290
     0
  0
SCALE
  5
4E
102
{ACAD_REACTORS
330
47
102
}
330
47
100
AcDbScale
 70
     0
300
1:16
140
1.0
141
16.0
290
     0
  0
SCALE
  5
4F
102
{ACAD_REACTORS
330
47
102
}
330
47
100
AcDbScale
 70
     0
300
1:20
140
1.0
141
20.0
290
     0
  0
SCALE
  5
50
102
{ACAD_REACTORS
330
47
102
}
330
47
100
AcDbScale
 70
     0
300
1:30
140
1.0
141
30.0
290
     0
  0
SCALE
  5
51
102
{ACAD_REACTORS
330
47
102
}
330
47
100
AcDbScale
 70
     0
300
1:40
140
1.0
141
40.0
290
     0
  0
SCALE
  5
52
102
{ACAD_REACTORS
330
47
102
}
330
47
100
AcDbScale
 70
     0
300
1:50
140
1.0
141
50.0
290
     0
  0
SCALE
  5
53
102
{ACAD_REACTORS
330
47
102
}
330
47
100
AcDbScale
 70
     0
300
1:100
140
1.0
141
100.0
290
     0
  0
SCALE
  5
54
102
{ACAD_REACTORS
330
47
102
}
330
47
100
AcDbScale
 70
     0
300
2:1
140
2.0
141
1.0
290
     0
  0
SCALE
  5
55
102
{ACAD_REACTORS
330
47
102
}
330
47
100
AcDbScale
 70
     0
300
4:1
140
4.0
141
1.0
290
     0
  0
SCALE
  5
56
102
{ACAD_REACTORS
330
47
102
}
330
47
100
AcDbScale
 70
     0
300
8:1
140
8.0
141
1.0
290
     0
  0
SCALE
  5
57
102
{ACAD_REACTORS
330
47
102
}
330
47
100
AcDbScale
 70
     0
300
10:1
140
10.0
141
1.0
290
     0
  0
SCALE
  5
58
102
{ACAD_REACTORS
330
47
102
}
330
47
100
AcDbScale
 70
     0
300
100:1
140
100.0
141
1.0
290
     0
  0
SCALE
  5
59
102
{ACAD_REACTORS
330
47
102
}
330
47
100
AcDbScale
 70
     0
300
1/128" = 1'-0"
140
0.0078125
141
12.0
290
     0
  0
SCALE
  5
5A
102
{ACAD_REACTORS
330
47
102
}
330
47
100
AcDbScale
 70
     0
300
1/64" = 1'-0"
140
0.015625
141
12.0
290
     0
  0
SCALE
  5
5B
102
{ACAD_REACTORS
330
47
102
}
330
47
100
AcDbScale
 70
     0
300
1/32" = 1'-0"
140
0.03125
141
12.0
290
     0
  0
SCALE
  5
5C
102
{ACAD_REACTORS
330
47
102
}
330
47
100
AcDbScale
 70
     0
300
1/16" = 1'-0"
140
0.0625
141
12.0
290
     0
  0
SCALE
  5
5D
102
{ACAD_REACTORS
330
47
102
}
330
47
100
AcDbScale
 70
     0
300
3/32" = 1'-0"
140
0.09375
141
12.0
290
     0
  0
SCALE
  5
5E
102
{ACAD_REACTORS
330
47
102
}
330
47
100
AcDbScale
 70
     0
300
1/8" = 1'-0"
140
0.125
141
12.0
290
     0
  0
SCALE
  5
5F
102
{ACAD_REACTORS
330
47
102
}
330
47
100
AcDbScale
 70
     0
300
3/16" = 1'-0"
140
0.1875
141
12.0
290
     0
  0
SCALE
  5
60
102
{ACAD_REACTORS
330
47
102
}
330
47
100
AcDbScale
 70
     0
300
1/4" = 1'-0"
140
0.25
141
12.0
290
     0
  0
SCALE
  5
61
102
{ACAD_REACTORS
330
47
102
}
330
47
100
AcDbScale
 70
     0
300
3/8" = 1'-0"
140
0.375
141
12.0
290
     0
  0
SCALE
  5
62
102
{ACAD_REACTORS
330
47
102
}
330
47
100
AcDbScale
 70
     0
300
1/2" = 1'-0"
140
0.5
141
12.0
290
     0
  0
SCALE
  5
63
102
{ACAD_REACTORS
330
47
102
}
330
47
100
AcDbScale
 70
     0
300
3/4" = 1'-0"
140
0.75
141
12.0
290
     0
  0
SCALE
  5
64
102
{ACAD_REACTORS
330
47
102
}
330
47
100
AcDbScale
 70
     0
300
1" = 1'-0"
140
1.0
141
12.0
290
     0
  0
SCALE
  5
65
102
{ACAD_REACTORS
330
47
102
}
330
47
100
AcDbScale
 70
     0
300
1-1/2" = 1'-0"
140
1.5
141
12.0
290
     0
  0
SCALE
  5
66
102
{ACAD_REACTORS
330
47
102
}
330
47
100
AcDbScale
 70
     0
300
3" = 1'-0"
140
3.0
141
12.0
290
     0
  0
SCALE
  5
67
102
{ACAD_REACTORS
330
47
102
}
330
47
100
AcDbScale
 70
     0
300
6" = 1'-0"
140
6.0
141
12.0
290
     0
  0
SCALE
  5
68
102
{ACAD_REACTORS
330
47
102
}
330
47
100
AcDbScale
 70
     0
300
1'-0" = 1'-0"
140
12.0
141
12.0
290
     0
  0
ENDSEC
  0
EOF
