  0
SECTION
  2
HEADER
  9
$ACADVER
  1
AC1009
  9
$INSBASE
 10
0.0
 20
0.0
 30
0.0
  9
$EXTMIN
 10
-104.794
 20
0.176045
 30
0.0
  9
$EXTMAX
 10
315.209
 20
297.178
 30
0.0
  9
$LIMMIN
 10
0.0
 20
0.0
  9
$LIMMAX
 10
12.0
 20
9.0
  9
$ORTHOMODE
 70
     0
  9
$REGENMODE
 70
     1
  9
$FILLMODE
 70
     1
  9
$QTEXTMODE
 70
     0
  9
$MIRRTEXT
 70
     1
  9
$DRAGMODE
 70
     2
  9
$LTSCALE
 40
1.0
  9
$OSMODE
 70
    37
  9
$ATTMODE
 70
     1
  9
$TEXTSIZE
 40
0.0
  9
$TRACEWID
 40
0.05
  9
$TEXTSTYLE
  7
STANDARD
  9
$CLAYER
  8
0
  9
$CELTYPE
  6
CONTINUOUS
  9
$CECOLOR
 62
   256
  9
$DIMSCALE
 40
1.0
  9
$DIMASZ
 40
0.18
  9
$DIMEXO
 40
0.0625
  9
$DIMDLI
 40
0.38
  9
$DIMRND
 40
0.0
  9
$DIMDLE
 40
0.0
  9
$DIMEXE
 40
0.18
  9
$DIMTP
 40
0.0
  9
$DIMTM
 40
0.0
  9
$DIMTXT
 40
0.18
  9
$DIMCEN
 40
0.09
  9
$DIMTSZ
 40
0.0
  9
$DIMTOL
 70
     0
  9
$DIMLIM
 70
     0
  9
$DIMTIH
 70
     1
  9
$DIMTOH
 70
     1
  9
$DIMSE1
 70
     0
  9
$DIMSE2
 70
     0
  9
$DIMTAD
 70
     0
  9
$DIMZIN
 70
     0
  9
$DIMBLK
  1

  9
$DIMASO
 70
     1
  9
$DIMSHO
 70
     1
  9
$DIMPOST
  1

  9
$DIMAPOST
  1

  9
$DIMALT
 70
     0
  9
$DIMALTD
 70
     2
  9
$DIMALTF
 40
25.399999999999999
  9
$DIMLFAC
 40
1.0
  9
$DIMTOFL
 70
     0
  9
$DIMTVP
 40
0.0
  9
$DIMTIX
 70
     0
  9
$DIMSOXD
 70
     0
  9
$DIMSAH
 70
     0
  9
$DIMBLK1
  1

  9
$DIMBLK2
  1

  9
$DIMSTYLE
  2
STANDARD
  9
$DIMCLRD
 70
     0
  9
$DIMCLRE
 70
     0
  9
$DIMCLRT
 70
     0
  9
$DIMTFAC
 40
1.0
  9
$DIMGAP
 40
0.09
  9
$LUNITS
 70
     2
  9
$LUPREC
 70
     4
  9
$SKETCHINC
 40
0.1
  9
$FILLETRAD
 40
0.0
  9
$AUNITS
 70
     0
  9
$AUPREC
 70
     0
  9
$MENU
  1
.
  9
$ELEVATION
 40
0.0
  9
$PELEVATION
 40
0.0
  9
$THICKNESS
 40
0.0
  9
$LIMCHECK
 70
     0
  9
$BLIPMODE
 70
     0
  9
$CHAMFERA
 40
0.0
  9
$CHAMFERB
 40
0.0
  9
$SKPOLY
 70
     0
  9
$TDCREATE
 40
2444972.375
  9
$TDUPDATE
 40
2458724.2464356371
  9
$TDINDWG
 40
0.0000458218
  9
$TDUSRTIMER
 40
0.0000458218
  9
$USRTIMER
 70
     1
  9
$ANGBASE
 50
0.0
  9
$ANGDIR
 70
     0
  9
$PDMODE
 70
     0
  9
$PDSIZE
 40
0.0
  9
$PLINEWID
 40
0.0
  9
$COORDS
 70
     1
  9
$SPLFRAME
 70
     0
  9
$SPLINETYPE
 70
     6
  9
$SPLINESEGS
 70
     8
  9
$ATTDIA
 70
     1
  9
$ATTREQ
 70
     1
  9
$HANDLING
 70
     1
  9
$HANDSEED
  5
A37
  9
$SURFTAB1
 70
     6
  9
$SURFTAB2
 70
     6
  9
$SURFTYPE
 70
     6
  9
$SURFU
 70
     6
  9
$SURFV
 70
     6
  9
$UCSNAME
  2

  9
$UCSORG
 10
0.0
 20
0.0
 30
0.0
  9
$UCSXDIR
 10
1.0
 20
0.0
 30
0.0
  9
$UCSYDIR
 10
0.0
 20
1.0
 30
0.0
  9
$PUCSNAME
  2

  9
$PUCSORG
 10
0.0
 20
0.0
 30
0.0
  9
$PUCSXDIR
 10
1.0
 20
0.0
 30
0.0
  9
$PUCSYDIR
 10
0.0
 20
1.0
 30
0.0
  9
$USERI1
 70
     0
  9
$USERI2
 70
     0
  9
$USERI3
 70
     0
  9
$USERI4
 70
     0
  9
$USERI5
 70
     0
  9
$USERR1
 40
0.0
  9
$USERR2
 40
0.0
  9
$USERR3
 40
0.0
  9
$USERR4
 40
0.0
  9
$USERR5
 40
0.0
  9
$WORLDVIEW
 70
     1
  9
$SHADEDGE
 70
     3
  9
$SHADEDIF
 70
    70
  9
$TILEMODE
 70
     1
  9
$MAXACTVP
 70
    48
  9
$PLIMCHECK
 70
     0
  9
$PEXTMIN
 10
1.0000000000000000E+020
 20
1.0000000000000000E+020
 30
1.0000000000000000E+020
  9
$PEXTMAX
 10
-1.0000000000000000E+020
 20
-1.0000000000000000E+020
 30
-1.0000000000000000E+020
  9
$PLIMMIN
 10
0.0
 20
0.0
  9
$PLIMMAX
 10
12.0
 20
9.0
  9
$UNITMODE
 70
     0
  9
$VISRETAIN
 70
     1
  9
$PLINEGEN
 70
     0
  9
$PSLTSCALE
 70
     1
  0
ENDSEC
  0
SECTION
  2
TABLES
  0
TABLE
  2
VPORT
 70
     1
  0
VPORT
  2
*ACTIVE
 70
     0
 10
0.0
 20
0.0
 11
1.0
 21
1.0
 12
197.03120107771841
 22
148.589
 13
0.0
 23
0.0
 14
1.0
 24
1.0
 15
0.0
 25
0.0
 16
0.0
 26
0.0
 36
1.0
 17
0.0
 27
0.0
 37
0.0
 40
285.48563927085848
 41
2.2716468590831909
 42
50.0
 43
0.0
 44
0.0
 50
0.0
 51
0.0
 71
     0
 72
   100
 73
     1
 74
     1
 75
     0
 76
     0
 77
     0
 78
     0
  0
ENDTAB
  0
TABLE
  2
LTYPE
 70
     3
  0
LTYPE
  2
CONTINUOUS
 70
     0
  3
Solid line
 72
    65
 73
     0
 40
0.0
  0
LTYPE
  2
AIGENLINE001
 70
     0
  3
generate AI->DXF Converter
 72
    65
 73
     4
 40
5.8561449999999988
 49
3.5278
 49
-0.776115
 49
0.776115
 49
-0.776115
  0
LTYPE
  2
AIGENLINE002
 70
     0
  3
generate AI->DXF Converter
 72
    65
 73
     6
 40
7.4083750000000004
 49
3.5278
 49
-0.776115
 49
0.776115
 49
-0.776115
 49
0.776115
 49
-0.776115
  0
ENDTAB
  0
TABLE
  2
LAYER
 70
     5
  0
LAYER
  2
0
 70
     0
 62
     7
  6
CONTINUOUS
  0
LAYER
  2
____
 70
     0
 62
     7
  6
CONTINUOUS
  0
LAYER
  2
_________4
 70
     0
 62
     7
  6
CONTINUOUS
  0
LAYER
  2
_________1
 70
     0
 62
     7
  6
CONTINUOUS
  0
LAYER
  2
_________2
 70
     0
 62
     7
  6
CONTINUOUS
  0
ENDTAB
  0
TABLE
  2
STYLE
 70
     1
  0
STYLE
  2
STANDARD
 70
     0
 40
0.0
 41
0.0
 50
0.0
 71
     0
 42
0.0
  3
TXT
  4
EXTFONT.SHX
  0
ENDTAB
  0
TABLE
  2
VIEW
 70
     0
  0
ENDTAB
  0
TABLE
  2
UCS
 70
     0
  0
ENDTAB
  0
TABLE
  2
APPID
 70
     3
  0
APPID
  2
ACAD
 70
     0
  0
APPID
  2
ACAD_NAV_VCDISPLAY
 70
     0
  0
APPID
  2
ACAD_MLEADERVER
 70
     0
  0
ENDTAB
  0
TABLE
  2
DIMSTYLE
 70
     1
  0
DIMSTYLE
  2
STANDARD
 70
     0
  3

  4

  5

  6

  7

 40
1.0
 41
0.18
 42
0.0625
 43
0.38
 44
0.18
 45
0.0
 46
0.0
 47
0.0
 48
0.0
140
0.18
141
0.09
142
0.0
143
25.399999999999999
144
1.0
145
0.0
146
1.0
147
0.09
 71
     0
 72
     0
 73
     1
 74
     1
 75
     0
 76
     0
 77
     0
 78
     0
170
     0
171
     2
172
     0
173
     0
174
     0
175
     0
176
     0
177
     0
178
     0
  0
ENDTAB
  0
ENDSEC
  0
SECTION
  2
BLOCKS
  0
BLOCK
  8
0
  2
$MODEL_SPACE
 70
     0
 10
0.0
 20
0.0
 30
0.0
  3
$MODEL_SPACE
  1

  0
ENDBLK
  5
1A
  8
0
  0
BLOCK
 67
     1
  8
0
  2
$PAPER_SPACE
 70
     0
 10
0.0
 20
0.0
 30
0.0
  3
$PAPER_SPACE
  1

  0
ENDBLK
  5
17
 67
     1
  8
0
  0
BLOCK
  8
_________1
  2
AIGNBL03050011
 70
     0
 10
0.0
 20
0.0
 30
0.0
  3
AIGNBL03050011
  1

  0
LINE
  5
28
  8
_________1
 62
     7
 10
-30.116499999999998
 20
36.966099999999997
 30
0.0
 11
-32.327599999999997
 21
36.3735
 31
0.0
  0
LINE
  5
29
  8
_________1
 62
     7
 10
-32.327599999999997
 20
36.3735
 30
0.0
 11
-30.116499999999998
 21
35.781700000000001
 31
0.0
  0
LINE
  5
2A
  8
_________1
 62
     7
 10
-30.116499999999998
 20
35.781700000000001
 30
0.0
 11
-30.116499999999998
 21
36.966099999999997
 31
0.0
  0
LINE
  5
2B
  8
_________1
 62
     7
 10
10.4628
 20
35.79610000000001
 30
0.0
 11
12.672499999999999
 21
36.388000000000012
 31
0.0
  0
LINE
  5
2C
  8
_________1
 62
     7
 10
12.672499999999999
 20
36.388000000000012
 30
0.0
 11
10.4628
 21
36.980600000000003
 31
0.0
  0
LINE
  5
2D
  8
_________1
 62
     7
 10
10.4628
 20
36.980600000000003
 30
0.0
 11
10.4628
 21
35.79610000000001
 31
0.0
  0
LINE
  5
2E
  8
_________1
 62
     7
 10
-32.300699999999999
 20
36.381100000000011
 30
0.0
 11
12.646000000000001
 21
36.381100000000011
 31
0.0
  0
ENDBLK
  5
2F
  8
_________1
  0
BLOCK
  8
_________1
  2
AIGNBL03050014
 70
     0
 10
0.0
 20
0.0
 30
0.0
  3
AIGNBL03050014
  1

  0
LINE
  5
32
  8
_________1
 62
     7
 10
-27.625699999999998
 20
41.663899999999991
 30
0.0
 11
-18.442399999999999
 21
41.663899999999991
 31
0.0
  0
LINE
  5
33
  8
_________1
 62
     7
 10
-34.817399999999999
 20
42.248899999999999
 30
0.0
 11
-37.0274
 21
41.656999999999996
 31
0.0
  0
LINE
  5
34
  8
_________1
 62
     7
 10
-37.0274
 20
41.656999999999996
 30
0.0
 11
-34.817399999999999
 21
41.064399999999999
 31
0.0
  0
LINE
  5
35
  8
_________1
 62
     7
 10
-34.817399999999999
 20
41.064399999999999
 30
0.0
 11
-34.817399999999999
 21
42.248899999999999
 31
0.0
  0
LINE
  5
36
  8
_________1
 62
     7
 10
-29.8368
 20
41.079599999999999
 30
0.0
 11
-27.625699999999998
 21
41.672099999999993
 31
0.0
  0
LINE
  5
37
  8
_________1
 62
     7
 10
-27.625699999999998
 20
41.672099999999993
 30
0.0
 11
-29.8368
 21
42.264699999999991
 31
0.0
  0
LINE
  5
38
  8
_________1
 62
     7
 10
-29.8368
 20
42.264699999999991
 30
0.0
 11
-29.8368
 21
41.079599999999999
 31
0.0
  0
LINE
  5
39
  8
_________1
 62
     7
 10
-37.000599999999999
 20
41.663899999999991
 30
0.0
 11
-27.653300000000002
 21
41.663899999999991
 31
0.0
  0
ENDBLK
  5
3A
  8
_________1
  0
BLOCK
  8
_________1
  2
AIGNBL03050017
 70
     0
 10
0.0
 20
0.0
 30
0.0
  3
AIGNBL03050017
  1

  0
LINE
  5
3D
  8
_________1
 62
     7
 10
-44.313200000000002
 20
66.668499999999995
 30
0.0
 11
-44.905700000000003
 21
68.879599999999996
 31
0.0
  0
LINE
  5
3E
  8
_________1
 62
     7
 10
-44.905700000000003
 20
68.879599999999996
 30
0.0
 11
-45.4983
 21
66.668499999999995
 31
0.0
  0
LINE
  5
3F
  8
_________1
 62
     7
 10
-45.4983
 20
66.668499999999995
 30
0.0
 11
-44.313200000000002
 21
66.668499999999995
 31
0.0
  0
LINE
  5
40
  8
_________1
 62
     7
 10
-45.483499999999999
 20
61.077100000000002
 30
0.0
 11
-44.890900000000002
 21
58.866700000000002
 31
0.0
  0
LINE
  5
41
  8
_________1
 62
     7
 10
-44.890900000000002
 20
58.866700000000002
 30
0.0
 11
-44.298400000000001
 21
61.077100000000002
 31
0.0
  0
LINE
  5
42
  8
_________1
 62
     7
 10
-44.298400000000001
 20
61.077100000000002
 30
0.0
 11
-45.483499999999999
 21
61.077100000000002
 31
0.0
  0
LINE
  5
43
  8
_________1
 62
     7
 10
-44.898800000000001
 20
68.879599999999996
 30
0.0
 11
-44.898800000000001
 21
58.866700000000002
 31
0.0
  0
ENDBLK
  5
44
  8
_________1
  0
BLOCK
  8
_________1
  2
AIGNBL0305001A
 70
     0
 10
0.0
 20
0.0
 30
0.0
  3
AIGNBL0305001A
  1

  0
LINE
  5
47
  8
_________1
 62
     7
 10
-44.313200000000002
 20
56.656300000000002
 30
0.0
 11
-44.905700000000003
 21
58.866700000000002
 31
0.0
  0
LINE
  5
48
  8
_________1
 62
     7
 10
-44.905700000000003
 20
58.866700000000002
 30
0.0
 11
-45.4983
 21
56.656300000000002
 31
0.0
  0
LINE
  5
49
  8
_________1
 62
     7
 10
-45.4983
 20
56.656300000000002
 30
0.0
 11
-44.313200000000002
 21
56.656300000000002
 31
0.0
  0
LINE
  5
4A
  8
_________1
 62
     7
 10
-45.483499999999999
 20
48.492800000000003
 30
0.0
 11
-44.890900000000002
 21
46.28309999999999
 31
0.0
  0
LINE
  5
4B
  8
_________1
 62
     7
 10
-44.890900000000002
 20
46.28309999999999
 30
0.0
 11
-44.298400000000001
 21
48.492800000000003
 31
0.0
  0
LINE
  5
4C
  8
_________1
 62
     7
 10
-44.298400000000001
 20
48.492800000000003
 30
0.0
 11
-45.483499999999999
 21
48.492800000000003
 31
0.0
  0
LINE
  5
4D
  8
_________1
 62
     7
 10
-44.898800000000001
 20
58.893599999999992
 30
0.0
 11
-44.898800000000001
 21
46.28309999999999
 31
0.0
  0
ENDBLK
  5
4E
  8
_________1
  0
BLOCK
  8
_________1
  2
AIGNBL0305001D
 70
     0
 10
0.0
 20
0.0
 30
0.0
  3
AIGNBL0305001D
  1

  0
LINE
  5
51
  8
_________1
 62
     7
 10
-11.2821
 20
47.971899999999991
 30
0.0
 11
-11.873900000000001
 21
50.181600000000003
 31
0.0
  0
LINE
  5
52
  8
_________1
 62
     7
 10
-11.873900000000001
 20
50.181600000000003
 30
0.0
 11
-12.4665
 21
47.971899999999991
 31
0.0
  0
LINE
  5
53
  8
_________1
 62
     7
 10
-12.4665
 20
47.971899999999991
 30
0.0
 11
-11.2821
 21
47.971899999999991
 31
0.0
  0
LINE
  5
54
  8
_________1
 62
     7
 10
-12.451700000000001
 20
53.640500000000003
 30
0.0
 11
-11.8591
 21
51.430799999999998
 31
0.0
  0
LINE
  5
55
  8
_________1
 62
     7
 10
-11.8591
 20
51.430799999999998
 30
0.0
 11
-11.2676
 21
53.640500000000003
 31
0.0
  0
LINE
  5
56
  8
_________1
 62
     7
 10
-11.2676
 20
53.640500000000003
 30
0.0
 11
-12.451700000000001
 21
53.640500000000003
 31
0.0
  0
LINE
  5
57
  8
_________1
 62
     7
 10
-11.867100000000001
 20
57.452199999999991
 30
0.0
 11
-11.867100000000001
 21
46.388500000000001
 31
0.0
  0
ENDBLK
  5
58
  8
_________1
  0
BLOCK
  8
_________1
  2
AIGNBL03050022
 70
     0
 10
0.0
 20
0.0
 30
0.0
  3
AIGNBL03050022
  1

  0
LINE
  5
5B
  8
_________1
 62
     7
 10
-26.674900000000001
 20
73.476799999999997
 30
0.0
 11
-24.4648
 21
74.068600000000004
 31
0.0
  0
LINE
  5
5C
  8
_________1
 62
     7
 10
-24.4648
 20
74.068600000000004
 30
0.0
 11
-26.674900000000001
 21
74.661199999999994
 31
0.0
  0
LINE
  5
5D
  8
_________1
 62
     7
 10
-26.674900000000001
 20
74.661199999999994
 30
0.0
 11
-26.674900000000001
 21
73.476799999999997
 31
0.0
  0
LINE
  5
5E
  8
_________1
 62
     7
 10
-37.978299999999997
 20
74.647400000000005
 30
0.0
 11
-40.189399999999992
 21
74.054900000000004
 31
0.0
  0
LINE
  5
5F
  8
_________1
 62
     7
 10
-40.189399999999992
 20
74.054900000000004
 30
0.0
 11
-37.978299999999997
 21
73.462299999999999
 31
0.0
  0
LINE
  5
60
  8
_________1
 62
     7
 10
-37.978299999999997
 20
73.462299999999999
 30
0.0
 11
-37.978299999999997
 21
74.647400000000005
 31
0.0
  0
LINE
  5
61
  8
_________1
 62
     7
 10
-24.491299999999999
 20
74.061800000000005
 30
0.0
 11
-40.089500000000001
 21
74.061800000000005
 31
0.0
  0
ENDBLK
  5
62
  8
_________1
  0
BLOCK
  8
_________1
  2
AIGNBL03040010
 70
     0
 10
0.0
 20
0.0
 30
0.0
  3
AIGNBL03040010
  1

  0
INSERT
  5
65
  8
_________1
 62
     7
  2
AIGNBL03050011
 10
0.0
 20
0.0
 30
0.0
  0
ENDBLK
  5
66
  8
_________1
  0
BLOCK
  8
_________1
  2
AIGNBL03040013
 70
     0
 10
0.0
 20
0.0
 30
0.0
  3
AIGNBL03040013
  1

  0
INSERT
  5
69
  8
_________1
 62
     7
  2
AIGNBL03050014
 10
0.0
 20
0.0
 30
0.0
  0
ENDBLK
  5
6A
  8
_________1
  0
BLOCK
  8
_________1
  2
AIGNBL03040016
 70
     0
 10
0.0
 20
0.0
 30
0.0
  3
AIGNBL03040016
  1

  0
INSERT
  5
6D
  8
_________1
 62
     7
  2
AIGNBL03050017
 10
0.0
 20
0.0
 30
0.0
  0
ENDBLK
  5
6E
  8
_________1
  0
BLOCK
  8
_________1
  2
AIGNBL03040019
 70
     0
 10
0.0
 20
0.0
 30
0.0
  3
AIGNBL03040019
  1

  0
INSERT
  5
71
  8
_________1
 62
     7
  2
AIGNBL0305001A
 10
0.0
 20
0.0
 30
0.0
  0
ENDBLK
  5
72
  8
_________1
  0
BLOCK
  8
_________1
  2
AIGNBL0304001C
 70
     0
 10
0.0
 20
0.0
 30
0.0
  3
AIGNBL0304001C
  1

  0
INSERT
  5
75
  8
_________1
 62
     7
  2
AIGNBL0305001D
 10
0.0
 20
0.0
 30
0.0
  0
ENDBLK
  5
76
  8
_________1
  0
BLOCK
  8
_________1
  2
AIGNBL0304001F
 70
     0
 10
0.0
 20
0.0
 30
0.0
  3
AIGNBL0304001F
  1

  0
LINE
  5
79
  8
_________1
 62
     7
 10
10.374599999999999
 20
50.218800000000002
 30
0.0
 11
10.380100000000001
 21
50.218800000000002
 31
0.0
  0
LINE
  5
7A
  8
_________1
 62
     7
 10
9.5981000000000005
 20
50.207099999999997
 30
0.0
 11
10.2637
 21
50.207099999999997
 31
0.0
  0
LINE
  5
7B
  8
_________1
 62
     7
 10
9.5981000000000005
 20
51.3887
 30
0.0
 11
10.2637
 21
51.3887
 31
0.0
  0
ARC
  5
7C
  8
_________1
 62
     7
 10
10.587367
 20
50.002378
 30
0.0
 40
0.321954
 50
159.50275999999999
 51
179.745135
  0
ARC
  5
7D
  8
_________1
 62
     7
 10
10.495761
 20
50.027912000000001
 30
0.0
 40
0.227353
 50
114.81560899999999
 51
157.44607300000001
  0
ARC
  5
7E
  8
_________1
 62
     7
 10
10.572749999999999
 20
49.875709999999991
 30
0.0
 40
0.397859
 50
93.967937000000006
 51
115.67985
  0
ARC
  5
7F
  8
_________1
 62
     7
 10
10.614076000000001
 20
49.568680999999998
 30
0.0
 40
0.707294
 50
89.917422000000002
 51
95.586767000000009
  0
ARC
  5
80
  8
_________1
 62
     7
 10
10.621843999999999
 20
49.757351999999997
 30
0.0
 40
0.518666
 50
75.140739999999994
 51
90.745577000000011
  0
ARC
  5
81
  8
_________1
 62
     7
 10
10.674423000000001
 20
49.976303999999999
 30
0.0
 40
0.293601
 50
25.719849
 51
74.100824000000017
  0
ARC
  5
82
  8
_________1
 62
     7
 10
10.56776
 20
51.574699999999993
 30
0.0
 40
0.303787
 50
182.97458900000001
 51
203.63551100000009
  0
ARC
  5
83
  8
_________1
 62
     7
 10
10.491698
 20
51.550711999999997
 30
0.0
 40
0.224649
 50
205.808616
 51
249.511537
  0
ARC
  5
84
  8
_________1
 62
     7
 10
10.589985
 20
51.780996999999999
 30
0.0
 40
0.4749080000000001
 50
248.12813800000001
 51
273.03092500000002
  0
ARC
  5
85
  8
_________1
 62
     7
 10
10.614973000000001
 20
51.873505999999999
 30
0.0
 40
0.566753
 50
270.01239500000003
 51
284.619936
  0
ARC
  5
86
  8
_________1
 62
     7
 10
10.67891
 20
51.611067999999989
 30
0.0
 40
0.296706
 50
285.46466199999998
 51
321.444076
  0
ARC
  5
87
  8
_________1
 62
     7
 10
10.710386
 20
51.570382999999993
 30
0.0
 40
0.247035
 50
324.27423900000002
 51
338.11960899999991
  0
ARC
  5
88
  8
_________1
 62
     7
 10
10.637527
 20
50.935023000000001
 30
0.0
 40
0.372406
 50
93.453288999999998
 51
177.719933
  0
ARC
  5
89
  8
_________1
 62
     7
 10
10.616083
 20
50.986139000000001
 30
0.0
 40
0.320616
 50
33.738841999999998
 51
90.176485999999997
  0
ARC
  5
8A
  8
_________1
 62
     7
 10
10.529040999999999
 20
50.915011
 30
0.0
 40
0.4326380000000001
 50
8.5681200000000004
 51
35.169913999999999
  0
ARC
  5
8B
  8
_________1
 62
     7
 10
10.633868
 20
50.64631099999999
 30
0.0
 40
0.370812
 50
184.847869
 51
267.09808399999997
  0
ARC
  5
8C
  8
_________1
 62
     7
 10
10.615489999999999
 20
50.825057999999991
 30
0.0
 40
0.5490840000000001
 50
269.95885699999991
 51
284.915886
  0
ARC
  5
8D
  8
_________1
 62
     7
 10
10.675367
 20
50.585321999999998
 30
0.0
 40
0.302038
 50
285.64596799999998
 51
321.345191
  0
ARC
  5
8E
  8
_________1
 62
     7
 10
10.699650999999999
 20
50.548298000000003
 30
0.0
 40
0.260311
 50
324.37192599999997
 51
351.13347700000003
  0
LINE
  5
8F
  8
_________1
 62
     7
 10
10.710900000000001
 20
49.952100000000002
 30
0.0
 11
10.2637
 21
49.952100000000002
 31
0.0
  0
LINE
  5
90
  8
_________1
 62
     7
 10
10.956899999999999
 20
51.3887
 30
0.0
 11
10.956899999999999
 21
50.198799999999999
 31
0.0
  0
ARC
  5
91
  8
_________1
 62
     7
 10
10.700654
 20
50.208302000000003
 30
0.0
 40
0.256372
 50
272.283548
 51
357.87673000000001
  0
LINE
  5
92
  8
_________1
 62
     7
 10
10.710900000000001
 20
51.634700000000002
 30
0.0
 11
10.2637
 21
51.634700000000002
 31
0.0
  0
ARC
  5
93
  8
_________1
 62
     7
 10
10.701338
 20
51.379215000000002
 30
0.0
 40
0.255691
 50
2.1364009999999989
 51
87.863590000000002
  0
LINE
  5
94
  8
_________1
 62
     7
 10
10.2637
 20
51.634700000000002
 30
0.0
 11
10.2637
 21
49.952100000000002
 31
0.0
  0
ENDBLK
  5
95
  8
_________1
  0
BLOCK
  8
_________1
  2
AIGNBL03040021
 70
     0
 10
0.0
 20
0.0
 30
0.0
  3
AIGNBL03040021
  1

  0
INSERT
  5
98
  8
_________1
 62
     7
  2
AIGNBL03050022
 10
0.0
 20
0.0
 30
0.0
  0
ENDBLK
  5
99
  8
_________1
  0
BLOCK
  8
_________1
  2
AIGNBL0303000F
 70
     0
 10
0.0
 20
0.0
 30
0.0
  3
AIGNBL0303000F
  1

  0
INSERT
  5
9C
  8
_________1
 62
     7
  2
AIGNBL03040010
 10
0.0
 20
0.0
 30
0.0
  0
ENDBLK
  5
9D
  8
_________1
  0
BLOCK
  8
_________1
  2
AIGNBL03030012
 70
     0
 10
0.0
 20
0.0
 30
0.0
  3
AIGNBL03030012
  1

  0
INSERT
  5
A0
  8
_________1
 62
     7
  2
AIGNBL03040013
 10
0.0
 20
0.0
 30
0.0
  0
ENDBLK
  5
A1
  8
_________1
  0
BLOCK
  8
_________1
  2
AIGNBL03030015
 70
     0
 10
0.0
 20
0.0
 30
0.0
  3
AIGNBL03030015
  1

  0
INSERT
  5
A4
  8
_________1
 62
     7
  2
AIGNBL03040016
 10
0.0
 20
0.0
 30
0.0
  0
ENDBLK
  5
A5
  8
_________1
  0
BLOCK
  8
_________1
  2
AIGNBL03030018
 70
     0
 10
0.0
 20
0.0
 30
0.0
  3
AIGNBL03030018
  1

  0
INSERT
  5
A8
  8
_________1
 62
     7
  2
AIGNBL03040019
 10
0.0
 20
0.0
 30
0.0
  0
ENDBLK
  5
A9
  8
_________1
  0
BLOCK
  8
_________1
  2
AIGNBL0303001B
 70
     0
 10
0.0
 20
0.0
 30
0.0
  3
AIGNBL0303001B
  1

  0
INSERT
  5
AC
  8
_________1
 62
     7
  2
AIGNBL0304001C
 10
0.0
 20
0.0
 30
0.0
  0
ENDBLK
  5
AD
  8
_________1
  0
BLOCK
  8
_________1
  2
AIGNBL0303001E
 70
     0
 10
0.0
 20
0.0
 30
0.0
  3
AIGNBL0303001E
  1

  0
LINE
  5
B0
  8
_________1
 62
     7
 10
10.2637
 20
50.357300000000002
 30
0.0
 11
9.5981000000000005
 21
50.357300000000002
 31
0.0
  0
LINE
  5
B1
  8
_________1
 62
     7
 10
10.2637
 20
51.239199999999997
 30
0.0
 11
9.5981000000000005
 21
51.239199999999997
 31
0.0
  0
INSERT
  5
B2
  8
_________1
 62
     7
  2
AIGNBL0304001F
 10
0.0
 20
0.0
 30
0.0
  0
LINE
  5
B3
  8
_________1
 62
     7
 10
9.4885399999999986
 20
50.241500000000002
 30
0.0
 11
9.4892299999999992
 21
50.241500000000002
 31
0.0
  0
LINE
  5
B4
  8
_________1
 62
     7
 10
9.5981000000000005
 20
51.654699999999998
 30
0.0
 11
9.3455700000000004
 21
51.871099999999998
 31
0.0
  0
LINE
  5
B5
  8
_________1
 62
     7
 10
9.5981000000000005
 20
49.970700000000001
 30
0.0
 11
9.3455700000000004
 21
49.756500000000003
 31
0.0
  0
LINE
  5
B6
  8
_________1
 62
     7
 10
6.178469999999999
 20
49.756500000000003
 30
0.0
 11
5.9262899999999989
 21
49.970700000000001
 31
0.0
  0
LINE
  5
B7
  8
_________1
 62
     7
 10
6.178469999999999
 20
51.869
 30
0.0
 11
5.9262899999999989
 21
51.653999999999989
 31
0.0
  0
LINE
  5
B8
  8
_________1
 62
     7
 10
5.9262899999999989
 20
51.653999999999989
 30
0.0
 11
5.9262899999999989
 21
49.970700000000001
 31
0.0
  0
ARC
  5
B9
  8
_________1
 62
     7
 10
6.6822449999999991
 20
50.194214000000002
 30
0.0
 40
0.4377640000000001
 50
241.83982499999999
 51
269.89738599999998
  0
ARC
  5
BA
  8
_________1
 62
     7
 10
6.7586679999999992
 20
50.351492999999998
 30
0.0
 40
0.612532
 50
224.621262
 51
242.480448
  0
ARC
  5
BB
  8
_________1
 62
     7
 10
6.995182999999999
 20
50.595863999999999
 30
0.0
 40
0.952557
 50
204.33120199999999
 51
225.09062
  0
ARC
  5
BC
  8
_________1
 62
     7
 10
7.4060369999999986
 20
50.811506999999999
 30
0.0
 40
1.4160269999999999
 50
179.72772000000001
 51
205.43238299999999
  0
ARC
  5
BD
  8
_________1
 62
     7
 10
7.4630729999999987
 20
50.815909000000012
 30
0.0
 40
1.4730490000000001
 50
149.180397
 51
179.90949599999999
  0
ARC
  5
BE
  8
_________1
 62
     7
 10
6.9074749999999989
 20
51.123833000000012
 30
0.0
 40
0.8383930000000001
 50
126.040054
 51
147.79892799999999
  0
ARC
  5
BF
  8
_________1
 62
     7
 10
6.688809
 20
51.396301999999999
 30
0.0
 40
0.4897000000000001
 50
105.143451
 51
124.108288
  0
ARC
  5
C0
  8
_________1
 62
     7
 10
8.8931550000000001
 20
51.420341999999998
 30
0.0
 40
0.454083
 50
53.114803000000002
 51
81.131307999999976
  0
ARC
  5
C1
  8
_________1
 62
     7
 10
8.7579530000000005
 20
51.215247999999988
 30
0.0
 40
0.699436
 50
38.274942000000003
 51
54.340410999999989
  0
ARC
  5
C2
  8
_________1
 62
     7
 10
8.4556360000000002
 20
50.964827999999997
 30
0.0
 40
1.091928
 50
19.435153
 51
38.76425600000001
  0
ARC
  5
C3
  8
_________1
 62
     7
 10
8.0861929999999997
 20
50.805301
 30
0.0
 40
1.493654
 50
0.205448
 51
20.490452999999999
  0
ARC
  5
C4
  8
_________1
 62
     7
 10
8.1156749999999995
 20
50.813184999999997
 30
0.0
 40
1.464164
 50
329.96481199999999
 51
359.90106200000002
  0
ARC
  5
C5
  8
_________1
 62
     7
 10
8.6291250000000002
 20
50.535969999999992
 30
0.0
 40
0.8810710000000001
 50
308.05093900000003
 51
328.858745
  0
ARC
  5
C6
  8
_________1
 62
     7
 10
8.8731740000000006
 20
50.248103999999991
 30
0.0
 40
0.504181
 50
282.79898600000001
 51
306.37443300000001
  0
LINE
  5
C7
  8
_________1
 62
     7
 10
6.1646900000000002
 20
50.920200000000001
 30
0.0
 11
7.6598699999999988
 21
50.920200000000001
 31
0.0
  0
LINE
  5
C8
  8
_________1
 62
     7
 10
6.1646900000000002
 20
50.70450000000001
 30
0.0
 11
7.6598699999999988
 21
50.70450000000001
 31
0.0
  0
ARC
  5
C9
  8
_________1
 62
     7
 10
7.0492280000000003
 20
50.794464000000012
 30
0.0
 40
0.892261
 50
112.026494
 51
178.96014
  0
ARC
  5
CA
  8
_________1
 62
     7
 10
6.9140519999999999
 20
51.024355
 30
0.0
 40
0.6296689999999999
 50
90.160916999999998
 51
108.467061
  0
ARC
  5
CB
  8
_________1
 62
     7
 10
6.9100479999999989
 20
51.001897
 30
0.0
 40
0.6521279999999999
 50
51.092639999999989
 51
89.803579999999997
  0
ARC
  5
CC
  8
_________1
 62
     7
 10
6.761563999999999
 20
50.793828000000012
 30
0.0
 40
0.907423
 50
1.0626420000000001
 51
52.048384000000013
  0
ARC
  5
CD
  8
_________1
 62
     7
 10
6.7828789999999994
 20
50.826526999999999
 30
0.0
 40
0.8860940000000001
 50
291.66911400000009
 51
358.97375699999998
  0
ARC
  5
CE
  8
_________1
 62
     7
 10
6.910406
 20
50.603659
 30
0.0
 40
0.632924
 50
270.16997500000002
 51
288.388328
  0
ARC
  5
CF
  8
_________1
 62
     7
 10
6.9145110000000001
 20
50.623455999999997
 30
0.0
 40
0.6527230000000001
 50
231.18115499999999
 51
269.80446000000001
  0
ARC
  5
D0
  8
_________1
 62
     7
 10
7.0603049999999996
 20
50.827685000000002
 30
0.0
 40
0.9033520000000002
 50
181.08011999999999
 51
232.096464
  0
LINE
  5
D1
  8
_________1
 62
     7
 10
6.1736500000000003
 20
49.756500000000003
 30
0.0
 11
9.3500499999999995
 21
49.756500000000003
 31
0.0
  0
LINE
  5
D2
  8
_________1
 62
     7
 10
6.178469999999999
 20
51.869
 30
0.0
 11
9.3479799999999997
 21
51.869
 31
0.0
  0
LINE
  5
D3
  8
_________1
 62
     7
 10
9.5981000000000005
 20
51.654699999999998
 30
0.0
 11
9.5981000000000005
 21
49.970700000000001
 31
0.0
  0
ENDBLK
  5
D4
  8
_________1
  0
BLOCK
  8
_________1
  2
AIGNBL03030020
 70
     0
 10
0.0
 20
0.0
 30
0.0
  3
AIGNBL03030020
  1

  0
INSERT
  5
D7
  8
_________1
 62
     7
  2
AIGNBL03040021
 10
0.0
 20
0.0
 30
0.0
  0
ENDBLK
  5
D8
  8
_________1
  0
BLOCK
  8
_________1
  2
AIGNBL0302000E
 70
     0
 10
0.0
 20
0.0
 30
0.0
  3
AIGNBL0302000E
  1

  0
INSERT
  5
DB
  8
_________1
 62
     7
  2
AIGNBL0303000F
 10
0.0
 20
0.0
 30
0.0
  0
LINE
  5
DC
  8
_________1
 62
     7
 10
12.672499999999999
 20
49.7316
 30
0.0
 11
12.672499999999999
 21
35.512300000000003
 31
0.0
  0
INSERT
  5
DD
  8
_________1
 62
     7
  2
AIGNBL03030012
 10
0.0
 20
0.0
 30
0.0
  0
LINE
  5
DE
  8
_________1
 62
     7
 10
-37.0274
 20
45.888999999999989
 30
0.0
 11
-37.0274
 21
41.012700000000002
 31
0.0
  0
LINE
  5
DF
  8
_________1
 62
     7
 10
-27.625699999999998
 20
45.888999999999989
 30
0.0
 11
-27.625699999999998
 21
41.084400000000002
 31
0.0
  0
INSERT
  5
E0
  8
_________1
 62
     7
  2
AIGNBL03030015
 10
0.0
 20
0.0
 30
0.0
  0
INSERT
  5
E1
  8
_________1
 62
     7
  2
AIGNBL03030018
 10
0.0
 20
0.0
 30
0.0
  0
LINE
  5
E2
  8
_________1
 62
     7
 10
-37.7819
 20
46.28309999999999
 30
0.0
 11
-45.326700000000002
 21
46.28309999999999
 31
0.0
  0
LINE
  5
E3
  8
_________1
 62
     7
 10
-40.46629999999999
 20
58.866700000000002
 30
0.0
 11
-45.326700000000002
 21
58.866700000000002
 31
0.0
  0
LINE
  5
E4
  8
_________1
 62
     7
 10
-40.562800000000003
 20
68.879599999999996
 30
0.0
 11
-45.330199999999991
 21
68.879599999999996
 31
0.0
  0
LINE
  5
E5
  8
_________1
 62
     7
 10
-24.4648
 20
68.570899999999995
 30
0.0
 11
-24.4648
 21
68.445499999999996
 31
0.0
  0
ARC
  5
E6
  8
_________1
 62
     7
 10
-21.418690999999999
 20
52.392355000000002
 30
0.0
 40
6.5335070000000002
 50
197.81829699999989
 51
204.754189
  0
ARC
  5
E7
  8
_________1
 62
     7
 10
-25.111727999999999
 20
50.698456
 30
0.0
 40
2.4705469999999998
 50
204.942486
 51
213.27408500000001
  0
ARC
  5
E8
  8
_________1
 62
     7
 10
-26.660754000000001
 20
49.691745000000012
 30
0.0
 40
0.6232020000000001
 50
214.02776700000001
 51
227.33560600000001
  0
ARC
  5
E9
  8
_________1
 62
     7
 10
-24.756767
 20
51.208855999999997
 30
0.0
 40
2.8257080000000001
 50
149.50566599999999
 51
156.61465200000001
  0
ARC
  5
EA
  8
_________1
 62
     7
 10
-22.741727999999998
 20
50.305498
 30
0.0
 40
5.0338640000000003
 50
156.28048799999999
 51
168.96689799999999
  0
LINE
  5
EB
  8
_________1
 62
     7
 10
-20.2056
 20
53.329700000000003
 30
0.0
 11
-20.7865
 21
53.329700000000003
 31
0.0
  0
LINE
  5
EC
  8
_________1
 62
     7
 10
-22.142800000000001
 20
48.376300000000001
 30
0.0
 11
-23.028199999999998
 21
48.376300000000001
 31
0.0
  0
LINE
  5
ED
  8
_________1
 62
     7
 10
-20.196300000000001
 20
48.376300000000001
 30
0.0
 11
-20.719999999999999
 21
48.376300000000001
 31
0.0
  0
ARC
  5
EE
  8
_________1
 62
     7
 10
-21.455179999999999
 20
48.272280000000002
 30
0.0
 40
1.0886709999999991
 50
72.862962999999993
 51
90.016875999999996
  0
ARC
  5
EF
  8
_________1
 62
     7
 10
-21.359286999999998
 20
48.656671000000003
 30
0.0
 40
0.693428
 50
13.609449
 51
71.075649999999996
  0
ARC
  5
F0
  8
_________1
 62
     7
 10
-21.803326999999999
 20
48.530414
 30
0.0
 40
1.1548519999999991
 50
358.98749199999997
 51
14.513842
  0
ARC
  5
F1
  8
_________1
 62
     7
 10
-20.741351000000002
 20
48.510353000000002
 30
0.0
 40
0.092697
 50
342.115613
 51
359.78597500000001
  0
ARC
  5
F2
  8
_________1
 62
     7
 10
-20.841586
 20
48.540824000000001
 30
0.0
 40
0.197454
 50
328.47055599999999
 51
342.63315100000011
  0
ARC
  5
F3
  8
_________1
 62
     7
 10
-21.016960000000001
 20
48.646006
 30
0.0
 40
0.401947
 50
318.40263299999998
 51
328.76349699999997
  0
ARC
  5
F4
  8
_________1
 62
     7
 10
-21.302102999999999
 20
48.899172
 30
0.0
 40
0.7832590000000002
 50
303.43813599999999
 51
318.40115300000002
  0
ARC
  5
F5
  8
_________1
 62
     7
 10
-21.510006000000001
 20
49.181477000000001
 30
0.0
 40
1.133540999999999
 50
271.57108099999999
 51
304.34452700000003
  0
ARC
  5
F6
  8
_________1
 62
     7
 10
-21.477725
 20
48.833247999999998
 30
0.0
 40
0.7848880000000001
 50
240.958192
 51
269.912172
  0
ARC
  5
F7
  8
_________1
 62
     7
 10
-21.405096
 20
48.995620000000002
 30
0.0
 40
0.9622239999999999
 50
215.095257
 51
241.87083899999999
  0
ARC
  5
F8
  8
_________1
 62
     7
 10
-21.868490000000001
 20
48.659545000000001
 30
0.0
 40
0.389947
 50
202.76377600000001
 51
213.838324
  0
ARC
  5
F9
  8
_________1
 62
     7
 10
-22.107454000000001
 20
48.562267999999989
 30
0.0
 40
0.131986
 50
182.94682900000001
 51
203.96344099999999
  0
ARC
  5
FA
  8
_________1
 62
     7
 10
-20.811188000000001
 20
48.556308000000001
 30
0.0
 40
1.428078
 50
170.47424699999999
 51
180.03312700000001
  0
ARC
  5
FB
  8
_________1
 62
     7
 10
-21.42389
 20
48.653148999999999
 30
0.0
 40
0.8078199999999998
 50
147.788037
 51
170.05642
  0
ARC
  5
FC
  8
_________1
 62
     7
 10
-21.631357999999999
 20
48.760033
 30
0.0
 40
0.5756630000000002
 50
110.43855499999999
 51
145.78120000000001
  0
ARC
  5
FD
  8
_________1
 62
     7
 10
-21.525689
 20
48.505313999999998
 30
0.0
 40
0.8513059999999999
 50
96.062074999999993
 51
111.116225
  0
ARC
  5
FE
  8
_________1
 62
     7
 10
-21.460972000000002
 20
48.043287999999997
 30
0.0
 40
1.317674999999999
 50
89.762125999999995
 51
96.738776999999999
  0
ARC
  5
FF
  8
_________1
 62
     7
 10
-21.524170999999999
 20
51.220618999999999
 30
0.0
 40
2.2648259999999989
 50
78.428095999999996
 51
90.005876000000015
  0
ARC
  5
100
  8
_________1
 62
     7
 10
-21.297156999999999
 20
52.375188000000001
 30
0.0
 40
1.088225999999999
 50
65.080984999999998
 51
77.943483000000001
  0
ARC
  5
101
  8
_________1
 62
     7
 10
-20.996328999999999
 20
53.034394999999989
 30
0.0
 40
0.363672
 50
42.667329000000002
 51
64.304935
  0
ARC
  5
102
  8
_________1
 62
     7
 10
-20.826076
 20
53.199218000000002
 30
0.0
 40
0.126911
 50
2.6171989999999998
 51
40.044609000000001
  0
ARC
  5
103
  8
_________1
 62
     7
 10
-22.271404
 20
53.204354000000002
 30
0.0
 40
1.5721059999999989
 50
346.05372
 51
0.024002
  0
ARC
  5
104
  8
_________1
 62
     7
 10
-21.679192
 20
53.074066000000002
 30
0.0
 40
0.966087
 50
325.64171399999998
 51
345.08803499999999
  0
ARC
  5
105
  8
_________1
 62
     7
 10
-21.445454000000002
 20
52.937061
 30
0.0
 40
0.696064
 50
269.172934
 51
324.09297600000002
  0
ARC
  5
106
  8
_________1
 62
     7
 10
-21.446724
 20
53.018157999999993
 30
0.0
 40
0.777138
 50
211.042292
 51
269.3528839999999
  0
ARC
  5
107
  8
_________1
 62
     7
 10
-21.223054000000001
 20
53.164617000000007
 30
0.0
 40
1.0443489999999991
 50
184.72098099999991
 51
211.598837
  0
ARC
  5
108
  8
_________1
 62
     7
 10
-20.832128000000001
 20
53.231502999999996
 30
0.0
 40
1.439867
 50
179.92993100000001
 51
186.09334000000001
  0
ARC
  5
109
  8
_________1
 62
     7
 10
-22.189889000000001
 20
53.232746999999989
 30
0.0
 40
0.082107
 50
139.46668799999989
 51
179.64008699999999
  0
ARC
  5
10A
  8
_________1
 62
     7
 10
-22.093292999999999
 20
53.166094999999999
 30
0.0
 40
0.199208
 50
128.460286
 51
142.95432299999999
  0
ARC
  5
10B
  8
_________1
 62
     7
 10
-21.977733000000001
 20
53.023318999999987
 30
0.0
 40
0.382886
 50
118.629464
 51
128.71251000000001
  0
ARC
  5
10C
  8
_________1
 62
     7
 10
-21.837654000000001
 20
52.768680000000003
 30
0.0
 40
0.673511
 50
110.70306100000001
 51
118.70975900000001
  0
ARC
  5
10D
  8
_________1
 62
     7
 10
-21.659458000000001
 20
52.293340999999991
 30
0.0
 40
1.1811519999999991
 50
98.166961000000015
 51
110.63730700000001
  0
ARC
  5
10E
  8
_________1
 62
     7
 10
-21.533822000000001
 20
51.598571999999997
 30
0.0
 40
1.886897
 50
89.71400899999999
 51
98.946302000000017
  0
ARC
  5
10F
  8
_________1
 62
     7
 10
-21.456717999999999
 20
51.371456000000002
 30
0.0
 40
0.593316
 50
57.270677999999997
 51
89.882518999999988
  0
ARC
  5
110
  8
_________1
 62
     7
 10
-21.569707000000001
 20
51.178415000000001
 30
0.0
 40
0.816852
 50
34.703738000000001
 51
57.92448199999999
  0
ARC
  5
111
  8
_________1
 62
     7
 10
-21.884875000000001
 20
50.936771999999998
 30
0.0
 40
1.213681
 50
11.775525999999999
 51
35.611182999999997
  0
ARC
  5
112
  8
_________1
 62
     7
 10
-22.208272999999998
 20
50.839847999999989
 30
0.0
 40
1.550322999999999
 50
359.83786700000007
 51
12.843097
  0
ARC
  5
113
  8
_________1
 62
     7
 10
-22.191792
 20
50.836150000000004
 30
0.0
 40
1.5338350000000001
 50
335.68329399999999
 51
359.97426899999999
  0
ARC
  5
114
  8
_________1
 62
     7
 10
-21.744119000000001
 20
50.654364999999999
 30
0.0
 40
1.051188999999999
 50
309.525285
 51
334.664806
  0
ARC
  5
115
  8
_________1
 62
     7
 10
-21.474656
 20
50.361020000000003
 30
0.0
 40
0.65377
 50
271.67897399999998
 51
307.67070000000001
  0
ARC
  5
116
  8
_________1
 62
     7
 10
-21.454149999999998
 20
50.303204000000001
 30
0.0
 40
0.595676
 50
236.396683
 51
269.87006600000001
  0
ARC
  5
117
  8
_________1
 62
     7
 10
-21.334506999999999
 20
50.503227000000003
 30
0.0
 40
0.8285620000000001
 50
214.18731700000001
 51
237.160911
  0
ARC
  5
118
  8
_________1
 62
     7
 10
-21.019216
 20
50.740420999999998
 30
0.0
 40
1.2228000000000001
 50
191.34791299999989
 51
215.07974400000001
  0
ARC
  5
119
  8
_________1
 62
     7
 10
-20.707108000000002
 20
50.831490999999993
 30
0.0
 40
1.546977
 50
179.85292200000001
 51
192.38048499999999
  0
ARC
  5
11A
  8
_________1
 62
     7
 10
-20.723434999999998
 20
50.834778999999997
 30
0.0
 40
1.5306449999999989
 50
155.611648
 51
179.97443699999999
  0
ARC
  5
11B
  8
_________1
 62
     7
 10
-21.163536000000001
 20
51.014268999999992
 30
0.0
 40
1.0558579999999991
 50
129.547203
 51
154.621126
  0
ARC
  5
11C
  8
_________1
 62
     7
 10
-21.435697000000001
 20
51.310885999999989
 30
0.0
 40
0.6541850000000001
 50
91.734752
 51
127.707311
  0
INSERT
  5
11D
  8
_________1
 62
     7
  2
AIGNBL0303001B
 10
0.0
 20
0.0
 30
0.0
  0
INSERT
  5
11E
  8
_________1
 62
     7
  2
AIGNBL0303001E
 10
0.0
 20
0.0
 30
0.0
  0
LINE
  5
11F
  8
_________1
 62
     7
 10
-40.189399999999992
 20
69.353000000000009
 30
0.0
 11
-40.189399999999992
 21
74.493099999999998
 31
0.0
  0
LINE
  5
120
  8
_________1
 62
     7
 10
-39.880699999999997
 20
68.879599999999996
 30
0.0
 11
-24.773800000000001
 21
68.879599999999996
 31
0.0
  0
ARC
  5
121
  8
_________1
 62
     7
 10
-24.785764
 20
68.558641000000009
 30
0.0
 40
0.321188
 50
2.191876999999999
 51
87.872023999999996
  0
ARC
  5
122
  8
_________1
 62
     7
 10
-39.870531
 20
68.559352000000004
 30
0.0
 40
0.319039
 50
91.822512000000003
 51
177.92110199999999
  0
LINE
  5
123
  8
_________1
 62
     7
 10
-40.189399999999992
 20
68.445499999999996
 30
0.0
 11
-40.189399999999992
 21
68.570899999999995
 31
0.0
  0
LINE
  5
124
  8
_________1
 62
     7
 10
-27.4252
 20
60.527299999999997
 30
0.0
 11
-27.333600000000001
 21
60.527299999999997
 31
0.0
  0
LINE
  5
125
  8
_________1
 62
     7
 10
-27.8262
 20
60.930300000000003
 30
0.0
 11
-27.8262
 21
63.126300000000001
 31
0.0
  0
ARC
  5
126
  8
_________1
 62
     7
 10
-27.409735000000001
 20
60.943668000000002
 30
0.0
 40
0.41669
 50
181.83243899999999
 51
267.87301200000002
  0
LINE
  5
127
  8
_________1
 62
     7
 10
-36.815600000000011
 20
60.930300000000003
 30
0.0
 11
-36.815600000000011
 21
63.126300000000001
 31
0.0
  0
LINE
  5
128
  8
_________1
 62
     7
 10
-37.320300000000003
 20
60.527299999999997
 30
0.0
 11
-37.21690000000001
 21
60.527299999999997
 31
0.0
  0
ARC
  5
129
  8
_________1
 62
     7
 10
-37.234009
 20
60.945647999999998
 30
0.0
 40
0.418732
 50
272.339923
 51
357.90546399999999
  0
LINE
  5
12A
  8
_________1
 62
     7
 10
-27.4252
 20
63.527299999999997
 30
0.0
 11
-27.333600000000001
 21
63.527299999999997
 31
0.0
  0
ARC
  5
12B
  8
_________1
 62
     7
 10
-27.409882
 20
63.110942999999999
 30
0.0
 40
0.416612
 50
92.107236999999998
 51
177.89273299999999
  0
LINE
  5
12C
  8
_________1
 62
     7
 10
-37.320300000000003
 20
63.527299999999997
 30
0.0
 11
-37.21690000000001
 21
63.527299999999997
 31
0.0
  0
ARC
  5
12D
  8
_________1
 62
     7
 10
-37.232218000000003
 20
63.110599000000001
 30
0.0
 40
0.416955
 50
2.1528
 51
87.896392000000006
  0
LINE
  5
12E
  8
_________1
 62
     7
 10
-37.320300000000003
 20
63.527299999999997
 30
0.0
 11
-37.320300000000003
 21
66.115200000000002
 31
0.0
  0
LINE
  5
12F
  8
_________1
 62
     7
 10
-37.320300000000003
 20
60.027700000000003
 30
0.0
 11
-37.320300000000003
 21
60.527299999999997
 31
0.0
  0
LINE
  5
130
  8
_________1
 62
     7
 10
-37.320300000000003
 20
66.115200000000002
 30
0.0
 11
-37.50630000000001
 21
66.310199999999995
 31
0.0
  0
LINE
  5
131
  8
_________1
 62
     7
 10
-27.193300000000001
 20
66.310199999999995
 30
0.0
 11
-27.333600000000001
 21
66.115200000000002
 31
0.0
  0
LINE
  5
132
  8
_________1
 62
     7
 10
-27.333600000000001
 20
60.527299999999997
 30
0.0
 11
-27.333600000000001
 21
60.027700000000003
 31
0.0
  0
LINE
  5
133
  8
_________1
 62
     7
 10
-27.333600000000001
 20
66.115200000000002
 30
0.0
 11
-27.333600000000001
 21
63.527299999999997
 31
0.0
  0
LINE
  5
134
  8
_________1
 62
     7
 10
-40.189399999999992
 20
68.445499999999996
 30
0.0
 11
-24.439
 21
68.445499999999996
 31
0.0
  0
LINE
  5
135
  8
_________1
 62
     7
 10
-19.897600000000001
 20
48.685000000000002
 30
0.0
 11
-19.897600000000001
 21
53.023800000000001
 31
0.0
  0
ARC
  5
136
  8
_________1
 62
     7
 10
-20.208584999999999
 20
48.696935000000003
 30
0.0
 40
0.320833
 50
272.19247999999999
 51
357.871512
  0
ARC
  5
137
  8
_________1
 62
     7
 10
-20.217392
 20
53.009867000000007
 30
0.0
 40
0.320076
 50
2.4948799999999989
 51
87.890939000000003
  0
LINE
  5
138
  8
_________1
 62
     7
 10
-27.117599999999999
 20
48.5396
 30
0.0
 11
-37.5366
 21
48.5396
 31
0.0
  0
LINE
  5
139
  8
_________1
 62
     7
 10
-24.796600000000002
 20
58.879100000000001
 30
0.0
 11
-39.858600000000003
 21
58.879100000000001
 31
0.0
  0
LINE
  5
13A
  8
_________1
 62
     7
 10
-24.097200000000001
 20
52.857700000000001
 30
0.0
 11
-24.097200000000001
 21
48.754600000000003
 31
0.0
  0
LINE
  5
13B
  8
_________1
 62
     7
 10
-24.4648
 20
69.107699999999994
 30
0.0
 11
-24.4648
 21
74.493099999999998
 31
0.0
  0
INSERT
  5
13C
  8
_________1
 62
     7
  2
AIGNBL03030020
 10
0.0
 20
0.0
 30
0.0
  0
LINE
  5
13D
  8
_________1
 62
     7
 10
-32.327599999999997
 20
44.014800000000001
 30
0.0
 11
-32.327599999999997
 21
35.364800000000002
 31
0.0
  0
LINE
  5
13E
  8
_________1
 62
     7
 10
10.9596
 20
50.163699999999999
 30
0.0
 11
12.406599999999999
 21
50.163699999999999
 31
0.0
  0
LINE
  5
13F
  8
_________1
 62
     7
 10
-19.896599999999999
 20
50.181600000000003
 30
0.0
 11
7.3656600000000001
 21
50.181600000000003
 31
0.0
  0
LINE
  5
140
  8
_________1
  6
AIGENLINE001
 62
     7
 10
-29.205300000000001
 20
50.8065
 30
0.0
 11
14.7837
 21
50.8065
 31
0.0
  0
LINE
  5
141
  8
_________1
 62
     7
 10
10.9596
 20
51.413600000000002
 30
0.0
 11
12.406599999999999
 21
51.413600000000002
 31
0.0
  0
LINE
  5
142
  8
_________1
 62
     7
 10
-19.896599999999999
 20
51.430799999999998
 30
0.0
 11
7.3656600000000001
 21
51.430799999999998
 31
0.0
  0
ARC
  5
143
  8
_________1
 62
     7
 10
-26.738229
 20
48.312539000000001
 30
0.0
 40
0.4421060000000001
 50
90.716273000000015
 51
149.09142600000001
  0
LINE
  5
144
  8
_________1
 62
     7
 10
-23.135999999999999
 20
48.485199999999999
 30
0.0
 11
-23.135999999999999
 21
53.127200000000002
 31
0.0
  0
ARC
  5
145
  8
_________1
 62
     7
 10
-26.669245
 20
53.306092999999997
 30
0.0
 40
0.4486560000000001
 50
182.262002
 51
267.87537300000002
  0
LINE
  5
146
  8
_________1
 62
     7
 10
-23.135999999999999
 20
48.485199999999999
 30
0.0
 11
-23.028199999999998
 21
48.376300000000001
 31
0.0
  0
LINE
  5
147
  8
_________1
 62
     7
 10
-23.028199999999998
 20
53.2333
 30
0.0
 11
-23.135999999999999
 21
53.127200000000002
 31
0.0
  0
LINE
  5
148
  8
_________1
 62
     7
 10
-26.6859
 20
52.857700000000001
 30
0.0
 11
-23.135999999999999
 21
52.857700000000001
 31
0.0
  0
LINE
  5
149
  8
_________1
 62
     7
 10
-23.135999999999999
 20
48.754600000000003
 30
0.0
 11
-26.7438
 21
48.754600000000003
 31
0.0
  0
LINE
  5
14A
  8
_________1
 62
     7
 10
-23.662099999999999
 20
52.605600000000003
 30
0.0
 11
-23.135999999999999
 21
52.605600000000003
 31
0.0
  0
LINE
  5
14B
  8
_________1
 62
     7
 10
-23.135999999999999
 20
49.0047
 30
0.0
 11
-23.662099999999999
 21
49.0047
 31
0.0
  0
LINE
  5
14C
  8
_________1
 62
     7
 10
12.406599999999999
 20
51.413600000000002
 30
0.0
 11
12.406599999999999
 21
50.163699999999999
 31
0.0
  0
ARC
  5
14D
  8
_________1
 62
     7
 10
-25.626124000000001
 20
66.308387999999994
 30
0.0
 40
1.567221999999999
 50
154.03736000000001
 51
179.93228999999999
  0
ARC
  5
14E
  8
_________1
 62
     7
 10
-25.151586000000002
 20
66.106083999999996
 30
0.0
 40
2.0825949999999991
 50
136.86199999999999
 51
154.74878799999999
  0
ARC
  5
14F
  8
_________1
 62
     7
 10
-24.499521000000001
 20
65.527799000000002
 30
0.0
 40
2.9539159999999991
 50
98.357456999999997
 51
137.3250929999999
  0
ARC
  5
150
  8
_________1
 62
     7
 10
-40.113146999999991
 20
65.854084
 30
0.0
 40
2.6185139999999989
 50
66.307746999999992
 51
82.525114000000016
  0
ARC
  5
151
  8
_________1
 62
     7
 10
-40.244819
 20
65.479963999999995
 30
0.0
 40
3.0141580000000001
 50
39.617499000000002
 51
66.873385999999996
  0
ARC
  5
152
  8
_________1
 62
     7
 10
-39.546447999999998
 20
66.112902000000005
 30
0.0
 40
2.0730209999999989
 50
17.290738999999999
 51
38.449915000000011
  0
ARC
  5
153
  8
_________1
 62
     7
 10
-39.066858000000003
 20
66.297481999999974
 30
0.0
 40
1.560608
 50
0.468379
 51
16.053612000000001
  0
LINE
  5
154
  8
_________1
 62
     7
 10
-30.452400000000001
 20
61.152900000000002
 30
0.0
 11
-30.452400000000001
 21
62.902999999999999
 31
0.0
  0
LINE
  5
155
  8
_________1
 62
     7
 10
-34.202399999999997
 20
61.152900000000002
 30
0.0
 11
-34.202399999999997
 21
62.902999999999999
 31
0.0
  0
LINE
  5
156
  8
_________1
  6
AIGENLINE001
 62
     7
 10
-32.327599999999997
 20
45.043500000000002
 30
0.0
 11
-32.327599999999997
 21
70.285899999999998
 31
0.0
  0
ARC
  5
157
  8
_________1
 62
     7
 10
-38.824472
 20
59.384771000000001
 30
0.0
 40
0.6566010000000001
 50
180.53297499999991
 51
230.363069
  0
ARC
  5
158
  8
_________1
 62
     7
 10
-38.807093999999999
 20
59.3538
 30
0.0
 40
0.674409
 50
92.173636000000016
 51
177.88719
  0
ARC
  5
159
  8
_________1
 62
     7
 10
-25.845514000000001
 20
59.356827000000003
 30
0.0
 40
0.6713640000000001
 50
1.8638999999999999
 51
87.861730000000009
  0
ARC
  5
15A
  8
_________1
 62
     7
 10
-25.829487
 20
59.383148999999989
 30
0.0
 40
0.6549970000000001
 50
309.689909
 51
359.60755399999999
  0
LINE
  5
15B
  8
_________1
 62
     7
 10
-27.117599999999999
 20
56.698399999999999
 30
0.0
 11
-27.117599999999999
 21
53.288400000000003
 31
0.0
  0
ARC
  5
15C
  8
_________1
 62
     7
 10
-38.638531999999998
 20
56.686889999999998
 30
0.0
 40
1.1019719999999991
 50
0.5964699999999999
 51
59.332732
  0
ARC
  5
15D
  8
_________1
 62
     7
 10
-26.014149
 20
56.686031000000007
 30
0.0
 40
1.103470999999999
 50
120.711039
 51
179.3597199999999
  0
LINE
  5
15E
  8
_________1
 62
     7
 10
-37.5366
 20
48.5396
 30
0.0
 11
-37.5366
 21
56.698399999999999
 31
0.0
  0
LINE
  5
15F
  8
_________1
 62
     7
 10
-23.662099999999999
 20
49.0047
 30
0.0
 11
-24.097200000000001
 21
48.754600000000003
 31
0.0
  0
LINE
  5
160
  8
_________1
 62
     7
 10
-27.625699999999998
 20
46.3782
 30
0.0
 11
-27.625699999999998
 21
47.890599999999999
 31
0.0
  0
LINE
  5
161
  8
_________1
 62
     7
 10
-37.320300000000003
 20
46.670999999999999
 30
0.0
 11
-27.333600000000001
 21
46.670999999999999
 31
0.0
  0
LINE
  5
162
  8
_________1
 62
     7
 10
-24.796600000000002
 20
58.662100000000002
 30
0.0
 11
-26.5777
 21
57.634700000000002
 31
0.0
  0
LINE
  5
163
  8
_________1
 62
     7
 10
-24.796600000000002
 20
58.662100000000002
 30
0.0
 11
-24.796600000000002
 21
58.879100000000001
 31
0.0
  0
LINE
  5
164
  8
_________1
 62
     7
 10
-27.333600000000001
 20
47.890599999999999
 30
0.0
 11
-37.2669
 21
47.890599999999999
 31
0.0
  0
LINE
  5
165
  8
_________1
 62
     7
 10
-27.388000000000002
 20
47.890599999999999
 30
0.0
 11
-27.388000000000002
 21
48.5396
 31
0.0
  0
LINE
  5
166
  8
_________1
 62
     7
 10
-37.2669
 20
47.890599999999999
 30
0.0
 11
-37.2669
 21
48.5396
 31
0.0
  0
LINE
  5
167
  8
_________1
 62
     7
 10
-37.320300000000003
 20
46.670999999999999
 30
0.0
 11
-37.0274
 21
46.3782
 31
0.0
  0
LINE
  5
168
  8
_________1
 62
     7
 10
-27.333600000000001
 20
46.670999999999999
 30
0.0
 11
-27.625699999999998
 21
46.3782
 31
0.0
  0
LINE
  5
169
  8
_________1
 62
     7
 10
-27.333600000000001
 20
47.890599999999999
 30
0.0
 11
-27.333600000000001
 21
46.670999999999999
 31
0.0
  0
LINE
  5
16A
  8
_________1
 62
     7
 10
-37.320300000000003
 20
46.670999999999999
 30
0.0
 11
-37.320300000000003
 21
47.890599999999999
 31
0.0
  0
LINE
  5
16B
  8
_________1
 62
     7
 10
-27.625699999999998
 20
46.3782
 30
0.0
 11
-37.0274
 21
46.3782
 31
0.0
  0
LINE
  5
16C
  8
_________1
 62
     7
 10
-39.858600000000003
 20
58.662100000000002
 30
0.0
 11
-38.07650000000001
 21
57.634700000000002
 31
0.0
  0
LINE
  5
16D
  8
_________1
 62
     7
 10
-39.858600000000003
 20
58.662100000000002
 30
0.0
 11
-39.858600000000003
 21
58.879100000000001
 31
0.0
  0
LINE
  5
16E
  8
_________1
 62
     7
 10
12.620799999999999
 20
50.377899999999997
 30
0.0
 11
12.406599999999999
 21
50.163699999999999
 31
0.0
  0
LINE
  5
16F
  8
_________1
 62
     7
 10
12.406599999999999
 20
51.413600000000002
 30
0.0
 11
12.620799999999999
 21
51.195799999999998
 31
0.0
  0
LINE
  5
170
  8
_________1
 62
     7
 10
12.620799999999999
 20
50.377899999999997
 30
0.0
 11
12.620799999999999
 21
51.195799999999998
 31
0.0
  0
LINE
  5
171
  8
_________1
 62
     7
 10
-37.0274
 20
46.3782
 30
0.0
 11
-37.0274
 21
47.890599999999999
 31
0.0
  0
LINE
  5
172
  8
_________1
 62
     7
 10
-33.577100000000002
 20
63.527299999999997
 30
0.0
 11
-31.0777
 21
63.527299999999997
 31
0.0
  0
LINE
  5
173
  8
_________1
 62
     7
 10
-33.577100000000002
 20
60.527299999999997
 30
0.0
 11
-31.0777
 21
60.527299999999997
 31
0.0
  0
LINE
  5
174
  8
_________1
 62
     7
 10
-38.832700000000003
 20
60.027700000000003
 30
0.0
 11
-25.820499999999999
 21
60.027700000000003
 31
0.0
  0
LINE
  5
175
  8
_________1
 62
     7
 10
-23.662099999999999
 20
48.754600000000003
 30
0.0
 11
-23.662099999999999
 21
52.857700000000001
 31
0.0
  0
LINE
  5
176
  8
_________1
 62
     7
 10
-24.097200000000001
 20
52.857700000000001
 30
0.0
 11
-23.662099999999999
 21
52.605600000000003
 31
0.0
  0
LINE
  5
177
  8
_________1
 62
     7
 10
-22.271999999999998
 20
53.2333
 30
0.0
 11
-23.028199999999998
 21
53.2333
 31
0.0
  0
ENDBLK
  5
178
  8
_________1
  0
BLOCK
  8
_________1
  2
AIGNBL03010002
 70
     0
 10
0.0
 20
0.0
 30
0.0
  3
AIGNBL03010002
  1

  0
ARC
  5
17B
  8
_________1
  6
AIGENLINE002
 62
     7
 10
9520.3019999999997
 20
-3363.6930000000002
 30
0.0
 40
10101.030000000001
 50
159.266637
 51
159.29385600000001
  0
LINE
  5
17C
  8
_________1
  6
AIGENLINE002
 62
     7
 10
49.920400000000001
 20
223.17599999999999
 30
0.0
 11
49.901800000000001
 21
223.131
 31
0.0
  0
LINE
  5
17D
  8
_________1
  6
AIGENLINE002
 62
     7
 10
49.901800000000001
 20
223.131
 30
0.0
 11
49.887700000000002
 21
223.084
 31
0.0
  0
LINE
  5
17E
  8
_________1
  6
AIGENLINE002
 62
     7
 10
49.887700000000002
 20
223.084
 30
0.0
 11
49.878100000000003
 21
223.03700000000001
 31
0.0
  0
LINE
  5
17F
  8
_________1
  6
AIGENLINE002
 62
     7
 10
49.878100000000003
 20
223.03700000000001
 30
0.0
 11
49.872900000000001
 21
222.988
 31
0.0
  0
LINE
  5
180
  8
_________1
  6
AIGENLINE002
 62
     7
 10
49.872900000000001
 20
222.988
 30
0.0
 11
49.873199999999997
 21
222.93899999999999
 31
0.0
  0
LINE
  5
181
  8
_________1
  6
AIGENLINE002
 62
     7
 10
49.873199999999997
 20
222.93899999999999
 30
0.0
 11
49.877400000000002
 21
222.89099999999999
 31
0.0
  0
LINE
  5
182
  8
_________1
  6
AIGENLINE002
 62
     7
 10
49.877400000000002
 20
222.89099999999999
 30
0.0
 11
49.88669999999999
 21
222.84299999999999
 31
0.0
  0
LINE
  5
183
  8
_________1
  6
AIGENLINE002
 62
     7
 10
49.88669999999999
 20
222.84299999999999
 30
0.0
 11
49.90079999999999
 21
222.79599999999999
 31
0.0
  0
LINE
  5
184
  8
_________1
  6
AIGENLINE002
 62
     7
 10
49.90079999999999
 20
222.79599999999999
 30
0.0
 11
49.9191
 21
222.751
 31
0.0
  0
LINE
  5
185
  8
_________1
  6
AIGENLINE002
 62
     7
 10
49.9191
 20
222.751
 30
0.0
 11
49.941800000000001
 21
222.708
 31
0.0
  0
LINE
  5
186
  8
_________1
  6
AIGENLINE002
 62
     7
 10
49.941800000000001
 20
222.708
 30
0.0
 11
49.968699999999998
 21
222.66800000000001
 31
0.0
  0
LINE
  5
187
  8
_________1
  6
AIGENLINE002
 62
     7
 10
49.968699999999998
 20
222.66800000000001
 30
0.0
 11
49.999299999999991
 21
222.63
 31
0.0
  0
LINE
  5
188
  8
_________1
  6
AIGENLINE002
 62
     7
 10
49.999299999999991
 20
222.63
 30
0.0
 11
50.0334
 21
222.595
 31
0.0
  0
LINE
  5
189
  8
_________1
  6
AIGENLINE002
 62
     7
 10
50.0334
 20
222.595
 30
0.0
 11
50.071000000000012
 21
222.56399999999999
 31
0.0
  0
LINE
  5
18A
  8
_________1
  6
AIGENLINE002
 62
     7
 10
50.071000000000012
 20
222.56399999999999
 30
0.0
 11
50.1113
 21
222.536
 31
0.0
  0
LINE
  5
18B
  8
_________1
  6
AIGENLINE002
 62
     7
 10
50.1113
 20
222.536
 30
0.0
 11
50.154400000000003
 21
222.51300000000001
 31
0.0
  0
LINE
  5
18C
  8
_________1
  6
AIGENLINE002
 62
     7
 10
50.072000000000003
 20
223.49199999999999
 30
0.0
 11
50.0837
 21
223.51400000000001
 31
0.0
  0
LINE
  5
18D
  8
_________1
  6
AIGENLINE002
 62
     7
 10
50.0837
 20
223.51400000000001
 30
0.0
 11
50.097499999999997
 21
223.53399999999999
 31
0.0
  0
LINE
  5
18E
  8
_________1
  6
AIGENLINE002
 62
     7
 10
50.097499999999997
 20
223.53399999999999
 30
0.0
 11
50.113
 21
223.553
 31
0.0
  0
LINE
  5
18F
  8
_________1
  6
AIGENLINE002
 62
     7
 10
50.113
 20
223.553
 30
0.0
 11
50.130600000000001
 21
223.56999999999999
 31
0.0
  0
LINE
  5
190
  8
_________1
  6
AIGENLINE002
 62
     7
 10
50.130600000000001
 20
223.56999999999999
 30
0.0
 11
50.149500000000003
 21
223.58500000000001
 31
0.0
  0
LINE
  5
191
  8
_________1
  6
AIGENLINE002
 62
     7
 10
50.149500000000003
 20
223.58500000000001
 30
0.0
 11
50.169899999999991
 21
223.59899999999999
 31
0.0
  0
LINE
  5
192
  8
_________1
  6
AIGENLINE002
 62
     7
 10
50.169899999999991
 20
223.59899999999999
 30
0.0
 11
50.191600000000001
 21
223.61000000000001
 31
0.0
  0
LINE
  5
193
  8
_________1
  6
AIGENLINE002
 62
     7
 10
50.191600000000001
 20
223.61000000000001
 30
0.0
 11
50.214300000000001
 21
223.619
 31
0.0
  0
LINE
  5
194
  8
_________1
  6
AIGENLINE002
 62
     7
 10
50.214300000000001
 20
223.619
 30
0.0
 11
50.23769999999999
 21
223.626
 31
0.0
  0
LINE
  5
195
  8
_________1
  6
AIGENLINE002
 62
     7
 10
50.23769999999999
 20
223.626
 30
0.0
 11
50.261499999999998
 21
223.631
 31
0.0
  0
LINE
  5
196
  8
_________1
  6
AIGENLINE002
 62
     7
 10
50.261499999999998
 20
223.631
 30
0.0
 11
50.286000000000001
 21
223.63300000000001
 31
0.0
  0
LINE
  5
197
  8
_________1
  6
AIGENLINE002
 62
     7
 10
50.286000000000001
 20
223.63300000000001
 30
0.0
 11
50.310400000000001
 21
223.63300000000001
 31
0.0
  0
LINE
  5
198
  8
_________1
  6
AIGENLINE002
 62
     7
 10
50.310400000000001
 20
223.63300000000001
 30
0.0
 11
50.334899999999998
 21
223.63
 31
0.0
  0
LINE
  5
199
  8
_________1
  6
AIGENLINE002
 62
     7
 10
50.334899999999998
 20
223.63
 30
0.0
 11
50.358999999999988
 21
223.625
 31
0.0
  0
LINE
  5
19A
  8
_________1
  6
AIGENLINE002
 62
     7
 10
50.358999999999988
 20
223.625
 30
0.0
 11
50.382399999999997
 21
223.61799999999999
 31
0.0
  0
LINE
  5
19B
  8
_________1
  6
AIGENLINE002
 62
     7
 10
50.382399999999997
 20
223.61799999999999
 30
0.0
 11
50.404800000000002
 21
223.60900000000001
 31
0.0
  0
LINE
  5
19C
  8
_________1
  6
AIGENLINE002
 62
     7
 10
50.404800000000002
 20
223.60900000000001
 30
0.0
 11
73.306899999999999
 21
212.57900000000001
 31
0.0
  0
LINE
  5
19D
  8
_________1
  6
AIGENLINE002
 62
     7
 10
73.306899999999999
 20
212.57900000000001
 30
0.0
 11
73.327299999999994
 21
212.56800000000001
 31
0.0
  0
LINE
  5
19E
  8
_________1
  6
AIGENLINE002
 62
     7
 10
73.327299999999994
 20
212.56800000000001
 30
0.0
 11
73.346500000000006
 21
212.55500000000001
 31
0.0
  0
LINE
  5
19F
  8
_________1
  6
AIGENLINE002
 62
     7
 10
73.346500000000006
 20
212.55500000000001
 30
0.0
 11
73.364500000000007
 21
212.53999999999999
 31
0.0
  0
LINE
  5
1A0
  8
_________1
  6
AIGENLINE002
 62
     7
 10
73.364500000000007
 20
212.53999999999999
 30
0.0
 11
73.380700000000004
 21
212.524
 31
0.0
  0
LINE
  5
1A1
  8
_________1
  6
AIGENLINE002
 62
     7
 10
73.380700000000004
 20
212.524
 30
0.0
 11
73.395799999999994
 21
212.50700000000001
 31
0.0
  0
LINE
  5
1A2
  8
_________1
  6
AIGENLINE002
 62
     7
 10
73.395799999999994
 20
212.50700000000001
 30
0.0
 11
73.408900000000003
 21
212.488
 31
0.0
  0
LINE
  5
1A3
  8
_________1
  6
AIGENLINE002
 62
     7
 10
73.408900000000003
 20
212.488
 30
0.0
 11
73.420299999999997
 21
212.46799999999999
 31
0.0
  0
LINE
  5
1A4
  8
_________1
  6
AIGENLINE002
 62
     7
 10
73.420299999999997
 20
212.46799999999999
 30
0.0
 11
73.429900000000004
 21
212.447
 31
0.0
  0
LINE
  5
1A5
  8
_________1
  6
AIGENLINE002
 62
     7
 10
73.429900000000004
 20
212.447
 30
0.0
 11
73.437799999999996
 21
212.42500000000001
 31
0.0
  0
LINE
  5
1A6
  8
_________1
  6
AIGENLINE002
 62
     7
 10
73.437799999999996
 20
212.42500000000001
 30
0.0
 11
73.442999999999998
 21
212.40199999999999
 31
0.0
  0
LINE
  5
1A7
  8
_________1
  6
AIGENLINE002
 62
     7
 10
73.442999999999998
 20
212.40199999999999
 30
0.0
 11
73.4465
 21
212.38
 31
0.0
  0
LINE
  5
1A8
  8
_________1
  6
AIGENLINE002
 62
     7
 10
73.4465
 20
212.38
 30
0.0
 11
73.447800000000001
 21
212.357
 31
0.0
  0
LINE
  5
1A9
  8
_________1
  6
AIGENLINE002
 62
     7
 10
73.447800000000001
 20
212.357
 30
0.0
 11
73.446799999999996
 21
212.333
 31
0.0
  0
LINE
  5
1AA
  8
_________1
  6
AIGENLINE002
 62
     7
 10
73.446799999999996
 20
212.333
 30
0.0
 11
73.444000000000003
 21
212.31100000000001
 31
0.0
  0
LINE
  5
1AB
  8
_________1
  6
AIGENLINE002
 62
     7
 10
73.444000000000003
 20
212.31100000000001
 30
0.0
 11
73.438900000000004
 21
212.28800000000001
 31
0.0
  0
LINE
  5
1AC
  8
_________1
  6
AIGENLINE002
 62
     7
 10
73.438900000000004
 20
212.28800000000001
 30
0.0
 11
73.431600000000003
 21
212.26599999999999
 31
0.0
  0
LINE
  5
1AD
  8
_________1
  6
AIGENLINE002
 62
     7
 10
49.921100000000003
 20
223.17699999999999
 30
0.0
 11
50.072000000000003
 21
223.49199999999999
 31
0.0
  0
LINE
  5
1AE
  8
_________1
  6
AIGENLINE002
 62
     7
 10
50.154400000000003
 20
222.51300000000001
 30
0.0
 11
60.243000000000002
 21
217.654
 31
0.0
  0
ARC
  5
1AF
  8
_________1
  6
AIGENLINE002
 62
     7
 10
58.610748999999998
 20
214.27308199999999
 30
0.0
 40
3.7545459999999991
 50
43.616418000000003
 51
64.230529000000004
  0
ARC
  5
1B0
  8
_________1
  6
AIGENLINE002
 62
     7
 10
58.846575000000001
 20
214.49268900000001
 30
0.0
 40
3.4323260000000002
 50
40.040517000000001
 51
43.677993999999991
  0
ARC
  5
1B1
  8
_________1
  6
AIGENLINE002
 62
     7
 10
58.633831999999998
 20
214.29490799999999
 30
0.0
 40
3.7224659999999998
 50
21.747741000000001
 51
40.264552000000002
  0
ARC
  5
1B2
  8
_________1
  6
AIGENLINE002
 62
     7
 10
58.483789999999999
 20
214.24232799999999
 30
0.0
 40
3.8813169999999988
 50
15.554745
 51
21.647998999999999
  0
ARC
  5
1B3
  8
_________1
  6
AIGENLINE002
 62
     7
 10
58.628948000000001
 20
214.28995699999999
 30
0.0
 40
3.7287089999999989
 50
359.95164899999997
 51
15.447815
  0
ARC
  5
1B4
  8
_________1
  6
AIGENLINE002
 62
     7
 10
58.612806999999997
 20
214.29073
 30
0.0
 40
3.744851999999999
 50
339.31072799999998
 51
359.94003099999998
  0
LINE
  5
1B5
  8
_________1
  6
AIGENLINE002
 62
     7
 10
62.116199999999992
 20
212.96799999999999
 30
0.0
 11
61.0809
 21
210.23099999999999
 31
0.0
  0
ARC
  5
1B6
  8
_________1
  6
AIGENLINE002
 62
     7
 10
71.429590000000005
 20
183.534111
 30
0.0
 40
24.245750000000001
 50
89.280879999999996
 51
89.512917999999985
  0
ARC
  5
1B7
  8
_________1
  6
AIGENLINE002
 62
     7
 10
69.476095000000001
 20
53.744881999999997
 30
0.0
 40
154.04924099999999
 50
89.196737999999996
 51
89.304507999999998
  0
LINE
  5
1B8
  8
_________1
  6
AIGENLINE002
 62
     7
 10
71.346000000000004
 20
207.78299999999999
 30
0.0
 11
66.300899999999999
 21
207.846
 31
0.0
  0
ARC
  5
1B9
  8
_________1
  6
AIGENLINE002
 62
     7
 10
66.319691000000006
 20
209.12666100000001
 30
0.0
 40
1.2809790000000001
 50
261.23748599999999
 51
269.16116599999998
  0
ARC
  5
1BA
  8
_________1
  6
AIGENLINE002
 62
     7
 10
66.243037000000001
 20
208.706334
 30
0.0
 40
0.8539610000000001
 50
255.68369899999999
 51
262.02433000000002
  0
ARC
  5
1BB
  8
_________1
  6
AIGENLINE002
 62
     7
 10
66.284540000000007
 20
209.00205399999999
 30
0.0
 40
1.1507899999999991
 50
247.88736200000011
 51
252.60893999999999
  0
ARC
  5
1BC
  8
_________1
  6
AIGENLINE002
 62
     7
 10
66.299702999999994
 20
209.037194
 30
0.0
 40
1.188863
 50
252.417779
 51
256.98055299999999
  0
ARC
  5
1BD
  8
_________1
  6
AIGENLINE002
 62
     7
 10
66.160735999999986
 20
208.736289
 30
0.0
 40
0.8580959999999999
 50
243.37984499999999
 51
248.866016
  0
LINE
  5
1BE
  8
_________1
  6
AIGENLINE002
 62
     7
 10
65.776200000000003
 20
207.96899999999999
 30
0.0
 11
61.235199999999999
 21
210.15600000000001
 31
0.0
  0
ARC
  5
1BF
  8
_________1
  6
AIGENLINE002
 62
     7
 10
81.261415000000014
 20
251.84819400000001
 30
0.0
 40
46.252321999999999
 50
244.185157
 51
244.34339399999999
  0
ARC
  5
1C0
  8
_________1
  6
AIGENLINE002
 62
     7
 10
62.155619999999992
 20
212.407963
 30
0.0
 40
2.428218999999999
 50
243.73027300000001
 51
244.75921099999999
  0
ENDBLK
  5
1C1
  8
_________1
  0
BLOCK
  8
_________1
  2
AIGNBL03010003
 70
     0
 10
0.0
 20
0.0
 30
0.0
  3
AIGNBL03010003
  1

  0
LINE
  5
1C4
  8
_________1
 62
     7
 10
-35.491300000000003
 20
195.00599999999989
 30
0.0
 11
-37.702300000000001
 21
194.41300000000001
 31
0.0
  0
LINE
  5
1C5
  8
_________1
 62
     7
 10
-37.702300000000001
 20
194.41300000000001
 30
0.0
 11
-35.491300000000003
 21
193.821
 31
0.0
  0
LINE
  5
1C6
  8
_________1
 62
     7
 10
-35.491300000000003
 20
193.821
 30
0.0
 11
-35.491300000000003
 21
195.00599999999989
 31
0.0
  0
LINE
  5
1C7
  8
_________1
 62
     7
 10
-29.1633
 20
193.821
 30
0.0
 11
-26.952200000000001
 21
194.41300000000001
 31
0.0
  0
LINE
  5
1C8
  8
_________1
 62
     7
 10
-26.952200000000001
 20
194.41300000000001
 30
0.0
 11
-29.1633
 21
195.00599999999989
 31
0.0
  0
LINE
  5
1C9
  8
_________1
 62
     7
 10
-29.1633
 20
195.00599999999989
 30
0.0
 11
-29.1633
 21
193.821
 31
0.0
  0
LINE
  5
1CA
  8
_________1
 62
     7
 10
-37.702300000000001
 20
194.41300000000001
 30
0.0
 11
-26.952200000000001
 21
194.41300000000001
 31
0.0
  0
ENDBLK
  5
1CB
  8
_________1
  0
BLOCK
  8
_________1
  2
AIGNBL03010004
 70
     0
 10
0.0
 20
0.0
 30
0.0
  3
AIGNBL03010004
  1

  0
LINE
  5
1CE
  8
_________1
 62
     7
 10
64.0578
 20
188.30099999999999
 30
0.0
 11
61.846699999999998
 21
187.709
 31
0.0
  0
LINE
  5
1CF
  8
_________1
 62
     7
 10
61.846699999999998
 20
187.709
 30
0.0
 11
64.0578
 21
187.11699999999999
 31
0.0
  0
LINE
  5
1D0
  8
_________1
 62
     7
 10
64.0578
 20
187.11699999999999
 30
0.0
 11
64.0578
 21
188.30099999999999
 31
0.0
  0
LINE
  5
1D1
  8
_________1
 62
     7
 10
70.508799999999994
 20
187.13200000000001
 30
0.0
 11
72.719200000000001
 21
187.72399999999999
 31
0.0
  0
LINE
  5
1D2
  8
_________1
 62
     7
 10
72.719200000000001
 20
187.72399999999999
 30
0.0
 11
70.508799999999994
 21
188.31599999999989
 31
0.0
  0
LINE
  5
1D3
  8
_________1
 62
     7
 10
70.508799999999994
 20
188.31599999999989
 30
0.0
 11
70.508799999999994
 21
187.13200000000001
 31
0.0
  0
LINE
  5
1D4
  8
_________1
 62
     7
 10
61.84709999999999
 20
187.71700000000001
 30
0.0
 11
76.830600000000004
 21
187.71700000000001
 31
0.0
  0
ENDBLK
  5
1D5
  8
_________1
  0
BLOCK
  8
_________1
  2
AIGNBL03010005
 70
     0
 10
0.0
 20
0.0
 30
0.0
  3
AIGNBL03010005
  1

  0
LINE
  5
1D8
  8
_________1
 62
     7
 10
63.651299999999999
 20
184.91300000000001
 30
0.0
 11
61.440199999999997
 21
184.321
 31
0.0
  0
LINE
  5
1D9
  8
_________1
 62
     7
 10
61.440199999999997
 20
184.321
 30
0.0
 11
63.651299999999999
 21
183.72799999999989
 31
0.0
  0
LINE
  5
1DA
  8
_________1
 62
     7
 10
63.651299999999999
 20
183.72799999999989
 30
0.0
 11
63.651299999999999
 21
184.91300000000001
 31
0.0
  0
LINE
  5
1DB
  8
_________1
 62
     7
 10
71.980199999999996
 20
183.74299999999999
 30
0.0
 11
74.190600000000003
 21
184.33500000000001
 31
0.0
  0
LINE
  5
1DC
  8
_________1
 62
     7
 10
74.190600000000003
 20
184.33500000000001
 30
0.0
 11
71.980199999999996
 21
184.92699999999999
 31
0.0
  0
LINE
  5
1DD
  8
_________1
 62
     7
 10
71.980199999999996
 20
184.92699999999999
 30
0.0
 11
71.980199999999996
 21
183.74299999999999
 31
0.0
  0
LINE
  5
1DE
  8
_________1
 62
     7
 10
57.7271
 20
184.328
 30
0.0
 11
74.190600000000003
 21
184.328
 31
0.0
  0
ENDBLK
  5
1DF
  8
_________1
  0
BLOCK
  8
_________1
  2
AIGNBL03010006
 70
     0
 10
0.0
 20
0.0
 30
0.0
  3
AIGNBL03010006
  1

  0
LINE
  5
1E2
  8
_________1
 62
     7
 10
-36.491700000000002
 20
188.10900000000001
 30
0.0
 11
-38.702800000000011
 21
187.517
 31
0.0
  0
LINE
  5
1E3
  8
_________1
 62
     7
 10
-38.702800000000011
 20
187.517
 30
0.0
 11
-36.491700000000002
 21
186.92500000000001
 31
0.0
  0
LINE
  5
1E4
  8
_________1
 62
     7
 10
-36.491700000000002
 20
186.92500000000001
 30
0.0
 11
-36.491700000000002
 21
188.10900000000001
 31
0.0
  0
LINE
  5
1E5
  8
_________1
 62
     7
 10
-28.162800000000001
 20
186.93899999999999
 30
0.0
 11
-25.952400000000001
 21
187.53200000000001
 31
0.0
  0
LINE
  5
1E6
  8
_________1
 62
     7
 10
-25.952400000000001
 20
187.53200000000001
 30
0.0
 11
-28.162800000000001
 21
188.124
 31
0.0
  0
LINE
  5
1E7
  8
_________1
 62
     7
 10
-28.162800000000001
 20
188.124
 30
0.0
 11
-28.162800000000001
 21
186.93899999999999
 31
0.0
  0
LINE
  5
1E8
  8
_________1
 62
     7
 10
-38.702399999999997
 20
187.524
 30
0.0
 11
-25.952400000000001
 21
187.524
 31
0.0
  0
ENDBLK
  5
1E9
  8
_________1
  0
BLOCK
  8
_________1
  2
AIGNBL03010007
 70
     0
 10
0.0
 20
0.0
 30
0.0
  3
AIGNBL03010007
  1

  0
LINE
  5
1EC
  8
_________1
 62
     7
 10
75.186899999999994
 20
196.54400000000001
 30
0.0
 11
77.397300000000001
 21
197.136
 31
0.0
  0
LINE
  5
1ED
  8
_________1
 62
     7
 10
77.397300000000001
 20
197.136
 30
0.0
 11
75.186899999999994
 21
197.72900000000001
 31
0.0
  0
LINE
  5
1EE
  8
_________1
 62
     7
 10
75.186899999999994
 20
197.72900000000001
 30
0.0
 11
75.186899999999994
 21
196.54400000000001
 31
0.0
  0
LINE
  5
1EF
  8
_________1
 62
     7
 10
74.107200000000006
 20
197.714
 30
0.0
 11
71.896199999999993
 21
197.12200000000001
 31
0.0
  0
LINE
  5
1F0
  8
_________1
 62
     7
 10
71.896199999999993
 20
197.12200000000001
 30
0.0
 11
74.107200000000006
 21
196.529
 31
0.0
  0
LINE
  5
1F1
  8
_________1
 62
     7
 10
74.107200000000006
 20
196.529
 30
0.0
 11
74.107200000000006
 21
197.714
 31
0.0
  0
LINE
  5
1F2
  8
_________1
 62
     7
 10
87.178700000000006
 20
197.12899999999999
 30
0.0
 11
71.896500000000003
 21
197.12899999999999
 31
0.0
  0
ENDBLK
  5
1F3
  8
_________1
  0
BLOCK
  8
_________1
  2
AIGNBL03010008
 70
     0
 10
0.0
 20
0.0
 30
0.0
  3
AIGNBL03010008
  1

  0
LINE
  5
1F6
  8
_________1
 62
     7
 10
-34.538699999999999
 20
226.042
 30
0.0
 11
-32.327599999999997
 21
226.63399999999999
 31
0.0
  0
LINE
  5
1F7
  8
_________1
 62
     7
 10
-32.327599999999997
 20
226.63399999999999
 30
0.0
 11
-34.538699999999999
 21
227.227
 31
0.0
  0
LINE
  5
1F8
  8
_________1
 62
     7
 10
-34.538699999999999
 20
227.227
 30
0.0
 11
-34.538699999999999
 21
226.042
 31
0.0
  0
LINE
  5
1F9
  8
_________1
 62
     7
 10
-10.356400000000001
 20
235.48500000000001
 30
0.0
 11
-8.3406300000000009
 21
236.56999999999999
 31
0.0
  0
LINE
  5
1FA
  8
_________1
 62
     7
 10
-8.3406300000000009
 20
236.56999999999999
 30
0.0
 11
-9.5443499999999997
 21
234.62299999999999
 31
0.0
  0
LINE
  5
1FB
  8
_________1
 62
     7
 10
-9.5443499999999997
 20
234.62299999999999
 30
0.0
 11
-10.356400000000001
 21
235.48500000000001
 31
0.0
  0
LINE
  5
1FC
  8
_________1
 62
     7
 10
-54.298499999999997
 20
235.48500000000001
 30
0.0
 11
-56.3142
 21
236.56999999999999
 31
0.0
  0
LINE
  5
1FD
  8
_________1
 62
     7
 10
-56.3142
 20
236.56999999999999
 30
0.0
 11
-55.110500000000002
 21
234.62299999999999
 31
0.0
  0
LINE
  5
1FE
  8
_________1
 62
     7
 10
-55.110500000000002
 20
234.62299999999999
 30
0.0
 11
-54.298499999999997
 21
235.48500000000001
 31
0.0
  0
LINE
  5
1FF
  8
_________1
 62
     7
 10
-30.116499999999998
 20
227.226
 30
0.0
 11
-32.327599999999997
 21
226.63399999999999
 31
0.0
  0
LINE
  5
200
  8
_________1
 62
     7
 10
-32.327599999999997
 20
226.63399999999999
 30
0.0
 11
-30.116499999999998
 21
226.042
 31
0.0
  0
LINE
  5
201
  8
_________1
 62
     7
 10
-30.116499999999998
 20
226.042
 30
0.0
 11
-30.116499999999998
 21
227.226
 31
0.0
  0
LINE
  5
202
  8
_________1
 62
     7
 10
65.604699999999994
 20
189.46100000000001
 30
0.0
 11
67.815799999999996
 21
190.054
 31
0.0
  0
LINE
  5
203
  8
_________1
 62
     7
 10
67.815799999999996
 20
190.054
 30
0.0
 11
65.604699999999994
 21
190.64599999999999
 31
0.0
  0
LINE
  5
204
  8
_________1
 62
     7
 10
65.604699999999994
 20
190.64599999999999
 30
0.0
 11
65.604699999999994
 21
189.46100000000001
 31
0.0
  0
LINE
  5
205
  8
_________1
 62
     7
 10
35.757599999999996
 20
189.892
 30
0.0
 11
38.038200000000003
 21
190.08799999999999
 31
0.0
  0
LINE
  5
206
  8
_________1
 62
     7
 10
38.038200000000003
 20
190.08799999999999
 30
0.0
 11
35.964599999999997
 21
191.05799999999999
 31
0.0
  0
LINE
  5
207
  8
_________1
 62
     7
 10
35.964599999999997
 20
191.05799999999999
 30
0.0
 11
35.757599999999996
 21
189.892
 31
0.0
  0
LINE
  5
208
  8
_________1
 62
     7
 10
41.2759
 20
190.63099999999989
 30
0.0
 11
39.064900000000002
 21
190.03899999999999
 31
0.0
  0
LINE
  5
209
  8
_________1
 62
     7
 10
39.064900000000002
 20
190.03899999999999
 30
0.0
 11
41.2759
 21
189.447
 31
0.0
  0
LINE
  5
20A
  8
_________1
 62
     7
 10
41.2759
 20
189.447
 30
0.0
 11
41.2759
 21
190.63099999999989
 31
0.0
  0
LINE
  5
20B
  8
_________1
 62
     7
 10
67.815399999999997
 20
190.04599999999999
 30
0.0
 11
39.065199999999997
 21
190.04599999999999
 31
0.0
  0
ENDBLK
  5
20C
  8
_________1
  0
BLOCK
  8
_________1
  2
AIGNBL03010009
 70
     0
 10
0.0
 20
0.0
 30
0.0
  3
AIGNBL03010009
  1

  0
LINE
  5
20F
  8
_________1
 62
     7
 10
15.2278
 20
221.42500000000001
 30
0.0
 11
14.6355
 21
223.63499999999999
 31
0.0
  0
LINE
  5
210
  8
_________1
 62
     7
 10
14.6355
 20
223.63499999999999
 30
0.0
 11
14.0433
 21
221.42500000000001
 31
0.0
  0
LINE
  5
211
  8
_________1
 62
     7
 10
14.0433
 20
221.42500000000001
 30
0.0
 11
15.2278
 21
221.42500000000001
 31
0.0
  0
LINE
  5
212
  8
_________1
 62
     7
 10
14.0578
 20
182.345
 30
0.0
 11
14.65
 21
180.13499999999999
 31
0.0
  0
LINE
  5
213
  8
_________1
 62
     7
 10
14.65
 20
180.13499999999999
 30
0.0
 11
15.2422
 21
182.345
 31
0.0
  0
LINE
  5
214
  8
_________1
 62
     7
 10
15.2422
 20
182.345
 30
0.0
 11
14.0578
 21
182.345
 31
0.0
  0
LINE
  5
215
  8
_________1
 62
     7
 10
14.642799999999999
 20
223.63499999999999
 30
0.0
 11
14.642799999999999
 21
180.13499999999999
 31
0.0
  0
ENDBLK
  5
216
  8
_________1
  0
BLOCK
  8
_________1
  2
AIGNBL0301000A
 70
     0
 10
0.0
 20
0.0
 30
0.0
  3
AIGNBL0301000A
  1

  0
LINE
  5
219
  8
_________1
 62
     7
 10
22.309200000000001
 20
213.17500000000001
 30
0.0
 11
21.716999999999999
 21
215.38499999999999
 31
0.0
  0
LINE
  5
21A
  8
_________1
 62
     7
 10
21.716999999999999
 20
215.38499999999999
 30
0.0
 11
21.1248
 21
213.17500000000001
 31
0.0
  0
LINE
  5
21B
  8
_________1
 62
     7
 10
21.1248
 20
213.17500000000001
 30
0.0
 11
22.309200000000001
 21
213.17500000000001
 31
0.0
  0
LINE
  5
21C
  8
_________1
 62
     7
 10
21.139199999999999
 20
182.345
 30
0.0
 11
21.7315
 21
180.13499999999999
 31
0.0
  0
LINE
  5
21D
  8
_________1
 62
     7
 10
21.7315
 20
180.13499999999999
 30
0.0
 11
22.323699999999999
 21
182.345
 31
0.0
  0
LINE
  5
21E
  8
_________1
 62
     7
 10
22.323699999999999
 20
182.345
 30
0.0
 11
21.139199999999999
 21
182.345
 31
0.0
  0
LINE
  5
21F
  8
_________1
 62
     7
 10
21.7242
 20
215.38499999999999
 30
0.0
 11
21.7242
 21
180.13499999999999
 31
0.0
  0
ENDBLK
  5
220
  8
_________1
  0
BLOCK
  8
_________1
  2
AIGNBL0301000B
 70
     0
 10
0.0
 20
0.0
 30
0.0
  3
AIGNBL0301000B
  1

  0
LINE
  5
223
  8
_________1
 62
     7
 10
49.07119999999999
 20
198.14699999999999
 30
0.0
 11
48.478999999999999
 21
200.358
 31
0.0
  0
LINE
  5
224
  8
_________1
 62
     7
 10
48.478999999999999
 20
200.358
 30
0.0
 11
47.886800000000001
 21
198.14699999999999
 31
0.0
  0
LINE
  5
225
  8
_________1
 62
     7
 10
47.886800000000001
 20
198.14699999999999
 30
0.0
 11
49.07119999999999
 21
198.14699999999999
 31
0.0
  0
LINE
  5
226
  8
_________1
 62
     7
 10
47.901299999999999
 20
182.345
 30
0.0
 11
48.493499999999997
 21
180.13499999999999
 31
0.0
  0
LINE
  5
227
  8
_________1
 62
     7
 10
48.493499999999997
 20
180.13499999999999
 30
0.0
 11
49.085700000000003
 21
182.345
 31
0.0
  0
LINE
  5
228
  8
_________1
 62
     7
 10
49.085700000000003
 20
182.345
 30
0.0
 11
47.901299999999999
 21
182.345
 31
0.0
  0
LINE
  5
229
  8
_________1
 62
     7
 10
48.486199999999997
 20
200.358
 30
0.0
 11
48.486199999999997
 21
180.13499999999999
 31
0.0
  0
ENDBLK
  5
22A
  8
_________1
  0
BLOCK
  8
_________1
  2
AIGNBL0301000C
 70
     0
 10
0.0
 20
0.0
 30
0.0
  3
AIGNBL0301000C
  1

  0
LINE
  5
22D
  8
_________1
 62
     7
 10
29.390599999999999
 20
198.42500000000001
 30
0.0
 11
28.798400000000001
 21
200.63499999999999
 31
0.0
  0
LINE
  5
22E
  8
_________1
 62
     7
 10
28.798400000000001
 20
200.63499999999999
 30
0.0
 11
28.206199999999999
 21
198.42500000000001
 31
0.0
  0
LINE
  5
22F
  8
_________1
 62
     7
 10
28.206199999999999
 20
198.42500000000001
 30
0.0
 11
29.390599999999999
 21
198.42500000000001
 31
0.0
  0
LINE
  5
230
  8
_________1
 62
     7
 10
28.220700000000001
 20
182.345
 30
0.0
 11
28.812899999999999
 21
180.13499999999999
 31
0.0
  0
LINE
  5
231
  8
_________1
 62
     7
 10
28.812899999999999
 20
180.13499999999999
 30
0.0
 11
29.405100000000001
 21
182.345
 31
0.0
  0
LINE
  5
232
  8
_________1
 62
     7
 10
29.405100000000001
 20
182.345
 30
0.0
 11
28.220700000000001
 21
182.345
 31
0.0
  0
LINE
  5
233
  8
_________1
 62
     7
 10
28.805700000000002
 20
200.63499999999999
 30
0.0
 11
28.805700000000002
 21
180.13499999999999
 31
0.0
  0
ENDBLK
  5
234
  8
_________1
  0
BLOCK
  8
_________1
  2
AIGNBL0301000D
 70
     0
 10
0.0
 20
0.0
 30
0.0
  3
AIGNBL0301000D
  1

  0
INSERT
  5
237
  8
_________1
 62
     7
  2
AIGNBL0302000E
 10
0.0
 20
0.0
 30
0.0
  0
ENDBLK
  5
238
  8
_________1
  0
BLOCK
  8
_________1
  2
AIGNBL03010023
 70
     0
 10
0.0
 20
0.0
 30
0.0
  3
AIGNBL03010023
  1

  0
LINE
  5
23B
  8
_________1
 62
     7
 10
76.500900000000001
 20
116.139
 30
0.0
 11
74.341200000000001
 21
115.378
 31
0.0
  0
LINE
  5
23C
  8
_________1
 62
     7
 10
74.341200000000001
 20
115.378
 30
0.0
 11
76.592200000000005
 21
114.95699999999999
 31
0.0
  0
LINE
  5
23D
  8
_________1
 62
     7
 10
76.592200000000005
 20
114.95699999999999
 30
0.0
 11
76.500900000000001
 21
116.139
 31
0.0
  0
LINE
  5
23E
  8
_________1
 62
     7
 10
70.935299999999998
 20
114.521
 30
0.0
 11
73.095100000000002
 21
115.282
 31
0.0
  0
LINE
  5
23F
  8
_________1
 62
     7
 10
73.095100000000002
 20
115.282
 30
0.0
 11
70.844399999999993
 21
115.703
 31
0.0
  0
LINE
  5
240
  8
_________1
 62
     7
 10
70.844399999999993
 20
115.703
 30
0.0
 11
70.935299999999998
 21
114.521
 31
0.0
  0
LINE
  5
241
  8
_________1
 62
     7
 10
69.680599999999998
 20
115.01900000000001
 30
0.0
 11
82.2029
 21
115.98399999999999
 31
0.0
  0
ENDBLK
  5
242
  8
_________1
  0
BLOCK
  8
_________1
  2
AIGNBL03010024
 70
     0
 10
0.0
 20
0.0
 30
0.0
  3
AIGNBL03010024
  1

  0
LINE
  5
245
  8
_________1
 62
     7
 10
88.602900000000005
 20
177.923
 30
0.0
 11
88.010300000000001
 21
180.13499999999999
 31
0.0
  0
LINE
  5
246
  8
_________1
 62
     7
 10
88.010300000000001
 20
180.13499999999999
 30
0.0
 11
87.4178
 21
177.923
 31
0.0
  0
LINE
  5
247
  8
_________1
 62
     7
 10
87.4178
 20
177.923
 30
0.0
 11
88.602900000000005
 21
177.923
 31
0.0
  0
LINE
  5
248
  8
_________1
 62
     7
 10
87.432299999999998
 20
109.846
 30
0.0
 11
88.024799999999999
 21
107.634
 31
0.0
  0
LINE
  5
249
  8
_________1
 62
     7
 10
88.024799999999999
 20
107.634
 30
0.0
 11
88.617400000000004
 21
109.846
 31
0.0
  0
LINE
  5
24A
  8
_________1
 62
     7
 10
88.617400000000004
 20
109.846
 30
0.0
 11
87.432299999999998
 21
109.846
 31
0.0
  0
LINE
  5
24B
  8
_________1
 62
     7
 10
88.010300000000001
 20
180.13499999999999
 30
0.0
 11
88.010300000000001
 21
107.634
 31
0.0
  0
ENDBLK
  5
24C
  8
_________1
  0
BLOCK
  8
_________1
  2
AIGNBL03010025
 70
     0
 10
0.0
 20
0.0
 30
0.0
  3
AIGNBL03010025
  1

  0
LINE
  5
24F
  8
_________1
 62
     7
 10
49.085999999999999
 20
177.923
 30
0.0
 11
48.493499999999997
 21
180.13499999999999
 31
0.0
  0
LINE
  5
250
  8
_________1
 62
     7
 10
48.493499999999997
 20
180.13499999999999
 30
0.0
 11
47.9009
 21
177.923
 31
0.0
  0
LINE
  5
251
  8
_________1
 62
     7
 10
47.9009
 20
177.923
 30
0.0
 11
49.085999999999999
 21
177.923
 31
0.0
  0
LINE
  5
252
  8
_________1
 62
     7
 10
47.915399999999998
 20
89.8459
 30
0.0
 11
48.507899999999992
 21
87.634100000000004
 31
0.0
  0
LINE
  5
253
  8
_________1
 62
     7
 10
48.507899999999992
 20
87.634100000000004
 30
0.0
 11
49.100499999999997
 21
89.8459
 31
0.0
  0
LINE
  5
254
  8
_________1
 62
     7
 10
49.100499999999997
 20
89.8459
 30
0.0
 11
47.915399999999998
 21
89.8459
 31
0.0
  0
LINE
  5
255
  8
_________1
 62
     7
 10
48.493499999999997
 20
180.13499999999999
 30
0.0
 11
48.493499999999997
 21
87.634100000000004
 31
0.0
  0
ENDBLK
  5
256
  8
_________1
  0
BLOCK
  8
_________1
  2
AIGNBL03010026
 70
     0
 10
0.0
 20
0.0
 30
0.0
  3
AIGNBL03010026
  1

  0
LINE
  5
259
  8
_________1
 62
     7
 10
55.715499999999999
 20
177.923
 30
0.0
 11
55.122900000000001
 21
180.13499999999999
 31
0.0
  0
LINE
  5
25A
  8
_________1
 62
     7
 10
55.122900000000001
 20
180.13499999999999
 30
0.0
 11
54.530299999999997
 21
177.923
 31
0.0
  0
LINE
  5
25B
  8
_________1
 62
     7
 10
54.530299999999997
 20
177.923
 30
0.0
 11
55.715499999999999
 21
177.923
 31
0.0
  0
LINE
  5
25C
  8
_________1
 62
     7
 10
54.544800000000002
 20
170.34599999999989
 30
0.0
 11
55.1374
 21
168.13499999999999
 31
0.0
  0
LINE
  5
25D
  8
_________1
 62
     7
 10
55.1374
 20
168.13499999999999
 30
0.0
 11
55.729900000000001
 21
170.34599999999989
 31
0.0
  0
LINE
  5
25E
  8
_________1
 62
     7
 10
55.729900000000001
 20
170.34599999999989
 30
0.0
 11
54.544800000000002
 21
170.34599999999989
 31
0.0
  0
LINE
  5
25F
  8
_________1
 62
     7
 10
55.122900000000001
 20
180.13499999999999
 30
0.0
 11
55.122900000000001
 21
168.13499999999999
 31
0.0
  0
ENDBLK
  5
260
  8
_________1
  0
BLOCK
  8
_________1
  2
AIGNBL03010027
 70
     0
 10
0.0
 20
0.0
 30
0.0
  3
AIGNBL03010027
  1

  0
LINE
  5
263
  8
_________1
 62
     7
 10
71.339100000000002
 20
80.353899999999996
 30
0.0
 11
69.128
 21
79.761399999999995
 31
0.0
  0
LINE
  5
264
  8
_________1
 62
     7
 10
69.128
 20
79.761399999999995
 30
0.0
 11
71.339100000000002
 21
79.169499999999985
 31
0.0
  0
LINE
  5
265
  8
_________1
 62
     7
 10
71.339100000000002
 20
79.169499999999985
 30
0.0
 11
71.339100000000002
 21
80.353899999999996
 31
0.0
  0
LINE
  5
266
  8
_________1
 62
     7
 10
62.792400000000001
 20
79.183300000000003
 30
0.0
 11
65.002799999999993
 21
79.775800000000004
 31
0.0
  0
LINE
  5
267
  8
_________1
 62
     7
 10
65.002799999999993
 20
79.775800000000004
 30
0.0
 11
62.792400000000001
 21
80.368399999999994
 31
0.0
  0
LINE
  5
268
  8
_________1
 62
     7
 10
62.792400000000001
 20
80.368399999999994
 30
0.0
 11
62.792400000000001
 21
79.183300000000003
 31
0.0
  0
LINE
  5
269
  8
_________1
 62
     7
 10
53.934899999999992
 20
79.768900000000002
 30
0.0
 11
72.843900000000005
 21
79.768900000000002
 31
0.0
  0
ENDBLK
  5
26A
  8
_________1
  0
BLOCK
  8
_________1
  2
AIGNBL03010028
 70
     0
 10
0.0
 20
0.0
 30
0.0
  3
AIGNBL03010028
  1

  0
LINE
  5
26D
  8
_________1
 62
     7
 10
66.260300000000001
 20
259.66300000000001
 30
0.0
 11
65.345299999999995
 21
258.07799999999997
 31
0.0
  0
LINE
  5
26E
  8
_________1
 62
     7
 10
65.345299999999995
 20
258.07799999999997
 30
0.0
 11
66.930700000000002
 21
258.99299999999999
 31
0.0
  0
LINE
  5
26F
  8
_________1
 62
     7
 10
66.930700000000002
 20
258.99299999999999
 30
0.0
 11
66.260300000000001
 21
259.66300000000001
 31
0.0
  0
LINE
  5
270
  8
_________1
 62
     7
 10
69.375399999999999
 20
261.44600000000003
 30
0.0
 11
70.290400000000005
 21
263.03199999999998
 31
0.0
  0
LINE
  5
271
  8
_________1
 62
     7
 10
70.290400000000005
 20
263.03199999999998
 30
0.0
 11
68.704899999999995
 21
262.11599999999999
 31
0.0
  0
LINE
  5
272
  8
_________1
 62
     7
 10
68.704899999999995
 20
262.11599999999999
 30
0.0
 11
69.375399999999999
 21
261.44600000000003
 31
0.0
  0
LINE
  5
273
  8
_________1
 62
     7
 10
61.770600000000002
 20
254.511
 30
0.0
 11
70.290400000000005
 21
263.03199999999998
 31
0.0
  0
ENDBLK
  5
274
  8
_________1
  0
BLOCK
  8
_________2
  2
AIGNBL04010002
 70
     0
 10
0.0
 20
0.0
 30
0.0
  3
AIGNBL04010002
  1

  0
LINE
  5
277
  8
_________2
 62
     7
 10
186.649
 20
51.052199999999999
 30
0.0
 11
184.46299999999999
 21
51.052199999999999
 31
0.0
  0
LINE
  5
278
  8
_________2
 62
     7
 10
187.142
 20
51.052199999999999
 30
0.0
 11
186.88900000000001
 21
51.052199999999999
 31
0.0
  0
LINE
  5
279
  8
_________2
 62
     7
 10
187.63399999999999
 20
51.052199999999999
 30
0.0
 11
190.559
 21
51.052199999999999
 31
0.0
  0
LINE
  5
27A
  8
_________2
 62
     7
 10
187.142
 20
51.052199999999999
 30
0.0
 11
187.39400000000001
 21
51.052199999999999
 31
0.0
  0
LINE
  5
27B
  8
_________2
 62
     7
 10
180.745
 20
51.052199999999999
 30
0.0
 11
178.55799999999999
 21
51.052199999999999
 31
0.0
  0
LINE
  5
27C
  8
_________2
 62
     7
 10
181.23699999999999
 20
51.052199999999999
 30
0.0
 11
180.98599999999999
 21
51.052199999999999
 31
0.0
  0
LINE
  5
27D
  8
_________2
 62
     7
 10
181.23699999999999
 20
51.544800000000002
 30
0.0
 11
181.23699999999999
 21
53.7318
 31
0.0
  0
LINE
  5
27E
  8
_________2
 62
     7
 10
181.23699999999999
 20
51.052199999999999
 30
0.0
 11
181.23699999999999
 21
51.304299999999998
 31
0.0
  0
LINE
  5
27F
  8
_________2
 62
     7
 10
181.72999999999999
 20
51.052199999999999
 30
0.0
 11
183.917
 21
51.052199999999999
 31
0.0
  0
LINE
  5
280
  8
_________2
 62
     7
 10
181.23699999999999
 20
51.052199999999999
 30
0.0
 11
181.489
 21
51.052199999999999
 31
0.0
  0
LINE
  5
281
  8
_________2
 62
     7
 10
181.23699999999999
 20
50.560200000000002
 30
0.0
 11
181.23699999999999
 21
48.373199999999997
 31
0.0
  0
LINE
  5
282
  8
_________2
 62
     7
 10
181.23699999999999
 20
51.052199999999999
 30
0.0
 11
181.23699999999999
 21
50.800699999999999
 31
0.0
  0
LINE
  5
283
  8
_________2
 62
     7
 10
184.94799999999989
 20
49.832599999999999
 30
0.0
 11
190.12599999999989
 21
48.9679
 31
0.0
  0
LINE
  5
284
  8
_________2
 62
     7
 10
184.94799999999989
 20
52.271700000000003
 30
0.0
 11
190.12599999999989
 21
53.137099999999997
 31
0.0
  0
LINE
  5
285
  8
_________2
 62
     7
 10
190.12599999999989
 20
48.9679
 30
0.0
 11
190.12599999999989
 21
53.137099999999997
 31
0.0
  0
LINE
  5
286
  8
_________2
 62
     7
 10
184.94799999999989
 20
49.832599999999999
 30
0.0
 11
184.94799999999989
 21
52.271700000000003
 31
0.0
  0
ARC
  5
287
  8
_________2
 62
     7
 10
181.190651
 20
51.004810999999989
 30
0.0
 40
1.2677780000000001
 50
2.1403449999999991
 51
87.892005999999995
  0
ARC
  5
288
  8
_________2
 62
     7
 10
181.28420199999999
 20
51.005241999999988
 30
0.0
 40
1.2673579999999991
 50
92.121564999999975
 51
177.87840600000001
  0
ARC
  5
289
  8
_________2
 62
     7
 10
181.28381400000001
 20
51.098689
 30
0.0
 40
1.2669559999999991
 50
182.10473099999999
 51
267.89529900000002
  0
ARC
  5
28A
  8
_________2
 62
     7
 10
181.19038399999999
 20
51.099775000000001
 30
0.0
 40
1.268054
 50
272.11960599999998
 51
357.84804300000002
  0
ARC
  5
28B
  8
_________2
 62
     7
 10
181.23728399999999
 20
51.05215900000001
 30
0.0
 40
2.0849849999999992
 50
0.00001
 51
89.999980000000008
  0
ARC
  5
28C
  8
_________2
 62
     7
 10
181.317331
 20
50.972827000000002
 30
0.0
 40
2.1657969999999991
 50
92.118111999999996
 51
177.90079600000001
  0
ARC
  5
28D
  8
_________2
 62
     7
 10
181.31728799999999
 20
51.132162999999998
 30
0.0
 40
2.1657779999999991
 50
182.11700400000001
 51
267.88302499999998
  0
ARC
  5
28E
  8
_________2
 62
     7
 10
181.15730300000001
 20
51.132855999999997
 30
0.0
 40
2.166469999999999
 50
272.115725
 51
357.86534699999999
  0
ENDBLK
  5
28F
  8
_________2
  0
ENDSEC
  0
SECTION
  2
ENTITIES
  0
TEXT
  5
290
  8
____
 62
     7
 10
-41.617995999999998
 20
84.799800000000005
 30
0.0
 40
3.0923400000000001
  1
湯側
 41
0.5
 72
     2
 11
-38.319499999999998
 21
84.799800000000005
 31
0.0
  0
TEXT
  5
291
  8
____
 62
     7
 10
-26.503799999999998
 20
84.799800000000005
 30
0.0
 40
3.0923400000000001
  1
水側
 41
0.5
  0
TEXT
  5
292
  8
____
 62
     7
 10
-12.5306175
 20
37.195599999999999
 30
0.0
 40
3.0923400000000001
  1
180
 41
0.5
 72
     1
 11
-10.855600000000001
 21
37.195599999999999
 31
0.0
  0
TEXT
  5
293
  8
____
 62
     7
 10
-12.7125
 20
54.933750000000003
 30
0.0
 40
3.0923400000000001
  1
%%c5
 50
90.0
 41
0.5
 72
     2
 11
-12.7125
 21
57.5107
 31
0.0
  0
TEXT
  5
294
  8
____
 62
     7
 10
-25.667781999999999
 20
42.465200000000003
 30
0.0
 40
3.0923400000000001
  1
G1 1/4
 41
0.5
 72
     2
 11
-18.555399999999999
 21
42.465200000000003
 31
0.0
  0
TEXT
  5
295
  8
____
 62
     7
 10
-45.5989
 20
51.32807249999999
 30
0.0
 40
3.0923400000000001
  1
50
 50
90.0
 41
0.5
 72
     1
 11
-45.5989
 21
52.487699999999997
 31
0.0
  0
TEXT
  5
296
  8
____
 62
     7
 10
-46.023999999999987
 20
60.385322499999987
 30
0.0
 40
3.0923400000000001
  1
max.50
 50
90.0
 41
0.5
 72
     1
 11
-46.023999999999987
 21
64.121899999999997
 31
0.0
  0
TEXT
  5
297
  8
____
 62
     7
 10
-34.390560000000001
 20
74.761799999999994
 30
0.0
 40
3.0923400000000001
  1
%%c63
 41
0.5
 72
     1
 11
-32.329000000000001
 21
74.761799999999994
 31
0.0
  0
TEXT
  5
298
  8
____
 62
     7
 10
53.934899999999992
 20
80.468999999999994
 30
0.0
 40
3.0923400000000001
  1
PF 3/8
 41
0.5
  0
TEXT
  5
299
  8
____
 62
     7
 10
79.705545000000001
 20
197.82900000000001
 30
0.0
 40
3.0923400000000001
  1
max.40
 41
0.5
 72
     2
 11
87.178700000000006
 21
197.82900000000001
 31
0.0
  0
TEXT
  5
29A
  8
____
 62
     7
 10
54.3157
 20
170.269575
 30
0.0
 40
3.0923400000000001
  1
max.45
 50
90.0
 41
0.5
 72
     1
 11
54.3157
 21
174.13499999999999
 31
0.0
  0
TEXT
  5
29B
  8
____
 62
     7
 10
79.494747495263042
 20
116.9703708335967
 30
0.0
 40
3.0923400000000001
  1
%%c5
 50
4.5991200000000001
 41
0.5
 72
     2
 11
82.063400000000001
 21
117.17700000000001
 31
0.0
  0
TEXT
  5
29C
  8
____
 62
     7
 10
87.242099999999994
 20
141.95228750000001
 30
0.0
 40
3.0923400000000001
  1
290
 50
90.0
 41
0.5
 72
     1
 11
87.242099999999994
 21
143.88499999999999
 31
0.0
  0
TEXT
  5
29D
  8
____
 62
     7
 10
47.725200000000001
 20
131.95128750000001
 30
0.0
 40
3.0923400000000001
  1
370
 50
90.0
 41
0.5
 72
     1
 11
47.725200000000001
 21
133.88399999999999
 31
0.0
  0
TEXT
  5
29E
  8
____
 62
     7
 10
55.403300000000002
 20
255.21199999999999
 30
0.0
 40
3.0923400000000001
  1
%%c35
 41
0.5
  0
TEXT
  5
29F
  8
____
 62
     7
 10
63.383045999999993
 20
247.17099999999999
 30
0.0
 40
3.0923400000000001
  1
水栓取付穴
 41
0.5
 72
     1
 11
67.815399999999997
 21
247.17099999999999
 31
0.0
  0
TEXT
  5
2A0
  8
____
 62
     7
 10
-33.616075000000002
 20
195.114
 30
0.0
 40
3.0923400000000001
  1
43
 41
0.5
 72
     1
 11
-32.327599999999997
 21
195.114
 31
0.0
  0
TEXT
  5
2A1
  8
____
 62
     7
 10
74.253650000000007
 20
188.417
 30
0.0
 40
3.0923400000000001
  1
43
 41
0.5
 72
     2
 11
76.830600000000004
 21
188.417
 31
0.0
  0
TEXT
  5
2A2
  8
____
 62
     7
 10
57.7271
 20
185.02799999999999
 30
0.0
 40
3.0923400000000001
  1
51
 41
0.5
  0
TEXT
  5
2A3
  8
____
 62
     7
 10
-33.358379999999997
 20
188.22399999999999
 30
0.0
 40
3.0923400000000001
  1
51
 41
0.5
 72
     1
 11
-32.327599999999997
 21
188.22399999999999
 31
0.0
  0
TEXT
  5
2A4
  8
____
 62
     7
 10
-45.763565
 20
229.94300000000001
 30
0.0
 40
3.0923400000000001
  1
45%%d
 41
0.5
 72
     1
 11
-43.959699999999998
 21
229.94300000000001
 31
0.0
  0
TEXT
  5
2A5
  8
____
 62
     7
 10
-21.380064999999998
 20
229.94300000000001
 30
0.0
 40
3.0923400000000001
  1
45%%d
 41
0.5
 72
     1
 11
-19.5762
 21
229.94300000000001
 31
0.0
  0
TEXT
  5
2A6
  8
____
 62
     7
 10
36.89584
 20
185.59899999999999
 30
0.0
 40
3.0923400000000001
  1
5.5%%d
 41
0.5
 72
     1
 11
38.9574
 21
185.59899999999999
 31
0.0
  0
TEXT
  5
2A7
  8
____
 62
     7
 10
-14.175599999999999
 20
248.102
 30
0.0
 40
3.0923400000000001
  1
水
 41
0.5
  0
TEXT
  5
2A8
  8
____
 62
     7
 10
-52.287191999999997
 20
248.102
 30
0.0
 40
3.0923400000000001
  1
湯
 41
0.5
 72
     2
 11
-50.844099999999997
 21
248.102
 31
0.0
  0
TEXT
  5
2A9
  8
____
 62
     7
 10
50.396985999999991
 20
224.76400000000001
 30
0.0
 40
3.0923400000000001
  1
開
 41
0.5
 72
     2
 11
51.737000000000002
 21
224.76400000000001
 31
0.0
  0
TEXT
  5
2AA
  8
____
 62
     7
 10
42.576985999999998
 20
210.65299999999999
 30
0.0
 40
3.0923400000000001
  1
閉
 41
0.5
 72
     2
 11
43.917000000000002
 21
210.65299999999999
 31
0.0
  0
TEXT
  5
2AB
  8
____
 62
     7
 10
51.894129999999997
 20
190.74600000000001
 30
0.0
 40
3.0923400000000001
  1
115
 41
0.5
 72
     1
 11
53.440300000000001
 21
190.74600000000001
 31
0.0
  0
TEXT
  5
2AC
  8
____
 62
     7
 10
13.9427
 20
200.08113499999999
 30
0.0
 40
3.0923400000000001
  1
174
 50
90.0
 41
0.5
 72
     1
 11
13.9427
 21
201.88499999999999
 31
0.0
  0
TEXT
  5
2AD
  8
____
 62
     7
 10
21.0242
 20
196.21383
 30
0.0
 40
3.0923400000000001
  1
141
 50
90.0
 41
0.5
 72
     1
 11
21.0242
 21
197.75999999999999
 31
0.0
  0
TEXT
  5
2AE
  8
____
 62
     7
 10
47.786200000000001
 20
191.78322
 30
0.0
 40
3.0923400000000001
  1
81
 50
90.0
 41
0.5
 72
     1
 11
47.786200000000001
 21
192.81399999999999
 31
0.0
  0
TEXT
  5
2AF
  8
____
 62
     7
 10
28.105599999999999
 20
189.0965249999999
 30
0.0
 40
3.0923400000000001
  1
82
 50
90.0
 41
0.5
 72
     1
 11
28.105599999999999
 21
190.38499999999999
 31
0.0
  0
TEXT
  5
2B0
  8
____
 62
     7
 10
-77.847200000000001
 20
22.237500000000001
 30
0.0
 40
3.6545800000000002
  1
・国産洗面器とのセットの場合は国産の排水ヘッド部を別途準備してください。
 41
0.5
  0
LINE
  5
2B1
  8
_________4
  6
AIGENLINE001
 62
     7
 10
-34.515300000000003
 20
83.574399999999997
 30
0.0
 11
-34.515300000000003
 21
182.489
 31
0.0
  0
LINE
  5
2B2
  8
_________4
 62
     7
 10
-33.1372
 20
89.510300000000015
 30
0.0
 11
-33.1372
 21
86.884500000000017
 31
0.0
  0
ARC
  5
2B3
  8
_________4
 62
     7
 10
-32.445639999999997
 20
87.744768999999991
 30
0.0
 40
1.060289
 50
253.96557799999999
 51
265.25895800000001
  0
ARC
  5
2B4
  8
_________4
 62
     7
 10
-32.199665000000003
 20
88.659056000000007
 30
0.0
 40
2.0070130000000002
 50
242.151734
 51
254.426176
  0
ARC
  5
2B5
  8
_________4
 62
     7
 10
-32.396833999999998
 20
88.423174000000003
 30
0.0
 40
1.315331
 50
93.770099999999999
 51
124.255036
  0
LINE
  5
2B6
  8
_________4
 62
     7
 10
-37.2624
 20
89.510300000000015
 30
0.0
 11
-37.2624
 21
86.884500000000017
 31
0.0
  0
LINE
  5
2B7
  8
_________4
 62
     7
 10
-35.887799999999999
 20
89.510300000000015
 30
0.0
 11
-35.887799999999999
 21
86.884500000000017
 31
0.0
  0
ARC
  5
2B8
  8
_________4
 62
     7
 10
-39.31302500000001
 20
94.848340000000007
 30
0.0
 40
8.6692179999999972
 50
291.694098
 51
293.27244000000002
  0
ARC
  5
2B9
  8
_________4
 62
     7
 10
-36.843749000000003
 20
88.667581000000013
 30
0.0
 40
2.01349
 50
282.24405200000001
 51
291.419332
  0
ARC
  5
2BA
  8
_________4
 62
     7
 10
-36.572790000000012
 20
87.488270999999983
 30
0.0
 40
0.8036760000000001
 50
270.74496599999998
 51
281.19653699999998
  0
ARC
  5
2BB
  8
_________4
 62
     7
 10
-36.561537999999999
 20
87.592134999999985
 30
0.0
 40
0.9074729999999998
 50
257.81158900000003
 51
269.94932
  0
ARC
  5
2BC
  8
_________4
 62
     7
 10
-36.462387
 20
88.125764000000004
 30
0.0
 40
1.450091999999999
 50
252.94235800000001
 51
258.43382700000001
  0
ARC
  5
2BD
  8
_________4
 62
     7
 10
-36.214534
 20
88.930128999999994
 30
0.0
 40
2.2917770000000002
 50
248.54088300000001
 51
252.917306
  0
ARC
  5
2BE
  8
_________4
 62
     7
 10
-34.789814
 20
92.524143999999993
 30
0.0
 40
6.157875999999999
 50
246.32612599999999
 51
248.43730600000001
  0
ARC
  5
2BF
  8
_________4
 62
     7
 10
-36.260415999999999
 20
87.797218000000001
 30
0.0
 40
1.9846319999999991
 50
107.880505
 51
120.322423
  0
ARC
  5
2C0
  8
_________4
 62
     7
 10
-36.537865000000011
 20
88.607945000000001
 30
0.0
 40
1.1279790000000001
 50
91.243328000000034
 51
107.112065
  0
ARC
  5
2C1
  8
_________4
 62
     7
 10
-36.563071999999998
 20
88.968981999999997
 30
0.0
 40
0.7666770000000001
 50
76.139672000000004
 51
89.945318
  0
ARC
  5
2C2
  8
_________4
 62
     7
 10
-36.706511999999996
 20
88.291961999999998
 30
0.0
 40
1.4585250000000001
 50
65.826458000000002
 51
77.040120999999985
  0
ARC
  5
2C3
  8
_________4
 62
     7
 10
-36.95289600000001
 20
87.683428000000006
 30
0.0
 40
2.1147320000000001
 50
59.757435000000001
 51
66.488002000000009
  0
ARC
  5
2C4
  8
_________4
 62
     7
 10
-31.826834000000002
 20
80.318782999999996
 30
0.0
 40
6.6951799999999997
 50
101.286687
 51
103.19729100000001
  0
ARC
  5
2C5
  8
_________4
 62
     7
 10
-34.826866000000003
 20
92.415051000000005
 30
0.0
 40
5.7687390000000001
 50
278.578574
 51
284.77831400000002
  0
ARC
  5
2C6
  8
_________4
 62
     7
 10
-34.312674999999999
 20
88.975739000000004
 30
0.0
 40
2.2912110000000001
 50
270.62022400000001
 51
278.69332400000002
  0
LINE
  5
2C7
  8
_________4
 62
     7
 10
-34.2879
 20
86.684700000000007
 30
0.0
 11
-34.737099999999998
 21
86.684700000000007
 31
0.0
  0
ARC
  5
2C8
  8
_________4
 62
     7
 10
-34.736798
 20
88.644812000000002
 30
0.0
 40
1.9601489999999999
 50
261.53813000000002
 51
269.990679
  0
ARC
  5
2C9
  8
_________4
 62
     7
 10
-34.522804999999998
 20
90.299355999999989
 30
0.0
 40
3.6283110000000001
 50
258.55158499999999
 51
262.04038400000002
  0
ARC
  5
2CA
  8
_________4
 62
     7
 10
-33.104632000000002
 20
97.187496999999993
 30
0.0
 40
10.660914999999999
 50
256.53862299999997
 51
258.42927100000003
  0
ARC
  5
2CB
  8
_________4
 62
     7
 10
-37.019496000000011
 20
80.906512000000006
 30
0.0
 40
6.084147999999999
 50
76.376069000000001
 51
79.280000000000001
  0
ARC
  5
2CC
  8
_________4
 62
     7
 10
-34.648705999999997
 20
85.858498999999995
 30
0.0
 40
3.8563349999999992
 50
102.80274199999999
 51
108.74217400000001
  0
ARC
  5
2CD
  8
_________4
 62
     7
 10
-34.40663
 20
84.988977999999989
 30
0.0
 40
4.7580790000000004
 50
94.332246999999995
 51
103.32507099999999
  0
ARC
  5
2CE
  8
_________4
 62
     7
 10
-34.619506999999999
 20
87.452259999999995
 30
0.0
 40
2.2859050000000001
 50
87.316779999999994
 51
93.675730999999985
  0
ARC
  5
2CF
  8
_________4
 62
     7
 10
-34.429265000000001
 20
88.321165000000008
 30
0.0
 40
1.416939999999999
 50
88.958331000000001
 51
93.367457999999999
  0
ARC
  5
2D0
  8
_________4
 62
     7
 10
-34.442909
 20
87.162645999999995
 30
0.0
 40
2.5755259999999991
 50
85.185722999999996
 51
89.123390000000015
  0
ARC
  5
2D1
  8
_________4
 62
     7
 10
-34.641032000000003
 20
84.842607000000001
 30
0.0
 40
4.9040089999999994
 50
72.142374000000004
 51
85.154031999999987
  0
LINE
  5
2D2
  8
_________4
 62
     7
 10
-33.261899999999997
 20
89.911399999999986
 30
0.0
 11
-34.512500000000003
 21
89.911399999999986
 31
0.0
  0
LINE
  5
2D3
  8
_________4
 62
     7
 10
-35.7624
 20
89.911399999999986
 30
0.0
 11
-34.512500000000003
 21
89.911399999999986
 31
0.0
  0
LINE
  5
2D4
  8
_________4
 62
     7
 10
-36.813099999999999
 20
86.635099999999994
 30
0.0
 11
-34.512500000000003
 21
86.635099999999994
 31
0.0
  0
LINE
  5
2D5
  8
_________4
 62
     7
 10
-34.512500000000003
 20
86.635099999999994
 30
0.0
 11
-32.211799999999997
 21
86.635099999999994
 31
0.0
  0
LINE
  5
2D6
  8
_________4
 62
     7
 10
-37.2624
 20
86.884500000000017
 30
0.0
 11
-36.813099999999999
 21
86.635099999999994
 31
0.0
  0
LINE
  5
2D7
  8
_________4
 62
     7
 10
-36.813099999999999
 20
89.760499999999979
 30
0.0
 11
-32.211799999999997
 21
89.760499999999979
 31
0.0
  0
LINE
  5
2D8
  8
_________4
 62
     7
 10
-36.062800000000003
 20
89.885199999999983
 30
0.0
 11
-32.962200000000003
 21
89.885199999999983
 31
0.0
  0
ARC
  5
2D9
  8
_________4
 62
     7
 10
-33.514532000000003
 20
90.582869999999986
 30
0.0
 40
0.7174540000000002
 50
290.615658
 51
326.50896400000011
  0
ARC
  5
2DA
  8
_________4
 62
     7
 10
-33.345547000000003
 20
90.445708999999994
 30
0.0
 40
0.5012850000000002
 50
328.92608999999999
 51
341.361357
  0
LINE
  5
2DB
  8
_________4
 62
     7
 10
-32.870600000000003
 20
90.285499999999999
 30
0.0
 11
-32.837499999999999
 21
90.385400000000004
 31
0.0
  0
LINE
  5
2DC
  8
_________4
 62
     7
 10
-32.837499999999999
 20
90.385400000000004
 30
0.0
 11
-32.837499999999999
 21
90.535600000000002
 31
0.0
  0
LINE
  5
2DD
  8
_________4
 62
     7
 10
-32.837499999999999
 20
90.535600000000002
 30
0.0
 11
-32.887099999999997
 21
90.710600000000014
 31
0.0
  0
LINE
  5
2DE
  8
_________4
 62
     7
 10
-36.162700000000001
 20
90.710600000000014
 30
0.0
 11
-36.137900000000002
 21
90.710600000000014
 31
0.0
  0
ARC
  5
2DF
  8
_________4
 62
     7
 10
-6.3253099999999991
 20
86.392440000000008
 30
0.0
 40
30.148250000000001
 50
171.765085
 51
172.10101399999999
  0
LINE
  5
2E0
  8
_________4
 62
     7
 10
-36.1875
 20
90.535600000000002
 30
0.0
 11
-36.1875
 21
90.385400000000004
 31
0.0
  0
LINE
  5
2E1
  8
_________4
 62
     7
 10
-36.1875
 20
90.385400000000004
 30
0.0
 11
-36.155099999999997
 21
90.285499999999999
 31
0.0
  0
ARC
  5
2E2
  8
_________4
 62
     7
 10
-35.090347999999999
 20
90.641949999999994
 30
0.0
 40
1.1228599999999991
 50
198.508769
 51
203.306194
  0
ARC
  5
2E3
  8
_________4
 62
     7
 10
-35.683782000000001
 20
90.385317000000001
 30
0.0
 40
0.476312
 50
203.19743500000001
 51
222.347196
  0
ARC
  5
2E4
  8
_________4
 62
     7
 10
-35.752048000000002
 20
90.341890000000006
 30
0.0
 40
0.3968479999999999
 50
224.35294999999999
 51
234.71337800000001
  0
ARC
  5
2E5
  8
_________4
 62
     7
 10
-35.558908000000002
 20
90.620491999999999
 30
0.0
 40
0.735841
 50
234.96907999999999
 51
242.37187299999999
  0
ARC
  5
2E6
  8
_________4
 62
     7
 10
-33.782895000000011
 20
94.009709000000001
 30
0.0
 40
4.5621999999999989
 50
242.34904
 51
243.93911700000001
  0
LINE
  5
2E7
  8
_________4
 62
     7
 10
-35.787199999999999
 20
89.911399999999986
 30
0.0
 11
-35.7624
 21
89.911399999999986
 31
0.0
  0
LINE
  5
2E8
  8
_________4
 62
     7
 10
-35.96220000000001
 20
91.135800000000003
 30
0.0
 11
-33.0869
 21
91.135800000000003
 31
0.0
  0
LINE
  5
2E9
  8
_________4
 62
     7
 10
-35.96220000000001
 20
93.135999999999996
 30
0.0
 11
-34.512500000000003
 21
93.135999999999996
 31
0.0
  0
LINE
  5
2EA
  8
_________4
 62
     7
 10
-34.512500000000003
 20
93.135999999999996
 30
0.0
 11
-33.0869
 21
93.135999999999996
 31
0.0
  0
LINE
  5
2EB
  8
_________4
 62
     7
 10
-32.837499999999999
 20
93.685799999999986
 30
0.0
 11
-32.837499999999999
 21
93.561099999999996
 31
0.0
  0
LINE
  5
2EC
  8
_________4
 62
     7
 10
-32.837499999999999
 20
93.561099999999996
 30
0.0
 11
-32.911900000000003
 21
93.435699999999997
 31
0.0
  0
LINE
  5
2ED
  8
_________4
 62
     7
 10
-36.212299999999999
 20
93.685799999999986
 30
0.0
 11
-36.1875
 21
93.561099999999996
 31
0.0
  0
LINE
  5
2EE
  8
_________4
 62
     7
 10
-36.1875
 20
93.561099999999996
 30
0.0
 11
-36.137900000000002
 21
93.435699999999997
 31
0.0
  0
LINE
  5
2EF
  8
_________4
 62
     7
 10
-36.212299999999999
 20
94.386600000000001
 30
0.0
 11
-32.837499999999999
 21
94.386600000000001
 31
0.0
  0
LINE
  5
2F0
  8
_________4
 62
     7
 10
-36.212299999999999
 20
94.386600000000001
 30
0.0
 11
-36.212299999999999
 21
93.685799999999986
 31
0.0
  0
LINE
  5
2F1
  8
_________4
 62
     7
 10
-32.837499999999999
 20
94.386600000000001
 30
0.0
 11
-32.837499999999999
 21
93.685799999999986
 31
0.0
  0
LINE
  5
2F2
  8
_________4
 62
     7
 10
-36.813099999999999
 20
89.760499999999979
 30
0.0
 11
-37.2624
 21
89.510300000000015
 31
0.0
  0
LINE
  5
2F3
  8
_________4
 62
     7
 10
-36.137900000000002
 20
93.435699999999997
 30
0.0
 11
-35.96220000000001
 21
93.135999999999996
 31
0.0
  0
LINE
  5
2F4
  8
_________4
 62
     7
 10
-35.96220000000001
 20
91.135800000000003
 30
0.0
 11
-36.137900000000002
 21
90.710600000000014
 31
0.0
  0
LINE
  5
2F5
  8
_________4
 62
     7
 10
-32.911900000000003
 20
93.435699999999997
 30
0.0
 11
-33.0869
 21
93.135999999999996
 31
0.0
  0
LINE
  5
2F6
  8
_________4
 62
     7
 10
-33.0869
 20
91.135800000000003
 30
0.0
 11
-32.887099999999997
 21
90.710600000000014
 31
0.0
  0
LINE
  5
2F7
  8
_________4
 62
     7
 10
-35.96220000000001
 20
93.135999999999996
 30
0.0
 11
-35.96220000000001
 21
91.135800000000003
 31
0.0
  0
LINE
  5
2F8
  8
_________4
 62
     7
 10
-33.0869
 20
93.135999999999996
 30
0.0
 11
-33.0869
 21
91.135800000000003
 31
0.0
  0
LINE
  5
2F9
  8
_________4
 62
     7
 10
-36.062800000000003
 20
89.885199999999983
 30
0.0
 11
-36.062800000000003
 21
89.760499999999979
 31
0.0
  0
LINE
  5
2FA
  8
_________4
 62
     7
 10
-32.962200000000003
 20
89.885199999999983
 30
0.0
 11
-32.962200000000003
 21
89.760499999999979
 31
0.0
  0
LINE
  5
2FB
  8
_________4
 62
     7
 10
-37.2624
 20
86.884500000000017
 30
0.0
 11
-36.813099999999999
 21
86.635099999999994
 31
0.0
  0
LINE
  5
2FC
  8
_________1
 62
     7
 10
63.5824
 20
163.38499999999999
 30
0.0
 11
63.5824
 21
166.63499999999999
 31
0.0
  0
ARC
  5
2FD
  8
_________1
 62
     7
 10
65.821708999999998
 20
162.87589600000001
 30
0.0
 40
2.1303419999999988
 50
255.38800900000001
 51
270.046673
  0
ARC
  5
2FE
  8
_________1
 62
     7
 10
64.329296999999997
 20
162.92434800000001
 30
0.0
 40
2.1776049999999989
 50
255.674215
 51
284.325805
  0
LINE
  5
2FF
  8
_________1
 62
     7
 10
63.5824
 20
160.81399999999999
 30
0.0
 11
63.5824
 21
160.755
 31
0.0
  0
ARC
  5
300
  8
_________1
 62
     7
 10
76.216092000000003
 20
182.72705300000001
 30
0.0
 40
25.345668
 50
240.10211899999999
 51
240.65040999999999
  0
LINE
  5
301
  8
_________1
 62
     7
 10
65.8155
 20
160.63499999999999
 30
0.0
 11
63.793199999999992
 21
160.63499999999999
 31
0.0
  0
LINE
  5
302
  8
_________1
 62
     7
 10
64.868099999999998
 20
163.261
 30
0.0
 11
64.868099999999998
 21
160.81399999999999
 31
0.0
  0
LINE
  5
303
  8
_________1
 62
     7
 10
65.284300000000002
 20
160.81399999999999
 30
0.0
 11
64.868099999999998
 21
160.81399999999999
 31
0.0
  0
LINE
  5
304
  8
_________1
 62
     7
 10
65.284300000000002
 20
160.81399999999999
 30
0.0
 11
65.284300000000002
 21
163.261
 31
0.0
  0
LINE
  5
305
  8
_________1
 62
     7
 10
63.5824
 20
163.261
 30
0.0
 11
63.5824
 21
160.81399999999999
 31
0.0
  0
LINE
  5
306
  8
_________1
 62
     7
 10
63.790500000000002
 20
160.81399999999999
 30
0.0
 11
63.5824
 21
160.81399999999999
 31
0.0
  0
LINE
  5
307
  8
_________1
 62
     7
 10
63.790500000000002
 20
160.81399999999999
 30
0.0
 11
63.790500000000002
 21
163.261
 31
0.0
  0
LINE
  5
308
  8
_________1
 62
     7
 10
65.823800000000006
 20
163.38499999999999
 30
0.0
 11
64.329300000000003
 21
163.38499999999999
 31
0.0
  0
ARC
  5
309
  8
_________1
 62
     7
 10
64.327881000000005
 20
162.21305100000001
 30
0.0
 40
1.1718090000000001
 50
73.050236999999996
 51
89.930774
  0
ARC
  5
30A
  8
_________1
 62
     7
 10
64.226556999999985
 20
161.82456999999999
 30
0.0
 40
1.573037999999999
 50
65.930462000000006
 51
73.645137000000005
  0
LINE
  5
30B
  8
_________1
 62
     7
 10
65.284300000000002
 20
163.261
 30
0.0
 11
64.868099999999998
 21
163.261
 31
0.0
  0
ARC
  5
30C
  8
_________1
 62
     7
 10
65.914281000000003
 20
161.835475
 30
0.0
 40
1.558379999999999
 50
99.714466000000002
 51
113.84505299999999
  0
ARC
  5
30D
  8
_________1
 62
     7
 10
65.825997000000001
 20
162.23562000000001
 30
0.0
 40
1.1492409999999991
 50
90.110071999999988
 51
98.742291000000023
  0
LINE
  5
30E
  8
_________1
 62
     7
 10
64.329300000000003
 20
163.38499999999999
 30
0.0
 11
63.5824
 21
163.38499999999999
 31
0.0
  0
LINE
  5
30F
  8
_________1
 62
     7
 10
63.5824
 20
163.38499999999999
 30
0.0
 11
63.5824
 21
163.261
 31
0.0
  0
LINE
  5
310
  8
_________1
 62
     7
 10
63.790500000000002
 20
163.261
 30
0.0
 11
63.5824
 21
163.261
 31
0.0
  0
ARC
  5
311
  8
_________1
 62
     7
 10
64.420955000000006
 20
161.834395
 30
0.0
 40
1.5595600000000001
 50
99.732624000000015
 51
113.84502000000001
  0
ARC
  5
312
  8
_________1
 62
     7
 10
64.331626999999997
 20
162.24030500000001
 30
0.0
 40
1.144555999999999
 50
90.116640000000004
 51
98.760283000000015
  0
LINE
  5
313
  8
_________1
 62
     7
 10
64.080600000000004
 20
179.38499999999999
 30
0.0
 11
64.080600000000004
 21
168.13499999999999
 31
0.0
  0
LINE
  5
314
  8
_________1
 62
     7
 10
61.527700000000003
 20
166.684
 30
0.0
 11
61.527700000000003
 21
167.58500000000001
 31
0.0
  0
LINE
  5
315
  8
_________1
 62
     7
 10
71.052800000000005
 20
166.684
 30
0.0
 11
71.052800000000005
 21
167.58500000000001
 31
0.0
  0
ARC
  5
316
  8
_________1
 62
     7
 10
71.001441999999983
 20
167.58340899999999
 30
0.0
 40
0.051375
 50
1.936531
 51
88.063458999999995
  0
ARC
  5
317
  8
_________1
 62
     7
 10
61.579247999999993
 20
167.583213
 30
0.0
 40
0.051557
 50
91.358280999999991
 51
177.851415
  0
ARC
  5
318
  8
_________1
 62
     7
 10
71.001294000000001
 20
166.68613099999999
 30
0.0
 40
0.051528
 50
272.095168
 51
357.90484199999997
  0
ARC
  5
319
  8
_________1
 62
     7
 10
61.579827999999999
 20
166.686768
 30
0.0
 40
0.052161
 50
182.76987500000001
 51
268.02042799999998
  0
LINE
  5
31A
  8
_________1
 62
     7
 10
61.578000000000003
 20
166.63499999999999
 30
0.0
 11
71.003200000000007
 21
166.63499999999999
 31
0.0
  0
LINE
  5
31B
  8
_________1
 62
     7
 10
61.527700000000003
 20
168.13499999999999
 30
0.0
 11
61.527700000000003
 21
167.63499999999999
 31
0.0
  0
LINE
  5
31C
  8
_________1
 62
     7
 10
71.052800000000005
 20
168.13499999999999
 30
0.0
 11
71.052800000000005
 21
167.63499999999999
 31
0.0
  0
LINE
  5
31D
  8
_________1
 62
     7
 10
61.527700000000003
 20
168.13499999999999
 30
0.0
 11
71.052800000000005
 21
168.13499999999999
 31
0.0
  0
LINE
  5
31E
  8
_________1
 62
     7
 10
61.527700000000003
 20
167.63499999999999
 30
0.0
 11
71.052800000000005
 21
167.63499999999999
 31
0.0
  0
LINE
  5
31F
  8
_________1
 62
     7
 10
-30.833500000000001
 20
163.38499999999999
 30
0.0
 11
-30.833500000000001
 21
166.63499999999999
 31
0.0
  0
LINE
  5
320
  8
_________1
 62
     7
 10
-33.8217
 20
163.38499999999999
 30
0.0
 11
-33.8217
 21
166.63499999999999
 31
0.0
  0
LINE
  5
321
  8
_________1
 62
     7
 10
-32.576700000000002
 20
160.755
 30
0.0
 11
-32.576700000000002
 21
161.506
 31
0.0
  0
LINE
  5
322
  8
_________1
 62
     7
 10
-32.576700000000002
 20
161.506
 30
0.0
 11
-32.078499999999998
 21
161.506
 31
0.0
  0
LINE
  5
323
  8
_________1
 62
     7
 10
-32.078499999999998
 20
161.506
 30
0.0
 11
-32.078499999999998
 21
160.755
 31
0.0
  0
LINE
  5
324
  8
_________1
 62
     7
 10
-33.634999999999998
 20
160.63499999999999
 30
0.0
 11
-33.9465
 21
160.81399999999999
 31
0.0
  0
LINE
  5
325
  8
_________1
 62
     7
 10
-31.020199999999999
 20
160.63499999999999
 30
0.0
 11
-30.709099999999999
 21
160.81399999999999
 31
0.0
  0
LINE
  5
326
  8
_________1
 62
     7
 10
-33.9465
 20
163.261
 30
0.0
 11
-33.9465
 21
160.81399999999999
 31
0.0
  0
LINE
  5
327
  8
_________1
 62
     7
 10
-30.709099999999999
 20
163.261
 30
0.0
 11
-30.709099999999999
 21
160.81399999999999
 31
0.0
  0
LINE
  5
328
  8
_________1
 62
     7
 10
-33.8217
 20
163.38499999999999
 30
0.0
 11
-33.9465
 21
163.261
 31
0.0
  0
LINE
  5
329
  8
_________1
 62
     7
 10
-30.833500000000001
 20
163.38499999999999
 30
0.0
 11
-30.709099999999999
 21
163.261
 31
0.0
  0
ARC
  5
32A
  8
_________1
 62
     7
 10
-33.621760999999999
 20
161.526218
 30
0.0
 40
0.7768470000000001
 50
246.37937600000001
 51
293.62064400000003
  0
ARC
  5
32B
  8
_________1
 62
     7
 10
-32.288522
 20
163.742977
 30
0.0
 40
3.0023270000000002
 50
257.26944300000002
 51
264.49230899999998
  0
LINE
  5
32C
  8
_________1
 62
     7
 10
-32.576700000000002
 20
160.755
 30
0.0
 11
-32.576700000000002
 21
160.63499999999999
 31
0.0
  0
LINE
  5
32D
  8
_________1
 62
     7
 10
-33.634999999999998
 20
160.63499999999999
 30
0.0
 11
-32.576700000000002
 21
160.63499999999999
 31
0.0
  0
LINE
  5
32E
  8
_________1
 62
     7
 10
-32.078499999999998
 20
160.63499999999999
 30
0.0
 11
-31.020199999999999
 21
160.63499999999999
 31
0.0
  0
LINE
  5
32F
  8
_________1
 62
     7
 10
-32.078499999999998
 20
160.63499999999999
 30
0.0
 11
-32.078499999999998
 21
160.755
 31
0.0
  0
ARC
  5
330
  8
_________1
 62
     7
 10
-32.331113000000002
 20
163.52138400000001
 30
0.0
 40
2.778378
 50
275.21618100000001
 51
283.02210700000001
  0
ARC
  5
331
  8
_________1
 62
     7
 10
-31.033788999999999
 20
161.52546000000001
 30
0.0
 40
0.776153
 50
246.356964
 51
293.643056
  0
LINE
  5
332
  8
_________1
 62
     7
 10
-33.933
 20
163.261
 30
0.0
 11
-33.933
 21
160.81399999999999
 31
0.0
  0
LINE
  5
333
  8
_________1
 62
     7
 10
-33.9465
 20
160.81399999999999
 30
0.0
 11
-33.933
 21
160.81399999999999
 31
0.0
  0
LINE
  5
334
  8
_________1
 62
     7
 10
-30.7225
 20
160.81399999999999
 30
0.0
 11
-30.709099999999999
 21
160.81399999999999
 31
0.0
  0
LINE
  5
335
  8
_________1
 62
     7
 10
-30.7225
 20
160.81399999999999
 30
0.0
 11
-30.7225
 21
163.261
 31
0.0
  0
LINE
  5
336
  8
_________1
 62
     7
 10
-32.950099999999999
 20
163.261
 30
0.0
 11
-32.950099999999999
 21
160.81399999999999
 31
0.0
  0
LINE
  5
337
  8
_________1
 62
     7
 10
-33.310499999999998
 20
160.81399999999999
 30
0.0
 11
-32.950099999999999
 21
160.81399999999999
 31
0.0
  0
LINE
  5
338
  8
_________1
 62
     7
 10
-33.310499999999998
 20
160.81399999999999
 30
0.0
 11
-33.310499999999998
 21
163.261
 31
0.0
  0
LINE
  5
339
  8
_________1
 62
     7
 10
-31.345099999999999
 20
163.261
 30
0.0
 11
-31.345099999999999
 21
160.81399999999999
 31
0.0
  0
LINE
  5
33A
  8
_________1
 62
     7
 10
-31.705100000000002
 20
160.81399999999999
 30
0.0
 11
-31.345099999999999
 21
160.81399999999999
 31
0.0
  0
LINE
  5
33B
  8
_________1
 62
     7
 10
-31.705100000000002
 20
160.81399999999999
 30
0.0
 11
-31.705100000000002
 21
163.261
 31
0.0
  0
LINE
  5
33C
  8
_________1
 62
     7
 10
-33.8217
 20
163.38499999999999
 30
0.0
 11
-33.621600000000001
 21
163.38499999999999
 31
0.0
  0
ARC
  5
33D
  8
_________1
 62
     7
 10
-33.620309000000013
 20
162.973669
 30
0.0
 40
0.411192
 50
90.178242000000012
 51
119.17113999999999
  0
ARC
  5
33E
  8
_________1
 62
     7
 10
-33.491647
 20
162.69488799999999
 30
0.0
 40
0.7177120000000001
 50
117.291622
 51
127.950579
  0
LINE
  5
33F
  8
_________1
 62
     7
 10
-33.9465
 20
163.261
 30
0.0
 11
-33.933
 21
163.261
 31
0.0
  0
LINE
  5
340
  8
_________1
 62
     7
 10
-33.621600000000001
 20
163.38499999999999
 30
0.0
 11
-32.3279
 21
163.38499999999999
 31
0.0
  0
ARC
  5
341
  8
_________1
 62
     7
 10
-32.325505
 20
161.7499399999999
 30
0.0
 40
1.6349199999999999
 50
90.08556999999999
 51
112.461051
  0
LINE
  5
342
  8
_________1
 62
     7
 10
-33.310499999999998
 20
163.261
 30
0.0
 11
-32.950099999999999
 21
163.261
 31
0.0
  0
ARC
  5
343
  8
_________1
 62
     7
 10
-33.776508
 20
162.65151499999999
 30
0.0
 40
0.7670970000000001
 50
52.590852000000012
 51
65.182316
  0
ARC
  5
344
  8
_________1
 62
     7
 10
-33.630552000000002
 20
162.94971200000001
 30
0.0
 40
0.4352390000000001
 50
66.145162999999997
 51
88.819880999999995
  0
LINE
  5
345
  8
_________1
 62
     7
 10
-30.7225
 20
163.261
 30
0.0
 11
-30.709099999999999
 21
163.261
 31
0.0
  0
ARC
  5
346
  8
_________1
 62
     7
 10
-31.190446999999999
 20
162.647707
 30
0.0
 40
0.771284
 50
52.649935999999997
 51
65.183806000000004
  0
ARC
  5
347
  8
_________1
 62
     7
 10
-31.042732000000001
 20
162.94976199999999
 30
0.0
 40
0.4351850000000001
 50
66.144925000000001
 51
88.845096000000012
  0
LINE
  5
348
  8
_________1
 62
     7
 10
-31.03400000000001
 20
163.38499999999999
 30
0.0
 11
-30.833500000000001
 21
163.38499999999999
 31
0.0
  0
LINE
  5
349
  8
_________1
 62
     7
 10
-32.3279
 20
163.38499999999999
 30
0.0
 11
-31.03400000000001
 21
163.38499999999999
 31
0.0
  0
ARC
  5
34A
  8
_________1
 62
     7
 10
-31.032672000000002
 20
162.97489400000001
 30
0.0
 40
0.409966
 50
90.180075000000016
 51
119.215683
  0
ARC
  5
34B
  8
_________1
 62
     7
 10
-30.902961000000001
 20
162.69384700000001
 30
0.0
 40
0.7189720000000001
 50
117.305274
 51
127.94440899999999
  0
LINE
  5
34C
  8
_________1
 62
     7
 10
-31.705100000000002
 20
163.261
 30
0.0
 11
-31.345099999999999
 21
163.261
 31
0.0
  0
ARC
  5
34D
  8
_________1
 62
     7
 10
-32.381309999999999
 20
161.49073000000001
 30
0.0
 40
1.894879999999999
 50
69.091418999999973
 51
88.386223000000001
  0
LINE
  5
34E
  8
_________1
 62
     7
 10
64.330299999999994
 20
179.38499999999999
 30
0.0
 11
64.330299999999994
 21
168.13499999999999
 31
0.0
  0
LINE
  5
34F
  8
_________1
 62
     7
 10
-31.581600000000002
 20
179.38499999999999
 30
0.0
 11
-31.581600000000002
 21
168.13499999999999
 31
0.0
  0
LINE
  5
350
  8
_________1
 62
     7
 10
-33.073999999999998
 20
179.38499999999999
 30
0.0
 11
-33.073999999999998
 21
168.13499999999999
 31
0.0
  0
LINE
  5
351
  8
_________1
 62
     7
 10
-33.323900000000002
 20
179.38499999999999
 30
0.0
 11
-33.323900000000002
 21
168.13499999999999
 31
0.0
  0
LINE
  5
352
  8
_________1
 62
     7
 10
-31.331600000000002
 20
179.38499999999999
 30
0.0
 11
-31.331600000000002
 21
168.13499999999999
 31
0.0
  0
LINE
  5
353
  8
_________1
 62
     7
 10
-26.1646
 20
166.684
 30
0.0
 11
-26.1646
 21
167.58500000000001
 31
0.0
  0
LINE
  5
354
  8
_________1
 62
     7
 10
-38.490900000000003
 20
166.684
 30
0.0
 11
-38.490900000000003
 21
167.58500000000001
 31
0.0
  0
ARC
  5
355
  8
_________1
 62
     7
 10
-26.21612600000001
 20
167.58326199999999
 30
0.0
 40
0.051528
 50
2.0951580000000001
 51
87.904831999999999
  0
ARC
  5
356
  8
_________1
 62
     7
 10
-38.439160000000001
 20
167.58298500000001
 30
0.0
 40
0.051802
 50
91.994263000000018
 51
177.60919799999999
  0
ARC
  5
357
  8
_________1
 62
     7
 10
-26.215983999999999
 20
166.68599
 30
0.0
 40
0.051381
 50
271.94314500000002
 51
358.05686500000002
  0
ARC
  5
358
  8
_________1
 62
     7
 10
-38.439411
 20
166.68615600000001
 30
0.0
 40
0.051541
 50
182.121826
 51
268.27471300000002
  0
LINE
  5
359
  8
_________1
 62
     7
 10
-26.214200000000002
 20
166.63499999999999
 30
0.0
 11
-38.441000000000003
 21
166.63499999999999
 31
0.0
  0
LINE
  5
35A
  8
_________1
 62
     7
 10
-38.490900000000003
 20
168.13499999999999
 30
0.0
 11
-38.490900000000003
 21
167.63499999999999
 31
0.0
  0
LINE
  5
35B
  8
_________1
 62
     7
 10
-26.1646
 20
168.13499999999999
 30
0.0
 11
-26.1646
 21
167.63499999999999
 31
0.0
  0
LINE
  5
35C
  8
_________1
 62
     7
 10
-26.1646
 20
168.13499999999999
 30
0.0
 11
-38.490900000000003
 21
168.13499999999999
 31
0.0
  0
LINE
  5
35D
  8
_________1
 62
     7
 10
-26.1646
 20
167.63499999999999
 30
0.0
 11
-38.490900000000003
 21
167.63499999999999
 31
0.0
  0
ARC
  5
35E
  8
_________1
 62
     7
 10
39.045892000000002
 20
200.54238799999999
 30
0.0
 40
10.503009
 50
248.36358799999999
 51
270.06597099999999
  0
ARC
  5
35F
  8
_________1
 62
     7
 10
-32.327343999999997
 20
260.55641300000002
 30
0.0
 40
33.922245000000011
 50
224.999447
 51
315.00016199999999
  0
LINE
  5
360
  8
_________1
 62
     7
 10
73.565700000000007
 20
180.13499999999999
 30
0.0
 11
62.0655
 21
180.13499999999999
 31
0.0
  0
LINE
  5
361
  8
_________1
 62
     7
 10
62.0655
 20
180.13499999999999
 30
0.0
 11
62.0655
 21
179.38499999999999
 31
0.0
  0
LINE
  5
362
  8
_________1
 62
     7
 10
62.0655
 20
179.38499999999999
 30
0.0
 11
73.565700000000007
 21
179.38499999999999
 31
0.0
  0
LINE
  5
363
  8
_________1
 62
     7
 10
73.565700000000007
 20
179.38499999999999
 30
0.0
 11
73.565700000000007
 21
180.13499999999999
 31
0.0
  0
LINE
  5
364
  8
_________1
 62
     7
 10
74.190600000000003
 20
181.38499999999999
 30
0.0
 11
61.440600000000003
 21
181.38499999999999
 31
0.0
  0
LINE
  5
365
  8
_________1
 62
     7
 10
61.440600000000003
 20
181.38499999999999
 30
0.0
 11
61.440600000000003
 21
180.13499999999999
 31
0.0
  0
LINE
  5
366
  8
_________1
 62
     7
 10
61.440600000000003
 20
180.13499999999999
 30
0.0
 11
74.190600000000003
 21
180.13499999999999
 31
0.0
  0
LINE
  5
367
  8
_________1
 62
     7
 10
74.190600000000003
 20
180.13499999999999
 30
0.0
 11
74.190600000000003
 21
181.38499999999999
 31
0.0
  0
LINE
  5
368
  8
_________1
 62
     7
 10
-38.077500000000001
 20
180.13499999999999
 30
0.0
 11
-26.577400000000001
 21
180.13499999999999
 31
0.0
  0
LINE
  5
369
  8
_________1
 62
     7
 10
-26.577400000000001
 20
180.13499999999999
 30
0.0
 11
-26.577400000000001
 21
179.38499999999999
 31
0.0
  0
LINE
  5
36A
  8
_________1
 62
     7
 10
-26.577400000000001
 20
179.38499999999999
 30
0.0
 11
-38.077500000000001
 21
179.38499999999999
 31
0.0
  0
LINE
  5
36B
  8
_________1
 62
     7
 10
-38.077500000000001
 20
179.38499999999999
 30
0.0
 11
-38.077500000000001
 21
180.13499999999999
 31
0.0
  0
LINE
  5
36C
  8
_________1
 62
     7
 10
-38.702399999999997
 20
181.38499999999999
 30
0.0
 11
-25.952400000000001
 21
181.38499999999999
 31
0.0
  0
LINE
  5
36D
  8
_________1
 62
     7
 10
-25.952400000000001
 20
181.38499999999999
 30
0.0
 11
-25.952400000000001
 21
180.13499999999999
 31
0.0
  0
LINE
  5
36E
  8
_________1
 62
     7
 10
-25.952400000000001
 20
180.13499999999999
 30
0.0
 11
-38.702399999999997
 21
180.13499999999999
 31
0.0
  0
LINE
  5
36F
  8
_________1
 62
     7
 10
-38.702399999999997
 20
180.13499999999999
 30
0.0
 11
-38.702399999999997
 21
181.38499999999999
 31
0.0
  0
LINE
  5
370
  8
_________1
 62
     7
 10
-37.514200000000002
 20
214.786
 30
0.0
 11
-37.511800000000001
 21
214.738
 31
0.0
  0
LINE
  5
371
  8
_________1
 62
     7
 10
-37.511800000000001
 20
214.738
 30
0.0
 11
-37.504199999999997
 21
214.68899999999999
 31
0.0
  0
LINE
  5
372
  8
_________1
 62
     7
 10
-37.504199999999997
 20
214.68899999999999
 30
0.0
 11
-37.4925
 21
214.642
 31
0.0
  0
LINE
  5
373
  8
_________1
 62
     7
 10
-37.4925
 20
214.642
 30
0.0
 11
-37.475999999999999
 21
214.596
 31
0.0
  0
LINE
  5
374
  8
_________1
 62
     7
 10
-37.475999999999999
 20
214.596
 30
0.0
 11
-37.454999999999998
 21
214.55199999999999
 31
0.0
  0
LINE
  5
375
  8
_________1
 62
     7
 10
-37.454999999999998
 20
214.55199999999999
 30
0.0
 11
-37.4298
 21
214.50999999999999
 31
0.0
  0
LINE
  5
376
  8
_________1
 62
     7
 10
-37.4298
 20
214.50999999999999
 30
0.0
 11
-37.400500000000001
 21
214.471
 31
0.0
  0
LINE
  5
377
  8
_________1
 62
     7
 10
-37.400500000000001
 20
214.471
 30
0.0
 11
-37.367800000000003
 21
214.435
 31
0.0
  0
LINE
  5
378
  8
_________1
 62
     7
 10
-37.367800000000003
 20
214.435
 30
0.0
 11
-37.331600000000002
 21
214.40199999999999
 31
0.0
  0
LINE
  5
379
  8
_________1
 62
     7
 10
-37.331600000000002
 20
214.40199999999999
 30
0.0
 11
-37.292400000000001
 21
214.37299999999999
 31
0.0
  0
LINE
  5
37A
  8
_________1
 62
     7
 10
-37.292400000000001
 20
214.37299999999999
 30
0.0
 11
-37.250700000000002
 21
214.34800000000001
 31
0.0
  0
LINE
  5
37B
  8
_________1
 62
     7
 10
-37.250700000000002
 20
214.34800000000001
 30
0.0
 11
-37.206600000000002
 21
214.327
 31
0.0
  0
LINE
  5
37C
  8
_________1
 62
     7
 10
-37.206600000000002
 20
214.327
 30
0.0
 11
-37.160400000000003
 21
214.31100000000001
 31
0.0
  0
LINE
  5
37D
  8
_________1
 62
     7
 10
-37.160400000000003
 20
214.31100000000001
 30
0.0
 11
-37.113199999999999
 21
214.29900000000001
 31
0.0
  0
LINE
  5
37E
  8
_________1
 62
     7
 10
-37.113199999999999
 20
214.29900000000001
 30
0.0
 11
-37.064999999999998
 21
214.292
 31
0.0
  0
LINE
  5
37F
  8
_________1
 62
     7
 10
-37.064999999999998
 20
214.292
 30
0.0
 11
-37.016399999999997
 21
214.28999999999999
 31
0.0
  0
ARC
  5
380
  8
_________1
 62
     7
 10
-27.652791000000001
 20
214.79832300000001
 30
0.0
 40
0.512641
 50
286.901836
 51
358.66198000000003
  0
ARC
  5
381
  8
_________1
 62
     7
 10
-27.637677000000011
 20
214.789862
 30
0.0
 40
0.500296
 50
269.95058
 51
285.52731999999997
  0
LINE
  5
382
  8
_________1
 62
     7
 10
-29.588000000000001
 20
201.33799999999999
 30
0.0
 11
-29.023700000000002
 21
201.33799999999999
 31
0.0
  0
LINE
  5
383
  8
_________1
 62
     7
 10
-35.630800000000001
 20
201.33799999999999
 30
0.0
 11
-35.066499999999998
 21
201.33799999999999
 31
0.0
  0
LINE
  5
384
  8
_________1
 62
     7
 10
-34.618299999999998
 20
203.22300000000001
 30
0.0
 11
-34.9679
 21
203.21700000000001
 31
0.0
  0
LINE
  5
385
  8
_________1
 62
     7
 10
-34.9679
 20
203.21700000000001
 30
0.0
 11
-35.243200000000002
 21
203.20699999999999
 31
0.0
  0
LINE
  5
386
  8
_________1
 62
     7
 10
-35.243200000000002
 20
203.20699999999999
 30
0.0
 11
-35.5167
 21
203.19200000000001
 31
0.0
  0
LINE
  5
387
  8
_________1
 62
     7
 10
-35.5167
 20
203.19200000000001
 30
0.0
 11
-35.776499999999999
 21
203.16999999999999
 31
0.0
  0
LINE
  5
388
  8
_________1
 62
     7
 10
-35.776499999999999
 20
203.16999999999999
 30
0.0
 11
-35.9071
 21
203.154
 31
0.0
  0
LINE
  5
389
  8
_________1
 62
     7
 10
-35.9071
 20
203.154
 30
0.0
 11
-36.020800000000001
 21
203.137
 31
0.0
  0
LINE
  5
38A
  8
_________1
 62
     7
 10
-36.020800000000001
 20
203.137
 30
0.0
 11
-36.115200000000002
 21
203.119
 31
0.0
  0
LINE
  5
38B
  8
_________1
 62
     7
 10
-36.115200000000002
 20
203.119
 30
0.0
 11
-36.184800000000003
 21
203.09899999999999
 31
0.0
  0
LINE
  5
38C
  8
_________1
 62
     7
 10
-36.184800000000003
 20
203.09899999999999
 30
0.0
 11
-36.228900000000003
 21
203.07900000000001
 31
0.0
  0
LINE
  5
38D
  8
_________1
 62
     7
 10
-36.228900000000003
 20
203.07900000000001
 30
0.0
 11
-36.247500000000009
 21
203.06
 31
0.0
  0
LINE
  5
38E
  8
_________1
 62
     7
 10
-34.505299999999998
 20
203.22300000000001
 30
0.0
 11
-34.618299999999998
 21
203.22300000000001
 31
0.0
  0
LINE
  5
38F
  8
_________1
 62
     7
 10
-34.505299999999998
 20
203.22300000000001
 30
0.0
 11
-30.1496
 21
203.22300000000001
 31
0.0
  0
LINE
  5
390
  8
_________1
 62
     7
 10
-30.036300000000001
 20
203.22300000000001
 30
0.0
 11
-30.1496
 21
203.22300000000001
 31
0.0
  0
LINE
  5
391
  8
_________1
 62
     7
 10
-28.407399999999999
 20
203.06
 30
0.0
 11
-28.425999999999998
 21
203.07900000000001
 31
0.0
  0
LINE
  5
392
  8
_________1
 62
     7
 10
-28.425999999999998
 20
203.07900000000001
 30
0.0
 11
-28.469799999999999
 21
203.09899999999999
 31
0.0
  0
LINE
  5
393
  8
_________1
 62
     7
 10
-28.469799999999999
 20
203.09899999999999
 30
0.0
 11
-28.539400000000001
 21
203.119
 31
0.0
  0
LINE
  5
394
  8
_________1
 62
     7
 10
-28.539400000000001
 20
203.119
 30
0.0
 11
-28.633700000000001
 21
203.137
 31
0.0
  0
LINE
  5
395
  8
_________1
 62
     7
 10
-28.633700000000001
 20
203.137
 30
0.0
 11
-28.737400000000001
 21
203.15299999999999
 31
0.0
  0
LINE
  5
396
  8
_________1
 62
     7
 10
-28.737400000000001
 20
203.15299999999999
 30
0.0
 11
-28.856000000000002
 21
203.167
 31
0.0
  0
LINE
  5
397
  8
_________1
 62
     7
 10
-28.856000000000002
 20
203.167
 30
0.0
 11
-29.119499999999999
 21
203.19
 31
0.0
  0
LINE
  5
398
  8
_________1
 62
     7
 10
-29.119499999999999
 20
203.19
 30
0.0
 11
-29.411000000000001
 21
203.20699999999999
 31
0.0
  0
LINE
  5
399
  8
_________1
 62
     7
 10
-29.411000000000001
 20
203.20699999999999
 30
0.0
 11
-29.686599999999999
 21
203.21700000000001
 31
0.0
  0
LINE
  5
39A
  8
_________1
 62
     7
 10
-29.686599999999999
 20
203.21700000000001
 30
0.0
 11
-30.036300000000001
 21
203.22300000000001
 31
0.0
  0
ARC
  5
39B
  8
_________1
 62
     7
 10
-29.021744999999999
 20
205.12552600000001
 30
0.0
 40
3.7875339999999991
 50
269.96991000000003
 51
278.22198500000002
  0
ARC
  5
39C
  8
_________1
 62
     7
 10
-28.865521999999999
 20
203.95565400000001
 30
0.0
 40
2.6073750000000002
 50
278.50072999999998
 51
289.32291300000003
  0
ARC
  5
39D
  8
_________1
 62
     7
 10
-28.550393
 20
202.98138
 30
0.0
 40
1.5839080000000001
 50
290.22733700000009
 51
303.06018499999999
  0
LINE
  5
39E
  8
_________1
 62
     7
 10
-27.686299999999999
 20
201.654
 30
0.0
 11
-27.683599999999998
 21
201.65600000000001
 31
0.0
  0
ARC
  5
39F
  8
_________1
 62
     7
 10
-28.351944
 20
202.65056200000001
 30
0.0
 40
1.1985779999999999
 50
303.8918450000001
 51
328.70960700000001
  0
ARC
  5
3A0
  8
_________1
 62
     7
 10
-28.348133000000001
 20
202.62890999999999
 30
0.0
 40
1.184191
 50
329.50909799999999
 51
346.415638
  0
ARC
  5
3A1
  8
_________1
 62
     7
 10
-28.861740000000001
 20
202.769136
 30
0.0
 40
1.7164379999999999
 50
345.892605
 51
0.769135
  0
LINE
  5
3A2
  8
_________1
 62
     7
 10
-28.407399999999999
 20
203.048
 30
0.0
 11
-29.023700000000002
 21
201.33799999999999
 31
0.0
  0
LINE
  5
3A3
  8
_________1
 62
     7
 10
-27.538499999999999
 20
203.88
 30
0.0
 11
-27.541599999999999
 21
203.78800000000001
 31
0.0
  0
LINE
  5
3A4
  8
_________1
 62
     7
 10
-27.541599999999999
 20
203.78800000000001
 30
0.0
 11
-27.550899999999999
 21
203.697
 31
0.0
  0
LINE
  5
3A5
  8
_________1
 62
     7
 10
-27.550899999999999
 20
203.697
 30
0.0
 11
-27.558199999999999
 21
203.65299999999999
 31
0.0
  0
LINE
  5
3A6
  8
_________1
 62
     7
 10
-27.558199999999999
 20
203.65299999999999
 30
0.0
 11
-27.5671
 21
203.61099999999999
 31
0.0
  0
LINE
  5
3A7
  8
_________1
 62
     7
 10
-27.5671
 20
203.61099999999999
 30
0.0
 11
-27.5778
 21
203.56899999999999
 31
0.0
  0
LINE
  5
3A8
  8
_________1
 62
     7
 10
-27.5778
 20
203.56899999999999
 30
0.0
 11
-27.590199999999999
 21
203.52799999999999
 31
0.0
  0
LINE
  5
3A9
  8
_________1
 62
     7
 10
-27.590199999999999
 20
203.52799999999999
 30
0.0
 11
-27.604700000000001
 21
203.488
 31
0.0
  0
LINE
  5
3AA
  8
_________1
 62
     7
 10
-27.604700000000001
 20
203.488
 30
0.0
 11
-27.620899999999999
 21
203.44999999999999
 31
0.0
  0
LINE
  5
3AB
  8
_________1
 62
     7
 10
-27.620899999999999
 20
203.44999999999999
 30
0.0
 11
-27.639500000000002
 21
203.41300000000001
 31
0.0
  0
LINE
  5
3AC
  8
_________1
 62
     7
 10
-27.639500000000002
 20
203.41300000000001
 30
0.0
 11
-27.659500000000001
 21
203.37799999999999
 31
0.0
  0
LINE
  5
3AD
  8
_________1
 62
     7
 10
-27.659500000000001
 20
203.37799999999999
 30
0.0
 11
-27.681899999999999
 21
203.34399999999999
 31
0.0
  0
LINE
  5
3AE
  8
_________1
 62
     7
 10
-27.681899999999999
 20
203.34399999999999
 30
0.0
 11
-27.706299999999999
 21
203.31200000000001
 31
0.0
  0
LINE
  5
3AF
  8
_________1
 62
     7
 10
-27.706299999999999
 20
203.31200000000001
 30
0.0
 11
-27.732500000000002
 21
203.28200000000001
 31
0.0
  0
LINE
  5
3B0
  8
_________1
 62
     7
 10
-27.732500000000002
 20
203.28200000000001
 30
0.0
 11
-27.7608
 21
203.25299999999999
 31
0.0
  0
LINE
  5
3B1
  8
_________1
 62
     7
 10
-27.7608
 20
203.25299999999999
 30
0.0
 11
-27.790700000000001
 21
203.227
 31
0.0
  0
LINE
  5
3B2
  8
_________1
 62
     7
 10
-27.790700000000001
 20
203.227
 30
0.0
 11
-27.822399999999998
 21
203.202
 31
0.0
  0
LINE
  5
3B3
  8
_________1
 62
     7
 10
-27.822399999999998
 20
203.202
 30
0.0
 11
-27.855799999999999
 21
203.18000000000001
 31
0.0
  0
LINE
  5
3B4
  8
_________1
 62
     7
 10
-27.855799999999999
 20
203.18000000000001
 30
0.0
 11
-27.891300000000001
 21
203.15899999999999
 31
0.0
  0
LINE
  5
3B5
  8
_________1
 62
     7
 10
-27.891300000000001
 20
203.15899999999999
 30
0.0
 11
-27.9282
 21
203.13999999999999
 31
0.0
  0
LINE
  5
3B6
  8
_________1
 62
     7
 10
-27.9282
 20
203.13999999999999
 30
0.0
 11
-27.9664
 21
203.12299999999999
 31
0.0
  0
LINE
  5
3B7
  8
_________1
 62
     7
 10
-27.9664
 20
203.12299999999999
 30
0.0
 11
-28.006
 21
203.108
 31
0.0
  0
LINE
  5
3B8
  8
_________1
 62
     7
 10
-28.006
 20
203.108
 30
0.0
 11
-28.047000000000001
 21
203.095
 31
0.0
  0
LINE
  5
3B9
  8
_________1
 62
     7
 10
-28.047000000000001
 20
203.095
 30
0.0
 11
-28.089099999999998
 21
203.083
 31
0.0
  0
LINE
  5
3BA
  8
_________1
 62
     7
 10
-28.089099999999998
 20
203.083
 30
0.0
 11
-28.132100000000001
 21
203.07400000000001
 31
0.0
  0
LINE
  5
3BB
  8
_________1
 62
     7
 10
-28.132100000000001
 20
203.07400000000001
 30
0.0
 11
-28.221399999999999
 21
203.059
 31
0.0
  0
LINE
  5
3BC
  8
_________1
 62
     7
 10
-28.221399999999999
 20
203.059
 30
0.0
 11
-28.313400000000001
 21
203.05099999999999
 31
0.0
  0
LINE
  5
3BD
  8
_________1
 62
     7
 10
-28.313400000000001
 20
203.05099999999999
 30
0.0
 11
-28.407399999999999
 21
203.048
 31
0.0
  0
ARC
  5
3BE
  8
_________1
 62
     7
 10
-28.425421000000011
 20
203.05383399999999
 30
0.0
 40
0.018893
 50
342.48955699999999
 51
17.510442999999999
  0
LINE
  5
3BF
  8
_________1
 62
     7
 10
-27.541
 20
203.88800000000001
 30
0.0
 11
-27.5444
 21
203.79499999999999
 31
0.0
  0
LINE
  5
3C0
  8
_________1
 62
     7
 10
-27.5444
 20
203.79499999999999
 30
0.0
 11
-27.553699999999999
 21
203.70500000000001
 31
0.0
  0
LINE
  5
3C1
  8
_________1
 62
     7
 10
-27.553699999999999
 20
203.70500000000001
 30
0.0
 11
-27.560600000000001
 21
203.66200000000001
 31
0.0
  0
LINE
  5
3C2
  8
_________1
 62
     7
 10
-27.560600000000001
 20
203.66200000000001
 30
0.0
 11
-27.569600000000001
 21
203.619
 31
0.0
  0
LINE
  5
3C3
  8
_________1
 62
     7
 10
-27.569600000000001
 20
203.619
 30
0.0
 11
-27.580200000000001
 21
203.577
 31
0.0
  0
LINE
  5
3C4
  8
_________1
 62
     7
 10
-27.580200000000001
 20
203.577
 30
0.0
 11
-27.592600000000001
 21
203.53700000000001
 31
0.0
  0
LINE
  5
3C5
  8
_________1
 62
     7
 10
-27.592600000000001
 20
203.53700000000001
 30
0.0
 11
-27.607099999999999
 21
203.49700000000001
 31
0.0
  0
LINE
  5
3C6
  8
_________1
 62
     7
 10
-27.607099999999999
 20
203.49700000000001
 30
0.0
 11
-27.6233
 21
203.459
 31
0.0
  0
LINE
  5
3C7
  8
_________1
 62
     7
 10
-27.6233
 20
203.459
 30
0.0
 11
-27.6416
 21
203.422
 31
0.0
  0
LINE
  5
3C8
  8
_________1
 62
     7
 10
-27.6416
 20
203.422
 30
0.0
 11
-27.661899999999999
 21
203.387
 31
0.0
  0
LINE
  5
3C9
  8
_________1
 62
     7
 10
-27.661899999999999
 20
203.387
 30
0.0
 11
-27.683900000000001
 21
203.35400000000001
 31
0.0
  0
LINE
  5
3CA
  8
_________1
 62
     7
 10
-27.683900000000001
 20
203.35400000000001
 30
0.0
 11
-27.708400000000001
 21
203.322
 31
0.0
  0
LINE
  5
3CB
  8
_________1
 62
     7
 10
-27.708400000000001
 20
203.322
 30
0.0
 11
-27.7346
 21
203.292
 31
0.0
  0
LINE
  5
3CC
  8
_________1
 62
     7
 10
-27.7346
 20
203.292
 30
0.0
 11
-27.762499999999999
 21
203.26300000000001
 31
0.0
  0
LINE
  5
3CD
  8
_________1
 62
     7
 10
-27.762499999999999
 20
203.26300000000001
 30
0.0
 11
-27.792400000000001
 21
203.23699999999999
 31
0.0
  0
LINE
  5
3CE
  8
_________1
 62
     7
 10
-27.792400000000001
 20
203.23699999999999
 30
0.0
 11
-27.824100000000001
 21
203.21299999999999
 31
0.0
  0
LINE
  5
3CF
  8
_________1
 62
     7
 10
-27.824100000000001
 20
203.21299999999999
 30
0.0
 11
-27.857600000000001
 21
203.19
 31
0.0
  0
LINE
  5
3D0
  8
_________1
 62
     7
 10
-27.857600000000001
 20
203.19
 30
0.0
 11
-27.892700000000001
 21
203.16900000000001
 31
0.0
  0
LINE
  5
3D1
  8
_________1
 62
     7
 10
-27.892700000000001
 20
203.16900000000001
 30
0.0
 11
-27.929600000000001
 21
203.15100000000001
 31
0.0
  0
LINE
  5
3D2
  8
_________1
 62
     7
 10
-27.929600000000001
 20
203.15100000000001
 30
0.0
 11
-27.967500000000001
 21
203.13399999999999
 31
0.0
  0
LINE
  5
3D3
  8
_________1
 62
     7
 10
-27.967500000000001
 20
203.13399999999999
 30
0.0
 11
-28.007100000000001
 21
203.119
 31
0.0
  0
LINE
  5
3D4
  8
_________1
 62
     7
 10
-28.007100000000001
 20
203.119
 30
0.0
 11
-28.048100000000002
 21
203.10599999999999
 31
0.0
  0
LINE
  5
3D5
  8
_________1
 62
     7
 10
-28.048100000000002
 20
203.10599999999999
 30
0.0
 11
-28.0898
 21
203.09399999999999
 31
0.0
  0
LINE
  5
3D6
  8
_________1
 62
     7
 10
-28.0898
 20
203.09399999999999
 30
0.0
 11
-28.1328
 21
203.084
 31
0.0
  0
LINE
  5
3D7
  8
_________1
 62
     7
 10
-28.1328
 20
203.084
 30
0.0
 11
-28.221699999999998
 21
203.06999999999999
 31
0.0
  0
LINE
  5
3D8
  8
_________1
 62
     7
 10
-28.221699999999998
 20
203.06999999999999
 30
0.0
 11
-28.313400000000001
 21
203.06200000000001
 31
0.0
  0
LINE
  5
3D9
  8
_________1
 62
     7
 10
-28.313400000000001
 20
203.06200000000001
 30
0.0
 11
-28.407399999999999
 21
203.06
 31
0.0
  0
LINE
  5
3DA
  8
_________1
 62
     7
 10
-36.247100000000003
 20
203.048
 30
0.0
 11
-35.630800000000001
 21
201.33799999999999
 31
0.0
  0
ARC
  5
3DB
  8
_________1
 62
     7
 10
-36.232859000000012
 20
203.054271
 30
0.0
 40
0.015512
 50
160.22890899999999
 51
203.24250000000001
  0
LINE
  5
3DC
  8
_________1
 62
     7
 10
-37.116300000000003
 20
203.88
 30
0.0
 11
-37.112900000000003
 21
203.78800000000001
 31
0.0
  0
LINE
  5
3DD
  8
_________1
 62
     7
 10
-37.112900000000003
 20
203.78800000000001
 30
0.0
 11
-37.1036
 21
203.697
 31
0.0
  0
LINE
  5
3DE
  8
_________1
 62
     7
 10
-37.1036
 20
203.697
 30
0.0
 11
-37.096299999999999
 21
203.65299999999999
 31
0.0
  0
LINE
  5
3DF
  8
_________1
 62
     7
 10
-37.096299999999999
 20
203.65299999999999
 30
0.0
 11
-37.087699999999998
 21
203.61099999999999
 31
0.0
  0
LINE
  5
3E0
  8
_________1
 62
     7
 10
-37.087699999999998
 20
203.61099999999999
 30
0.0
 11
-37.076999999999998
 21
203.56899999999999
 31
0.0
  0
LINE
  5
3E1
  8
_________1
 62
     7
 10
-37.076999999999998
 20
203.56899999999999
 30
0.0
 11
-37.064599999999999
 21
203.52799999999999
 31
0.0
  0
LINE
  5
3E2
  8
_________1
 62
     7
 10
-37.064599999999999
 20
203.52799999999999
 30
0.0
 11
-37.050199999999997
 21
203.488
 31
0.0
  0
LINE
  5
3E3
  8
_________1
 62
     7
 10
-37.050199999999997
 20
203.488
 30
0.0
 11
-37.0336
 21
203.44999999999999
 31
0.0
  0
LINE
  5
3E4
  8
_________1
 62
     7
 10
-37.0336
 20
203.44999999999999
 30
0.0
 11
-37.0154
 21
203.41300000000001
 31
0.0
  0
LINE
  5
3E5
  8
_________1
 62
     7
 10
-37.0154
 20
203.41300000000001
 30
0.0
 11
-36.994999999999997
 21
203.37799999999999
 31
0.0
  0
LINE
  5
3E6
  8
_________1
 62
     7
 10
-36.994999999999997
 20
203.37799999999999
 30
0.0
 11
-36.972999999999999
 21
203.34399999999999
 31
0.0
  0
LINE
  5
3E7
  8
_________1
 62
     7
 10
-36.972999999999999
 20
203.34399999999999
 30
0.0
 11
-36.94850000000001
 21
203.31200000000001
 31
0.0
  0
LINE
  5
3E8
  8
_________1
 62
     7
 10
-36.94850000000001
 20
203.31200000000001
 30
0.0
 11
-36.922400000000003
 21
203.28200000000001
 31
0.0
  0
LINE
  5
3E9
  8
_________1
 62
     7
 10
-36.922400000000003
 20
203.28200000000001
 30
0.0
 11
-36.894100000000002
 21
203.25299999999999
 31
0.0
  0
LINE
  5
3EA
  8
_________1
 62
     7
 10
-36.894100000000002
 20
203.25299999999999
 30
0.0
 11
-36.864100000000001
 21
203.227
 31
0.0
  0
LINE
  5
3EB
  8
_________1
 62
     7
 10
-36.864100000000001
 20
203.227
 30
0.0
 11
-36.8324
 21
203.202
 31
0.0
  0
LINE
  5
3EC
  8
_________1
 62
     7
 10
-36.8324
 20
203.202
 30
0.0
 11
-36.798699999999997
 21
203.18000000000001
 31
0.0
  0
LINE
  5
3ED
  8
_________1
 62
     7
 10
-36.798699999999997
 20
203.18000000000001
 30
0.0
 11
-36.763500000000001
 21
203.15899999999999
 31
0.0
  0
LINE
  5
3EE
  8
_________1
 62
     7
 10
-36.763500000000001
 20
203.15899999999999
 30
0.0
 11
-36.726700000000001
 21
203.13999999999999
 31
0.0
  0
LINE
  5
3EF
  8
_________1
 62
     7
 10
-36.726700000000001
 20
203.13999999999999
 30
0.0
 11
-36.688400000000001
 21
203.12299999999999
 31
0.0
  0
LINE
  5
3F0
  8
_________1
 62
     7
 10
-36.688400000000001
 20
203.12299999999999
 30
0.0
 11
-36.648499999999999
 21
203.108
 31
0.0
  0
LINE
  5
3F1
  8
_________1
 62
     7
 10
-36.648499999999999
 20
203.108
 30
0.0
 11
-36.607799999999997
 21
203.095
 31
0.0
  0
LINE
  5
3F2
  8
_________1
 62
     7
 10
-36.607799999999997
 20
203.095
 30
0.0
 11
-36.565399999999997
 21
203.083
 31
0.0
  0
LINE
  5
3F3
  8
_________1
 62
     7
 10
-36.565399999999997
 20
203.083
 30
0.0
 11
-36.522399999999998
 21
203.07400000000001
 31
0.0
  0
LINE
  5
3F4
  8
_________1
 62
     7
 10
-36.522399999999998
 20
203.07400000000001
 30
0.0
 11
-36.433500000000002
 21
203.059
 31
0.0
  0
LINE
  5
3F5
  8
_________1
 62
     7
 10
-36.433500000000002
 20
203.059
 30
0.0
 11
-36.341200000000001
 21
203.05099999999999
 31
0.0
  0
LINE
  5
3F6
  8
_________1
 62
     7
 10
-36.341200000000001
 20
203.05099999999999
 30
0.0
 11
-36.247100000000003
 21
203.048
 31
0.0
  0
LINE
  5
3F7
  8
_________1
 62
     7
 10
-37.113599999999998
 20
203.88800000000001
 30
0.0
 11
-37.110500000000002
 21
203.79499999999999
 31
0.0
  0
LINE
  5
3F8
  8
_________1
 62
     7
 10
-37.110500000000002
 20
203.79499999999999
 30
0.0
 11
-37.101199999999999
 21
203.70500000000001
 31
0.0
  0
LINE
  5
3F9
  8
_________1
 62
     7
 10
-37.101199999999999
 20
203.70500000000001
 30
0.0
 11
-37.093899999999998
 21
203.66200000000001
 31
0.0
  0
LINE
  5
3FA
  8
_________1
 62
     7
 10
-37.093899999999998
 20
203.66200000000001
 30
0.0
 11
-37.085299999999997
 21
203.619
 31
0.0
  0
LINE
  5
3FB
  8
_________1
 62
     7
 10
-37.085299999999997
 20
203.619
 30
0.0
 11
-37.074599999999997
 21
203.577
 31
0.0
  0
LINE
  5
3FC
  8
_________1
 62
     7
 10
-37.074599999999997
 20
203.577
 30
0.0
 11
-37.061900000000001
 21
203.53700000000001
 31
0.0
  0
LINE
  5
3FD
  8
_________1
 62
     7
 10
-37.061900000000001
 20
203.53700000000001
 30
0.0
 11
-37.047800000000002
 21
203.49700000000001
 31
0.0
  0
LINE
  5
3FE
  8
_________1
 62
     7
 10
-37.047800000000002
 20
203.49700000000001
 30
0.0
 11
-37.031599999999997
 21
203.459
 31
0.0
  0
LINE
  5
3FF
  8
_________1
 62
     7
 10
-37.031599999999997
 20
203.459
 30
0.0
 11
-37.013000000000012
 21
203.422
 31
0.0
  0
LINE
  5
400
  8
_________1
 62
     7
 10
-37.013000000000012
 20
203.422
 30
0.0
 11
-36.993000000000002
 21
203.387
 31
0.0
  0
LINE
  5
401
  8
_________1
 62
     7
 10
-36.993000000000002
 20
203.387
 30
0.0
 11
-36.970599999999997
 21
203.35400000000001
 31
0.0
  0
LINE
  5
402
  8
_________1
 62
     7
 10
-36.970599999999997
 20
203.35400000000001
 30
0.0
 11
-36.9465
 21
203.322
 31
0.0
  0
LINE
  5
403
  8
_________1
 62
     7
 10
-36.9465
 20
203.322
 30
0.0
 11
-36.920299999999997
 21
203.292
 31
0.0
  0
LINE
  5
404
  8
_________1
 62
     7
 10
-36.920299999999997
 20
203.292
 30
0.0
 11
-36.892400000000002
 21
203.26300000000001
 31
0.0
  0
LINE
  5
405
  8
_________1
 62
     7
 10
-36.892400000000002
 20
203.26300000000001
 30
0.0
 11
-36.862400000000001
 21
203.23699999999999
 31
0.0
  0
LINE
  5
406
  8
_________1
 62
     7
 10
-36.862400000000001
 20
203.23699999999999
 30
0.0
 11
-36.8307
 21
203.21299999999999
 31
0.0
  0
LINE
  5
407
  8
_________1
 62
     7
 10
-36.8307
 20
203.21299999999999
 30
0.0
 11
-36.7973
 21
203.19
 31
0.0
  0
LINE
  5
408
  8
_________1
 62
     7
 10
-36.7973
 20
203.19
 30
0.0
 11
-36.7622
 21
203.16900000000001
 31
0.0
  0
LINE
  5
409
  8
_________1
 62
     7
 10
-36.7622
 20
203.16900000000001
 30
0.0
 11
-36.725299999999997
 21
203.15100000000001
 31
0.0
  0
LINE
  5
40A
  8
_________1
 62
     7
 10
-36.725299999999997
 20
203.15100000000001
 30
0.0
 11
-36.687100000000001
 21
203.13399999999999
 31
0.0
  0
LINE
  5
40B
  8
_________1
 62
     7
 10
-36.687100000000001
 20
203.13399999999999
 30
0.0
 11
-36.647799999999997
 21
203.119
 31
0.0
  0
LINE
  5
40C
  8
_________1
 62
     7
 10
-36.647799999999997
 20
203.119
 30
0.0
 11
-36.6068
 21
203.10599999999999
 31
0.0
  0
LINE
  5
40D
  8
_________1
 62
     7
 10
-36.6068
 20
203.10599999999999
 30
0.0
 11
-36.564799999999998
 21
203.09399999999999
 31
0.0
  0
LINE
  5
40E
  8
_________1
 62
     7
 10
-36.564799999999998
 20
203.09399999999999
 30
0.0
 11
-36.521700000000003
 21
203.084
 31
0.0
  0
LINE
  5
40F
  8
_________1
 62
     7
 10
-36.521700000000003
 20
203.084
 30
0.0
 11
-36.433100000000003
 21
203.06999999999999
 31
0.0
  0
LINE
  5
410
  8
_________1
 62
     7
 10
-36.433100000000003
 20
203.06999999999999
 30
0.0
 11
-36.341200000000001
 21
203.06200000000001
 31
0.0
  0
LINE
  5
411
  8
_________1
 62
     7
 10
-36.341200000000001
 20
203.06200000000001
 30
0.0
 11
-36.247500000000009
 21
203.06
 31
0.0
  0
ARC
  5
412
  8
_________1
 62
     7
 10
-35.63279
 20
205.12479200000001
 30
0.0
 40
3.7867989999999989
 50
261.85045100000002
 51
270.03040700000003
  0
ARC
  5
413
  8
_________1
 62
     7
 10
-35.733831000000002
 20
204.266402
 30
0.0
 40
2.9228350000000001
 50
255.05103199999999
 51
261.42580500000003
  0
ARC
  5
414
  8
_________1
 62
     7
 10
-35.958843000000002
 20
203.35960600000001
 30
0.0
 40
1.9887539999999999
 50
248.28591800000001
 51
254.57511099999999
  0
ARC
  5
415
  8
_________1
 62
     7
 10
-36.12753
 20
202.939437
 30
0.0
 40
1.5359899999999991
 50
236.81809799999999
 51
248.33308099999999
  0
ARC
  5
416
  8
_________1
 62
     7
 10
-36.259566999999997
 20
202.71455
 30
0.0
 40
1.275571
 50
225.917316
 51
236.25332700000001
  0
ARC
  5
417
  8
_________1
 62
     7
 10
-36.359821999999987
 20
202.59931700000001
 30
0.0
 40
1.123078
 50
195.37159399999999
 51
225.50151099999999
  0
ARC
  5
418
  8
_________1
 62
     7
 10
-35.984439999999999
 20
202.73912899999999
 30
0.0
 40
1.522502
 50
184.854962
 51
196.700355
  0
ARC
  5
419
  8
_________1
 62
     7
 10
-35.381374000000001
 20
202.79375099999999
 30
0.0
 40
2.1280290000000002
 50
180.04241399999989
 51
184.94614999999999
  0
ARC
  5
41A
  8
_________1
 62
     7
 10
-34.626567999999999
 20
165.65884500000001
 30
0.0
 40
38.380119999999998
 50
89.995817000000002
 51
91.085693000000006
  0
ARC
  5
41B
  8
_________1
 62
     7
 10
-38.649144
 20
350.61230799999998
 30
0.0
 40
146.61727099999999
 50
271.21705900000001
 51
271.287891
  0
ARC
  5
41C
  8
_________1
 62
     7
 10
-35.152061000000003
 20
186.73029199999999
 30
0.0
 40
17.302059
 50
91.26821600000001
 51
91.871955999999997
  0
ARC
  5
41D
  8
_________1
 62
     7
 10
-34.704096999999997
 20
172.066092
 30
0.0
 40
31.973081000000001
 50
91.815871000000016
 51
92.417598000000027
  0
ARC
  5
41E
  8
_________1
 62
     7
 10
-35.199285000000003
 20
184.13726800000001
 30
0.0
 40
19.891767000000002
 50
92.459209999999999
 51
93.324633999999989
  0
ARC
  5
41F
  8
_________1
 62
     7
 10
-35.390951000000001
 20
188.359893
 30
0.0
 40
15.665225
 50
93.520464000000004
 51
93.881593999999993
  0
ARC
  5
420
  8
_________1
 62
     7
 10
-36.357058000000002
 20
202.357146
 30
0.0
 40
1.634762
 50
93.308633
 51
94.543160999999984
  0
ARC
  5
421
  8
_________1
 62
     7
 10
-35.527795000000012
 20
190.27854500000001
 30
0.0
 40
13.741713000000001
 50
94.000738999999996
 51
94.513527000000011
  0
ARC
  5
422
  8
_________1
 62
     7
 10
-36.042783
 20
197.13767300000001
 30
0.0
 40
6.8633800000000003
 50
94.733800000000002
 51
95.655036999999979
  0
ARC
  5
423
  8
_________1
 62
     7
 10
-36.493231999999999
 20
201.342794
 30
0.0
 40
2.634557
 50
94.918021999999993
 51
96.695411000000007
  0
ARC
  5
424
  8
_________1
 62
     7
 10
-36.850203
 20
204.34383099999999
 30
0.0
 40
0.387662
 50
275.02535499999999
 51
277.38155899999998
  0
ARC
  5
425
  8
_________1
 62
     7
 10
-36.482605999999997
 20
201.12636800000001
 30
0.0
 40
2.8508829999999992
 50
96.720735000000005
 51
101.102079
  0
ARC
  5
426
  8
_________1
 62
     7
 10
-36.916654000000001
 20
203.44487699999999
 30
0.0
 40
0.492611
 50
103.489695
 51
110.127342
  0
ARC
  5
427
  8
_________1
 62
     7
 10
-37.072418999999996
 20
203.85960900000001
 30
0.0
 40
0.049733
 50
106.04590899999999
 51
145.815776
  0
LINE
  5
428
  8
_________1
 62
     7
 10
-30.031099999999999
 20
204.03899999999999
 30
0.0
 11
-30.1496
 21
204.03899999999999
 31
0.0
  0
LINE
  5
429
  8
_________1
 62
     7
 10
-34.505299999999998
 20
204.03899999999999
 30
0.0
 11
-30.1496
 21
204.03899999999999
 31
0.0
  0
LINE
  5
42A
  8
_________1
 62
     7
 10
-34.505299999999998
 20
204.03899999999999
 30
0.0
 11
-34.623800000000003
 21
204.03899999999999
 31
0.0
  0
ARC
  5
42B
  8
_________1
 62
     7
 10
-27.560099000000001
 20
203.87953899999999
 30
0.0
 40
0.020752
 50
22.713927000000002
 51
60.537909999999989
  0
ARC
  5
42C
  8
_________1
 62
     7
 10
-27.619070000000001
 20
203.78913299999999
 30
0.0
 40
0.128655
 50
57.473050000000001
 51
74.430265000000006
  0
ARC
  5
42D
  8
_________1
 62
     7
 10
-27.789498999999999
 20
203.24130700000001
 30
0.0
 40
0.702333
 50
73.032422999999994
 51
80.505042000000003
  0
ARC
  5
42E
  8
_________1
 62
     7
 10
-28.113434000000002
 20
201.43289999999999
 30
0.0
 40
2.5394890000000001
 50
80.027146999999999
 51
83.474517999999989
  0
ARC
  5
42F
  8
_________1
 62
     7
 10
-27.721630000000001
 20
204.959352
 30
0.0
 40
1.008707999999999
 50
262.45274000000001
 51
264.12760800000001
  0
LINE
  5
430
  8
_________1
 62
     7
 10
-27.854099999999999
 20
203.959
 30
0.0
 11
-27.9192
 21
203.96600000000001
 31
0.0
  0
ARC
  5
431
  8
_________1
 62
     7
 10
-28.461328999999999
 20
198.56049400000001
 30
0.0
 40
5.4328919999999989
 50
84.273436999999987
 51
85.404347999999985
  0
ARC
  5
432
  8
_________1
 62
     7
 10
-29.030971000000001
 20
192.09922499999999
 30
0.0
 40
11.919134
 50
85.163448000000002
 51
87.813422000000003
  0
ARC
  5
433
  8
_________1
 62
     7
 10
-28.603894
 20
203.63113899999999
 30
0.0
 40
0.379553
 50
85.817873000000006
 51
87.641131999999999
  0
ARC
  5
434
  8
_________1
 62
     7
 10
-29.731593
 20
177.79943700000001
 30
0.0
 40
26.235856999999999
 50
87.502330999999998
 51
88.205542000000008
  0
ARC
  5
435
  8
_________1
 62
     7
 10
-24.021820000000002
 20
387.39034099999998
 30
0.0
 40
183.43305699999999
 50
268.40774399999998
 51
268.47297900000001
  0
ARC
  5
436
  8
_________1
 62
     7
 10
-29.571978000000001
 20
187.30541099999999
 30
0.0
 40
16.728840999999999
 50
88.447748000000004
 51
88.971777000000003
  0
ARC
  5
437
  8
_________1
 62
     7
 10
-29.802759999999999
 20
180.642911
 30
0.0
 40
23.394673999999998
 50
88.699466999999984
 51
89.620097999999999
  0
ARC
  5
438
  8
_________1
 62
     7
 10
-30.268903999999999
 20
117.11532
 30
0.0
 40
86.923969999999997
 50
89.590485999999999
 51
89.843233999999995
  0
LINE
  5
439
  8
_________1
 62
     7
 10
-27.538499999999999
 20
203.88
 30
0.0
 11
-27.145499999999998
 21
202.792
 31
0.0
  0
LINE
  5
43A
  8
_________1
 62
     7
 10
-27.528600000000001
 20
206.905
 30
0.0
 11
-27.541
 21
203.88800000000001
 31
0.0
  0
LINE
  5
43B
  8
_________1
 62
     7
 10
-37.116300000000003
 20
203.88
 30
0.0
 11
-37.509399999999999
 21
202.792
 31
0.0
  0
LINE
  5
43C
  8
_________1
 62
     7
 10
-37.126300000000001
 20
206.905
 30
0.0
 11
-37.113599999999998
 21
203.88800000000001
 31
0.0
  0
ARC
  5
43D
  8
_________1
 62
     7
 10
-27.916118000000001
 20
206.892109
 30
0.0
 40
0.387788
 50
1.9497390000000001
 51
87.812455
  0
LINE
  5
43E
  8
_________1
 62
     7
 10
-27.901299999999999
 20
207.28
 30
0.0
 11
-27.902000000000001
 21
207.28
 31
0.0
  0
ARC
  5
43F
  8
_________1
 62
     7
 10
-36.739190000000001
 20
206.892504
 30
0.0
 40
0.387351
 50
92.021803000000006
 51
178.00458900000001
  0
LINE
  5
440
  8
_________1
 62
     7
 10
-37.126300000000001
 20
206.90600000000001
 30
0.0
 11
-37.126300000000001
 21
206.905
 31
0.0
  0
LINE
  5
441
  8
_________1
 62
     7
 10
-32.327300000000001
 20
211.78800000000001
 30
0.0
 11
-32.343400000000003
 21
211.78800000000001
 31
0.0
  0
ARC
  5
442
  8
_________1
 62
     7
 10
-32.365450000000003
 20
212.111132
 30
0.0
 40
0.324157
 50
271.08754800000003
 51
273.8915770000001
  0
ARC
  5
443
  8
_________1
 62
     7
 10
-32.343375000000002
 20
211.50412299999999
 30
0.0
 40
0.283359
 50
93.221324999999993
 51
96.507683000000014
  0
LINE
  5
444
  8
_________1
 62
     7
 10
-32.375500000000009
 20
211.786
 30
0.0
 11
-32.391300000000001
 21
211.78399999999999
 31
0.0
  0
ARC
  5
445
  8
_________1
 62
     7
 10
-32.308628000000013
 20
211.071935
 30
0.0
 40
0.717128
 50
96.622889000000001
 51
97.927098999999998
  0
ARC
  5
446
  8
_________1
 62
     7
 10
-32.339312999999997
 20
211.28065900000001
 30
0.0
 40
0.506169
 50
97.745237000000003
 51
99.559825000000018
  0
ARC
  5
447
  8
_________1
 62
     7
 10
-32.344149000000002
 20
211.30668900000001
 30
0.0
 40
0.479697
 50
99.506668999999974
 51
101.431657
  0
LINE
  5
448
  8
_________1
 62
     7
 10
-32.4392
 20
211.77699999999999
 30
0.0
 11
-32.454700000000003
 21
211.774
 31
0.0
  0
ARC
  5
449
  8
_________1
 62
     7
 10
-32.328830000000004
 20
211.22304299999999
 30
0.0
 40
0.5647660000000001
 50
102.88055
 51
111.035787
  0
ARC
  5
44A
  8
_________1
 62
     7
 10
-32.391255000000001
 20
211.36450099999999
 30
0.0
 40
0.410396
 50
109.99025399999999
 51
112.25915999999999
  0
LINE
  5
44B
  8
_________1
 62
     7
 10
-32.546700000000001
 20
211.744
 30
0.0
 11
-32.561199999999999
 21
211.738
 31
0.0
  0
LINE
  5
44C
  8
_________1
 62
     7
 10
-32.561199999999999
 20
211.738
 30
0.0
 11
-32.575699999999998
 21
211.73099999999999
 31
0.0
  0
ARC
  5
44D
  8
_________1
 62
     7
 10
-32.005915999999999
 20
210.57383799999999
 30
0.0
 40
1.29017
 50
116.205821
 51
116.924255
  0
ARC
  5
44E
  8
_________1
 62
     7
 10
-32.464798999999999
 20
211.47365600000001
 30
0.0
 40
0.280103
 50
116.577635
 51
119.857051
  0
ARC
  5
44F
  8
_________1
 62
     7
 10
-32.386462999999999
 20
211.31180800000001
 30
0.0
 40
0.459641
 50
118.28187200000001
 51
120.300826
  0
ARC
  5
450
  8
_________1
 62
     7
 10
-32.786615999999988
 20
211.97925599999999
 30
0.0
 40
0.318639
 50
298.99713200000002
 51
301.871353
  0
LINE
  5
451
  8
_________1
 62
     7
 10
-32.632199999999997
 20
211.70099999999999
 30
0.0
 11
-32.645600000000002
 21
211.69200000000001
 31
0.0
  0
ARC
  5
452
  8
_________1
 62
     7
 10
-32.539580999999998
 20
211.522628
 30
0.0
 40
0.199474
 50
122.101607
 51
126.659055
  0
ARC
  5
453
  8
_________1
 62
     7
 10
-32.41300600000001
 20
211.32938999999999
 30
0.0
 40
0.430284
 50
124.816676
 51
126.968628
  0
ARC
  5
454
  8
_________1
 62
     7
 10
-32.188163000000003
 20
211.032149
 30
0.0
 40
0.8029859999999999
 50
127.03192799999999
 51
128.180026
  0
LINE
  5
455
  8
_________1
 62
     7
 10
-32.6845
 20
211.66300000000001
 30
0.0
 11
-32.696899999999999
 21
211.65299999999999
 31
0.0
  0
ARC
  5
456
  8
_________1
 62
     7
 10
-32.413612999999998
 20
211.31608499999999
 30
0.0
 40
0.440475
 50
130.02953600000001
 51
132.110084
  0
LINE
  5
457
  8
_________1
 62
     7
 10
-32.70900000000001
 20
211.643
 30
0.0
 11
-32.720700000000001
 21
211.63200000000001
 31
0.0
  0
ARC
  5
458
  8
_________1
 62
     7
 10
-31.979724000000001
 20
210.845113
 30
0.0
 40
1.0808459999999991
 50
133.27832699999999
 51
134.13730899999999
  0
ARC
  5
459
  8
_________1
 62
     7
 10
-31.895527000000001
 20
210.78505100000001
 30
0.0
 40
1.1827299999999989
 50
135.03836799999999
 51
135.82317599999999
  0
ARC
  5
45A
  8
_________1
 62
     7
 10
-30.987396
 20
210.00959
 30
0.0
 40
2.3756719999999998
 50
137.673303
 51
138.444062
  0
ARC
  5
45B
  8
_________1
 62
     7
 10
-32.979188999999998
 20
211.747704
 30
0.0
 40
0.268574
 50
319.44761199999999
 51
322.8456480000001
  0
ARC
  5
45C
  8
_________1
 62
     7
 10
-32.480608000000011
 20
211.33196699999999
 30
0.0
 40
0.380632
 50
140.69216399999999
 51
143.130259
  0
ARC
  5
45D
  8
_________1
 62
     7
 10
-32.372957
 20
211.24981399999999
 30
0.0
 40
0.516045
 50
143.004594
 51
144.75669199999999
  0
LINE
  5
45E
  8
_________1
 62
     7
 10
-32.79440000000001
 20
211.548
 30
0.0
 11
-32.803699999999999
 21
211.535
 31
0.0
  0
ARC
  5
45F
  8
_________1
 62
     7
 10
-34.248165999999998
 20
212.43918400000001
 30
0.0
 40
1.7043689999999989
 50
327.3991200000001
 51
327.940516
  0
ARC
  5
460
  8
_________1
 62
     7
 10
-32.086767999999999
 20
211.07073399999999
 30
0.0
 40
0.853866
 50
148.183087
 51
149.25157300000001
  0
ARC
  5
461
  8
_________1
 62
     7
 10
-32.608916000000001
 20
211.37640400000001
 30
0.0
 40
0.248879
 50
148.271004
 51
151.93115900000001
  0
ARC
  5
462
  8
_________1
 62
     7
 10
-32.629958999999999
 20
211.37786800000001
 30
0.0
 40
0.229783
 50
149.78370899999999
 51
153.78154599999999
  0
LINE
  5
463
  8
_________1
 62
     7
 10
-32.836100000000002
 20
211.47900000000001
 30
0.0
 11
-32.843299999999999
 21
211.465
 31
0.0
  0
ARC
  5
464
  8
_________1
 62
     7
 10
-31.309329999999999
 20
210.716826
 30
0.0
 40
1.7066969999999999
 50
154.00287399999999
 51
154.53568100000001
  0
LINE
  5
465
  8
_________1
 62
     7
 10
-32.850200000000001
 20
211.45099999999999
 30
0.0
 11
-32.856400000000001
 21
211.43600000000001
 31
0.0
  0
ARC
  5
466
  8
_________1
 62
     7
 10
-32.636051999999999
 20
211.340114
 30
0.0
 40
0.240254
 50
156.52886799999999
 51
160.32848300000001
  0
ARC
  5
467
  8
_________1
 62
     7
 10
-32.633654999999997
 20
211.32838899999999
 30
0.0
 40
0.246671
 50
157.95084900000001
 51
161.660448
  0
ARC
  5
468
  8
_________1
 62
     7
 10
-32.717843999999999
 20
211.34642299999999
 30
0.0
 40
0.161356
 50
158.330691
 51
164.01985400000001
  0
ARC
  5
469
  8
_________1
 62
     7
 10
-31.790804000000001
 20
211.041966
 30
0.0
 40
1.137008999999999
 50
162.13111499999999
 51
162.94099499999999
  0
ARC
  5
46A
  8
_________1
 62
     7
 10
-31.546686999999999
 20
211.008343
 30
0.0
 40
1.380812999999999
 50
164.57897600000001
 51
165.237842
  0
ARC
  5
46B
  8
_________1
 62
     7
 10
-32.612853999999999
 20
211.28683799999999
 30
0.0
 40
0.278885
 50
164.752206
 51
168.06585999999999
  0
ARC
  5
46C
  8
_________1
 62
     7
 10
-33.228067000000003
 20
211.41153499999999
 30
0.0
 40
0.348855
 50
346.28650499999998
 51
348.922684
  0
ARC
  5
46D
  8
_________1
 62
     7
 10
-32.637905000000003
 20
211.276974
 30
0.0
 40
0.2565469999999999
 50
168.33766800000001
 51
171.93068099999999
  0
ARC
  5
46E
  8
_________1
 62
     7
 10
-32.722273999999999
 20
211.278864
 30
0.0
 40
0.173036
 50
168.62716900000001
 51
173.88046900000001
  0
ARC
  5
46F
  8
_________1
 62
     7
 10
-32.776791000000003
 20
211.273921
 30
0.0
 40
0.119837
 50
168.74519000000001
 51
176.39195599999999
  0
LINE
  5
470
  8
_________1
 62
     7
 10
-32.8964
 20
211.28100000000001
 30
0.0
 11
-32.898099999999999
 21
211.26599999999999
 31
0.0
  0
LINE
  5
471
  8
_________1
 62
     7
 10
-32.898099999999999
 20
211.26599999999999
 30
0.0
 11
-32.899099999999997
 21
211.25
 31
0.0
  0
LINE
  5
472
  8
_________1
 62
     7
 10
-32.899099999999997
 20
211.25
 30
0.0
 11
-32.899799999999999
 21
211.23400000000001
 31
0.0
  0
ARC
  5
473
  8
_________1
 62
     7
 10
-32.698749999999997
 20
211.22127599999999
 30
0.0
 40
0.201462
 50
176.499987
 51
181.00928500000001
  0
ARC
  5
474
  8
_________1
 62
     7
 10
-32.609133
 20
211.21597299999999
 30
0.0
 40
0.291054
 50
179.65459300000001
 51
182.809361
  0
LINE
  5
475
  8
_________1
 62
     7
 10
-32.899799999999999
 20
211.202
 30
0.0
 11
-32.899099999999997
 21
211.18600000000001
 31
0.0
  0
LINE
  5
476
  8
_________1
 62
     7
 10
-32.899099999999997
 20
211.18600000000001
 30
0.0
 11
-32.898099999999999
 21
211.16999999999999
 31
0.0
  0
LINE
  5
477
  8
_________1
 62
     7
 10
-32.898099999999999
 20
211.16999999999999
 30
0.0
 11
-32.8964
 21
211.154
 31
0.0
  0
ARC
  5
478
  8
_________1
 62
     7
 10
-32.775824
 20
211.16148899999999
 30
0.0
 40
0.120811
 50
183.63889499999999
 51
191.22395900000001
  0
ARC
  5
479
  8
_________1
 62
     7
 10
-32.605775000000001
 20
211.17434299999999
 30
0.0
 40
0.290833
 50
187.18375900000001
 51
190.30860300000001
  0
ARC
  5
47A
  8
_________1
 62
     7
 10
-32.691867999999999
 20
211.14892499999999
 30
0.0
 40
0.201809
 50
187.581808
 51
192.14984299999989
  0
ARC
  5
47B
  8
_________1
 62
     7
 10
-33.090664000000011
 20
211.05394699999999
 30
0.0
 40
0.208236
 50
10.186871999999999
 51
14.603939
  0
ARC
  5
47C
  8
_________1
 62
     7
 10
-32.687123
 20
211.13110399999999
 30
0.0
 40
0.202642
 50
191.47947500000001
 51
195.993098
  0
LINE
  5
47D
  8
_________1
 62
     7
 10
-32.881900000000002
 20
211.07499999999999
 30
0.0
 11
-32.877800000000001
 21
211.06
 31
0.0
  0
ARC
  5
47E
  8
_________1
 62
     7
 10
-33.304584000000013
 20
210.91707199999999
 30
0.0
 40
0.450019
 50
16.440767000000001
 51
18.487082999999998
  0
ARC
  5
47F
  8
_________1
 62
     7
 10
-32.373592000000002
 20
211.20825199999999
 30
0.0
 40
0.525554
 50
198.16148899999999
 51
199.889759
  0
ARC
  5
480
  8
_________1
 62
     7
 10
-32.538969000000002
 20
211.140445
 30
0.0
 40
0.347055
 50
198.65157400000001
 51
201.31467499999999
  0
ARC
  5
481
  8
_________1
 62
     7
 10
-32.666823000000001
 20
211.08300500000001
 30
0.0
 40
0.207187
 50
199.36817400000001
 51
203.77447599999999
  0
ARC
  5
482
  8
_________1
 62
     7
 10
-33.541888
 20
210.70383799999999
 30
0.0
 40
0.746498
 50
22.098089999999999
 51
23.330729999999999
  0
ARC
  5
483
  8
_________1
 62
     7
 10
-33.231183000000001
 20
210.79226299999999
 30
0.0
 40
0.426787
 50
24.665310999999999
 51
26.796094
  0
LINE
  5
484
  8
_________1
 62
     7
 10
-32.843299999999999
 20
210.97
 30
0.0
 11
-32.836100000000002
 21
210.95599999999999
 31
0.0
  0
ARC
  5
485
  8
_________1
 62
     7
 10
-32.593519000000001
 20
211.07863800000001
 30
0.0
 40
0.271866
 50
206.837839
 51
210.184687
  0
ARC
  5
486
  8
_________1
 62
     7
 10
-32.6751
 20
211.01984899999999
 30
0.0
 40
0.172068
 50
206.91986499999999
 51
212.26476099999999
  0
LINE
  5
487
  8
_________1
 62
     7
 10
-32.820599999999999
 20
210.928
 30
0.0
 11
-32.8123
 21
210.91399999999999
 31
0.0
  0
ARC
  5
488
  8
_________1
 62
     7
 10
-32.574480999999999
 20
211.05737500000001
 30
0.0
 40
0.277522
 50
211.01324500000001
 51
214.30861300000001
  0
ARC
  5
489
  8
_________1
 62
     7
 10
-32.363320999999999
 20
211.20401200000001
 30
0.0
 40
0.5345990000000001
 50
214.53418600000001
 51
216.255438
  0
ARC
  5
48A
  8
_________1
 62
     7
 10
-31.718302999999999
 20
211.652851
 30
0.0
 40
1.320314999999999
 50
215.40848399999999
 51
216.099322
  0
ARC
  5
48B
  8
_________1
 62
     7
 10
-43.900497999999992
 20
202.152592
 30
0.0
 40
14.129085999999999
 50
38.055931000000001
 51
38.121606999999997
  0
ARC
  5
48C
  8
_________1
 62
     7
 10
-33.201891000000003
 20
210.50336899999999
 30
0.0
 40
0.5575700000000001
 50
38.434001000000002
 51
40.056859999999993
  0
ARC
  5
48D
  8
_________1
 62
     7
 10
-31.054169999999999
 20
212.35478800000001
 30
0.0
 40
2.2785729999999988
 50
221.33231499999999
 51
222.13914800000001
  0
ARC
  5
48E
  8
_________1
 62
     7
 10
-32.256403000000013
 20
211.29474300000001
 30
0.0
 40
0.6761890000000002
 50
223.882859
 51
225.25559699999999
  0
ARC
  5
48F
  8
_________1
 62
     7
 10
-32.462452999999996
 20
211.089564
 30
0.0
 40
0.385417
 50
225.54001
 51
227.9314279999999
  0
ARC
  5
490
  8
_________1
 62
     7
 10
-32.474350000000001
 20
211.05759599999999
 30
0.0
 40
0.353938
 50
225.893261
 51
228.47837000000001
  0
LINE
  5
491
  8
_________1
 62
     7
 10
-32.70900000000001
 20
210.79300000000001
 30
0.0
 11
-32.696899999999999
 21
210.78200000000001
 31
0.0
  0
ARC
  5
492
  8
_________1
 62
     7
 10
-32.101559999999999
 20
211.495983
 30
0.0
 40
0.929565
 50
230.17312999999999
 51
231.16147000000001
  0
LINE
  5
493
  8
_________1
 62
     7
 10
-32.6845
 20
210.77199999999999
 30
0.0
 11
-32.671799999999998
 21
210.762
 31
0.0
  0
LINE
  5
494
  8
_________1
 62
     7
 10
-32.671799999999998
 20
210.762
 30
0.0
 11
-32.658700000000003
 21
210.75299999999999
 31
0.0
  0
ARC
  5
495
  8
_________1
 62
     7
 10
-32.157586000000002
 20
211.45740599999999
 30
0.0
 40
0.8646089999999999
 50
234.58047400000001
 51
235.63815099999999
  0
LINE
  5
496
  8
_________1
 62
     7
 10
-32.645600000000002
 20
210.744
 30
0.0
 11
-32.632199999999997
 21
210.73500000000001
 31
0.0
  0
ARC
  5
497
  8
_________1
 62
     7
 10
-32.867597000000004
 20
210.326866
 30
0.0
 40
0.471086
 50
58.058893999999988
 51
60.013579999999997
  0
ARC
  5
498
  8
_________1
 62
     7
 10
-32.273344000000002
 20
211.325121
 30
0.0
 40
0.6908250000000001
 50
240.037014
 51
241.38028800000001
  0
ARC
  5
499
  8
_________1
 62
     7
 10
-32.473548999999998
 20
210.94532100000001
 30
0.0
 40
0.261606
 50
240.026974
 51
243.53834000000001
  0
LINE
  5
49A
  8
_________1
 62
     7
 10
-32.5901
 20
210.71100000000001
 30
0.0
 11
-32.575699999999998
 21
210.70400000000001
 31
0.0
  0
ARC
  5
49B
  8
_________1
 62
     7
 10
-32.832414
 20
210.11704
 30
0.0
 40
0.6405610000000001
 50
64.948627999999985
 51
66.369178000000005
  0
ARC
  5
49C
  8
_________1
 62
     7
 10
-32.322496999999998
 20
211.21960999999999
 30
0.0
 40
0.574224
 50
245.43883299999999
 51
247.01649399999999
  0
ARC
  5
49D
  8
_________1
 62
     7
 10
-31.208718999999999
 20
214.13146599999999
 30
0.0
 40
3.691508999999999
 50
248.74918099999999
 51
249.001406
  0
ARC
  5
49E
  8
_________1
 62
     7
 10
-32.342325000000002
 20
211.17173500000001
 30
0.0
 40
0.5221200000000001
 50
248.750889
 51
257.567995
  0
LINE
  5
49F
  8
_________1
 62
     7
 10
-32.454700000000003
 20
210.66200000000001
 30
0.0
 11
-32.4392
 21
210.65799999999999
 31
0.0
  0
LINE
  5
4A0
  8
_________1
 62
     7
 10
-32.4392
 20
210.65799999999999
 30
0.0
 11
-32.423400000000001
 21
210.65600000000001
 31
0.0
  0
LINE
  5
4A1
  8
_________1
 62
     7
 10
-32.423400000000001
 20
210.65600000000001
 30
0.0
 11
-32.407499999999999
 21
210.65299999999999
 31
0.0
  0
LINE
  5
4A2
  8
_________1
 62
     7
 10
-32.407499999999999
 20
210.65299999999999
 30
0.0
 11
-32.391300000000001
 21
210.65100000000001
 31
0.0
  0
LINE
  5
4A3
  8
_________1
 62
     7
 10
-32.391300000000001
 20
210.65100000000001
 30
0.0
 11
-32.375500000000009
 21
210.65000000000001
 31
0.0
  0
LINE
  5
4A4
  8
_________1
 62
     7
 10
-32.375500000000009
 20
210.65000000000001
 30
0.0
 11
-32.359299999999998
 21
210.649
 31
0.0
  0
LINE
  5
4A5
  8
_________1
 62
     7
 10
-32.359299999999998
 20
210.649
 30
0.0
 11
-32.343400000000003
 21
210.648
 31
0.0
  0
LINE
  5
4A6
  8
_________1
 62
     7
 10
-32.343400000000003
 20
210.648
 30
0.0
 11
-32.327300000000001
 21
210.648
 31
0.0
  0
LINE
  5
4A7
  8
_________1
 62
     7
 10
-32.327300000000001
 20
210.648
 30
0.0
 11
-32.295200000000001
 21
210.649
 31
0.0
  0
LINE
  5
4A8
  8
_________1
 62
     7
 10
-32.295200000000001
 20
210.649
 30
0.0
 11
-32.263199999999998
 21
210.65100000000001
 31
0.0
  0
ARC
  5
4A9
  8
_________1
 62
     7
 10
-32.350268
 20
211.38189499999999
 30
0.0
 40
0.735888
 50
276.79666800000001
 51
279.28913799999998
  0
LINE
  5
4AA
  8
_________1
 62
     7
 10
-32.231499999999997
 20
210.65600000000001
 30
0.0
 11
-32.215600000000002
 21
210.65799999999999
 31
0.0
  0
LINE
  5
4AB
  8
_________1
 62
     7
 10
-32.215600000000002
 20
210.65799999999999
 30
0.0
 11
-32.200099999999999
 21
210.66200000000001
 31
0.0
  0
ARC
  5
4AC
  8
_________1
 62
     7
 10
-32.309674000000001
 20
211.16196199999999
 30
0.0
 40
0.5119600000000001
 50
282.35476599999998
 51
289.578078
  0
ARC
  5
4AD
  8
_________1
 62
     7
 10
-32.317843000000003
 20
211.19860700000001
 30
0.0
 40
0.5492430000000002
 50
289.10000700000001
 51
292.44451800000002
  0
ARC
  5
4AE
  8
_________1
 62
     7
 10
-32.375201000000011
 20
211.335937
 30
0.0
 40
0.6980690000000001
 50
292.49232000000001
 51
295.1195810000001
  0
ARC
  5
4AF
  8
_________1
 62
     7
 10
-32.508144000000001
 20
211.56750099999991
 30
0.0
 40
0.9644200000000001
 50
296.43077199999999
 51
298.344086
  0
ARC
  5
4B0
  8
_________1
 62
     7
 10
-32.344384999999988
 20
211.25087500000001
 30
0.0
 40
0.608039
 50
298.92800999999997
 51
301.94047399999999
  0
ARC
  5
4B1
  8
_________1
 62
     7
 10
-32.251806000000002
 20
211.107651
 30
0.0
 40
0.4375300000000001
 50
301.57496800000001
 51
305.80518000000012
  0
ARC
  5
4B2
  8
_________1
 62
     7
 10
-32.375962000000001
 20
211.28619800000001
 30
0.0
 40
0.654979
 50
305.475933
 51
308.2638740000001
  0
ARC
  5
4B3
  8
_________1
 62
     7
 10
-32.233248000000003
 20
211.10784100000001
 30
0.0
 40
0.4265620000000001
 50
308.04888
 51
312.35145899999998
  0
ARC
  5
4B4
  8
_________1
 62
     7
 10
-32.197305
 20
211.08532099999999
 30
0.0
 40
0.385873
 50
310.65972299999999
 51
315.42043200000001
  0
ARC
  5
4B5
  8
_________1
 62
     7
 10
-32.273803000000001
 20
211.16724500000001
 30
0.0
 40
0.497886
 50
314.88430699999998
 51
318.58711199999999
  0
ARC
  5
4B6
  8
_________1
 62
     7
 10
-32.236806999999999
 20
211.145141
 30
0.0
 40
0.455586
 50
317.59419000000003
 51
321.60601100000002
  0
ARC
  5
4B7
  8
_________1
 62
     7
 10
-32.200710999999998
 20
211.12354500000001
 30
0.0
 40
0.41392
 50
320.84580599999998
 51
325.29145499999998
  0
ARC
  5
4B8
  8
_________1
 62
     7
 10
-32.258328000000013
 20
211.175871
 30
0.0
 40
0.4911850000000001
 50
324.10059699999999
 51
327.83515499999999
  0
ARC
  5
4B9
  8
_________1
 62
     7
 10
-32.204667999999998
 20
211.150409
 30
0.0
 40
0.4322630000000001
 50
326.90561600000012
 51
331.166878
  0
ARC
  5
4BA
  8
_________1
 62
     7
 10
-32.221615999999997
 20
211.161249
 30
0.0
 40
0.45234
 50
330.999459
 51
335.04008599999997
  0
ARC
  5
4BB
  8
_________1
 62
     7
 10
-32.134990000000002
 20
211.133332
 30
0.0
 40
0.362198
 50
333.26088199999998
 51
338.31182899999999
  0
ARC
  5
4BC
  8
_________1
 62
     7
 10
-32.325105999999998
 20
211.22258099999999
 30
0.0
 40
0.571978
 50
337.04224499999998
 51
340.266186
  0
ARC
  5
4BD
  8
_________1
 62
     7
 10
-32.381896000000012
 20
211.23552000000001
 30
0.0
 40
0.629841
 50
340.90265599999998
 51
343.7971
  0
ARC
  5
4BE
  8
_________1
 62
     7
 10
-32.347042000000002
 20
211.22836599999999
 30
0.0
 40
0.594382
 50
343.52175099999999
 51
346.61541799999998
  0
ARC
  5
4BF
  8
_________1
 62
     7
 10
-37.288401999999998
 20
212.19296900000001
 30
0.0
 40
5.6285689999999997
 50
348.70729399999999
 51
349.03433000000001
  0
ARC
  5
4C0
  8
_________1
 62
     7
 10
-32.521472000000003
 20
211.246195
 30
0.0
 40
0.768917
 50
350.727396
 51
353.100076
  0
ARC
  5
4C1
  8
_________1
 62
     7
 10
-33.166704000000003
 20
211.291697
 30
0.0
 40
1.4153109999999991
 50
354.40952800000002
 51
355.70445100000001
  0
ARC
  5
4C2
  8
_________1
 62
     7
 10
-33.088697000000003
 20
211.230389
 30
0.0
 40
1.3340780000000001
 50
358.07983200000001
 51
359.45621399999999
  0
ARC
  5
4C3
  8
_________1
 62
     7
 10
-32.523423000000001
 20
211.21704800000001
 30
0.0
 40
0.768744
 50
0.05071
 51
2.4265590000000001
  0
ARC
  5
4C4
  8
_________1
 62
     7
 10
-32.507435999999998
 20
211.200604
 30
0.0
 40
0.753661
 50
3.727068
 51
6.1589520000000002
  0
ARC
  5
4C5
  8
_________1
 62
     7
 10
-32.907536
 20
211.13423800000001
 30
0.0
 40
1.1588020000000001
 50
7.2991059999999992
 51
8.8734220000000015
  0
ARC
  5
4C6
  8
_________1
 62
     7
 10
-36.637130999999997
 20
210.37043299999999
 30
0.0
 40
4.9648190000000003
 50
10.943809
 51
11.314567
  0
ARC
  5
4C7
  8
_________1
 62
     7
 10
-34.050767
 20
210.75259
 30
0.0
 40
2.3574820000000001
 50
14.541463
 51
15.321368
  0
ARC
  5
4C8
  8
_________1
 62
     7
 10
-32.177958000000011
 20
211.26545100000001
 30
0.0
 40
0.41572
 50
15.352290999999999
 51
19.7608
  0
ARC
  5
4C9
  8
_________1
 62
     7
 10
-32.176198999999997
 20
211.270115
 30
0.0
 40
0.412505
 50
19.233699000000001
 51
23.682261
  0
ARC
  5
4CA
  8
_________1
 62
     7
 10
-32.063448000000001
 20
211.334124
 30
0.0
 40
0.283852
 50
20.990463999999999
 51
27.436824999999999
  0
ARC
  5
4CB
  8
_________1
 62
     7
 10
-32.24902500000001
 20
211.26148699999999
 30
0.0
 40
0.4824830000000001
 50
24.937336999999999
 51
28.743677000000002
  0
ARC
  5
4CC
  8
_________1
 62
     7
 10
-32.20583400000001
 20
211.282858
 30
0.0
 40
0.434342
 50
29.011780000000002
 51
33.233153999999999
  0
ARC
  5
4CD
  8
_________1
 62
     7
 10
-32.142634000000001
 20
211.338898
 30
0.0
 40
0.35098
 50
31.235015000000001
 51
36.485651000000011
  0
ARC
  5
4CE
  8
_________1
 62
     7
 10
-32.366444999999999
 20
211.18472499999999
 30
0.0
 40
0.6226659999999999
 50
35.645761
 51
38.587952000000001
  0
ARC
  5
4CF
  8
_________1
 62
     7
 10
-32.192504999999997
 20
211.329745
 30
0.0
 40
0.396285
 50
37.88442100000001
 51
42.515898
  0
ARC
  5
4D0
  8
_________1
 62
     7
 10
-32.215682999999999
 20
211.32070400000001
 30
0.0
 40
0.419575
 50
41.286819000000001
 51
45.663925999999996
  0
ARC
  5
4D1
  8
_________1
 62
     7
 10
-32.283315000000002
 20
211.260865
 30
0.0
 40
0.509683
 50
44.927166
 51
48.544232999999998
  0
ARC
  5
4D2
  8
_________1
 62
     7
 10
-32.289023
 20
211.25823800000001
 30
0.0
 40
0.5154360000000001
 50
48.261986999999991
 51
51.810090000000002
  0
ARC
  5
4D3
  8
_________1
 62
     7
 10
-32.262169
 20
211.30421799999999
 30
0.0
 40
0.4627530000000001
 50
50.903497999999999
 51
54.862768999999993
  0
ARC
  5
4D4
  8
_________1
 62
     7
 10
-32.532229999999998
 20
210.90716900000001
 30
0.0
 40
0.9429110000000001
 50
55.328648000000001
 51
57.291203999999993
  0
ARC
  5
4D5
  8
_________1
 62
     7
 10
-32.340220000000002
 20
211.186025
 30
0.0
 40
0.604615
 50
58.322054999999999
 51
61.343339999999998
  0
ARC
  5
4D6
  8
_________1
 62
     7
 10
-32.344814
 20
211.18304699999999
 30
0.0
 40
0.6094380000000002
 50
61.098579000000008
 51
64.126563000000004
  0
ARC
  5
4D7
  8
_________1
 62
     7
 10
-32.292306000000004
 20
211.28724199999999
 30
0.0
 40
0.4927770000000001
 50
64.332993000000002
 51
68.055105000000012
  0
ARC
  5
4D8
  8
_________1
 62
     7
 10
-32.364575000000002
 20
211.12306000000001
 30
0.0
 40
0.672094
 50
67.571275999999997
 51
70.309562
  0
ARC
  5
4D9
  8
_________1
 62
     7
 10
-32.334074000000001
 20
211.18821399999999
 30
0.0
 40
0.6005120000000001
 50
70.955056999999996
 51
77.112099000000001
  0
ARC
  5
4DA
  8
_________1
 62
     7
 10
-32.438847000000003
 20
210.68120300000001
 30
0.0
 40
1.118172999999999
 50
77.673303000000004
 51
78.485202000000001
  0
ARC
  5
4DB
  8
_________1
 62
     7
 10
-32.325124000000002
 20
211.22869299999999
 30
0.0
 40
0.559004
 50
78.704883999999993
 51
80.356750000000034
  0
ARC
  5
4DC
  8
_________1
 62
     7
 10
-32.362118000000002
 20
210.96970099999999
 30
0.0
 40
0.8205629999999999
 50
80.839478999999997
 51
83.074714
  0
ARC
  5
4DD
  8
_________1
 62
     7
 10
-32.379905000000001
 20
210.614948
 30
0.0
 40
1.1751409999999991
 50
84.299447000000001
 51
85.867402999999996
  0
ARC
  5
4DE
  8
_________1
 62
     7
 10
-32.344551000000003
 20
210.23833099999999
 30
0.0
 40
1.549488
 50
88.175496999999979
 51
89.360528000000002
  0
LINE
  5
4DF
  8
_________1
 62
     7
 10
-26.9133
 20
259.745
 30
0.0
 11
-26.9133
 21
260.03199999999998
 31
0.0
  0
LINE
  5
4E0
  8
_________1
 62
     7
 10
-37.741599999999998
 20
259.745
 30
0.0
 11
-37.741599999999998
 21
260.03199999999998
 31
0.0
  0
LINE
  5
4E1
  8
_________1
 62
     7
 10
-26.165700000000001
 20
262.66500000000002
 30
0.0
 11
-26.252800000000001
 21
258.81299999999999
 31
0.0
  0
ARC
  5
4E2
  8
_________1
 62
     7
 10
-27.855744999999999
 20
258.28856999999999
 30
0.0
 40
1.388471999999999
 50
309.13549799999998
 51
319.46916499999998
  0
ARC
  5
4E3
  8
_________1
 62
     7
 10
-28.441519
 20
258.80798199999998
 30
0.0
 40
2.1712829999999999
 50
319.09673600000002
 51
337.16899000000001
  0
ARC
  5
4E4
  8
_________1
 62
     7
 10
-28.564115999999999
 20
258.90283699999998
 30
0.0
 40
2.3214220000000001
 50
336.18528599999991
 51
353.27695599999998
  0
ARC
  5
4E5
  8
_________1
 62
     7
 10
-27.682162999999999
 20
258.76784199999997
 30
0.0
 40
1.430061
 50
354.51173399999999
 51
1.8256429999999999
  0
ARC
  5
4E6
  8
_________1
 62
     7
 10
-37.006646999999987
 20
258.76318800000001
 30
0.0
 40
1.395945
 50
177.9385879999999
 51
188.22251600000001
  0
ARC
  5
4E7
  8
_________1
 62
     7
 10
-36.240991999999999
 20
258.8603470000001
 30
0.0
 40
2.1676660000000001
 50
187.86985100000001
 51
205.97509299999999
  0
ARC
  5
4E8
  8
_________1
 62
     7
 10
-36.087361999999999
 20
258.8908879999999
 30
0.0
 40
2.319494999999999
 50
204.99115699999999
 51
222.09513100000001
  0
ARC
  5
4E9
  8
_________1
 62
     7
 10
-36.771363999999998
 20
258.31445100000002
 30
0.0
 40
1.425853
 50
223.33264299999999
 51
230.66670400000001
  0
LINE
  5
4EA
  8
_________1
 62
     7
 10
-38.401699999999998
 20
258.81299999999999
 30
0.0
 11
-38.488900000000001
 21
262.66500000000002
 31
0.0
  0
ARC
  5
4EB
  8
_________1
 62
     7
 10
-32.355767999999998
 20
262.8276029999999
 30
0.0
 40
6.135235999999999
 50
173.857148
 51
181.51832400000001
  0
ARC
  5
4EC
  8
_________1
 62
     7
 10
-32.302033999999999
 20
262.82120300000003
 30
0.0
 40
6.1893459999999987
 50
168.15817100000001
 51
173.85146900000001
  0
ARC
  5
4ED
  8
_________1
 62
     7
 10
-32.908656000000001
 20
262.96515099999999
 30
0.0
 40
5.5661189999999996
 50
166.21820500000001
 51
168.32698300000001
  0
ARC
  5
4EE
  8
_________1
 62
     7
 10
-32.733000000000011
 20
262.93539299999998
 30
0.0
 40
5.7438219999999989
 50
163.277424
 51
166.34732700000001
  0
ARC
  5
4EF
  8
_________1
 62
     7
 10
-33.734709000000002
 20
263.26833399999998
 30
0.0
 40
4.6887759999999989
 50
162.39723699999999
 51
163.65172799999999
  0
ARC
  5
4F0
  8
_________1
 62
     7
 10
-31.204255
 20
262.45887399999998
 30
0.0
 40
7.3455409999999999
 50
161.14684800000001
 51
162.34802999999999
  0
ARC
  5
4F1
  8
_________1
 62
     7
 10
-33.838132000000002
 20
263.35390999999998
 30
0.0
 40
4.5637480000000004
 50
160.45174299999999
 51
161.09533200000001
  0
ARC
  5
4F2
  8
_________1
 62
     7
 10
-33.923034999999999
 20
263.40263299999998
 30
0.0
 40
4.4674699999999987
 50
159.357482
 51
160.67626999999999
  0
ARC
  5
4F3
  8
_________1
 62
     7
 10
-40.399372999999997
 20
265.86068499999999
 30
0.0
 40
2.4596869999999988
 50
338.95918599999999
 51
340.15394700000002
  0
ARC
  5
4F4
  8
_________1
 62
     7
 10
-31.948637000000002
 20
262.65975200000003
 30
0.0
 40
6.5773720000000004
 50
157.573984
 51
158.91818000000001
  0
ARC
  5
4F5
  8
_________1
 62
     7
 10
-31.867542
 20
262.62591400000002
 30
0.0
 40
6.6652429999999994
 50
156.687127
 51
157.57103599999999
  0
ARC
  5
4F6
  8
_________1
 62
     7
 10
-32.066761
 20
262.70434599999999
 30
0.0
 40
6.4512529999999986
 50
154.80382900000001
 51
156.62662399999999
  0
ARC
  5
4F7
  8
_________1
 62
     7
 10
-23.096359
 20
258.32487600000002
 30
0.0
 40
16.433223000000002
 50
153.944243
 51
154.30203
  0
ARC
  5
4F8
  8
_________1
 62
     7
 10
-32.980333999999999
 20
263.15366
 30
0.0
 40
5.4327659999999991
 50
150.664941
 51
153.907656
  0
ARC
  5
4F9
  8
_________1
 62
     7
 10
-32.623401999999999
 20
262.99631399999998
 30
0.0
 40
5.8211360000000001
 50
149.01996500000001
 51
151.035988
  0
ARC
  5
4FA
  8
_________1
 62
     7
 10
-32.336019999999998
 20
262.82439099999999
 30
0.0
 40
6.1560180000000004
 50
143.30954299999999
 51
149.02488199999999
  0
ARC
  5
4FB
  8
_________1
 62
     7
 10
-32.279063999999998
 20
262.79100799999998
 30
0.0
 40
6.2216399999999989
 50
139.60509200000001
 51
143.37642
  0
ARC
  5
4FC
  8
_________1
 62
     7
 10
-32.090901000000002
 20
262.61369000000002
 30
0.0
 40
6.479868999999999
 50
134.05650499999999
 51
139.489215
  0
ARC
  5
4FD
  8
_________1
 62
     7
 10
-32.531734999999998
 20
263.0695740000001
 30
0.0
 40
5.8457039999999996
 50
132.05275599999999
 51
134.05846500000001
  0
ARC
  5
4FE
  8
_________1
 62
     7
 10
-32.590840999999998
 20
263.15117299999997
 30
0.0
 40
5.7455339999999993
 50
128.06681699999999
 51
132.16014200000001
  0
ARC
  5
4FF
  8
_________1
 62
     7
 10
-32.365887999999998
 20
262.88714800000002
 30
0.0
 40
6.0921180000000001
 50
126.268233
 51
128.20140699999999
  0
ARC
  5
500
  8
_________1
 62
     7
 10
-32.284692
 20
262.76190000000003
 30
0.0
 40
6.2411379999999994
 50
123.35493099999999
 51
126.189032
  0
ARC
  5
501
  8
_________1
 62
     7
 10
-33.249728000000012
 20
264.26304900000002
 30
0.0
 40
4.4566999999999988
 50
122.2835
 51
123.602948
  0
ARC
  5
502
  8
_________1
 62
     7
 10
-32.038778000000001
 20
262.33146699999998
 30
0.0
 40
6.7364729999999993
 50
120.46977800000001
 51
122.216145
  0
ARC
  5
503
  8
_________1
 62
     7
 10
-31.257937999999999
 20
260.97329200000001
 30
0.0
 40
8.3030460000000001
 50
119.65310700000001
 51
120.3614
  0
ARC
  5
504
  8
_________1
 62
     7
 10
-32.536161
 20
263.20081099999999
 30
0.0
 40
5.7348589999999993
 50
116.49254999999999
 51
119.565563
  0
ARC
  5
505
  8
_________1
 62
     7
 10
-32.141710000000003
 20
262.41312799999997
 30
0.0
 40
6.6157869999999992
 50
114.729962
 51
116.506923
  0
ARC
  5
506
  8
_________1
 62
     7
 10
-32.313060999999998
 20
262.77451500000001
 30
0.0
 40
6.2158610000000003
 50
109.027317
 51
114.688911
  0
ARC
  5
507
  8
_________1
 62
     7
 10
-32.507815999999998
 20
263.412665
 30
0.0
 40
5.5491349999999988
 50
105.04800899999999
 51
109.27445
  0
ARC
  5
508
  8
_________1
 62
     7
 10
-32.297637000000002
 20
262.71927099999999
 30
0.0
 40
6.2733619999999997
 50
97.773551999999981
 51
105.257587
  0
ARC
  5
509
  8
_________1
 62
     7
 10
-32.277540999999999
 20
262.48863499999999
 30
0.0
 40
6.504607
 50
95.932086999999996
 51
97.674158000000006
  0
ARC
  5
50A
  8
_________1
 62
     7
 10
-32.282433000000012
 20
263.20061299999998
 30
0.0
 40
5.7872209999999988
 50
82.327021000000002
 51
84.270906999999994
  0
ARC
  5
50B
  8
_________1
 62
     7
 10
-32.348792000000003
 20
262.71460999999999
 30
0.0
 40
6.2777329999999996
 50
74.829751000000002
 51
82.319041000000013
  0
ARC
  5
50C
  8
_________1
 62
     7
 10
-32.270999000000003
 20
263.00910800000003
 30
0.0
 40
5.973139999999999
 50
70.877606999999998
 51
74.810718000000008
  0
ARC
  5
50D
  8
_________1
 62
     7
 10
-32.276929000000003
 20
262.94756100000001
 30
0.0
 40
6.033250999999999
 50
63.222227000000011
 51
71.015872999999999
  0
ARC
  5
50E
  8
_________1
 62
     7
 10
-32.357466000000002
 20
262.774654
 30
0.0
 40
6.2239029999999991
 50
59.501604000000007
 51
63.277463000000012
  0
ARC
  5
50F
  8
_________1
 62
     7
 10
-32.302748000000001
 20
262.86388099999999
 30
0.0
 40
6.1192510000000002
 50
51.838456999999991
 51
59.519042000000013
  0
ARC
  5
510
  8
_________1
 62
     7
 10
-32.391786000000003
 20
262.751079
 30
0.0
 40
6.2629589999999986
 50
48.084668000000001
 51
51.835630000000002
  0
ARC
  5
511
  8
_________1
 62
     7
 10
-32.369433000000001
 20
262.7854220000001
 30
0.0
 40
6.2224740000000001
 50
40.474679999999999
 51
48.026575999999991
  0
ARC
  5
512
  8
_________1
 62
     7
 10
-32.289265
 20
262.85895599999998
 30
0.0
 40
6.1137610000000002
 50
36.595703
 51
40.438140999999987
  0
ARC
  5
513
  8
_________1
 62
     7
 10
-32.343834000000001
 20
262.8139930000001
 30
0.0
 40
6.1843769999999987
 50
29.028326
 51
36.628749999999997
  0
ARC
  5
514
  8
_________1
 62
     7
 10
-32.339305000000003
 20
262.820694
 30
0.0
 40
6.177166999999999
 50
25.190757000000001
 51
28.994360999999991
  0
ARC
  5
515
  8
_________1
 62
     7
 10
-32.40188100000001
 20
262.79832800000003
 30
0.0
 40
6.2433149999999991
 50
17.603328000000001
 51
25.132062999999999
  0
ARC
  5
516
  8
_________1
 62
     7
 10
-32.315767000000001
 20
262.82622500000002
 30
0.0
 40
6.1527969999999996
 50
13.77707
 51
17.598227999999999
  0
ARC
  5
517
  8
_________1
 62
     7
 10
-32.398502999999998
 20
262.81563799999998
 30
0.0
 40
6.2356800000000003
 50
6.1524879999999991
 51
13.690514
  0
ARC
  5
518
  8
_________1
 62
     7
 10
-32.285346000000011
 20
262.82800600000002
 30
0.0
 40
6.1218500000000002
 50
358.47460099999989
 51
6.150898999999999
  0
LINE
  5
519
  8
_________1
  6
AIGENLINE002
 62
     7
 10
-34.0794
 20
251.40299999999999
 30
0.0
 11
-42.417700000000004
 21
243.49100000000001
 31
0.0
  0
LINE
  5
51A
  8
_________1
  6
AIGENLINE002
 62
     7
 10
-42.417700000000004
 20
243.49100000000001
 30
0.0
 11
-42.6447
 21
243.304
 31
0.0
  0
ARC
  5
51B
  8
_________1
  6
AIGENLINE002
 62
     7
 10
-43.798954999999992
 20
244.934662
 30
0.0
 40
1.9977020000000001
 50
293.88001000000003
 51
305.29552999999999
  0
ARC
  5
51C
  8
_________1
  6
AIGENLINE002
 62
     7
 10
-43.796084999999991
 20
244.96209200000001
 30
0.0
 40
2.021668
 50
245.892109
 51
293.49092300000001
  0
ARC
  5
51D
  8
_________1
  6
AIGENLINE002
 62
     7
 10
-43.793269999999993
 20
244.93270100000001
 30
0.0
 40
1.996043999999999
 50
225.248155
 51
245.473769
  0
LINE
  5
51E
  8
_________1
  6
AIGENLINE002
 62
     7
 10
-45.198599999999999
 20
243.51499999999999
 30
0.0
 11
-45.366
 21
243.68199999999999
 31
0.0
  0
LINE
  5
51F
  8
_________1
  6
AIGENLINE002
 62
     7
 10
-45.366
 20
243.68199999999999
 30
0.0
 11
-49.369599999999998
 21
247.685
 31
0.0
  0
LINE
  5
520
  8
_________1
  6
AIGENLINE002
 62
     7
 10
-49.369599999999998
 20
247.685
 30
0.0
 11
-49.369199999999999
 21
247.68600000000001
 31
0.0
  0
ARC
  5
521
  8
_________1
  6
AIGENLINE002
 62
     7
 10
-47.944845000000001
 20
249.095157
 30
0.0
 40
2.0038680000000002
 50
204.555995
 51
224.69896900000001
  0
ARC
  5
522
  8
_________1
  6
AIGENLINE002
 62
     7
 10
-47.925564000000001
 20
249.08849499999999
 30
0.0
 40
2.0186860000000002
 50
156.472354
 51
204.156599
  0
ARC
  5
523
  8
_________1
  6
AIGENLINE002
 62
     7
 10
-47.966217
 20
249.09360000000001
 30
0.0
 40
1.9794080000000001
 50
144.618605
 51
156.13809900000001
  0
LINE
  5
524
  8
_________1
  6
AIGENLINE002
 62
     7
 10
-49.580100000000002
 20
250.24000000000001
 30
0.0
 11
-49.393300000000004
 21
250.46700000000001
 31
0.0
  0
LINE
  5
525
  8
_________1
  6
AIGENLINE002
 62
     7
 10
-49.393300000000004
 20
250.46700000000001
 30
0.0
 11
-36.730499999999999
 21
263.81099999999998
 31
0.0
  0
LINE
  5
526
  8
_________1
  6
AIGENLINE001
 62
     7
 10
-32.327599999999997
 20
260.55700000000002
 30
0.0
 11
-48.382899999999999
 21
244.501
 31
0.0
  0
LINE
  5
527
  8
_________1
 62
     7
 10
-48.382899999999999
 20
244.501
 30
0.0
 11
-56.869599999999998
 21
236.01400000000001
 31
0.0
  0
LINE
  5
528
  8
_________1
  6
AIGENLINE002
 62
     7
 10
-30.575399999999998
 20
251.40299999999999
 30
0.0
 11
-22.237500000000001
 21
243.49100000000001
 31
0.0
  0
LINE
  5
529
  8
_________1
  6
AIGENLINE002
 62
     7
 10
-22.237500000000001
 20
243.49100000000001
 30
0.0
 11
-22.010200000000001
 21
243.304
 31
0.0
  0
ARC
  5
52A
  8
_________1
  6
AIGENLINE002
 62
     7
 10
-20.871848
 20
244.905191
 30
0.0
 40
1.964440999999999
 50
234.58736300000001
 51
246.18804399999999
  0
ARC
  5
52B
  8
_________1
  6
AIGENLINE002
 62
     7
 10
-20.858951999999999
 20
244.96327500000001
 30
0.0
 40
2.0228209999999991
 50
246.5181
 51
294.09877799999998
  0
ARC
  5
52C
  8
_________1
  6
AIGENLINE002
 62
     7
 10
-20.864242999999998
 20
244.93654100000001
 30
0.0
 40
2.0006390000000001
 50
294.54972000000009
 51
314.72839599999998
  0
LINE
  5
52D
  8
_________1
  6
AIGENLINE002
 62
     7
 10
-19.456299999999999
 20
243.51499999999999
 30
0.0
 11
-19.288900000000002
 21
243.68199999999999
 31
0.0
  0
LINE
  5
52E
  8
_________1
  6
AIGENLINE002
 62
     7
 10
-19.288900000000002
 20
243.68199999999999
 30
0.0
 11
-15.285299999999999
 21
247.685
 31
0.0
  0
LINE
  5
52F
  8
_________1
  6
AIGENLINE002
 62
     7
 10
-15.285299999999999
 20
247.685
 30
0.0
 11
-15.285600000000001
 21
247.68600000000001
 31
0.0
  0
ARC
  5
530
  8
_________1
  6
AIGENLINE002
 62
     7
 10
-16.710014999999999
 20
249.095157
 30
0.0
 40
2.0038680000000002
 50
315.30104999999998
 51
335.44402500000001
  0
ARC
  5
531
  8
_________1
  6
AIGENLINE002
 62
     7
 10
-16.729296999999999
 20
249.08849499999999
 30
0.0
 40
2.018686999999999
 50
335.84343999999999
 51
23.52760700000001
  0
ARC
  5
532
  8
_________1
  6
AIGENLINE002
 62
     7
 10
-16.744897000000002
 20
249.06161599999999
 30
0.0
 40
2.043803
 50
24.043939999999999
 51
35.199316000000003
  0
LINE
  5
533
  8
_________1
  6
AIGENLINE002
 62
     7
 10
-15.0748
 20
250.24000000000001
 30
0.0
 11
-15.2615
 21
250.46700000000001
 31
0.0
  0
LINE
  5
534
  8
_________1
  6
AIGENLINE002
 62
     7
 10
-15.2615
 20
250.46700000000001
 30
0.0
 11
-27.924700000000001
 21
263.81099999999998
 31
0.0
  0
LINE
  5
535
  8
_________1
  6
AIGENLINE001
 62
     7
 10
-32.327599999999997
 20
260.55700000000002
 30
0.0
 11
-16.271999999999998
 21
244.501
 31
0.0
  0
LINE
  5
536
  8
_________1
 62
     7
 10
-37.741599999999998
 20
259.745
 30
0.0
 11
-37.259999999999998
 21
241.35499999999999
 31
0.0
  0
LINE
  5
537
  8
_________1
 62
     7
 10
-26.9133
 20
259.745
 30
0.0
 11
-27.3949
 21
241.35499999999999
 31
0.0
  0
LINE
  5
538
  8
_________1
 62
     7
 10
-29.614599999999999
 20
239.405
 30
0.0
 11
-29.3782
 21
239.405
 31
0.0
  0
LINE
  5
539
  8
_________1
 62
     7
 10
-29.614599999999999
 20
239.405
 30
0.0
 11
-32.327300000000001
 21
239.405
 31
0.0
  0
LINE
  5
53A
  8
_________1
 62
     7
 10
-32.327300000000001
 20
239.405
 30
0.0
 11
-35.040300000000002
 21
239.405
 31
0.0
  0
LINE
  5
53B
  8
_________1
 62
     7
 10
-35.276299999999999
 20
239.405
 30
0.0
 11
-35.040300000000002
 21
239.405
 31
0.0
  0
ARC
  5
53C
  8
_________1
 62
     7
 10
-35.261823
 20
241.39817099999999
 30
0.0
 40
1.998057
 50
189.688435
 51
201.09645
  0
ARC
  5
53D
  8
_________1
 62
     7
 10
-35.247589000000012
 20
241.41734500000001
 30
0.0
 40
2.018278
 50
201.45885100000001
 51
249.148473
  0
ARC
  5
53E
  8
_________1
 62
     7
 10
-35.269195000000003
 20
241.39329799999999
 30
0.0
 40
1.9881500000000001
 50
249.48366600000011
 51
269.79586899999998
  0
ARC
  5
53F
  8
_________1
 62
     7
 10
-29.427078999999999
 20
241.40763699999999
 30
0.0
 40
2.0335480000000001
 50
339.003444
 51
350.21171099999998
  0
ARC
  5
540
  8
_________1
 62
     7
 10
-29.407881
 20
241.41852499999999
 30
0.0
 40
2.0195989999999999
 50
290.85579799999999
 51
338.519904
  0
ARC
  5
541
  8
_________1
 62
     7
 10
-29.386365999999999
 20
241.397109
 30
0.0
 40
1.991965
 50
270.23382200000009
 51
290.49681299999997
  0
ARC
  5
542
  8
_________1
 62
     7
 10
-36.179274999999997
 20
241.36020300000001
 30
0.0
 40
1.080716
 50
180.29813100000001
 51
185.01227299999999
  0
ARC
  5
543
  8
_________1
 62
     7
 10
-35.103492000000003
 20
241.42079899999999
 30
0.0
 40
2.1579419999999989
 50
184.119427
 51
189.57319799999999
  0
ARC
  5
544
  8
_________1
 62
     7
 10
-28.552892
 20
241.27551600000001
 30
0.0
 40
1.149772999999999
 50
349.29372899999998
 51
353.85282899999999
  0
ARC
  5
545
  8
_________1
 62
     7
 10
-29.435397999999999
 20
241.40277599999999
 30
0.0
 40
2.0410840000000001
 50
352.95374700000002
 51
358.64696400000003
  0
LINE
  5
546
  8
_________1
 62
     7
 10
-37.741599999999998
 20
260.37200000000001
 30
0.0
 11
-37.741599999999998
 21
260.03199999999998
 31
0.0
  0
LINE
  5
547
  8
_________1
 62
     7
 10
-26.9133
 20
260.37200000000001
 30
0.0
 11
-26.9133
 21
260.03199999999998
 31
0.0
  0
ARC
  5
548
  8
_________1
 62
     7
 10
-30.945252
 20
260.51244700000001
 30
0.0
 40
4.033987999999999
 50
359.33818100000002
 51
0.6618190000000001
  0
ARC
  5
549
  8
_________1
 62
     7
 10
-33.208260000000003
 20
260.533838
 30
0.0
 40
6.2970940000000004
 50
358.52392600000002
 51
359.38139799999999
  0
LINE
  5
54A
  8
_________1
 62
     7
 10
-26.9133
 20
260.661
 30
0.0
 11
-26.912199999999999
 21
260.61000000000001
 31
0.0
  0
ARC
  5
54B
  8
_________1
 62
     7
 10
-30.380990000000001
 20
260.53765600000003
 30
0.0
 40
3.4695219999999991
 50
0.3531709999999999
 51
1.1952689999999999
  0
ARC
  5
54C
  8
_________1
 62
     7
 10
-31.295635999999998
 20
260.54356899999999
 30
0.0
 40
4.3839439999999996
 50
1.53067
 51
3.558937999999999
  0
ARC
  5
54D
  8
_________1
 62
     7
 10
-32.005409
 20
260.50957399999999
 30
0.0
 40
5.0944690000000001
 50
3.445011
 51
15.956071
  0
ARC
  5
54E
  8
_________1
 62
     7
 10
-32.020758000000001
 20
260.49832300000003
 30
0.0
 40
5.1123229999999991
 50
16.030010000000001
 51
28.546264000000001
  0
ARC
  5
54F
  8
_________1
 62
     7
 10
-32.139104000000003
 20
260.42924499999998
 30
0.0
 40
5.249293999999999
 50
28.591305999999999
 51
39.501890000000003
  0
ARC
  5
550
  8
_________1
 62
     7
 10
-32.171770000000002
 20
260.39964099999997
 30
0.0
 40
5.2933309999999993
 50
39.524231
 51
50.420212999999997
  0
ARC
  5
551
  8
_________1
 62
     7
 10
-32.222327999999997
 20
260.35479500000002
 30
0.0
 40
5.3601190000000001
 50
50.309119000000003
 51
60.72397500000001
  0
ARC
  5
552
  8
_________1
 62
     7
 10
-32.281553000000002
 20
260.26531599999998
 30
0.0
 40
5.4671370000000001
 50
60.64114
 51
70.905195000000006
  0
ARC
  5
553
  8
_________1
 62
     7
 10
-32.33814000000001
 20
260.091295
 30
0.0
 40
5.6500949999999994
 50
70.940224999999998
 51
80.401655000000005
  0
ARC
  5
554
  8
_________1
 62
     7
 10
-32.327193000000001
 20
260.12081599999999
 30
0.0
 40
5.6191659999999999
 50
80.461523000000014
 51
90.000648999999996
  0
ARC
  5
555
  8
_________1
 62
     7
 10
-32.330844999999997
 20
260.155531
 30
0.0
 40
5.5844519999999989
 50
89.963181999999989
 51
100.23621199999999
  0
ARC
  5
556
  8
_________1
 62
     7
 10
-32.314579000000002
 20
260.09119399999997
 30
0.0
 40
5.6506569999999989
 50
100.28259199999999
 51
110.372214
  0
ARC
  5
557
  8
_________1
 62
     7
 10
-32.350541999999997
 20
260.21841599999999
 30
0.0
 40
5.518883999999999
 50
110.48200199999999
 51
120.840703
  0
ARC
  5
558
  8
_________1
 62
     7
 10
-32.372379000000002
 20
260.26588600000002
 30
0.0
 40
5.4669339999999993
 50
120.89924499999999
 51
131.30332799999999
  0
ARC
  5
559
  8
_________1
 62
     7
 10
-32.46568400000001
 20
260.38552900000002
 30
0.0
 40
5.3154769999999987
 50
131.39902000000001
 51
142.95703499999999
  0
ARC
  5
55A
  8
_________1
 62
     7
 10
-32.585335000000001
 20
260.47409900000002
 30
0.0
 40
5.166618999999999
 50
142.94167999999999
 51
154.748549
  0
ARC
  5
55B
  8
_________1
 62
     7
 10
-32.628065999999997
 20
260.49668800000001
 30
0.0
 40
5.1183350000000001
 50
154.7732
 51
165.612877
  0
ARC
  5
55C
  8
_________1
 62
     7
 10
-32.724404999999997
 20
260.52103799999998
 30
0.0
 40
5.0189669999999991
 50
165.60887199999999
 51
176.634196
  0
ARC
  5
55D
  8
_________1
 62
     7
 10
-33.077666999999998
 20
260.53883300000001
 30
0.0
 40
4.6652699999999987
 50
176.597646
 51
178.630427
  0
ARC
  5
55E
  8
_________1
 62
     7
 10
-33.413229000000001
 20
260.52300600000001
 30
0.0
 40
4.3302480000000001
 50
178.31494699999999
 51
179.52316500000001
  0
ARC
  5
55F
  8
_________1
 62
     7
 10
-25.116941000000001
 20
260.64955300000003
 30
0.0
 40
12.627722
 50
180.83356000000001
 51
181.261155
  0
LINE
  5
560
  8
_________1
 62
     7
 10
-37.743299999999998
 20
260.46600000000001
 30
0.0
 11
-37.743299999999998
 21
260.55900000000003
 31
0.0
  0
LINE
  5
561
  8
_________1
 62
     7
 10
-31.704699999999999
 20
267.31099999999998
 30
0.0
 11
-31.704699999999999
 21
268.28300000000002
 31
0.0
  0
LINE
  5
562
  8
_________1
 62
     7
 10
-32.94980000000001
 20
267.31099999999998
 30
0.0
 11
-32.94980000000001
 21
268.28300000000002
 31
0.0
  0
LINE
  5
563
  8
_________1
 62
     7
 10
-31.704699999999999
 20
268.28300000000002
 30
0.0
 11
-31.704699999999999
 21
269.52499999999998
 31
0.0
  0
LINE
  5
564
  8
_________1
 62
     7
 10
-32.94980000000001
 20
269.52499999999998
 30
0.0
 11
-32.94980000000001
 21
268.28300000000002
 31
0.0
  0
LINE
  5
565
  8
_________1
 62
     7
 10
-31.704699999999999
 20
269.52499999999998
 30
0.0
 11
-31.704699999999999
 21
272.01499999999999
 31
0.0
  0
LINE
  5
566
  8
_________1
 62
     7
 10
-32.94980000000001
 20
269.52499999999998
 30
0.0
 11
-32.94980000000001
 21
272.01499999999999
 31
0.0
  0
ARC
  5
567
  8
_________1
 62
     7
 10
-32.092792000000003
 20
272.00030900000002
 30
0.0
 40
0.388335
 50
2.130533999999999
 51
87.843034000000003
  0
ARC
  5
568
  8
_________1
 62
     7
 10
-32.562674000000001
 20
272.001259
 30
0.0
 40
0.387351
 50
92.021803000000006
 51
178.00458900000001
  0
LINE
  5
569
  8
_________1
 62
     7
 10
-32.57630000000001
 20
272.38799999999998
 30
0.0
 11
-32.078200000000002
 21
272.38799999999998
 31
0.0
  0
ARC
  5
56A
  8
_________1
 62
     7
 10
-32.29898
 20
262.74802699999998
 30
0.0
 40
5.497488999999999
 50
96.798793000000032
 51
124.78255799999999
  0
ARC
  5
56B
  8
_________1
 62
     7
 10
-32.286085
 20
262.79483499999998
 30
0.0
 40
5.4665280000000003
 50
125.17343700000001
 51
160.11613299999999
  0
ARC
  5
56C
  8
_________1
 62
     7
 10
-32.315645000000011
 20
262.82538699999998
 30
0.0
 40
5.4283710000000003
 50
160.31326100000001
 51
179.97971299999989
  0
LINE
  5
56D
  8
_________1
 62
     7
 10
-31.704699999999999
 20
268.20800000000003
 30
0.0
 11
-31.460799999999999
 21
268.17399999999998
 31
0.0
  0
LINE
  5
56E
  8
_________1
 62
     7
 10
-31.460799999999999
 20
268.17399999999998
 30
0.0
 11
-31.218299999999999
 21
268.12900000000002
 31
0.0
  0
LINE
  5
56F
  8
_________1
 62
     7
 10
-31.218299999999999
 20
268.12900000000002
 30
0.0
 11
-30.9785
 21
268.07299999999998
 31
0.0
  0
LINE
  5
570
  8
_________1
 62
     7
 10
-30.9785
 20
268.07299999999998
 30
0.0
 11
-30.741499999999998
 21
268.00599999999997
 31
0.0
  0
LINE
  5
571
  8
_________1
 62
     7
 10
-30.741499999999998
 20
268.00599999999997
 30
0.0
 11
-30.5075
 21
267.92899999999997
 31
0.0
  0
LINE
  5
572
  8
_________1
 62
     7
 10
-30.5075
 20
267.92899999999997
 30
0.0
 11
-30.2774
 21
267.84100000000001
 31
0.0
  0
LINE
  5
573
  8
_________1
 62
     7
 10
-30.2774
 20
267.84100000000001
 30
0.0
 11
-30.0518
 21
267.74200000000002
 31
0.0
  0
LINE
  5
574
  8
_________1
 62
     7
 10
-30.0518
 20
267.74200000000002
 30
0.0
 11
-29.8306
 21
267.63400000000001
 31
0.0
  0
LINE
  5
575
  8
_________1
 62
     7
 10
-29.8306
 20
267.63400000000001
 30
0.0
 11
-29.614599999999999
 21
267.51499999999999
 31
0.0
  0
LINE
  5
576
  8
_________1
 62
     7
 10
-29.614599999999999
 20
267.51499999999999
 30
0.0
 11
-29.4041
 21
267.387
 31
0.0
  0
LINE
  5
577
  8
_________1
 62
     7
 10
-29.4041
 20
267.387
 30
0.0
 11
-29.200099999999999
 21
267.24900000000002
 31
0.0
  0
LINE
  5
578
  8
_________1
 62
     7
 10
-29.200099999999999
 20
267.24900000000002
 30
0.0
 11
-29.001999999999999
 21
267.10300000000001
 31
0.0
  0
LINE
  5
579
  8
_________1
 62
     7
 10
-29.001999999999999
 20
267.10300000000001
 30
0.0
 11
-28.811199999999999
 21
266.947
 31
0.0
  0
LINE
  5
57A
  8
_________1
 62
     7
 10
-28.811199999999999
 20
266.947
 30
0.0
 11
-28.627500000000001
 21
266.78300000000002
 31
0.0
  0
LINE
  5
57B
  8
_________1
 62
     7
 10
-28.627500000000001
 20
266.78300000000002
 30
0.0
 11
-28.451499999999999
 21
266.61000000000001
 31
0.0
  0
LINE
  5
57C
  8
_________1
 62
     7
 10
-28.451499999999999
 20
266.61000000000001
 30
0.0
 11
-28.2834
 21
266.43000000000001
 31
0.0
  0
LINE
  5
57D
  8
_________1
 62
     7
 10
-28.2834
 20
266.43000000000001
 30
0.0
 11
-28.123899999999999
 21
266.24299999999999
 31
0.0
  0
LINE
  5
57E
  8
_________1
 62
     7
 10
-28.123899999999999
 20
266.24299999999999
 30
0.0
 11
-27.9726
 21
266.048
 31
0.0
  0
LINE
  5
57F
  8
_________1
 62
     7
 10
-27.9726
 20
266.048
 30
0.0
 11
-27.8307
 21
265.84699999999998
 31
0.0
  0
LINE
  5
580
  8
_________1
 62
     7
 10
-27.8307
 20
265.84699999999998
 30
0.0
 11
-27.6981
 21
265.63900000000001
 31
0.0
  0
LINE
  5
581
  8
_________1
 62
     7
 10
-27.6981
 20
265.63900000000001
 30
0.0
 11
-27.5747
 21
265.42599999999999
 31
0.0
  0
LINE
  5
582
  8
_________1
 62
     7
 10
-27.5747
 20
265.42599999999999
 30
0.0
 11
-27.4617
 21
265.20699999999999
 31
0.0
  0
LINE
  5
583
  8
_________1
 62
     7
 10
-27.4617
 20
265.20699999999999
 30
0.0
 11
-27.3584
 21
264.983
 31
0.0
  0
LINE
  5
584
  8
_________1
 62
     7
 10
-27.3584
 20
264.983
 30
0.0
 11
-27.2653
 21
264.755
 31
0.0
  0
LINE
  5
585
  8
_________1
 62
     7
 10
-27.2653
 20
264.755
 30
0.0
 11
-27.18300000000001
 21
264.52300000000002
 31
0.0
  0
LINE
  5
586
  8
_________1
 62
     7
 10
-27.18300000000001
 20
264.52300000000002
 30
0.0
 11
-27.111000000000001
 21
264.28699999999998
 31
0.0
  0
LINE
  5
587
  8
_________1
 62
     7
 10
-27.111000000000001
 20
264.28699999999998
 30
0.0
 11
-27.050000000000001
 21
264.04899999999998
 31
0.0
  0
LINE
  5
588
  8
_________1
 62
     7
 10
-27.050000000000001
 20
264.04899999999998
 30
0.0
 11
-27.0001
 21
263.80700000000002
 31
0.0
  0
LINE
  5
589
  8
_________1
 62
     7
 10
-27.0001
 20
263.80700000000002
 30
0.0
 11
-26.961099999999998
 21
263.56400000000002
 31
0.0
  0
LINE
  5
58A
  8
_________1
 62
     7
 10
-26.961099999999998
 20
263.56400000000002
 30
0.0
 11
-26.933199999999999
 21
263.31900000000002
 31
0.0
  0
LINE
  5
58B
  8
_________1
 62
     7
 10
-26.933199999999999
 20
263.31900000000002
 30
0.0
 11
-26.916399999999999
 21
263.07400000000001
 31
0.0
  0
LINE
  5
58C
  8
_________1
 62
     7
 10
-26.916399999999999
 20
263.07400000000001
 30
0.0
 11
-26.910799999999998
 21
262.827
 31
0.0
  0
ARC
  5
58D
  8
_________1
 62
     7
 10
-34.617462000000003
 20
233.01909800000001
 30
0.0
 40
2.5185390000000001
 50
251.42002500000001
 51
269.85643199999998
  0
ARC
  5
58E
  8
_________1
 62
     7
 10
-34.632460000000002
 20
232.97129899999999
 30
0.0
 40
2.4684529999999989
 50
232.912522
 51
251.3965
  0
ARC
  5
58F
  8
_________1
 62
     7
 10
-34.632455999999998
 20
232.982767
 30
0.0
 40
2.4776139999999991
 50
214.64105499999999
 51
233.072373
  0
ARC
  5
590
  8
_________1
 62
     7
 10
-34.624040999999998
 20
232.991353
 30
0.0
 40
2.4894180000000001
 50
196.335757
 51
214.693547
  0
ARC
  5
591
  8
_________1
 62
     7
 10
-34.614460999999999
 20
232.99517800000001
 30
0.0
 40
2.499687999999999
 50
182.46458200000001
 51
196.35813200000001
  0
LINE
  5
592
  8
_________1
 62
     7
 10
-34.505299999999998
 20
230.501
 30
0.0
 11
-34.623800000000003
 21
230.501
 31
0.0
  0
LINE
  5
593
  8
_________1
 62
     7
 10
-30.1496
 20
230.501
 30
0.0
 11
-34.505299999999998
 21
230.501
 31
0.0
  0
LINE
  5
594
  8
_________1
 62
     7
 10
-30.031099999999999
 20
230.501
 30
0.0
 11
-30.1496
 21
230.501
 31
0.0
  0
ARC
  5
595
  8
_________1
 62
     7
 10
-30.057839999999999
 20
232.99914699999999
 30
0.0
 40
2.51763
 50
338.96103399999998
 51
357.462602
  0
ARC
  5
596
  8
_________1
 62
     7
 10
-30.037631000000001
 20
232.99570800000001
 30
0.0
 40
2.4975360000000002
 50
320.5634740000001
 51
338.86822000000001
  0
ARC
  5
597
  8
_________1
 62
     7
 10
-30.017990999999999
 20
232.97526199999999
 30
0.0
 40
2.4693819999999991
 50
302.119283
 51
320.640421
  0
ARC
  5
598
  8
_________1
 62
     7
 10
-30.035523999999999
 20
232.9992
 30
0.0
 40
2.4989799999999991
 50
283.88650699999999
 51
302.16792299999997
  0
ARC
  5
599
  8
_________1
 62
     7
 10
-30.03323
 20
232.992154
 30
0.0
 40
2.4915889999999989
 50
270.049285
 51
283.87417900000003
  0
LINE
  5
59A
  8
_________1
 62
     7
 10
-37.111800000000009
 20
232.88800000000001
 30
0.0
 11
-37.124600000000001
 21
233.18100000000001
 31
0.0
  0
LINE
  5
59B
  8
_________1
 62
     7
 10
-27.5427
 20
232.88800000000001
 30
0.0
 11
-27.529900000000001
 21
233.18100000000001
 31
0.0
  0
LINE
  5
59C
  8
_________1
 62
     7
 10
-37.744
 20
260.61599999999999
 30
0.0
 11
-37.744
 21
262.827
 31
0.0
  0
LINE
  5
59D
  8
_________1
 62
     7
 10
-27.030000000000001
 20
255.274
 30
0.0
 11
-27.528600000000001
 21
233.232
 31
0.0
  0
LINE
  5
59E
  8
_________1
 62
     7
 10
-37.624499999999998
 20
255.274
 30
0.0
 11
-37.126300000000001
 21
233.232
 31
0.0
  0
LINE
  5
59F
  8
_________1
 62
     7
 10
-26.910799999999998
 20
260.61599999999999
 30
0.0
 11
-26.910799999999998
 21
262.827
 31
0.0
  0
LINE
  5
5A0
  8
_________1
 62
     7
 10
-37.124600000000001
 20
233.18100000000001
 30
0.0
 11
-37.124600000000001
 21
233.18299999999999
 31
0.0
  0
ARC
  5
5A1
  8
_________1
 62
     7
 10
-33.705083000000002
 20
233.326988
 30
0.0
 40
3.4225409999999998
 50
181.58993000000001
 51
182.415175
  0
ARC
  5
5A2
  8
_________1
 62
     7
 10
-44.488194999999997
 20
233.66652300000001
 30
0.0
 40
16.965205999999998
 50
358.36075699999998
 51
358.53243700000002
  0
ARC
  5
5A3
  8
_________1
 62
     7
 10
-30.608241
 20
260.63987600000002
 30
0.0
 40
7.1358149999999991
 50
180.192644
 51
180.81921500000001
  0
LINE
  5
5A4
  8
_________1
 62
     7
 10
-26.910799999999998
 20
260.61599999999999
 30
0.0
 11
-26.911200000000001
 21
260.55500000000001
 31
0.0
  0
LINE
  5
5A5
  8
_________1
 62
     7
 10
-26.911200000000001
 20
260.55500000000001
 30
0.0
 11
-26.911200000000001
 21
260.53800000000001
 31
0.0
  0
LINE
  5
5A6
  8
_________1
 62
     7
 10
-32.94980000000001
 20
267.41000000000003
 30
0.0
 11
-32.9512
 21
267.41000000000003
 31
0.0
  0
ARC
  5
5A7
  8
_________1
 62
     7
 10
-32.865946999999998
 20
267.22982999999999
 30
0.0
 40
0.199
 50
115.356628
 51
134.431208
  0
ARC
  5
5A8
  8
_________1
 62
     7
 10
-32.983080999999999
 20
267.35493500000001
 30
0.0
 40
0.027941
 50
142.52828700000001
 51
213.83510699999999
  0
ARC
  5
5A9
  8
_________1
 62
     7
 10
-32.966614
 20
267.37280500000003
 30
0.0
 40
0.051881
 50
220.11517000000001
 51
243.830397
  0
ARC
  5
5AA
  8
_________1
 62
     7
 10
-32.899971000000001
 20
267.497728
 30
0.0
 40
0.193447
 50
242.43292
 51
256.12950599999999
  0
ARC
  5
5AB
  8
_________1
 62
     7
 10
-32.804555000000001
 20
267.83922799999999
 30
0.0
 40
0.547969
 50
255.00376800000001
 51
262.27895899999999
  0
ARC
  5
5AC
  8
_________1
 62
     7
 10
-32.661693
 20
268.79984300000001
 30
0.0
 40
1.5191190000000001
 50
261.807188
 51
265.39202599999999
  0
ARC
  5
5AD
  8
_________1
 62
     7
 10
-32.487788000000002
 20
270.934504
 30
0.0
 40
3.660852999999999
 50
265.36309199999999
 51
268.68946699999998
  0
LINE
  5
5AE
  8
_________1
 62
     7
 10
-32.5715
 20
267.27499999999998
 30
0.0
 11
-32.450899999999997
 21
267.27199999999999
 31
0.0
  0
LINE
  5
5AF
  8
_________1
 62
     7
 10
-32.450899999999997
 20
267.27199999999999
 30
0.0
 11
-32.327300000000001
 21
267.27199999999999
 31
0.0
  0
LINE
  5
5B0
  8
_________1
 62
     7
 10
-32.327300000000001
 20
267.27199999999999
 30
0.0
 11
-32.207700000000003
 21
267.27199999999999
 31
0.0
  0
LINE
  5
5B1
  8
_________1
 62
     7
 10
-32.207700000000003
 20
267.27199999999999
 30
0.0
 11
-32.07650000000001
 21
267.27499999999998
 31
0.0
  0
ARC
  5
5B2
  8
_________1
 62
     7
 10
-32.206721000000002
 20
271.84790600000002
 30
0.0
 40
4.57498
 50
271.631664
 51
273.71366599999999
  0
ARC
  5
5B3
  8
_________1
 62
     7
 10
-32.012422999999998
 20
268.86348900000002
 30
0.0
 40
1.5842449999999999
 50
273.69237100000009
 51
280.26095099999998
  0
ARC
  5
5B4
  8
_________1
 62
     7
 10
-31.778358999999998
 20
267.54438399999998
 30
0.0
 40
0.244587
 50
281.35116099999999
 51
300.44438500000001
  0
ARC
  5
5B5
  8
_________1
 62
     7
 10
-31.675588000000001
 20
267.36078700000002
 30
0.0
 40
0.034515
 50
307.815225
 51
338.005785
  0
ARC
  5
5B6
  8
_________1
 62
     7
 10
-31.665306000000001
 20
267.35439100000002
 30
0.0
 40
0.022681
 50
343.267833
 51
29.002936999999999
  0
ARC
  5
5B7
  8
_________1
 62
     7
 10
-31.690963
 20
267.34183400000001
 30
0.0
 40
0.05123
 50
27.372202000000001
 51
50.500847999999998
  0
ARC
  5
5B8
  8
_________1
 62
     7
 10
-31.763009000000011
 20
267.26023199999997
 30
0.0
 40
0.160065
 50
49.180216999999999
 51
62.131806999999988
  0
ARC
  5
5B9
  8
_________1
 62
     7
 10
-31.805789999999998
 20
267.19612000000001
 30
0.0
 40
0.23687
 50
60.232406999999988
 51
64.743573999999995
  0
INSERT
  5
5BA
  8
_________1
 62
     7
  2
AIGNBL03010002
 10
0.0
 20
0.0
 30
0.0
  0
LINE
  5
5BB
  8
_________1
 62
     7
 10
70.748900000000006
 20
210.37700000000001
 30
0.0
 11
70.331000000000003
 21
215.15799999999999
 31
0.0
  0
LINE
  5
5BC
  8
_________1
 62
     7
 10
44.4148
 20
214.785
 30
0.0
 11
44.417200000000001
 21
214.73599999999999
 31
0.0
  0
LINE
  5
5BD
  8
_________1
 62
     7
 10
44.417200000000001
 20
214.73599999999999
 30
0.0
 11
44.424799999999991
 21
214.68799999999999
 31
0.0
  0
LINE
  5
5BE
  8
_________1
 62
     7
 10
44.424799999999991
 20
214.68799999999999
 30
0.0
 11
44.436799999999991
 21
214.64099999999999
 31
0.0
  0
LINE
  5
5BF
  8
_________1
 62
     7
 10
44.436799999999991
 20
214.64099999999999
 30
0.0
 11
44.453400000000002
 21
214.595
 31
0.0
  0
LINE
  5
5C0
  8
_________1
 62
     7
 10
44.453400000000002
 20
214.595
 30
0.0
 11
44.474400000000003
 21
214.55099999999999
 31
0.0
  0
LINE
  5
5C1
  8
_________1
 62
     7
 10
44.474400000000003
 20
214.55099999999999
 30
0.0
 11
44.499499999999998
 21
214.50999999999999
 31
0.0
  0
LINE
  5
5C2
  8
_________1
 62
     7
 10
44.499499999999998
 20
214.50999999999999
 30
0.0
 11
44.528500000000001
 21
214.471
 31
0.0
  0
LINE
  5
5C3
  8
_________1
 62
     7
 10
44.528500000000001
 20
214.471
 30
0.0
 11
44.561599999999991
 21
214.435
 31
0.0
  0
LINE
  5
5C4
  8
_________1
 62
     7
 10
44.561599999999991
 20
214.435
 30
0.0
 11
44.597700000000003
 21
214.40199999999999
 31
0.0
  0
LINE
  5
5C5
  8
_________1
 62
     7
 10
44.597700000000003
 20
214.40199999999999
 30
0.0
 11
44.63669999999999
 21
214.37299999999999
 31
0.0
  0
LINE
  5
5C6
  8
_________1
 62
     7
 10
44.63669999999999
 20
214.37299999999999
 30
0.0
 11
44.678699999999999
 21
214.34800000000001
 31
0.0
  0
LINE
  5
5C7
  8
_________1
 62
     7
 10
44.678699999999999
 20
214.34800000000001
 30
0.0
 11
44.722799999999999
 21
214.327
 31
0.0
  0
LINE
  5
5C8
  8
_________1
 62
     7
 10
44.722799999999999
 20
214.327
 30
0.0
 11
44.768599999999999
 21
214.31100000000001
 31
0.0
  0
LINE
  5
5C9
  8
_________1
 62
     7
 10
44.768599999999999
 20
214.31100000000001
 30
0.0
 11
44.815800000000003
 21
214.29900000000001
 31
0.0
  0
LINE
  5
5CA
  8
_________1
 62
     7
 10
44.815800000000003
 20
214.29900000000001
 30
0.0
 11
44.86399999999999
 21
214.292
 31
0.0
  0
LINE
  5
5CB
  8
_________1
 62
     7
 10
44.86399999999999
 20
214.292
 30
0.0
 11
44.912999999999997
 21
214.28999999999999
 31
0.0
  0
LINE
  5
5CC
  8
_________1
 62
     7
 10
44.663200000000003
 20
215.38499999999999
 30
0.0
 11
44.6387
 21
215.38399999999999
 31
0.0
  0
LINE
  5
5CD
  8
_________1
 62
     7
 10
44.6387
 20
215.38399999999999
 30
0.0
 11
44.614600000000003
 21
215.38
 31
0.0
  0
LINE
  5
5CE
  8
_________1
 62
     7
 10
44.614600000000003
 20
215.38
 30
0.0
 11
44.590499999999999
 21
215.374
 31
0.0
  0
LINE
  5
5CF
  8
_________1
 62
     7
 10
44.590499999999999
 20
215.374
 30
0.0
 11
44.567799999999998
 21
215.36600000000001
 31
0.0
  0
LINE
  5
5D0
  8
_________1
 62
     7
 10
44.567799999999998
 20
215.36600000000001
 30
0.0
 11
44.545699999999989
 21
215.35599999999999
 31
0.0
  0
LINE
  5
5D1
  8
_________1
 62
     7
 10
44.545699999999989
 20
215.35599999999999
 30
0.0
 11
44.5244
 21
215.34299999999999
 31
0.0
  0
LINE
  5
5D2
  8
_________1
 62
     7
 10
44.5244
 20
215.34299999999999
 30
0.0
 11
44.505099999999999
 21
215.328
 31
0.0
  0
LINE
  5
5D3
  8
_________1
 62
     7
 10
44.505099999999999
 20
215.328
 30
0.0
 11
44.487099999999998
 21
215.31200000000001
 31
0.0
  0
LINE
  5
5D4
  8
_________1
 62
     7
 10
44.487099999999998
 20
215.31200000000001
 30
0.0
 11
44.47059999999999
 21
215.29400000000001
 31
0.0
  0
LINE
  5
5D5
  8
_________1
 62
     7
 10
44.47059999999999
 20
215.29400000000001
 30
0.0
 11
44.455800000000004
 21
215.274
 31
0.0
  0
LINE
  5
5D6
  8
_________1
 62
     7
 10
44.455800000000004
 20
215.274
 30
0.0
 11
44.44339999999999
 21
215.25299999999999
 31
0.0
  0
LINE
  5
5D7
  8
_________1
 62
     7
 10
44.44339999999999
 20
215.25299999999999
 30
0.0
 11
44.432699999999997
 21
215.23099999999999
 31
0.0
  0
LINE
  5
5D8
  8
_________1
 62
     7
 10
44.432699999999997
 20
215.23099999999999
 30
0.0
 11
44.424799999999991
 21
215.208
 31
0.0
  0
LINE
  5
5D9
  8
_________1
 62
     7
 10
44.424799999999991
 20
215.208
 30
0.0
 11
44.418899999999987
 21
215.184
 31
0.0
  0
LINE
  5
5DA
  8
_________1
 62
     7
 10
44.418899999999987
 20
215.184
 30
0.0
 11
44.415100000000002
 21
215.16
 31
0.0
  0
LINE
  5
5DB
  8
_________1
 62
     7
 10
44.415100000000002
 20
215.16
 30
0.0
 11
44.414099999999998
 21
215.136
 31
0.0
  0
LINE
  5
5DC
  8
_________1
 62
     7
 10
44.4148
 20
214.78700000000001
 30
0.0
 11
44.414099999999998
 21
215.136
 31
0.0
  0
LINE
  5
5DD
  8
_________1
 62
     7
 10
46.390599999999992
 20
214.28999999999999
 30
0.0
 11
46.164900000000003
 21
214.28999999999999
 31
0.0
  0
LINE
  5
5DE
  8
_________1
 62
     7
 10
44.912999999999997
 20
214.28999999999999
 30
0.0
 11
45.102400000000003
 21
214.28999999999999
 31
0.0
  0
LINE
  5
5DF
  8
_________1
 62
     7
 10
45.102400000000003
 20
214.28999999999999
 30
0.0
 11
45.216799999999992
 21
214.28999999999999
 31
0.0
  0
LINE
  5
5E0
  8
_________1
 62
     7
 10
45.216799999999992
 20
214.28999999999999
 30
0.0
 11
45.611600000000003
 21
214.28999999999999
 31
0.0
  0
LINE
  5
5E1
  8
_________1
 62
     7
 10
45.611600000000003
 20
214.28999999999999
 30
0.0
 11
46.164900000000003
 21
214.28999999999999
 31
0.0
  0
LINE
  5
5E2
  8
_________1
 62
     7
 10
46.112900000000003
 20
215.38499999999999
 30
0.0
 11
46.0505
 21
215.38499999999999
 31
0.0
  0
LINE
  5
5E3
  8
_________1
 62
     7
 10
46.0505
 20
215.38499999999999
 30
0.0
 11
45.98919999999999
 21
215.38499999999999
 31
0.0
  0
LINE
  5
5E4
  8
_________1
 62
     7
 10
45.98919999999999
 20
215.38499999999999
 30
0.0
 11
45.27879999999999
 21
215.38499999999999
 31
0.0
  0
LINE
  5
5E5
  8
_________1
 62
     7
 10
45.27879999999999
 20
215.38499999999999
 30
0.0
 11
45.080399999999997
 21
215.38499999999999
 31
0.0
  0
LINE
  5
5E6
  8
_________1
 62
     7
 10
45.080399999999997
 20
215.38499999999999
 30
0.0
 11
44.87639999999999
 21
215.38499999999999
 31
0.0
  0
LINE
  5
5E7
  8
_________1
 62
     7
 10
44.87639999999999
 20
215.38499999999999
 30
0.0
 11
44.664200000000001
 21
215.38499999999999
 31
0.0
  0
LINE
  5
5E8
  8
_________1
 62
     7
 10
44.664200000000001
 20
215.38499999999999
 30
0.0
 11
44.663200000000003
 21
215.38499999999999
 31
0.0
  0
LINE
  5
5E9
  8
_________1
 62
     7
 10
46.112900000000003
 20
215.38499999999999
 30
0.0
 11
46.37019999999999
 21
215.38499999999999
 31
0.0
  0
LINE
  5
5EA
  8
_________1
 62
     7
 10
70.082999999999998
 20
215.38499999999999
 30
0.0
 11
70.106099999999984
 21
215.38399999999999
 31
0.0
  0
LINE
  5
5EB
  8
_________1
 62
     7
 10
70.106099999999984
 20
215.38399999999999
 30
0.0
 11
70.129199999999997
 21
215.381
 31
0.0
  0
LINE
  5
5EC
  8
_________1
 62
     7
 10
70.129199999999997
 20
215.381
 30
0.0
 11
70.151200000000003
 21
215.375
 31
0.0
  0
LINE
  5
5ED
  8
_________1
 62
     7
 10
70.151200000000003
 20
215.375
 30
0.0
 11
70.173199999999994
 21
215.36799999999999
 31
0.0
  0
LINE
  5
5EE
  8
_________1
 62
     7
 10
70.173199999999994
 20
215.36799999999999
 30
0.0
 11
70.194299999999984
 21
215.35900000000001
 31
0.0
  0
LINE
  5
5EF
  8
_________1
 62
     7
 10
70.194299999999984
 20
215.35900000000001
 30
0.0
 11
70.214600000000004
 21
215.34700000000001
 31
0.0
  0
LINE
  5
5F0
  8
_________1
 62
     7
 10
70.214600000000004
 20
215.34700000000001
 30
0.0
 11
70.233500000000006
 21
215.334
 31
0.0
  0
LINE
  5
5F1
  8
_________1
 62
     7
 10
70.233500000000006
 20
215.334
 30
0.0
 11
70.251099999999994
 21
215.31999999999999
 31
0.0
  0
LINE
  5
5F2
  8
_________1
 62
     7
 10
70.251099999999994
 20
215.31999999999999
 30
0.0
 11
70.267600000000002
 21
215.303
 31
0.0
  0
LINE
  5
5F3
  8
_________1
 62
     7
 10
70.267600000000002
 20
215.303
 30
0.0
 11
70.2821
 21
215.285
 31
0.0
  0
LINE
  5
5F4
  8
_________1
 62
     7
 10
70.2821
 20
215.285
 30
0.0
 11
70.295199999999994
 21
215.26599999999999
 31
0.0
  0
LINE
  5
5F5
  8
_________1
 62
     7
 10
70.295199999999994
 20
215.26599999999999
 30
0.0
 11
70.306200000000004
 21
215.24600000000001
 31
0.0
  0
LINE
  5
5F6
  8
_________1
 62
     7
 10
70.306200000000004
 20
215.24600000000001
 30
0.0
 11
70.3155
 21
215.22499999999999
 31
0.0
  0
LINE
  5
5F7
  8
_________1
 62
     7
 10
70.3155
 20
215.22499999999999
 30
0.0
 11
70.322800000000001
 21
215.203
 31
0.0
  0
LINE
  5
5F8
  8
_________1
 62
     7
 10
70.322800000000001
 20
215.203
 30
0.0
 11
70.3279
 21
215.18000000000001
 31
0.0
  0
LINE
  5
5F9
  8
_________1
 62
     7
 10
70.3279
 20
215.18000000000001
 30
0.0
 11
70.331000000000003
 21
215.15799999999999
 31
0.0
  0
LINE
  5
5FA
  8
_________1
 62
     7
 10
70.082999999999998
 20
215.38499999999999
 30
0.0
 11
69.3078
 21
215.38499999999999
 31
0.0
  0
LINE
  5
5FB
  8
_________1
 62
     7
 10
69.3078
 20
215.38499999999999
 30
0.0
 11
68.919600000000003
 21
215.38499999999999
 31
0.0
  0
LINE
  5
5FC
  8
_________1
 62
     7
 10
68.919600000000003
 20
215.38499999999999
 30
0.0
 11
66.918999999999997
 21
215.38499999999999
 31
0.0
  0
LINE
  5
5FD
  8
_________1
 62
     7
 10
66.918999999999997
 20
215.38499999999999
 30
0.0
 11
66.322599999999994
 21
215.38499999999999
 31
0.0
  0
LINE
  5
5FE
  8
_________1
 62
     7
 10
66.322599999999994
 20
215.38499999999999
 30
0.0
 11
64.760300000000001
 21
215.38499999999999
 31
0.0
  0
LINE
  5
5FF
  8
_________1
 62
     7
 10
46.37019999999999
 20
215.38499999999999
 30
0.0
 11
64.759900000000002
 21
215.38499999999999
 31
0.0
  0
LINE
  5
600
  8
_________1
 62
     7
 10
46.390599999999992
 20
214.28999999999999
 30
0.0
 11
56.110999999999997
 21
214.28999999999999
 31
0.0
  0
ARC
  5
601
  8
_________1
 62
     7
 10
56.10528699999999
 20
210.552661
 30
0.0
 40
3.740737999999999
 50
5.016513999999999
 51
25.669284000000001
  0
ARC
  5
602
  8
_________1
 62
     7
 10
56.117654999999999
 20
210.558762
 30
0.0
 40
3.726947
 50
25.667107999999999
 51
41.168412999999987
  0
ARC
  5
603
  8
_________1
 62
     7
 10
56.106281000000003
 20
210.54935599999999
 30
0.0
 40
3.7417009999999999
 50
41.16219199999999
 51
47.484950000000012
  0
ARC
  5
604
  8
_________1
 62
     7
 10
56.098382999999991
 20
210.535222
 30
0.0
 40
3.757458999999999
 50
47.541817999999999
 51
65.882557999999975
  0
ARC
  5
605
  8
_________1
 62
     7
 10
56.201627000000002
 20
210.779697
 30
0.0
 40
3.492141999999999
 50
65.789648
 51
69.361273999999995
  0
ARC
  5
606
  8
_________1
 62
     7
 10
56.107247999999991
 20
210.53758500000001
 30
0.0
 40
3.7519830000000001
 50
69.315717000000006
 51
89.943159999999992
  0
LINE
  5
607
  8
_________1
 62
     7
 10
60.08659999999999
 20
207.964
 30
0.0
 11
59.831699999999998
 21
210.88
 31
0.0
  0
ARC
  5
608
  8
_________1
 62
     7
 10
79.133328000000006
 20
192.309721
 30
0.0
 40
19.918213999999999
 50
114.894018
 51
115.17621
  0
ARC
  5
609
  8
_________1
 62
     7
 10
102.319743
 20
142.13189700000001
 30
0.0
 40
75.193787999999998
 50
114.900341
 51
115.121071
  0
ARC
  5
60A
  8
_________1
 62
     7
 10
24.539055000000001
 20
308.04116800000003
 30
0.0
 40
108.043003
 50
294.86307699999998
 51
295.11563899999999
  0
LINE
  5
60B
  8
_________1
 62
     7
 10
69.965900000000005
 20
210.012
 30
0.0
 11
69.381600000000006
 21
209.74000000000001
 31
0.0
  0
ARC
  5
60C
  8
_________1
 62
     7
 10
283.06715800000001
 20
-249.42647199999999
 30
0.0
 40
506.4535259999999
 50
114.956192
 51
115.05416
  0
ARC
  5
60D
  8
_________1
 62
     7
 10
389.11520200000001
 20
-479.19675199999989
 30
0.0
 40
759.51390800000001
 50
114.96120500000001
 51
115.036908
  0
ARC
  5
60E
  8
_________1
 62
     7
 10
364.28222499999998
 20
-428.53922699999998
 30
0.0
 40
703.10783499999991
 50
114.950434
 51
115.032267
  0
ARC
  5
60F
  8
_________1
 62
     7
 10
-582.29131700000005
 20
1598.502
 30
0.0
 40
1534.0550000000001
 50
294.99159900000001
 51
295.03085800000008
  0
ARC
  5
610
  8
_________1
 62
     7
 10
65.293024000000003
 20
209.22124099999999
 30
0.0
 40
1.258057999999999
 50
286.93392999999998
 51
294.9887359999999
  0
ARC
  5
611
  8
_________1
 62
     7
 10
65.352928000000006
 20
209.010895
 30
0.0
 40
1.0393920000000001
 50
281.93164100000001
 51
287.15223600000002
  0
ARC
  5
612
  8
_________1
 62
     7
 10
65.299859999999995
 20
209.17901000000001
 30
0.0
 40
1.2145950000000001
 50
273.80220000000003
 51
278.281137
  0
ARC
  5
613
  8
_________1
 62
     7
 10
65.293530000000004
 20
209.24061699999999
 30
0.0
 40
1.276475
 50
278.16399200000001
 51
282.408368
  0
ARC
  5
614
  8
_________1
 62
     7
 10
65.309438
 20
208.85723300000001
 30
0.0
 40
0.892969
 50
269.2922890000001
 51
274.55809799999997
  0
LINE
  5
615
  8
_________1
 62
     7
 10
61.056800000000003
 20
207.964
 30
0.0
 11
65.298400000000001
 21
207.964
 31
0.0
  0
LINE
  5
616
  8
_________1
 62
     7
 10
61.056800000000003
 20
207.964
 30
0.0
 11
60.59409999999999
 21
207.964
 31
0.0
  0
LINE
  5
617
  8
_________1
 62
     7
 10
60.59409999999999
 20
207.964
 30
0.0
 11
60.258200000000002
 21
207.964
 31
0.0
  0
LINE
  5
618
  8
_________1
 62
     7
 10
60.258200000000002
 20
207.964
 30
0.0
 11
60.13069999999999
 21
207.964
 31
0.0
  0
LINE
  5
619
  8
_________1
 62
     7
 10
60.13069999999999
 20
207.964
 30
0.0
 11
60.08659999999999
 21
207.964
 31
0.0
  0
ARC
  5
61A
  8
_________1
 62
     7
 10
77.010210999999998
 20
194.31731499999989
 30
0.0
 40
0.387345
 50
2.0200569999999991
 51
87.979932999999988
  0
ARC
  5
61B
  8
_________1
 62
     7
 10
77.009422999999998
 20
193.84724600000001
 30
0.0
 40
0.388161
 50
272.132159
 51
357.86785099999997
  0
LINE
  5
61C
  8
_________1
 62
     7
 10
77.397300000000001
 20
193.833
 30
0.0
 11
77.397300000000001
 21
194.33099999999999
 31
0.0
  0
ARC
  5
61D
  8
_________1
 62
     7
 10
70.030480999999995
 20
178.926897
 30
0.0
 40
0.5880320000000001
 50
180.332066
 51
186.87226100000001
  0
ARC
  5
61E
  8
_________1
 62
     7
 10
70.699258999999998
 20
178.93350100000001
 30
0.0
 40
1.2568399999999991
 50
158.95446100000001
 51
180.45643999999999
  0
LINE
  5
61F
  8
_________1
 62
     7
 10
72.284800000000004
 20
192.60400000000001
 30
0.0
 11
72.728099999999984
 21
193.554
 31
0.0
  0
LINE
  5
620
  8
_________1
 62
     7
 10
72.501800000000003
 20
190.12299999999999
 30
0.0
 11
73.856800000000007
 21
193.02799999999999
 31
0.0
  0
ARC
  5
621
  8
_________1
 62
     7
 10
74.423528000000005
 20
192.792404
 30
0.0
 40
0.613787
 50
133.60647399999999
 51
157.42560700000001
  0
ARC
  5
622
  8
_________1
 62
     7
 10
74.552848999999995
 20
192.676376
 30
0.0
 40
0.7871120000000001
 50
97.490966000000014
 51
134.597658
  0
ARC
  5
623
  8
_________1
 62
     7
 10
74.509714000000002
 20
192.88508200000001
 30
0.0
 40
0.5747740000000001
 50
87.604850999999996
 51
95.93989400000001
  0
ARC
  5
624
  8
_________1
 62
     7
 10
74.201587000000004
 20
192.94281000000001
 30
0.0
 40
1.5952090000000001
 50
138.131281
 51
157.46790999999999
  0
ARC
  5
625
  8
_________1
 62
     7
 10
74.577374000000006
 20
192.63102499999999
 30
0.0
 40
2.0832259999999989
 50
96.864647000000005
 51
138.64370600000001
  0
ARC
  5
626
  8
_________1
 62
     7
 10
74.469323000000003
 20
193.16194899999999
 30
0.0
 40
1.543814999999999
 50
87.608801999999997
 51
95.238185000000001
  0
LINE
  5
627
  8
_________1
 62
     7
 10
74.533699999999996
 20
194.70400000000001
 30
0.0
 11
77.023899999999998
 21
194.70400000000001
 31
0.0
  0
LINE
  5
628
  8
_________1
 62
     7
 10
74.533699999999996
 20
193.459
 30
0.0
 11
77.023899999999998
 21
193.459
 31
0.0
  0
LINE
  5
629
  8
_________1
 62
     7
 10
70.272099999999995
 20
168.13499999999999
 30
0.0
 11
69.446700000000007
 21
178.857
 31
0.0
  0
ARC
  5
62A
  8
_________1
 62
     7
 10
73.880091000000007
 20
190.240341
 30
0.0
 40
1.3799980000000001
 50
188.300884
 51
189.50258600000001
  0
ARC
  5
62B
  8
_________1
 62
     7
 10
33.892950999999996
 20
184.21194
 30
0.0
 40
39.059021000000001
 50
8.5828860000000002
 51
8.73062
  0
ARC
  5
62C
  8
_________1
 62
     7
 10
89.766030000000001
 20
192.752163
 30
0.0
 40
17.463007999999999
 50
187.82507100000001
 51
188.600528
  0
ARC
  5
62D
  8
_________1
 62
     7
 10
88.338754000000009
 20
192.54907900000001
 30
0.0
 40
16.021374999999999
 50
186.44957099999999
 51
187.8005
  0
ARC
  5
62E
  8
_________1
 62
     7
 10
87.202072000000001
 20
192.49686500000001
 30
0.0
 40
14.886215
 50
185.35718600000001
 51
186.741311
  0
ARC
  5
62F
  8
_________1
 62
     7
 10
94.958023999999995
 20
193.272819
 30
0.0
 40
22.680786999999999
 50
184.5429969999999
 51
185.479547
  0
ARC
  5
630
  8
_________1
 62
     7
 10
94.236292999999989
 20
193.23045099999999
 30
0.0
 40
21.957972999999999
 50
183.482505
 51
184.58195900000001
  0
ARC
  5
631
  8
_________1
 62
     7
 10
99.783236000000016
 20
193.561013
 30
0.0
 40
27.514752000000001
 50
182.50388100000001
 51
183.467951
  0
ARC
  5
632
  8
_________1
 62
     7
 10
91.940898999999987
 20
193.26712800000001
 30
0.0
 40
19.667124999999999
 50
181.823002
 51
182.646635
  0
ARC
  5
633
  8
_________1
 62
     7
 10
57.962592000000001
 20
192.150946
 30
0.0
 40
14.329534000000001
 50
1.961768999999999
 51
2.2608919999999988
  0
ARC
  5
634
  8
_________1
 62
     7
 10
70.634026000000006
 20
192.682906
 30
0.0
 40
1.6472830000000001
 50
1.1595889999999991
 51
2.022691
  0
ARC
  5
635
  8
_________1
 62
     7
 10
54.948177000000001
 20
195.14390800000001
 30
0.0
 40
6.2232599999999989
 50
56.122605000000007
 51
74.658597999999998
  0
ARC
  5
636
  8
_________1
 62
     7
 10
54.938104000000003
 20
195.13203799999999
 30
0.0
 40
6.2387290000000002
 50
37.894936999999999
 51
56.106561999999997
  0
ARC
  5
637
  8
_________1
 62
     7
 10
54.948602000000001
 20
195.14255399999999
 30
0.0
 40
6.223986
 50
19.556041
 51
37.87790600000001
  0
ARC
  5
638
  8
_________1
 62
     7
 10
54.927652000000002
 20
195.13615899999999
 30
0.0
 40
6.245868999999999
 50
5.2084849999999987
 51
19.546993000000001
  0
LINE
  5
639
  8
_________1
 62
     7
 10
36.035899999999998
 20
203.08199999999999
 30
0.0
 11
36.195399999999999
 21
203.066
 31
0.0
  0
LINE
  5
63A
  8
_________1
 62
     7
 10
36.195399999999999
 20
203.066
 30
0.0
 11
36.579900000000002
 21
203.029
 31
0.0
  0
LINE
  5
63B
  8
_________1
 62
     7
 10
36.579900000000002
 20
203.029
 30
0.0
 11
36.910600000000002
 21
202.99600000000001
 31
0.0
  0
LINE
  5
63C
  8
_________1
 62
     7
 10
36.910600000000002
 20
202.99600000000001
 30
0.0
 11
37.712000000000003
 21
202.91800000000001
 31
0.0
  0
LINE
  5
63D
  8
_________1
 62
     7
 10
36.0321
 20
203.08199999999999
 30
0.0
 11
37.767800000000001
 21
202.91300000000001
 31
0.0
  0
LINE
  5
63E
  8
_________1
 62
     7
 10
37.767800000000001
 20
202.91300000000001
 30
0.0
 11
39.503100000000003
 21
202.744
 31
0.0
  0
LINE
  5
63F
  8
_________1
 62
     7
 10
39.503100000000003
 20
202.744
 30
0.0
 11
37.767800000000001
 21
202.91300000000001
 31
0.0
  0
LINE
  5
640
  8
_________1
 62
     7
 10
37.767800000000001
 20
202.91300000000001
 30
0.0
 11
36.0321
 21
203.08199999999999
 31
0.0
  0
LINE
  5
641
  8
_________1
 62
     7
 10
35.360999999999997
 20
203.898
 30
0.0
 11
35.355499999999999
 21
203.816
 31
0.0
  0
LINE
  5
642
  8
_________1
 62
     7
 10
35.355499999999999
 20
203.816
 30
0.0
 11
35.355499999999999
 21
203.73500000000001
 31
0.0
  0
LINE
  5
643
  8
_________1
 62
     7
 10
35.355499999999999
 20
203.73500000000001
 30
0.0
 11
35.360999999999997
 21
203.65700000000001
 31
0.0
  0
LINE
  5
644
  8
_________1
 62
     7
 10
35.360999999999997
 20
203.65700000000001
 30
0.0
 11
35.373100000000001
 21
203.58099999999999
 31
0.0
  0
LINE
  5
645
  8
_________1
 62
     7
 10
35.373100000000001
 20
203.58099999999999
 30
0.0
 11
35.381700000000002
 21
203.54499999999999
 31
0.0
  0
LINE
  5
646
  8
_________1
 62
     7
 10
35.381700000000002
 20
203.54499999999999
 30
0.0
 11
35.392000000000003
 21
203.50899999999999
 31
0.0
  0
LINE
  5
647
  8
_________1
 62
     7
 10
35.392000000000003
 20
203.50899999999999
 30
0.0
 11
35.4041
 21
203.47499999999999
 31
0.0
  0
LINE
  5
648
  8
_________1
 62
     7
 10
35.4041
 20
203.47499999999999
 30
0.0
 11
35.418199999999999
 21
203.44200000000001
 31
0.0
  0
LINE
  5
649
  8
_________1
 62
     7
 10
35.418199999999999
 20
203.44200000000001
 30
0.0
 11
35.434100000000001
 21
203.41
 31
0.0
  0
LINE
  5
64A
  8
_________1
 62
     7
 10
35.434100000000001
 20
203.41
 30
0.0
 11
35.451599999999999
 21
203.37899999999999
 31
0.0
  0
LINE
  5
64B
  8
_________1
 62
     7
 10
35.451599999999999
 20
203.37899999999999
 30
0.0
 11
35.471299999999999
 21
203.34999999999999
 31
0.0
  0
LINE
  5
64C
  8
_________1
 62
     7
 10
35.471299999999999
 20
203.34999999999999
 30
0.0
 11
35.492600000000003
 21
203.322
 31
0.0
  0
LINE
  5
64D
  8
_________1
 62
     7
 10
35.492600000000003
 20
203.322
 30
0.0
 11
35.516100000000002
 21
203.29599999999999
 31
0.0
  0
LINE
  5
64E
  8
_________1
 62
     7
 10
35.516100000000002
 20
203.29599999999999
 30
0.0
 11
35.540900000000001
 21
203.27099999999999
 31
0.0
  0
LINE
  5
64F
  8
_________1
 62
     7
 10
35.540900000000001
 20
203.27099999999999
 30
0.0
 11
35.567700000000002
 21
203.24799999999999
 31
0.0
  0
LINE
  5
650
  8
_________1
 62
     7
 10
35.567700000000002
 20
203.24799999999999
 30
0.0
 11
35.595999999999997
 21
203.226
 31
0.0
  0
LINE
  5
651
  8
_________1
 62
     7
 10
35.595999999999997
 20
203.226
 30
0.0
 11
35.625599999999999
 21
203.20599999999999
 31
0.0
  0
LINE
  5
652
  8
_________1
 62
     7
 10
35.625599999999999
 20
203.20599999999999
 30
0.0
 11
35.657299999999999
 21
203.18700000000001
 31
0.0
  0
LINE
  5
653
  8
_________1
 62
     7
 10
35.657299999999999
 20
203.18700000000001
 30
0.0
 11
35.689999999999998
 21
203.16999999999999
 31
0.0
  0
LINE
  5
654
  8
_________1
 62
     7
 10
35.689999999999998
 20
203.16999999999999
 30
0.0
 11
35.7241
 21
203.155
 31
0.0
  0
LINE
  5
655
  8
_________1
 62
     7
 10
35.7241
 20
203.155
 30
0.0
 11
35.7958
 21
203.12799999999999
 31
0.0
  0
LINE
  5
656
  8
_________1
 62
     7
 10
35.7958
 20
203.12799999999999
 30
0.0
 11
35.871600000000001
 21
203.108
 31
0.0
  0
LINE
  5
657
  8
_________1
 62
     7
 10
35.871600000000001
 20
203.108
 30
0.0
 11
35.950499999999998
 21
203.09200000000001
 31
0.0
  0
LINE
  5
658
  8
_________1
 62
     7
 10
35.950499999999998
 20
203.09200000000001
 30
0.0
 11
36.0321
 21
203.08199999999999
 31
0.0
  0
LINE
  5
659
  8
_________1
 62
     7
 10
37.8277
 20
202.90700000000001
 30
0.0
 11
55.550800000000002
 21
201.33799999999999
 31
0.0
  0
ARC
  5
65A
  8
_________1
 62
     7
 10
38.809981000000001
 20
213.66615200000001
 30
0.0
 40
10.803653000000001
 50
264.16681299999999
 51
264.78357799999998
  0
LINE
  5
65B
  8
_________1
 62
     7
 10
62.334600000000002
 20
181.38499999999999
 30
0.0
 11
61.151899999999998
 21
195.654
 31
0.0
  0
ARC
  5
65C
  8
_________1
 62
     7
 10
61.441818999999988
 20
195.72034199999999
 30
0.0
 40
0.294589
 50
183.34388100000001
 51
187.045016
  0
ARC
  5
65D
  8
_________1
 62
     7
 10
54.945014
 20
195.12904700000001
 30
0.0
 40
6.2384269999999988
 50
74.66669499999999
 51
84.427536000000003
  0
LINE
  5
65E
  8
_________1
 62
     7
 10
61.149500000000003
 20
195.684
 30
0.0
 11
61.151899999999998
 21
195.654
 31
0.0
  0
LINE
  5
65F
  8
_________1
 62
     7
 10
35.64350000000001
 20
206.94200000000001
 30
0.0
 11
35.360999999999997
 21
203.898
 31
0.0
  0
ARC
  5
660
  8
_________1
 62
     7
 10
36.023921999999999
 20
206.89659
 30
0.0
 40
0.383114
 50
91.244573000000017
 51
173.16796199999999
  0
LINE
  5
661
  8
_________1
 62
     7
 10
70.666200000000003
 20
207.28
 30
0.0
 11
70.700699999999998
 21
207.27799999999999
 31
0.0
  0
LINE
  5
662
  8
_________1
 62
     7
 10
70.700699999999998
 20
207.27799999999999
 30
0.0
 11
70.734800000000007
 21
207.273
 31
0.0
  0
LINE
  5
663
  8
_________1
 62
     7
 10
70.734800000000007
 20
207.273
 30
0.0
 11
70.768600000000006
 21
207.26499999999999
 31
0.0
  0
LINE
  5
664
  8
_________1
 62
     7
 10
70.768600000000006
 20
207.26499999999999
 30
0.0
 11
70.801599999999993
 21
207.25399999999999
 31
0.0
  0
LINE
  5
665
  8
_________1
 62
     7
 10
70.801599999999993
 20
207.25399999999999
 30
0.0
 11
70.833299999999994
 21
207.24000000000001
 31
0.0
  0
LINE
  5
666
  8
_________1
 62
     7
 10
70.833299999999994
 20
207.24000000000001
 30
0.0
 11
70.863299999999995
 21
207.22300000000001
 31
0.0
  0
LINE
  5
667
  8
_________1
 62
     7
 10
70.863299999999995
 20
207.22300000000001
 30
0.0
 11
70.891900000000007
 21
207.20400000000001
 31
0.0
  0
LINE
  5
668
  8
_________1
 62
     7
 10
70.891900000000007
 20
207.20400000000001
 30
0.0
 11
70.918400000000005
 21
207.18199999999999
 31
0.0
  0
LINE
  5
669
  8
_________1
 62
     7
 10
70.918400000000005
 20
207.18199999999999
 30
0.0
 11
70.942899999999995
 21
207.15700000000001
 31
0.0
  0
LINE
  5
66A
  8
_________1
 62
     7
 10
70.942899999999995
 20
207.15700000000001
 30
0.0
 11
70.9649
 21
207.13
 31
0.0
  0
LINE
  5
66B
  8
_________1
 62
     7
 10
70.9649
 20
207.13
 30
0.0
 11
70.984200000000001
 21
207.102
 31
0.0
  0
LINE
  5
66C
  8
_________1
 62
     7
 10
70.984200000000001
 20
207.102
 30
0.0
 11
71.001099999999994
 21
207.071
 31
0.0
  0
LINE
  5
66D
  8
_________1
 62
     7
 10
71.001099999999994
 20
207.071
 30
0.0
 11
71.014899999999997
 21
207.03999999999999
 31
0.0
  0
LINE
  5
66E
  8
_________1
 62
     7
 10
71.014899999999997
 20
207.03999999999999
 30
0.0
 11
71.025899999999993
 21
207.00700000000001
 31
0.0
  0
LINE
  5
66F
  8
_________1
 62
     7
 10
71.025899999999993
 20
207.00700000000001
 30
0.0
 11
71.033799999999999
 21
206.97300000000001
 31
0.0
  0
LINE
  5
670
  8
_________1
 62
     7
 10
71.033799999999999
 20
206.97300000000001
 30
0.0
 11
71.038300000000007
 21
206.93899999999999
 31
0.0
  0
LINE
  5
671
  8
_________1
 62
     7
 10
68.096500000000006
 20
207.28
 30
0.0
 11
69.873900000000006
 21
207.28
 31
0.0
  0
ARC
  5
672
  8
_________1
 62
     7
 10
70.270056999999994
 20
-23.845648000000001
 30
0.0
 40
231.12560199999999
 50
89.901774999999986
 51
90.098205000000007
  0
LINE
  5
673
  8
_________1
 62
     7
 10
38.09470000000001
 20
207.28
 30
0.0
 11
36.015599999999999
 21
207.28
 31
0.0
  0
LINE
  5
674
  8
_________1
 62
     7
 10
38.09470000000001
 20
207.28
 30
0.0
 11
64.952200000000005
 21
207.28
 31
0.0
  0
LINE
  5
675
  8
_________1
 62
     7
 10
72.518999999999991
 20
190.01300000000001
 30
0.0
 11
73.208399999999997
 21
181.38499999999999
 31
0.0
  0
LINE
  5
676
  8
_________1
 62
     7
 10
71.038300000000007
 20
206.93899999999999
 30
0.0
 11
72.280299999999997
 21
192.74100000000001
 31
0.0
  0
ARC
  5
677
  8
_________1
 62
     7
 10
59.878526000000001
 20
210.65541099999999
 30
0.0
 40
0.060092
 50
187.50662299999999
 51
248.49884299999999
  0
LINE
  5
678
  8
_________1
 62
     7
 10
59.6584
 20
211.72300000000001
 30
0.0
 11
59.659399999999991
 21
211.71700000000001
 31
0.0
  0
ARC
  5
679
  8
_________1
 62
     7
 10
58.930068000000013
 20
211.61741599999999
 30
0.0
 40
0.736083
 50
7.120404999999999
 51
7.7424089999999994
  0
ARC
  5
67A
  8
_________1
 62
     7
 10
60.085129000000002
 20
211.77677399999999
 30
0.0
 40
0.430083
 50
189.11286999999999
 51
190.206954
  0
ARC
  5
67B
  8
_________1
 62
     7
 10
59.558081999999992
 20
211.68404899999999
 30
0.0
 40
0.105075
 50
4.1228569999999989
 51
9.041030000000001
  0
ARC
  5
67C
  8
_________1
 62
     7
 10
59.600194999999992
 20
211.67737399999999
 30
0.0
 40
0.064285
 50
4.7041250000000003
 51
12.788197
  0
ARC
  5
67D
  8
_________1
 62
     7
 10
59.618595999999997
 20
211.671167
 30
0.0
 40
0.047088
 50
2.441279999999999
 51
14.110503
  0
ARC
  5
67E
  8
_________1
 62
     7
 10
59.573751999999999
 20
211.65199100000001
 30
0.0
 40
0.094299
 50
6.9207859999999997
 51
12.980465000000001
  0
ARC
  5
67F
  8
_________1
 62
     7
 10
59.758823
 20
211.673979
 30
0.0
 40
0.092074
 50
186.62641400000001
 51
192.93843799999991
  0
ARC
  5
680
  8
_________1
 62
     7
 10
59.798153999999997
 20
211.66494599999999
 30
0.0
 40
0.129586
 50
185.128095
 51
189.81506099999999
  0
ARC
  5
681
  8
_________1
 62
     7
 10
59.566884999999999
 20
211.624189
 30
0.0
 40
0.105248
 50
4.257981
 51
10.215862
  0
ARC
  5
682
  8
_________1
 62
     7
 10
58.283032999999989
 20
211.36981800000001
 30
0.0
 40
1.4133409999999991
 50
10.229120999999999
 51
10.690695
  0
ARC
  5
683
  8
_________1
 62
     7
 10
60.351275999999999
 20
211.69583299999999
 30
0.0
 40
0.6815090000000001
 50
186.32047399999999
 51
187.29766399999991
  0
ARC
  5
684
  8
_________1
 62
     7
 10
58.962009000000002
 20
211.48336699999999
 30
0.0
 40
0.7243050000000001
 50
8.1057620000000004
 51
10.010012
  0
ARC
  5
685
  8
_________1
 62
     7
 10
59.813341999999999
 20
211.59782100000001
 30
0.0
 40
0.134829
 50
185.245723
 51
190.56863999999999
  0
ARC
  5
686
  8
_________1
 62
     7
 10
59.514071999999999
 20
211.544071
 30
0.0
 40
0.169235
 50
5.5181259999999996
 51
9.8739759999999972
  0
ARC
  5
687
  8
_________1
 62
     7
 10
58.477302000000002
 20
211.358363
 30
0.0
 40
1.2220279999999999
 50
8.9082959999999982
 51
9.5137559999999972
  0
LINE
  5
688
  8
_________1
 62
     7
 10
59.684600000000003
 20
211.548
 30
0.0
 11
59.686700000000002
 21
211.535
 31
0.0
  0
ARC
  5
689
  8
_________1
 62
     7
 10
56.848984999999999
 20
211.096507
 30
0.0
 40
2.8712759999999991
 50
8.4997980000000002
 51
8.7744630000000008
  0
ARC
  5
68A
  8
_________1
 62
     7
 10
57.824968999999989
 20
211.23083500000001
 30
0.0
 40
1.8861909999999991
 50
8.4280749999999998
 51
8.8461859999999994
  0
ARC
  5
68B
  8
_________1
 62
     7
 10
57.836181000000003
 20
211.22205299999999
 30
0.0
 40
1.8764160000000001
 50
8.3180189999999996
 51
8.7435100000000006
  0
LINE
  5
68C
  8
_________1
 62
     7
 10
59.692900000000002
 20
211.494
 30
0.0
 11
59.694899999999997
 21
211.47900000000001
 31
0.0
  0
LINE
  5
68D
  8
_________1
 62
     7
 10
59.694899999999997
 20
211.47900000000001
 30
0.0
 11
59.696999999999989
 21
211.465
 31
0.0
  0
ARC
  5
68E
  8
_________1
 62
     7
 10
64.098836000000006
 20
212.09402800000001
 30
0.0
 40
4.446572999999999
 50
188.13367099999999
 51
188.31981200000001
  0
LINE
  5
68F
  8
_________1
 62
     7
 10
59.699100000000001
 20
211.45099999999999
 30
0.0
 11
59.701500000000003
 21
211.43600000000001
 31
0.0
  0
ARC
  5
690
  8
_________1
 62
     7
 10
56.761282999999999
 20
211.01799399999999
 30
0.0
 40
2.9697249999999999
 50
7.799180999999999
 51
8.0877610000000004
  0
ARC
  5
691
  8
_________1
 62
     7
 10
64.878895999999983
 20
212.127197
 30
0.0
 40
5.223319
 50
187.77036000000001
 51
187.93630400000001
  0
LINE
  5
692
  8
_________1
 62
     7
 10
59.70559999999999
 20
211.40600000000001
 30
0.0
 11
59.707999999999998
 21
211.39099999999999
 31
0.0
  0
ARC
  5
693
  8
_________1
 62
     7
 10
59.497453
 20
211.34986799999999
 30
0.0
 40
0.214513
 50
6.8665390000000004
 51
11.012589
  0
ARC
  5
694
  8
_________1
 62
     7
 10
56.61947099999999
 20
210.950951
 30
0.0
 40
3.1199789999999998
 50
7.5369210000000013
 51
7.8210049999999987
  0
LINE
  5
695
  8
_________1
 62
     7
 10
59.712499999999999
 20
211.36000000000001
 30
0.0
 11
59.715299999999999
 21
211.345
 31
0.0
  0
ARC
  5
696
  8
_________1
 62
     7
 10
53.730472999999989
 20
210.54733300000001
 30
0.0
 40
6.0376370000000001
 50
7.4371219999999996
 51
7.5871649999999997
  0
ARC
  5
697
  8
_________1
 62
     7
 10
60.077933999999999
 20
211.37560199999999
 30
0.0
 40
0.363636
 50
187.38958700000001
 51
189.91553400000001
  0
ARC
  5
698
  8
_________1
 62
     7
 10
60.877654999999997
 20
211.48310499999999
 30
0.0
 40
1.1703559999999991
 50
188.35796499999989
 51
189.13439700000001
  0
ARC
  5
699
  8
_________1
 62
     7
 10
55.871650000000002
 20
210.787013
 30
0.0
 40
3.884158999999999
 50
7.3135319999999986
 51
7.5492819999999998
  0
ARC
  5
69A
  8
_________1
 62
     7
 10
59.5154
 20
211.24158
 30
0.0
 40
0.212583
 50
6.491814999999999
 51
10.813267
  0
ARC
  5
69B
  8
_________1
 62
     7
 10
59.518614999999997
 20
211.226111
 30
0.0
 40
0.211723
 50
6.3683149999999991
 51
10.753462000000001
  0
ARC
  5
69C
  8
_________1
 62
     7
 10
59.521027000000011
 20
211.21009100000001
 30
0.0
 40
0.211723
 50
6.3683149999999991
 51
10.753462000000001
  0
ARC
  5
69D
  8
_________1
 62
     7
 10
59.522635000000001
 20
211.193693
 30
0.0
 40
0.212583
 50
6.491814999999999
 51
10.813267
  0
ARC
  5
69E
  8
_________1
 62
     7
 10
59.525849999999998
 20
211.178224
 30
0.0
 40
0.211723
 50
6.3683149999999991
 51
10.753462000000001
  0
ARC
  5
69F
  8
_________1
 62
     7
 10
59.528261999999998
 20
211.162204
 30
0.0
 40
0.211723
 50
6.3683149999999991
 51
10.753462000000001
  0
LINE
  5
6A0
  8
_________1
 62
     7
 10
59.738700000000001
 20
211.18600000000001
 30
0.0
 11
59.741100000000003
 21
211.16999999999999
 31
0.0
  0
LINE
  5
6A1
  8
_________1
 62
     7
 10
59.741100000000003
 20
211.16999999999999
 30
0.0
 11
59.743499999999997
 21
211.154
 31
0.0
  0
ARC
  5
6A2
  8
_________1
 62
     7
 10
60.273446999999997
 20
211.226358
 30
0.0
 40
0.534887
 50
187.793982
 51
189.51113899999999
  0
ARC
  5
6A3
  8
_________1
 62
     7
 10
60.428643000000008
 20
211.23498599999999
 30
0.0
 40
0.689588
 50
188.087299
 51
189.40506300000001
  0
ARC
  5
6A4
  8
_________1
 62
     7
 10
64.109589999999997
 20
211.6831
 30
0.0
 40
4.3971739999999988
 50
187.327305
 51
187.535549
  0
LINE
  5
6A5
  8
_________1
 62
     7
 10
59.750399999999992
 20
211.10599999999999
 30
0.0
 11
59.752800000000001
 21
211.09100000000001
 31
0.0
  0
ARC
  5
6A6
  8
_________1
 62
     7
 10
59.543797999999988
 20
211.05032399999999
 30
0.0
 40
0.212883
 50
6.7299910000000001
 51
10.953635999999999
  0
LINE
  5
6A7
  8
_________1
 62
     7
 10
59.755200000000002
 20
211.07499999999999
 30
0.0
 11
59.757300000000001
 21
211.06
 31
0.0
  0
ARC
  5
6A8
  8
_________1
 62
     7
 10
59.247801000000003
 20
210.960264
 30
0.0
 40
0.5191060000000001
 50
9.3318469999999998
 51
11.051155
  0
ARC
  5
6A9
  8
_________1
 62
     7
 10
64.935395999999997
 20
211.75064499999999
 30
0.0
 40
5.223319
 50
187.77036000000001
 51
187.93630400000001
  0
LINE
  5
6AA
  8
_________1
 62
     7
 10
59.762099999999997
 20
211.029
 30
0.0
 11
59.764200000000002
 21
211.01400000000001
 31
0.0
  0
LINE
  5
6AB
  8
_________1
 62
     7
 10
59.764200000000002
 20
211.01400000000001
 30
0.0
 11
59.76659999999999
 21
210.999
 31
0.0
  0
ARC
  5
6AC
  8
_________1
 62
     7
 10
60.720295999999998
 20
211.147132
 30
0.0
 40
0.965075
 50
188.80059
 51
189.69167300000001
  0
ARC
  5
6AD
  8
_________1
 62
     7
 10
59.324769000000003
 20
210.923892
 30
0.0
 40
0.4483640000000001
 50
5.9498340000000001
 51
7.7901490000000013
  0
ARC
  5
6AE
  8
_________1
 62
     7
 10
59.588543999999992
 20
210.93257
 30
0.0
 40
0.186054
 50
7.2030419999999991
 51
11.7216
  0
ARC
  5
6AF
  8
_________1
 62
     7
 10
65.185772999999998
 20
211.750643
 30
0.0
 40
5.4706799999999998
 50
188.35312500000001
 51
188.50085100000001
  0
ARC
  5
6B0
  8
_________1
 62
     7
 10
61.669226999999999
 20
211.21541400000001
 30
0.0
 40
1.913670999999999
 50
188.215834
 51
188.63814199999999
  0
LINE
  5
6B1
  8
_________1
 62
     7
 10
59.777299999999997
 20
210.928
 30
0.0
 11
59.779299999999999
 21
210.91399999999999
 31
0.0
  0
ARC
  5
6B2
  8
_________1
 62
     7
 10
61.109451999999997
 20
211.112143
 30
0.0
 40
1.344743
 50
188.45657800000001
 51
189.035785
  0
ARC
  5
6B3
  8
_________1
 62
     7
 10
59.544157999999989
 20
210.86307500000001
 30
0.0
 40
0.240243
 50
5.9211079999999994
 51
9.0706050000000005
  0
ARC
  5
6B4
  8
_________1
 62
     7
 10
62.785488999999998
 20
211.36161200000001
 30
0.0
 40
3.039517
 50
188.966982
 51
189.21360999999999
  0
ARC
  5
6B5
  8
_________1
 62
     7
 10
62.466487999999998
 20
211.303203
 30
0.0
 40
2.7152880000000001
 50
189.07480100000001
 51
189.34728999999999
  0
ARC
  5
6B6
  8
_________1
 62
     7
 10
59.911855000000003
 20
210.87350499999999
 30
0.0
 40
0.125113
 50
185.1879119999999
 51
190.84631200000001
  0
ARC
  5
6B7
  8
_________1
 62
     7
 10
60.566453000000003
 20
210.94960900000001
 30
0.0
 40
0.783836
 50
187.30367699999999
 51
189.07196500000001
  0
ARC
  5
6B8
  8
_________1
 62
     7
 10
59.613745999999999
 20
210.793451
 30
0.0
 40
0.181619
 50
6.6480050000000004
 51
10.329881
  0
ARC
  5
6B9
  8
_________1
 62
     7
 10
59.896220999999997
 20
210.82478
 30
0.0
 40
0.102595
 50
185.763431
 51
191.99792500000001
  0
ARC
  5
6BA
  8
_________1
 62
     7
 10
59.682476999999999
 20
210.78353999999999
 30
0.0
 40
0.115125
 50
4.5137450000000001
 51
9.9600969999999993
  0
ARC
  5
6BB
  8
_________1
 62
     7
 10
59.676222000000003
 20
210.76736600000001
 30
0.0
 40
0.123625
 50
6.8417289999999982
 51
11.778149000000001
  0
ARC
  5
6BC
  8
_________1
 62
     7
 10
59.887702000000012
 20
210.79190500000001
 30
0.0
 40
0.089275
 50
186.31012200000001
 51
192.929371
  0
ARC
  5
6BD
  8
_________1
 62
     7
 10
59.906043999999987
 20
210.78171
 30
0.0
 40
0.105807
 50
185.3038709999999
 51
190.67482100000001
  0
ARC
  5
6BE
  8
_________1
 62
     7
 10
59.894213000000001
 20
210.77100899999999
 30
0.0
 40
0.092574
 50
185.515773
 51
191.33820299999999
  0
ARC
  5
6BF
  8
_________1
 62
     7
 10
59.523654000000001
 20
210.70590799999999
 30
0.0
 40
0.283695
 50
7.6512229999999981
 51
9.5160180000000008
  0
ARC
  5
6C0
  8
_________1
 62
     7
 10
59.88945300000001
 20
210.752454
 30
0.0
 40
0.085082
 50
185.919419
 51
191.910472
  0
ARC
  5
6C1
  8
_________1
 62
     7
 10
59.879097999999999
 20
210.742795
 30
0.0
 40
0.073322
 50
186.1854779999999
 51
192.739204
  0
ARC
  5
6C2
  8
_________1
 62
     7
 10
59.860110999999989
 20
210.72944899999999
 30
0.0
 40
0.052607
 50
183.07566299999999
 51
191.78719100000001
  0
ARC
  5
6C3
  8
_________1
 62
     7
 10
60.799246999999987
 20
210.849929
 30
0.0
 40
0.9992869999999999
 50
187.54588899999999
 51
187.98448099999999
  0
LINE
  5
6C4
  8
_________1
 62
     7
 10
59.809600000000003
 20
210.71100000000001
 30
0.0
 11
59.81069999999999
 21
210.70400000000001
 31
0.0
  0
ARC
  5
6C5
  8
_________1
 62
     7
 10
59.372417000000013
 20
210.63133500000001
 30
0.0
 40
0.444228
 50
8.5452639999999995
 51
9.3999869999999994
  0
ARC
  5
6C6
  8
_________1
 62
     7
 10
60.351427999999999
 20
210.78159400000001
 30
0.0
 40
0.5462500000000001
 50
188.872423
 51
189.549668
  0
ARC
  5
6C7
  8
_________1
 62
     7
 10
59.840268999999992
 20
210.69280699999999
 30
0.0
 40
0.027582
 50
183.81903399999999
 51
196.1969629999999
  0
ARC
  5
6C8
  8
_________1
 62
     7
 10
61.287768
 20
210.89159900000001
 30
0.0
 40
1.4883789999999999
 50
187.974501
 51
188.8794739999999
  0
LINE
  5
6C9
  8
_________1
 62
     7
 10
59.8172
 20
210.66200000000001
 30
0.0
 11
59.817599999999999
 21
210.65799999999999
 31
0.0
  0
LINE
  5
6CA
  8
_________1
 62
     7
 10
59.817599999999999
 20
210.65799999999999
 30
0.0
 11
59.817900000000002
 21
210.65600000000001
 31
0.0
  0
LINE
  5
6CB
  8
_________1
 62
     7
 10
59.817900000000002
 20
210.65600000000001
 30
0.0
 11
59.818300000000001
 21
210.65299999999999
 31
0.0
  0
LINE
  5
6CC
  8
_________1
 62
     7
 10
59.818300000000001
 20
210.65299999999999
 30
0.0
 11
59.818600000000011
 21
210.65100000000001
 31
0.0
  0
LINE
  5
6CD
  8
_________1
 62
     7
 10
59.818600000000011
 20
210.65100000000001
 30
0.0
 11
59.818899999999992
 21
210.65000000000001
 31
0.0
  0
LINE
  5
6CE
  8
_________1
 62
     7
 10
59.818899999999992
 20
210.65000000000001
 30
0.0
 11
59.818899999999992
 21
210.649
 31
0.0
  0
LINE
  5
6D0
  8
_________1
 62
     7
 10
59.818899999999992
 20
210.649
 30
0.0
 11
59.818899999999992
 21
210.648
 31
0.0
  0
LINE
  5
6D2
  8
_________1
 62
     7
 10
41.915700000000001
 20
200.358
 30
0.0
 11
42.051400000000001
 21
200.46899999999999
 31
0.0
  0
LINE
  5
6D3
  8
_________1
 62
     7
 10
36.2151
 20
200.91300000000001
 30
0.0
 11
36.103499999999997
 21
201.048
 31
0.0
  0
LINE
  5
6D4
  8
_________1
 62
     7
 10
37.971699999999998
 20
189.40599999999989
 30
0.0
 11
38.927399999999999
 21
199.21799999999999
 31
0.0
  0
LINE
  5
6D5
  8
_________1
  6
AIGENLINE001
 62
     7
 10
38.981499999999997
 20
199.774
 30
0.0
 11
39.383899999999997
 21
203.90600000000001
 31
0.0
  0
LINE
  5
6D6
  8
_________1
 62
     7
 10
36.103499999999997
 20
201.048
 30
0.0
 11
36.296399999999998
 21
203.03100000000001
 31
0.0
  0
LINE
  5
6D7
  8
_________1
 62
     7
 10
42.051400000000001
 20
200.46899999999999
 30
0.0
 11
42.244700000000002
 21
202.452
 31
0.0
  0
LINE
  5
6D8
  8
_________1
 62
     7
 10
36.5441
 20
203.00700000000001
 30
0.0
 11
36.546500000000002
 21
203.03200000000001
 31
0.0
  0
LINE
  5
6D9
  8
_________1
 62
     7
 10
41.996999999999993
 20
202.476
 30
0.0
 11
41.999099999999999
 21
202.501
 31
0.0
  0
LINE
  5
6DA
  8
_________1
 62
     7
 10
40.266199999999998
 20
200.643
 30
0.0
 11
40.192500000000003
 21
200.62200000000001
 31
0.0
  0
LINE
  5
6DB
  8
_________1
 62
     7
 10
40.192500000000003
 20
200.62200000000001
 30
0.0
 11
40.119399999999999
 21
200.60300000000001
 31
0.0
  0
LINE
  5
6DC
  8
_________1
 62
     7
 10
40.119399999999999
 20
200.60300000000001
 30
0.0
 11
40.045999999999992
 21
200.58600000000001
 31
0.0
  0
LINE
  5
6DD
  8
_________1
 62
     7
 10
40.045999999999992
 20
200.58600000000001
 30
0.0
 11
39.971299999999999
 21
200.56899999999999
 31
0.0
  0
LINE
  5
6DE
  8
_________1
 62
     7
 10
39.971299999999999
 20
200.56899999999999
 30
0.0
 11
39.896900000000002
 21
200.554
 31
0.0
  0
LINE
  5
6DF
  8
_________1
 62
     7
 10
37.889099999999999
 20
200.875
 30
0.0
 11
37.975200000000001
 21
200.83099999999999
 31
0.0
  0
LINE
  5
6E0
  8
_________1
 62
     7
 10
37.975200000000001
 20
200.83099999999999
 30
0.0
 11
38.061300000000003
 21
200.78999999999999
 31
0.0
  0
LINE
  5
6E1
  8
_________1
 62
     7
 10
38.061300000000003
 20
200.78999999999999
 30
0.0
 11
38.147799999999997
 21
200.75200000000001
 31
0.0
  0
LINE
  5
6E2
  8
_________1
 62
     7
 10
38.147799999999997
 20
200.75200000000001
 30
0.0
 11
38.234299999999998
 21
200.71600000000001
 31
0.0
  0
LINE
  5
6E3
  8
_________1
 62
     7
 10
37.889099999999999
 20
200.875
 30
0.0
 11
36.103499999999997
 21
201.048
 31
0.0
  0
LINE
  5
6E4
  8
_________1
 62
     7
 10
37.968600000000009
 20
201.69300000000001
 30
0.0
 11
37.889099999999999
 21
200.875
 31
0.0
  0
LINE
  5
6E5
  8
_________1
 62
     7
 10
37.968600000000009
 20
201.69300000000001
 30
0.0
 11
40.345799999999997
 21
201.46199999999999
 31
0.0
  0
LINE
  5
6E6
  8
_________1
 62
     7
 10
40.345799999999997
 20
201.46199999999999
 30
0.0
 11
40.266199999999998
 21
200.643
 31
0.0
  0
LINE
  5
6E7
  8
_________1
 62
     7
 10
40.266199999999998
 20
200.643
 30
0.0
 11
42.051400000000001
 21
200.46899999999999
 31
0.0
  0
LINE
  5
6E8
  8
_________1
 62
     7
 10
41.915700000000001
 20
200.358
 30
0.0
 11
39.896900000000002
 21
200.554
 31
0.0
  0
LINE
  5
6E9
  8
_________1
 62
     7
 10
39.896900000000002
 20
200.554
 30
0.0
 11
38.234299999999998
 21
200.71600000000001
 31
0.0
  0
LINE
  5
6EA
  8
_________1
 62
     7
 10
38.234299999999998
 20
200.71600000000001
 30
0.0
 11
36.2151
 21
200.91300000000001
 31
0.0
  0
LINE
  5
6EB
  8
_________1
 62
     7
 10
36.296399999999998
 20
203.03100000000001
 30
0.0
 11
42.244700000000002
 21
202.452
 31
0.0
  0
ARC
  5
6EC
  8
_________1
 62
     7
 10
62.804731999999987
 20
207.17214300000001
 30
0.0
 40
2.3003040000000001
 50
174.07264699999999
 51
177.32212799999999
  0
ARC
  5
6ED
  8
_________1
 62
     7
 10
65.987861999999993
 20
206.87558100000001
 30
0.0
 40
5.4971449999999988
 50
168.57659699999999
 51
174.424271
  0
ARC
  5
6EE
  8
_________1
 62
     7
 10
67.651483999999996
 20
208.22108900000001
 30
0.0
 40
2.6494939999999989
 50
30.208261
 51
37.786924999999997
  0
ARC
  5
6EF
  8
_________1
 62
     7
 10
65.892999000000003
 20
207.158749
 30
0.0
 40
4.7038080000000004
 50
21.317048
 51
30.613924000000001
  0
ARC
  5
6F0
  8
_________1
 62
     7
 10
64.943186999999995
 20
206.72533300000001
 30
0.0
 40
5.7464940000000002
 50
11.091385000000001
 51
21.900133
  0
ARC
  5
6F1
  8
_________1
 62
     7
 10
67.460498999999999
 20
207.25024400000001
 30
0.0
 40
3.1753719999999999
 50
2.778227999999999
 51
10.5349
  0
LINE
  5
6F2
  8
_________1
 62
     7
 10
69.606200000000001
 20
209.845
 30
0.0
 11
69.745400000000004
 21
209.845
 31
0.0
  0
LINE
  5
6F3
  8
_________1
 62
     7
 10
64.952200000000005
 20
207.28
 30
0.0
 11
68.096500000000006
 21
207.28
 31
0.0
  0
ARC
  5
6F4
  8
_________1
 62
     7
 10
65.767285999999999
 20
206.966038
 30
0.0
 40
4.8673839999999986
 50
3.6937799999999998
 51
5.1642289999999988
  0
LINE
  5
6F5
  8
_________1
 62
     7
 10
70.614900000000006
 20
207.404
 30
0.0
 11
70.632099999999994
 21
207.404
 31
0.0
  0
ARC
  5
6F6
  8
_________1
 62
     7
 10
-27.202950000000001
 20
215.12436199999999
 30
0.0
 40
0.26076
 50
71.76202099999999
 51
89.554731000000004
  0
ARC
  5
6F7
  8
_________1
 62
     7
 10
-27.20693300000001
 20
215.126811
 30
0.0
 40
0.25972
 50
53.213996999999999
 51
70.758274000000014
  0
ARC
  5
6F8
  8
_________1
 62
     7
 10
-27.200977999999999
 20
215.13672199999999
 30
0.0
 40
0.248219
 50
34.587255999999996
 51
52.944989999999997
  0
ARC
  5
6F9
  8
_________1
 62
     7
 10
-27.199231000000001
 20
215.13757699999999
 30
0.0
 40
0.246297
 50
16.038224
 51
34.654122999999998
  0
ARC
  5
6FA
  8
_________1
 62
     7
 10
-27.187348
 20
215.13667000000001
 30
0.0
 40
0.235163
 50
359.844537
 51
17.050515000000001
  0
ARC
  5
6FB
  8
_________1
 62
     7
 10
-37.451434999999996
 20
215.13579999999999
 30
0.0
 40
0.250895
 50
161.40936099999999
 51
179.94701499999999
  0
ARC
  5
6FC
  8
_________1
 62
     7
 10
-37.448824000000002
 20
215.13274699999999
 30
0.0
 40
0.254351
 50
143.02731399999999
 51
160.94493800000001
  0
ARC
  5
6FD
  8
_________1
 62
     7
 10
-37.45801500000001
 20
215.14103399999999
 30
0.0
 40
0.242027
 50
124.42585699999999
 51
143.28610699999999
  0
ARC
  5
6FE
  8
_________1
 62
     7
 10
-37.452528999999998
 20
215.13641200000001
 30
0.0
 40
0.248948
 50
106.487801
 51
124.865804
  0
ARC
  5
6FF
  8
_________1
 62
     7
 10
-37.453165000000013
 20
215.13207
 30
0.0
 40
0.252937
 50
97.138828000000004
 51
106.070674
  0
LINE
  5
700
  8
_________1
 62
     7
 10
-37.4846
 20
215.38300000000001
 30
0.0
 11
-37.465000000000011
 21
215.38499999999999
 31
0.0
  0
LINE
  5
701
  8
_________1
 62
     7
 10
-37.465000000000011
 20
215.38499999999999
 30
0.0
 11
-37.457700000000003
 21
215.38499999999999
 31
0.0
  0
LINE
  5
702
  8
_________1
 62
     7
 10
-37.457700000000003
 20
215.38499999999999
 30
0.0
 11
-37.454999999999998
 21
215.38499999999999
 31
0.0
  0
LINE
  5
703
  8
_________1
 62
     7
 10
-37.454999999999998
 20
215.38499999999999
 30
0.0
 11
-37.453600000000002
 21
215.38499999999999
 31
0.0
  0
LINE
  5
704
  8
_________1
 62
     7
 10
-37.453600000000002
 20
215.38499999999999
 30
0.0
 11
-37.453200000000002
 21
215.38499999999999
 31
0.0
  0
LINE
  5
705
  8
_________1
 62
     7
 10
-27.893000000000001
 20
214.28999999999999
 30
0.0
 11
-27.805199999999999
 21
214.28999999999999
 31
0.0
  0
LINE
  5
706
  8
_________1
 62
     7
 10
-26.952200000000001
 20
215.136
 30
0.0
 11
-26.952500000000001
 21
207.98500000000001
 31
0.0
  0
LINE
  5
707
  8
_________1
 62
     7
 10
-37.702300000000001
 20
207.98500000000001
 30
0.0
 11
-37.702300000000001
 21
215.136
 31
0.0
  0
LINE
  5
708
  8
_________1
 62
     7
 10
-36.761800000000001
 20
214.28999999999999
 30
0.0
 11
-36.740499999999997
 21
214.28999999999999
 31
0.0
  0
LINE
  5
709
  8
_________1
 62
     7
 10
-35.281799999999997
 20
214.28999999999999
 30
0.0
 11
-35.996000000000009
 21
214.28999999999999
 31
0.0
  0
LINE
  5
70A
  8
_________1
 62
     7
 10
-35.996000000000009
 20
214.28999999999999
 30
0.0
 11
-36.170299999999997
 21
214.28999999999999
 31
0.0
  0
LINE
  5
70B
  8
_________1
 62
     7
 10
-36.170299999999997
 20
214.28999999999999
 30
0.0
 11
-36.531300000000002
 21
214.28999999999999
 31
0.0
  0
LINE
  5
70C
  8
_________1
 62
     7
 10
-36.531300000000002
 20
214.28999999999999
 30
0.0
 11
-36.740499999999997
 21
214.28999999999999
 31
0.0
  0
LINE
  5
70D
  8
_________1
 62
     7
 10
-35.281799999999997
 20
214.28999999999999
 30
0.0
 11
-35.0503
 21
214.28999999999999
 31
0.0
  0
LINE
  5
70E
  8
_________1
 62
     7
 10
-35.0503
 20
214.28999999999999
 30
0.0
 11
-29.604199999999999
 21
214.28999999999999
 31
0.0
  0
LINE
  5
70F
  8
_________1
 62
     7
 10
-29.373100000000001
 20
214.28999999999999
 30
0.0
 11
-29.604199999999999
 21
214.28999999999999
 31
0.0
  0
LINE
  5
710
  8
_________1
 62
     7
 10
-29.373100000000001
 20
214.28999999999999
 30
0.0
 11
-28.660299999999999
 21
214.28999999999999
 31
0.0
  0
LINE
  5
711
  8
_________1
 62
     7
 10
-28.660299999999999
 20
214.28999999999999
 30
0.0
 11
-28.5442
 21
214.28999999999999
 31
0.0
  0
LINE
  5
712
  8
_________1
 62
     7
 10
-28.5442
 20
214.28999999999999
 30
0.0
 11
-28.1252
 21
214.28999999999999
 31
0.0
  0
LINE
  5
713
  8
_________1
 62
     7
 10
-28.1252
 20
214.28999999999999
 30
0.0
 11
-27.947099999999999
 21
214.28999999999999
 31
0.0
  0
LINE
  5
714
  8
_________1
 62
     7
 10
-27.947099999999999
 20
214.28999999999999
 30
0.0
 11
-27.914100000000001
 21
214.28999999999999
 31
0.0
  0
LINE
  5
715
  8
_________1
 62
     7
 10
-27.893000000000001
 20
214.28999999999999
 30
0.0
 11
-27.914100000000001
 21
214.28999999999999
 31
0.0
  0
LINE
  5
716
  8
_________1
 62
     7
 10
-27.668800000000001
 20
215.38499999999999
 30
0.0
 11
-27.643599999999999
 21
215.38499999999999
 31
0.0
  0
LINE
  5
717
  8
_________1
 62
     7
 10
-27.668800000000001
 20
215.38499999999999
 30
0.0
 11
-27.979500000000002
 21
215.38499999999999
 31
0.0
  0
LINE
  5
718
  8
_________1
 62
     7
 10
-27.979500000000002
 20
215.38499999999999
 30
0.0
 11
-28.122499999999999
 21
215.38499999999999
 31
0.0
  0
LINE
  5
719
  8
_________1
 62
     7
 10
-28.122499999999999
 20
215.38499999999999
 30
0.0
 11
-28.443899999999999
 21
215.38499999999999
 31
0.0
  0
LINE
  5
71A
  8
_________1
 62
     7
 10
-28.443899999999999
 20
215.38499999999999
 30
0.0
 11
-29.037500000000001
 21
215.38499999999999
 31
0.0
  0
LINE
  5
71B
  8
_________1
 62
     7
 10
-29.037500000000001
 20
215.38499999999999
 30
0.0
 11
-29.353400000000001
 21
215.38499999999999
 31
0.0
  0
LINE
  5
71C
  8
_________1
 62
     7
 10
-29.353400000000001
 20
215.38499999999999
 30
0.0
 11
-29.379300000000001
 21
215.38499999999999
 31
0.0
  0
LINE
  5
71D
  8
_________1
 62
     7
 10
-29.614599999999999
 20
215.38499999999999
 30
0.0
 11
-29.379300000000001
 21
215.38499999999999
 31
0.0
  0
LINE
  5
71E
  8
_________1
 62
     7
 10
-29.614599999999999
 20
215.38499999999999
 30
0.0
 11
-35.040300000000002
 21
215.38499999999999
 31
0.0
  0
LINE
  5
71F
  8
_________1
 62
     7
 10
-35.275199999999998
 20
215.38399999999999
 30
0.0
 11
-35.045099999999998
 21
215.38399999999999
 31
0.0
  0
LINE
  5
720
  8
_________1
 62
     7
 10
-35.045099999999998
 20
215.38399999999999
 30
0.0
 11
-35.040300000000002
 21
215.38399999999999
 31
0.0
  0
LINE
  5
721
  8
_________1
 62
     7
 10
-36.860999999999997
 20
215.38499999999999
 30
0.0
 11
-36.974400000000003
 21
215.38499999999999
 31
0.0
  0
LINE
  5
722
  8
_________1
 62
     7
 10
-36.974400000000003
 20
215.38499999999999
 30
0.0
 11
-36.960299999999997
 21
215.38499999999999
 31
0.0
  0
LINE
  5
723
  8
_________1
 62
     7
 10
-36.960299999999997
 20
215.38499999999999
 30
0.0
 11
-36.597499999999997
 21
215.38499999999999
 31
0.0
  0
LINE
  5
724
  8
_________1
 62
     7
 10
-36.597499999999997
 20
215.38499999999999
 30
0.0
 11
-36.399700000000003
 21
215.38499999999999
 31
0.0
  0
LINE
  5
725
  8
_________1
 62
     7
 10
-36.399700000000003
 20
215.38499999999999
 30
0.0
 11
-36.104100000000003
 21
215.38499999999999
 31
0.0
  0
LINE
  5
726
  8
_________1
 62
     7
 10
-36.104100000000003
 20
215.38499999999999
 30
0.0
 11
-35.333799999999997
 21
215.38499999999999
 31
0.0
  0
LINE
  5
727
  8
_________1
 62
     7
 10
-35.333799999999997
 20
215.38499999999999
 30
0.0
 11
-35.275199999999998
 21
215.38499999999999
 31
0.0
  0
LINE
  5
728
  8
_________1
 62
     7
 10
-36.860999999999997
 20
215.38499999999999
 30
0.0
 11
-36.885800000000003
 21
215.38499999999999
 31
0.0
  0
LINE
  5
729
  8
_________1
 62
     7
 10
-36.885800000000003
 20
215.38499999999999
 30
0.0
 11
-37.45150000000001
 21
215.38499999999999
 31
0.0
  0
LINE
  5
72A
  8
_________1
 62
     7
 10
-36.761800000000001
 20
214.28999999999999
 30
0.0
 11
-37.016399999999997
 21
214.28999999999999
 31
0.0
  0
LINE
  5
72B
  8
_________1
 62
     7
 10
-27.805199999999999
 20
214.28999999999999
 30
0.0
 11
-27.638500000000001
 21
214.28999999999999
 31
0.0
  0
LINE
  5
72C
  8
_________1
 62
     7
 10
-27.202999999999999
 20
215.38499999999999
 30
0.0
 11
-27.643599999999999
 21
215.38499999999999
 31
0.0
  0
ARC
  5
72D
  8
_________1
 62
     7
 10
-37.674101999999998
 20
207.976742
 30
0.0
 40
0.027885
 50
179.308707
 51
200.25610499999999
  0
ARC
  5
72E
  8
_________1
 62
     7
 10
-37.652540999999999
 20
207.98312300000001
 30
0.0
 40
0.049812
 50
178.23484199999999
 51
186.970282
  0
LINE
  5
72F
  8
_________1
 62
     7
 10
-37.62830000000001
 20
207.964
 30
0.0
 11
-37.6982
 21
207.964
 31
0.0
  0
LINE
  5
730
  8
_________1
 62
     7
 10
-37.62830000000001
 20
207.964
 30
0.0
 11
-37.500399999999999
 21
207.964
 31
0.0
  0
LINE
  5
731
  8
_________1
 62
     7
 10
-37.500399999999999
 20
207.964
 30
0.0
 11
-37.191099999999999
 21
207.964
 31
0.0
  0
LINE
  5
732
  8
_________1
 62
     7
 10
-37.191099999999999
 20
207.964
 30
0.0
 11
-36.924799999999998
 21
207.964
 31
0.0
  0
LINE
  5
733
  8
_________1
 62
     7
 10
-36.924799999999998
 20
207.964
 30
0.0
 11
-36.632599999999996
 21
207.964
 31
0.0
  0
LINE
  5
734
  8
_________1
 62
     7
 10
-26.952500000000001
 20
207.964
 30
0.0
 11
-36.632599999999996
 21
207.964
 31
0.0
  0
INSERT
  5
735
  8
_________1
 62
     7
  2
AIGNBL03010003
 10
0.0
 20
0.0
 30
0.0
  0
INSERT
  5
736
  8
_________1
 62
     7
  2
AIGNBL03010004
 10
0.0
 20
0.0
 30
0.0
  0
INSERT
  5
737
  8
_________1
 62
     7
  2
AIGNBL03010005
 10
0.0
 20
0.0
 30
0.0
  0
LINE
  5
738
  8
_________1
 62
     7
 10
61.440600000000003
 20
182.08500000000001
 30
0.0
 11
61.440600000000003
 21
185.035
 31
0.0
  0
LINE
  5
739
  8
_________1
 62
     7
 10
74.190600000000003
 20
182.08500000000001
 30
0.0
 11
74.190600000000003
 21
185.035
 31
0.0
  0
INSERT
  5
73A
  8
_________1
 62
     7
  2
AIGNBL03010006
 10
0.0
 20
0.0
 30
0.0
  0
LINE
  5
73B
  8
_________1
 62
     7
 10
43.714700000000001
 20
215.38499999999999
 30
0.0
 11
21.0242
 21
215.38499999999999
 31
0.0
  0
LINE
  5
73C
  8
_________1
 62
     7
 10
49.178999999999988
 20
200.358
 30
0.0
 11
42.671599999999991
 21
200.358
 31
0.0
  0
LINE
  5
73D
  8
_________1
 62
     7
 10
36.536799999999999
 20
200.63499999999999
 30
0.0
 11
28.098400000000002
 21
200.63499999999999
 31
0.0
  0
LINE
  5
73E
  8
_________1
 62
     7
 10
49.397500000000001
 20
223.63499999999999
 30
0.0
 11
13.9427
 21
223.63499999999999
 31
0.0
  0
LINE
  5
73F
  8
_________1
 62
     7
 10
60.665399999999991
 20
180.13499999999999
 30
0.0
 11
13.9427
 21
180.13499999999999
 31
0.0
  0
INSERT
  5
740
  8
_________1
 62
     7
  2
AIGNBL03010007
 10
0.0
 20
0.0
 30
0.0
  0
INSERT
  5
741
  8
_________1
 62
     7
  2
AIGNBL03010008
 10
0.0
 20
0.0
 30
0.0
  0
LINE
  5
742
  8
_________1
 62
     7
 10
-38.702399999999997
 20
188.22399999999999
 30
0.0
 11
-38.702399999999997
 21
182.08500000000001
 31
0.0
  0
LINE
  5
743
  8
_________1
 62
     7
 10
-25.952400000000001
 20
188.22399999999999
 30
0.0
 11
-25.952400000000001
 21
182.08500000000001
 31
0.0
  0
LINE
  5
744
  8
_________1
 62
     7
 10
77.397300000000001
 20
197.82900000000001
 30
0.0
 11
77.397300000000001
 21
195.404
 31
0.0
  0
LINE
  5
745
  8
_________1
 62
     7
 10
67.815399999999997
 20
190.75399999999999
 30
0.0
 11
67.815399999999997
 21
188.51599999999999
 31
0.0
  0
INSERT
  5
746
  8
_________1
 62
     7
  2
AIGNBL03010009
 10
0.0
 20
0.0
 30
0.0
  0
INSERT
  5
747
  8
_________1
 62
     7
  2
AIGNBL0301000A
 10
0.0
 20
0.0
 30
0.0
  0
INSERT
  5
748
  8
_________1
 62
     7
  2
AIGNBL0301000B
 10
0.0
 20
0.0
 30
0.0
  0
INSERT
  5
749
  8
_________1
 62
     7
  2
AIGNBL0301000C
 10
0.0
 20
0.0
 30
0.0
  0
LINE
  5
74A
  8
_________1
 62
     7
 10
-16.271999999999998
 20
244.501
 30
0.0
 11
-7.7849300000000001
 21
236.01400000000001
 31
0.0
  0
LINE
  5
74B
  8
_________1
 62
     7
 10
-32.327599999999997
 20
228.86199999999999
 30
0.0
 11
-32.327599999999997
 21
225.946
 31
0.0
  0
LINE
  5
74C
  8
_________1
 62
     7
 10
39.065199999999997
 20
199.79400000000001
 30
0.0
 11
39.065199999999997
 21
189.339
 31
0.0
  0
LINE
  5
74D
  8
_________1
  6
AIGENLINE001
 62
     7
 10
67.815399999999997
 20
187.816
 30
0.0
 11
67.815399999999997
 21
177.96199999999999
 31
0.0
  0
LINE
  5
74E
  8
_________1
  6
AIGENLINE001
 62
     7
 10
-32.327599999999997
 20
273.39400000000001
 30
0.0
 11
-32.327599999999997
 21
228.86199999999999
 31
0.0
  0
LINE
  5
74F
  8
_________1
  6
AIGENLINE001
 62
     7
 10
-39.7194
 20
260.55700000000002
 30
0.0
 11
-25.0791
 21
260.55700000000002
 31
0.0
  0
LINE
  5
750
  8
_________1
  6
AIGENLINE001
 62
     7
 10
-32.327599999999997
 20
216.489
 30
0.0
 11
-32.327599999999997
 21
198.48599999999999
 31
0.0
  0
LINE
  5
751
  8
_________1
  6
AIGENLINE001
 62
     7
 10
-32.327599999999997
 20
193.744
 30
0.0
 11
-32.327599999999997
 21
191.81399999999999
 31
0.0
  0
LINE
  5
752
  8
_________1
  6
AIGENLINE001
 62
     7
 10
-32.327599999999997
 20
186.696
 30
0.0
 11
-32.327599999999997
 21
106.197
 31
0.0
  0
ARC
  5
753
  8
_________1
 62
     7
 10
-29.441744
 20
203.06788900000001
 30
0.0
 40
0.24259
 50
294.97750000000002
 51
305.52144399999997
  0
ARC
  5
754
  8
_________1
 62
     7
 10
-29.34205
 20
202.92893000000001
 30
0.0
 40
0.07157
 50
305.19770399999999
 51
329.67651799999999
  0
ARC
  5
755
  8
_________1
 62
     7
 10
-29.310171
 20
202.908186
 30
0.0
 40
0.033627
 50
332.76212600000002
 51
48.034300000000002
  0
ARC
  5
756
  8
_________1
 62
     7
 10
-29.374832000000001
 20
202.849988
 30
0.0
 40
0.120487
 50
43.673014000000002
 51
60.433745999999992
  0
ARC
  5
757
  8
_________1
 62
     7
 10
-29.500340999999999
 20
202.63046299999999
 30
0.0
 40
0.373358
 50
60.304026000000007
 51
70.741908999999993
  0
ARC
  5
758
  8
_________1
 62
     7
 10
-29.740337
 20
201.95788099999999
 30
0.0
 40
1.087470999999999
 50
70.492543000000012
 51
76.841370999999995
  0
ARC
  5
759
  8
_________1
 62
     7
 10
-30.101140999999998
 20
200.46437299999999
 30
0.0
 40
2.623924999999999
 50
76.593813999999995
 51
80.464833999999996
  0
ARC
  5
75A
  8
_________1
 62
     7
 10
-30.590373
 20
197.61269200000001
 30
0.0
 40
5.5172600000000003
 50
80.360118999999997
 51
83.131171999999978
  0
ARC
  5
75B
  8
_________1
 62
     7
 10
-31.159561
 20
192.965532
 30
0.0
 40
10.199142
 50
83.078823999999997
 51
85.055476999999996
  0
ARC
  5
75C
  8
_________1
 62
     7
 10
-31.967438000000001
 20
183.366579
 30
0.0
 40
19.832017999999991
 50
85.120401000000001
 51
89.267853000000002
  0
ARC
  5
75D
  8
_________1
 62
     7
 10
-32.309190000000001
 20
173.63770600000001
 30
0.0
 40
29.565263000000002
 50
88.846520999999996
 51
93.291579000000013
  0
ARC
  5
75E
  8
_________1
 62
     7
 10
-33.229456999999996
 20
190.49221499999999
 30
0.0
 40
12.685815
 50
93.512864000000008
 51
97.206417000000016
  0
ARC
  5
75F
  8
_________1
 62
     7
 10
-34.259168000000003
 20
198.87088700000001
 30
0.0
 40
4.2442599999999988
 50
97.604410999999985
 51
100.98933599999989
  0
ARC
  5
760
  8
_________1
 62
     7
 10
-34.736629999999998
 20
201.30138299999999
 30
0.0
 40
1.7673239999999999
 50
100.814593
 51
106.063598
  0
ARC
  5
761
  8
_________1
 62
     7
 10
-35.054580999999999
 20
202.39225300000001
 30
0.0
 40
0.63108
 50
105.72874
 51
114.42685899999999
  0
ARC
  5
762
  8
_________1
 62
     7
 10
-35.254468000000003
 20
202.80272600000001
 30
0.0
 40
0.175118
 50
110.415333
 51
122.43642699999999
  0
ARC
  5
763
  8
_________1
 62
     7
 10
-35.307318000000002
 20
202.88505900000001
 30
0.0
 40
0.077284
 50
122.106881
 51
146.47581
  0
ARC
  5
764
  8
_________1
 62
     7
 10
-35.338816999999999
 20
202.90736899999999
 30
0.0
 40
0.038722
 50
148.25519
 51
216.902469
  0
ARC
  5
765
  8
_________1
 62
     7
 10
-35.303446999999998
 20
202.93402
 30
0.0
 40
0.083008
 50
216.95319499999999
 51
239.43789100000001
  0
ARC
  5
766
  8
_________1
 62
     7
 10
-35.254658999999997
 20
203.01232300000001
 30
0.0
 40
0.175254
 50
238.72005300000001
 51
249.66798700000001
  0
LINE
  5
767
  8
_________1
 62
     7
 10
-37.702300000000001
 20
206.90600000000001
 30
0.0
 11
-37.702300000000001
 21
181.38499999999999
 31
0.0
  0
ARC
  5
768
  8
_________1
 62
     7
 10
-27.325444000000001
 20
206.919139
 30
0.0
 40
0.360476
 50
80.125349999999983
 51
90.085425000000015
  0
ARC
  5
769
  8
_________1
 62
     7
 10
-27.318863
 20
206.93270899999999
 30
0.0
 40
0.346003
 50
70.797015000000002
 51
80.813493000000008
  0
ARC
  5
76A
  8
_________1
 62
     7
 10
-27.327442999999999
 20
206.90290100000001
 30
0.0
 40
0.376979
 50
54.511986999999991
 51
71.055775999999994
  0
ARC
  5
76B
  8
_________1
 62
     7
 10
-27.330756999999998
 20
206.901625
 30
0.0
 40
0.379947
 50
37.847783999999997
 51
54.216695000000001
  0
ARC
  5
76C
  8
_________1
 62
     7
 10
-27.328816
 20
206.90382199999999
 30
0.0
 40
0.377066
 50
21.228055000000001
 51
37.765051
  0
ARC
  5
76D
  8
_________1
 62
     7
 10
-27.337743
 20
206.903357
 30
0.0
 40
0.3855659999999999
 50
0.3915449999999999
 51
20.812280999999999
  0
ARC
  5
76E
  8
_________1
 62
     7
 10
-37.32798300000001
 20
206.90588500000001
 30
0.0
 40
0.374347
 50
161.35950099999999
 51
179.983679
  0
ARC
  5
76F
  8
_________1
 62
     7
 10
-37.324121000000012
 20
206.903435
 30
0.0
 40
0.378791
 50
143.14844199999999
 51
161.19516999999999
  0
ARC
  5
770
  8
_________1
 62
     7
 10
-37.335039000000002
 20
206.91205600000001
 30
0.0
 40
0.364885
 50
124.44876499999999
 51
143.20334600000001
  0
ARC
  5
771
  8
_________1
 62
     7
 10
-37.32738100000001
 20
206.904618
 30
0.0
 40
0.375356
 50
106.440012
 51
124.77054099999999
  0
ARC
  5
772
  8
_________1
 62
     7
 10
-37.331240000000001
 20
206.91945999999999
 30
0.0
 40
0.360029
 50
97.154094000000001
 51
106.519435
  0
LINE
  5
773
  8
_________1
 62
     7
 10
-37.376100000000001
 20
207.27699999999999
 30
0.0
 11
-37.34640000000001
 21
207.279
 31
0.0
  0
LINE
  5
774
  8
_________1
 62
     7
 10
-37.34640000000001
 20
207.279
 30
0.0
 11
-37.3354
 21
207.279
 31
0.0
  0
LINE
  5
775
  8
_________1
 62
     7
 10
-37.3354
 20
207.279
 30
0.0
 11
-37.3309
 21
207.28
 31
0.0
  0
LINE
  5
776
  8
_________1
 62
     7
 10
-37.3309
 20
207.28
 30
0.0
 11
-37.329599999999999
 21
207.28
 31
0.0
  0
LINE
  5
777
  8
_________1
 62
     7
 10
-37.329599999999999
 20
207.28
 30
0.0
 11
-37.328899999999997
 21
207.28
 31
0.0
  0
LINE
  5
778
  8
_________1
 62
     7
 10
-26.952200000000001
 20
206.90600000000001
 30
0.0
 11
-26.952200000000001
 21
181.38499999999999
 31
0.0
  0
LINE
  5
779
  8
_________1
 62
     7
 10
-27.3398
 20
207.28
 30
0.0
 11
-27.902000000000001
 21
207.28
 31
0.0
  0
LINE
  5
77A
  8
_________1
 62
     7
 10
-30.018699999999999
 20
207.28
 30
0.0
 11
-27.902000000000001
 21
207.28
 31
0.0
  0
LINE
  5
77B
  8
_________1
 62
     7
 10
-30.018699999999999
 20
207.28
 30
0.0
 11
-34.635800000000003
 21
207.28
 31
0.0
  0
LINE
  5
77C
  8
_________1
 62
     7
 10
-36.752899999999997
 20
207.28
 30
0.0
 11
-34.635800000000003
 21
207.28
 31
0.0
  0
LINE
  5
77D
  8
_________1
 62
     7
 10
-36.752899999999997
 20
207.28
 30
0.0
 11
-37.314799999999998
 21
207.28
 31
0.0
  0
LINE
  5
77E
  8
_________1
 62
     7
 10
-29.339300000000001
 20
201.71799999999999
 30
0.0
 11
-29.339300000000001
 21
202.88300000000001
 31
0.0
  0
LINE
  5
77F
  8
_________1
 62
     7
 10
-35.315600000000011
 20
201.71799999999999
 30
0.0
 11
-35.315600000000011
 21
202.88300000000001
 31
0.0
  0
LINE
  5
780
  8
_________1
 62
     7
 10
-29.588000000000001
 20
202.99799999999999
 30
0.0
 11
-29.588000000000001
 21
203.03700000000001
 31
0.0
  0
LINE
  5
781
  8
_________1
 62
     7
 10
-35.066499999999998
 20
202.99799999999999
 30
0.0
 11
-35.066499999999998
 21
203.03700000000001
 31
0.0
  0
LINE
  5
782
  8
_________1
 62
     7
 10
-35.066499999999998
 20
201.01599999999999
 30
0.0
 11
-35.066499999999998
 21
200.857
 31
0.0
  0
LINE
  5
783
  8
_________1
 62
     7
 10
-29.588000000000001
 20
201.01599999999999
 30
0.0
 11
-29.588000000000001
 21
200.886
 31
0.0
  0
LINE
  5
784
  8
_________1
 62
     7
 10
-29.588000000000001
 20
200.886
 30
0.0
 11
-29.588000000000001
 21
200.857
 31
0.0
  0
ARC
  5
785
  8
_________1
 62
     7
 10
-29.834588
 20
202.90337600000001
 30
0.0
 40
1.323955999999999
 50
280.73210899999998
 51
285.03725900000001
  0
ARC
  5
786
  8
_________1
 62
     7
 10
-29.638788000000002
 20
202.18505400000001
 30
0.0
 40
0.5794380000000001
 50
284.76742000000002
 51
293.75465600000001
  0
ARC
  5
787
  8
_________1
 62
     7
 10
-29.479907000000001
 20
201.82909799999999
 30
0.0
 40
0.189649
 50
293.14012300000002
 51
309.644361
  0
ARC
  5
788
  8
_________1
 62
     7
 10
-29.386832999999999
 20
201.71820500000001
 30
0.0
 40
0.044885
 50
308.47336899999999
 51
44.417815999999988
  0
ARC
  5
789
  8
_________1
 62
     7
 10
-29.456192999999999
 20
201.64217400000001
 30
0.0
 40
0.147752
 50
46.652583
 51
63.519610999999998
  0
ARC
  5
78A
  8
_________1
 62
     7
 10
-29.581675000000001
 20
201.40098599999999
 30
0.0
 40
0.4196140000000001
 50
62.867697999999997
 51
72.690942000000007
  0
ARC
  5
78B
  8
_________1
 62
     7
 10
-29.775621000000001
 20
200.795379
 30
0.0
 40
1.055512
 50
72.420697000000004
 51
79.763561999999993
  0
LINE
  5
78C
  8
_________1
 62
     7
 10
-29.588000000000001
 20
201.834
 30
0.0
 11
-29.588000000000001
 21
201.01599999999999
 31
0.0
  0
LINE
  5
78D
  8
_________1
 62
     7
 10
-32.327300000000001
 20
201.19
 30
0.0
 11
-31.895600000000002
 21
201.18600000000001
 31
0.0
  0
LINE
  5
78E
  8
_________1
 62
     7
 10
-31.895600000000002
 20
201.18600000000001
 30
0.0
 11
-31.473199999999999
 21
201.17699999999999
 31
0.0
  0
LINE
  5
78F
  8
_________1
 62
     7
 10
-31.473199999999999
 20
201.17699999999999
 30
0.0
 11
-31.0684
 21
201.16200000000001
 31
0.0
  0
LINE
  5
790
  8
_________1
 62
     7
 10
-31.0684
 20
201.16200000000001
 30
0.0
 11
-30.690100000000001
 21
201.142
 31
0.0
  0
LINE
  5
791
  8
_________1
 62
     7
 10
-30.690100000000001
 20
201.142
 30
0.0
 11
-30.346299999999999
 21
201.11699999999999
 31
0.0
  0
LINE
  5
792
  8
_________1
 62
     7
 10
-30.346299999999999
 20
201.11699999999999
 30
0.0
 11
-30.043800000000001
 21
201.08699999999999
 31
0.0
  0
LINE
  5
793
  8
_________1
 62
     7
 10
-30.043800000000001
 20
201.08699999999999
 30
0.0
 11
-29.789200000000001
 21
201.053
 31
0.0
  0
LINE
  5
794
  8
_________1
 62
     7
 10
-29.789200000000001
 20
201.053
 30
0.0
 11
-29.588000000000001
 21
201.01599999999999
 31
0.0
  0
LINE
  5
795
  8
_________1
 62
     7
 10
-35.066499999999998
 20
201.01599999999999
 30
0.0
 11
-34.865299999999998
 21
201.053
 31
0.0
  0
LINE
  5
796
  8
_________1
 62
     7
 10
-34.865299999999998
 20
201.053
 30
0.0
 11
-34.610700000000001
 21
201.08699999999999
 31
0.0
  0
LINE
  5
797
  8
_________1
 62
     7
 10
-34.610700000000001
 20
201.08699999999999
 30
0.0
 11
-34.308500000000002
 21
201.11699999999999
 31
0.0
  0
LINE
  5
798
  8
_________1
 62
     7
 10
-34.308500000000002
 20
201.11699999999999
 30
0.0
 11
-33.964700000000001
 21
201.142
 31
0.0
  0
LINE
  5
799
  8
_________1
 62
     7
 10
-33.964700000000001
 20
201.142
 30
0.0
 11
-33.586399999999998
 21
201.16200000000001
 31
0.0
  0
LINE
  5
79A
  8
_________1
 62
     7
 10
-33.586399999999998
 20
201.16200000000001
 30
0.0
 11
-33.18160000000001
 21
201.17699999999999
 31
0.0
  0
LINE
  5
79B
  8
_________1
 62
     7
 10
-33.18160000000001
 20
201.17699999999999
 30
0.0
 11
-32.758899999999997
 21
201.18600000000001
 31
0.0
  0
LINE
  5
79C
  8
_________1
 62
     7
 10
-32.758899999999997
 20
201.18600000000001
 30
0.0
 11
-32.327300000000001
 21
201.19
 31
0.0
  0
LINE
  5
79D
  8
_________1
 62
     7
 10
-35.066499999999998
 20
201.834
 30
0.0
 11
-35.066499999999998
 21
201.01599999999999
 31
0.0
  0
ARC
  5
79E
  8
_________1
 62
     7
 10
-34.799003000000013
 20
200.44279599999999
 30
0.0
 40
1.4167700000000001
 50
100.88198800000001
 51
104.909407
  0
ARC
  5
79F
  8
_________1
 62
     7
 10
-35.016466999999999
 20
201.25382099999999
 30
0.0
 40
0.5770990000000001
 50
104.763198
 51
113.797656
  0
ARC
  5
7A0
  8
_________1
 62
     7
 10
-35.174712999999997
 20
201.60710900000001
 30
0.0
 40
0.190009
 50
113.123026
 51
129.60834
  0
ARC
  5
7A1
  8
_________1
 62
     7
 10
-35.267944
 20
201.718346
 30
0.0
 40
0.044881
 50
128.44716199999999
 51
224.44631699999999
  0
ARC
  5
7A2
  8
_________1
 62
     7
 10
-35.198126999999999
 20
201.79519300000001
 30
0.0
 40
0.148655
 50
226.749246
 51
243.518519
  0
ARC
  5
7A3
  8
_________1
 62
     7
 10
-35.071778999999999
 20
202.039357
 30
0.0
 40
0.423562
 50
242.948004
 51
252.68785
  0
ARC
  5
7A4
  8
_________1
 62
     7
 10
-34.877932999999999
 20
202.64918700000001
 30
0.0
 40
1.0634549999999989
 50
252.494314
 51
259.78819600000003
  0
ARC
  5
7A5
  8
_________1
 62
     7
 10
-32.25902700000001
 20
224.24891500000001
 30
0.0
 40
23.750423000000001
 50
269.83541000000002
 51
274.64291900000001
  0
ARC
  5
7A6
  8
_________1
 62
     7
 10
-31.102737000000001
 20
209.082202
 30
0.0
 40
8.5402140000000006
 50
275.14730300000002
 51
277.55981100000002
  0
ARC
  5
7A7
  8
_________1
 62
     7
 10
-30.450084
 20
204.23435699999999
 30
0.0
 40
3.648652999999999
 50
277.415436
 51
281.310923
  0
ARC
  5
7A8
  8
_________1
 62
     7
 10
-29.952314999999999
 20
201.78094100000001
 30
0.0
 40
1.1452809999999991
 50
280.96546599999999
 51
288.54572999999999
  0
ARC
  5
7A9
  8
_________1
 62
     7
 10
-34.828547999999998
 20
201.36012600000001
 30
0.0
 40
0.706273
 50
250.31365
 51
256.18996399999997
  0
ARC
  5
7AA
  8
_________1
 62
     7
 10
-34.508101000000003
 20
202.621182
 30
0.0
 40
2.007391999999999
 50
255.899834
 51
260.40263900000002
  0
ARC
  5
7AB
  8
_________1
 62
     7
 10
-34.025515000000013
 20
205.394159
 30
0.0
 40
4.8220349999999987
 50
260.24210199999999
 51
263.07249400000001
  0
ARC
  5
7AC
  8
_________1
 62
     7
 10
-33.42658800000001
 20
210.26106999999999
 30
0.0
 40
9.725658000000001
 50
263.02808099999999
 51
265.11473599999999
  0
ARC
  5
7AD
  8
_________1
 62
     7
 10
-32.700766999999999
 20
218.77735899999999
 30
0.0
 40
18.272819999999999
 50
265.12122599999998
 51
268.28593000000001
  0
ARC
  5
7AE
  8
_________1
 62
     7
 10
-32.401043999999999
 20
225.66583199999999
 30
0.0
 40
25.167349999999999
 50
268.07297399999999
 51
270.16799099999997
  0
LINE
  5
7AF
  8
_________1
 62
     7
 10
-35.066499999999998
 20
200.69499999999999
 30
0.0
 11
-35.066499999999998
 21
200.857
 31
0.0
  0
ARC
  5
7B0
  8
_________1
 62
     7
 10
-32.395516000000001
 20
177.28457399999999
 30
0.0
 40
23.76895
 50
89.835452000000004
 51
94.63980500000001
  0
ARC
  5
7B1
  8
_________1
 62
     7
 10
-33.557918999999998
 20
192.51973699999999
 30
0.0
 40
8.4900059999999993
 50
95.13787600000002
 51
97.564276000000021
  0
ARC
  5
7B2
  8
_________1
 62
     7
 10
-34.202002
 20
197.297583
 30
0.0
 40
3.668963999999999
 50
97.415458000000001
 51
101.287879
  0
ARC
  5
7B3
  8
_________1
 62
     7
 10
-34.703088000000001
 20
199.77396999999999
 30
0.0
 40
1.142417999999999
 50
100.953441
 51
108.546943
  0
ARC
  5
7B4
  8
_________1
 62
     7
 10
-29.825354999999998
 20
200.19287299999999
 30
0.0
 40
0.705303
 50
70.338346000000001
 51
76.227272999999997
  0
ARC
  5
7B5
  8
_________1
 62
     7
 10
-30.14723
 20
198.92392899999999
 30
0.0
 40
2.0144189999999988
 50
75.927996999999991
 51
80.417085
  0
ARC
  5
7B6
  8
_________1
 62
     7
 10
-30.625516000000001
 20
196.17271700000001
 30
0.0
 40
4.806881999999999
 50
80.254919999999984
 51
83.094885999999988
  0
ARC
  5
7B7
  8
_________1
 62
     7
 10
-31.228698000000001
 20
191.284615
 30
0.0
 40
9.7320520000000013
 50
83.029340000000005
 51
85.114875999999995
  0
ARC
  5
7B8
  8
_________1
 62
     7
 10
-31.956015000000001
 20
182.72662399999999
 30
0.0
 40
18.320893999999999
 50
85.127721999999977
 51
88.283959999999993
  0
ARC
  5
7B9
  8
_________1
 62
     7
 10
-32.253518
 20
175.895431
 30
0.0
 40
25.158103000000001
 50
88.072606999999977
 51
90.167928000000003
  0
LINE
  5
7BA
  8
_________1
 62
     7
 10
-29.588000000000001
 20
200.69499999999999
 30
0.0
 11
-29.588000000000001
 21
200.857
 31
0.0
  0
ARC
  5
7BB
  8
_________1
 62
     7
 10
-29.370661999999999
 20
202.88256200000001
 30
0.0
 40
0.031355
 50
0.4046830000000001
 51
28.833691999999999
  0
ARC
  5
7BC
  8
_________1
 62
     7
 10
-29.403552000000001
 20
202.862584
 30
0.0
 40
0.069822
 50
30.179089000000008
 51
54.811264000000001
  0
ARC
  5
7BD
  8
_________1
 62
     7
 10
-29.491958
 20
202.74315100000001
 30
0.0
 40
0.218402
 50
53.91267599999999
 51
67.306498000000005
  0
ARC
  5
7BE
  8
_________1
 62
     7
 10
-29.674140000000001
 20
202.32445000000001
 30
0.0
 40
0.675006
 50
66.751206999999994
 51
74.724513000000002
  0
ARC
  5
7BF
  8
_________1
 62
     7
 10
-29.974785000000001
 20
201.26446300000001
 30
0.0
 40
1.776783999999999
 50
74.377577999999986
 51
78.940627000000006
  0
ARC
  5
7C0
  8
_________1
 62
     7
 10
-30.401461999999999
 20
199.11236700000001
 30
0.0
 40
3.9707650000000001
 50
78.855121999999994
 51
82.011082000000002
  0
ARC
  5
7C1
  8
_________1
 62
     7
 10
-30.928405999999999
 20
195.40138899999999
 30
0.0
 40
7.7189659999999991
 50
81.966001000000006
 51
84.319456999999986
  0
ARC
  5
7C2
  8
_________1
 62
     7
 10
-31.69425
 20
187.650205
 30
0.0
 40
15.507892
 50
84.338455000000025
 51
87.795063999999996
  0
ARC
  5
7C3
  8
_________1
 62
     7
 10
-32.287368000000001
 20
175.498344
 30
0.0
 40
27.673857999999999
 50
87.53595
 51
90.082576999999986
  0
ARC
  5
7C4
  8
_________1
 62
     7
 10
-32.330759
 20
174.912768
 30
0.0
 40
28.259405999999998
 50
89.992891999999983
 51
93.321718999999973
  0
ARC
  5
7C5
  8
_________1
 62
     7
 10
-33.223500999999999
 20
190.89265800000001
 30
0.0
 40
12.254683999999999
 50
93.483838000000006
 51
97.320243999999974
  0
ARC
  5
7C6
  8
_________1
 62
     7
 10
-34.241543999999998
 20
199.047619
 30
0.0
 40
4.0365820000000001
 50
97.736432999999991
 51
101.132229
  0
ARC
  5
7C7
  8
_________1
 62
     7
 10
-34.701427000000002
 20
201.35715400000001
 30
0.0
 40
1.681721
 50
100.951008
 51
106.181755
  0
ARC
  5
7C8
  8
_________1
 62
     7
 10
-35.013872999999997
 20
202.418308
 30
0.0
 40
0.575549
 50
105.749832
 51
115.548039
  0
ARC
  5
7C9
  8
_________1
 62
     7
 10
-35.200401999999997
 20
202.804112
 30
0.0
 40
0.147036
 50
114.805178
 51
134.64209600000001
  0
ARC
  5
7CA
  8
_________1
 62
     7
 10
-35.275618000000001
 20
202.88024300000001
 30
0.0
 40
0.040016
 50
134.612008
 51
176.360411
  0
ARC
  5
7CB
  8
_________1
 62
     7
 10
-29.864312999999999
 20
200.775656
 30
0.0
 40
0.027188
 50
0.56148
 51
35.507922999999998
  0
ARC
  5
7CC
  8
_________1
 62
     7
 10
-29.899446999999999
 20
200.75071299999999
 30
0.0
 40
0.070274
 50
35.42471900000001
 51
57.115468
  0
ARC
  5
7CD
  8
_________1
 62
     7
 10
-29.992684000000001
 20
200.60834
 30
0.0
 40
0.240459
 50
56.878054999999989
 51
69.391823000000002
  0
ARC
  5
7CE
  8
_________1
 62
     7
 10
-30.178318000000001
 20
200.126631
 30
0.0
 40
0.756694
 50
69.073364999999995
 51
76.284683999999999
  0
ARC
  5
7CF
  8
_________1
 62
     7
 10
-30.489896000000002
 20
198.883825
 30
0.0
 40
2.037952999999999
 50
76.058995999999993
 51
80.463845000000006
  0
ARC
  5
7D0
  8
_________1
 62
     7
 10
-30.926660999999999
 20
196.328553
 30
0.0
 40
4.6302779999999988
 50
80.372304
 51
83.306394999999995
  0
ARC
  5
7D1
  8
_________1
 62
     7
 10
-31.438179999999999
 20
192.030069
 30
0.0
 40
8.9590880000000013
 50
83.261613999999994
 51
85.405264000000003
  0
ARC
  5
7D2
  8
_________1
 62
     7
 10
-32.040553000000003
 20
184.40693099999999
 30
0.0
 40
16.605985
 50
85.440566000000004
 51
88.739584999999977
  0
ARC
  5
7D3
  8
_________1
 62
     7
 10
-32.319847000000003
 20
176.15128799999999
 30
0.0
 40
24.865964999999999
 50
88.514622999999986
 51
90.017066999999983
  0
ARC
  5
7D4
  8
_________1
 62
     7
 10
-32.327710000000003
 20
177.73330100000001
 30
0.0
 40
23.283950999999998
 50
89.998878000000005
 51
93.608563000000004
  0
ARC
  5
7D5
  8
_________1
 62
     7
 10
-33.219126000000003
 20
192.36414500000001
 30
0.0
 40
8.6260659999999998
 50
93.815894000000014
 51
98.3553
  0
ARC
  5
7D6
  8
_________1
 62
     7
 10
-34.1295
 20
198.72017700000001
 30
0.0
 40
2.205328999999999
 50
98.95008
 51
103.810766
  0
ARC
  5
7D7
  8
_________1
 62
     7
 10
-34.492794000000004
 20
200.18104099999999
 30
0.0
 40
0.6999870000000001
 50
103.47852
 51
111.906634
  0
ARC
  5
7D8
  8
_________1
 62
     7
 10
-34.689234999999996
 20
200.66016300000001
 30
0.0
 40
0.182203
 50
110.80635100000001
 51
128.03288599999999
  0
ARC
  5
7D9
  8
_________1
 62
     7
 10
-34.77852
 20
200.77160599999999
 30
0.0
 40
0.03945
 50
125.614058
 51
173.718389
  0
ARC
  5
7DA
  8
_________1
 62
     7
 10
-34.790714000000001
 20
200.77617799999999
 30
0.0
 40
0.02702
 50
180.5422889999999
 51
215.62096299999999
  0
ARC
  5
7DB
  8
_________1
 62
     7
 10
-34.755526000000003
 20
200.80119500000001
 30
0.0
 40
0.070195
 50
215.49216699999999
 51
237.18305100000001
  0
ARC
  5
7DC
  8
_________1
 62
     7
 10
-34.662385
 20
200.943568
 30
0.0
 40
0.240327
 50
236.91687099999999
 51
249.43175400000001
  0
ARC
  5
7DD
  8
_________1
 62
     7
 10
-34.473446000000003
 20
201.43648899999999
 30
0.0
 40
0.7682140000000001
 50
249.15429900000001
 51
256.25714799999997
  0
ARC
  5
7DE
  8
_________1
 62
     7
 10
-34.162394999999997
 20
202.68469400000001
 30
0.0
 40
2.0545879999999999
 50
256.10050200000001
 51
260.46944999999999
  0
ARC
  5
7DF
  8
_________1
 62
     7
 10
-33.728586999999997
 20
205.22689800000001
 30
0.0
 40
4.6335350000000002
 50
260.38414899999998
 51
263.31630000000001
  0
ARC
  5
7E0
  8
_________1
 62
     7
 10
-33.229218000000003
 20
209.407466
 30
0.0
 40
8.8438169999999996
 50
263.25536799999998
 51
265.42710799999998
  0
ARC
  5
7E1
  8
_________1
 62
     7
 10
-32.614058
 20
217.15018000000001
 30
0.0
 40
16.610928999999999
 50
265.44126799999998
 51
268.73980699999998
  0
ARC
  5
7E2
  8
_________1
 62
     7
 10
-32.333584000000002
 20
225.561284
 30
0.0
 40
25.026349
 50
268.52134699999999
 51
270.01449300000002
  0
ARC
  5
7E3
  8
_________1
 62
     7
 10
-32.326818000000003
 20
223.82140100000001
 30
0.0
 40
23.286465
 50
269.99892799999998
 51
273.60754600000001
  0
ARC
  5
7E4
  8
_________1
 62
     7
 10
-31.435331000000001
 20
209.194029
 30
0.0
 40
8.6320379999999997
 50
273.81105500000001
 51
278.34686600000009
  0
ARC
  5
7E5
  8
_________1
 62
     7
 10
-30.527570000000001
 20
202.84663399999999
 30
0.0
 40
2.2202250000000001
 50
278.94757199999998
 51
283.77516200000002
  0
ARC
  5
7E6
  8
_________1
 62
     7
 10
-30.164541
 20
201.37956399999999
 30
0.0
 40
0.7089180000000001
 50
283.51163600000001
 51
291.83149200000003
  0
ARC
  5
7E7
  8
_________1
 62
     7
 10
-29.965230999999999
 20
200.891447
 30
0.0
 40
0.181722
 50
290.72936600000003
 51
307.99169899999998
  0
ARC
  5
7E8
  8
_________1
 62
     7
 10
-29.876246999999989
 20
200.78026299999999
 30
0.0
 40
0.03936
 50
305.53119700000002
 51
353.66826099999997
  0
ARC
  5
7E9
  8
_________1
 62
     7
 10
-33.702227999999998
 20
203.61184700000001
 30
0.0
 40
2.726859999999999
 50
259.17214999999999
 51
262.41626600000001
  0
ARC
  5
7EA
  8
_________1
 62
     7
 10
-33.254717999999997
 20
206.82764800000001
 30
0.0
 40
5.973622999999999
 50
262.23220400000002
 51
264.86669100000012
  0
ARC
  5
7EB
  8
_________1
 62
     7
 10
-32.804608000000002
 20
211.687929
 30
0.0
 40
10.854692
 50
264.79575999999997
 51
266.73729400000002
  0
ARC
  5
7EC
  8
_________1
 62
     7
 10
-32.327599999999997
 20
220.209822
 30
0.0
 40
19.389923
 50
266.76324699999998
 51
272.83426900000012
  0
ARC
  5
7ED
  8
_________1
 62
     7
 10
-31.720949999999998
 20
209.31797599999999
 30
0.0
 40
8.4816699999999994
 50
272.37937899999997
 51
278.68387300000001
  0
ARC
  5
7EE
  8
_________1
 62
     7
 10
-33.72484
 20
204.53174200000001
 30
0.0
 40
3.6684369999999999
 50
260.20074099999999
 51
262.72983799999997
  0
ARC
  5
7EF
  8
_________1
 62
     7
 10
-33.279049999999998
 20
207.95677900000001
 30
0.0
 40
7.1223580000000002
 50
262.65925399999998
 51
264.98528299999998
  0
ARC
  5
7F0
  8
_________1
 62
     7
 10
-32.820248999999997
 20
213.094201
 30
0.0
 40
12.280222999999999
 50
264.948081
 51
266.85030699999999
  0
ARC
  5
7F1
  8
_________1
 62
     7
 10
-32.327705000000002
 20
222.15945199999999
 30
0.0
 40
21.358843
 50
266.86718100000002
 51
273.03295700000001
  0
ARC
  5
7F2
  8
_________1
 62
     7
 10
-31.690246999999999
 20
211.079815
 30
0.0
 40
10.261120999999999
 50
272.75187599999998
 51
276.296313
  0
ARC
  5
7F3
  8
_________1
 62
     7
 10
-30.916184000000001
 20
204.33900199999999
 30
0.0
 40
3.476207
 50
275.79972900000001
 51
280.11523900000009
  0
ARC
  5
7F4
  8
_________1
 62
     7
 10
-33.26201300000001
 20
206.83591999999999
 30
0.0
 40
5.9318319999999991
 50
262.649969
 51
264.71834200000001
  0
ARC
  5
7F5
  8
_________1
 62
     7
 10
-32.839592000000003
 20
211.26618099999999
 30
0.0
 40
10.382177
 50
264.64763099999999
 51
266.57476000000003
  0
ARC
  5
7F6
  8
_________1
 62
     7
 10
-32.332307
 20
219.93152000000001
 30
0.0
 40
19.062348
 50
266.60885500000001
 51
273.833866
  0
ARC
  5
7F7
  8
_________1
 62
     7
 10
-31.615473000000001
 20
208.89542800000001
 30
0.0
 40
8.0030539999999988
 50
273.99624799999998
 51
277.04695099999998
  0
LINE
  5
7F8
  8
_________1
 62
     7
 10
-32.442300000000003
 20
200.91800000000001
 30
0.0
 11
-32.4161
 21
200.89500000000001
 31
0.0
  0
LINE
  5
7F9
  8
_________1
 62
     7
 10
-32.4161
 20
200.89500000000001
 30
0.0
 11
-32.601100000000002
 21
200.88200000000001
 31
0.0
  0
LINE
  5
7FA
  8
_________1
 62
     7
 10
-32.601100000000002
 20
200.88200000000001
 30
0.0
 11
-32.601100000000002
 21
200.92400000000001
 31
0.0
  0
LINE
  5
7FB
  8
_________1
 62
     7
 10
-32.601100000000002
 20
200.88200000000001
 30
0.0
 11
-32.8123
 21
200.89099999999999
 31
0.0
  0
LINE
  5
7FC
  8
_________1
 62
     7
 10
-32.8123
 20
200.89099999999999
 30
0.0
 11
-32.8123
 21
200.91499999999999
 31
0.0
  0
LINE
  5
7FD
  8
_________1
 62
     7
 10
-32.8123
 20
200.89099999999999
 30
0.0
 11
-32.838200000000001
 21
200.91300000000001
 31
0.0
  0
LINE
  5
7FE
  8
_________1
 62
     7
 10
-32.838200000000001
 20
200.91300000000001
 30
0.0
 11
-32.653199999999998
 21
200.92599999999999
 31
0.0
  0
LINE
  5
7FF
  8
_________1
 62
     7
 10
-32.653199999999998
 20
200.92599999999999
 30
0.0
 11
-32.442300000000003
 21
200.91800000000001
 31
0.0
  0
LINE
  5
800
  8
_________1
 62
     7
 10
-32.1584
 20
200.93199999999999
 30
0.0
 11
-31.947299999999998
 21
200.923
 31
0.0
  0
LINE
  5
801
  8
_________1
 62
     7
 10
-31.947299999999998
 20
200.923
 30
0.0
 11
-31.921399999999998
 21
200.90100000000001
 31
0.0
  0
LINE
  5
802
  8
_________1
 62
     7
 10
-31.921399999999998
 20
200.90100000000001
 30
0.0
 11
-32.106400000000001
 21
200.88800000000001
 31
0.0
  0
LINE
  5
803
  8
_________1
 62
     7
 10
-32.106400000000001
 20
200.88800000000001
 30
0.0
 11
-32.106400000000001
 21
200.93000000000001
 31
0.0
  0
LINE
  5
804
  8
_________1
 62
     7
 10
-32.106400000000001
 20
200.88800000000001
 30
0.0
 11
-32.31730000000001
 21
200.89699999999999
 31
0.0
  0
LINE
  5
805
  8
_________1
 62
     7
 10
-32.31730000000001
 20
200.89699999999999
 30
0.0
 11
-32.31730000000001
 21
200.92099999999999
 31
0.0
  0
LINE
  5
806
  8
_________1
 62
     7
 10
-32.31730000000001
 20
200.89699999999999
 30
0.0
 11
-32.343400000000003
 21
200.91900000000001
 31
0.0
  0
LINE
  5
807
  8
_________1
 62
     7
 10
-32.343400000000003
 20
200.91900000000001
 30
0.0
 11
-32.1584
 21
200.93199999999999
 31
0.0
  0
LINE
  5
808
  8
_________1
 62
     7
 10
-33.2333
 20
200.95099999999999
 30
0.0
 11
-33.207500000000003
 21
200.929
 31
0.0
  0
LINE
  5
809
  8
_________1
 62
     7
 10
-33.207500000000003
 20
200.929
 30
0.0
 11
-33.392099999999999
 21
200.91499999999999
 31
0.0
  0
LINE
  5
80A
  8
_________1
 62
     7
 10
-33.392099999999999
 20
200.91499999999999
 30
0.0
 11
-33.392099999999999
 21
200.958
 31
0.0
  0
LINE
  5
80B
  8
_________1
 62
     7
 10
-33.392099999999999
 20
200.91499999999999
 30
0.0
 11
-33.603000000000002
 21
200.92400000000001
 31
0.0
  0
LINE
  5
80C
  8
_________1
 62
     7
 10
-33.603000000000002
 20
200.92400000000001
 30
0.0
 11
-33.603000000000002
 21
200.94800000000001
 31
0.0
  0
LINE
  5
80D
  8
_________1
 62
     7
 10
-33.603000000000002
 20
200.92400000000001
 30
0.0
 11
-33.629199999999997
 21
200.947
 31
0.0
  0
LINE
  5
80E
  8
_________1
 62
     7
 10
-33.629199999999997
 20
200.947
 30
0.0
 11
-33.444200000000002
 21
200.96000000000001
 31
0.0
  0
LINE
  5
80F
  8
_________1
 62
     7
 10
-33.444200000000002
 20
200.96000000000001
 30
0.0
 11
-33.2333
 21
200.95099999999999
 31
0.0
  0
LINE
  5
810
  8
_________1
 62
     7
 10
-31.663399999999999
 20
200.93700000000001
 30
0.0
 11
-31.452500000000001
 21
200.929
 31
0.0
  0
LINE
  5
811
  8
_________1
 62
     7
 10
-31.452500000000001
 20
200.929
 30
0.0
 11
-31.4267
 21
200.90600000000001
 31
0.0
  0
LINE
  5
812
  8
_________1
 62
     7
 10
-31.4267
 20
200.90600000000001
 30
0.0
 11
-31.611699999999999
 21
200.893
 31
0.0
  0
LINE
  5
813
  8
_________1
 62
     7
 10
-31.611699999999999
 20
200.893
 30
0.0
 11
-31.611699999999999
 21
200.935
 31
0.0
  0
LINE
  5
814
  8
_________1
 62
     7
 10
-31.611699999999999
 20
200.893
 30
0.0
 11
-31.822500000000002
 21
200.90199999999999
 31
0.0
  0
LINE
  5
815
  8
_________1
 62
     7
 10
-31.822500000000002
 20
200.90199999999999
 30
0.0
 11
-31.822500000000002
 21
200.92599999999999
 31
0.0
  0
LINE
  5
816
  8
_________1
 62
     7
 10
-31.822500000000002
 20
200.90199999999999
 30
0.0
 11
-31.848700000000001
 21
200.92400000000001
 31
0.0
  0
LINE
  5
817
  8
_________1
 62
     7
 10
-31.848700000000001
 20
200.92400000000001
 30
0.0
 11
-31.663399999999999
 21
200.93700000000001
 31
0.0
  0
LINE
  5
818
  8
_________1
 62
     7
 10
-33.526800000000001
 20
200.98699999999999
 30
0.0
 11
-33.503399999999999
 21
200.96799999999999
 31
0.0
  0
LINE
  5
819
  8
_________1
 62
     7
 10
-33.503399999999999
 20
200.96799999999999
 30
0.0
 11
-33.688400000000001
 21
200.95400000000001
 31
0.0
  0
LINE
  5
81A
  8
_________1
 62
     7
 10
-33.688400000000001
 20
200.95400000000001
 30
0.0
 11
-33.688400000000001
 21
200.97800000000001
 31
0.0
  0
LINE
  5
81B
  8
_________1
 62
     7
 10
-33.688400000000001
 20
200.95400000000001
 30
0.0
 11
-33.898600000000002
 21
200.96299999999999
 31
0.0
  0
LINE
  5
81C
  8
_________1
 62
     7
 10
-33.430399999999999
 20
200.99100000000001
 30
0.0
 11
-33.3718
 21
200.995
 31
0.0
  0
LINE
  5
81D
  8
_________1
 62
     7
 10
-33.197800000000001
 20
201.00200000000001
 30
0.0
 11
-33.034500000000001
 21
200.995
 31
0.0
  0
LINE
  5
81E
  8
_________1
 62
     7
 10
-33.034500000000001
 20
200.995
 30
0.0
 11
-33.008699999999997
 21
200.97300000000001
 31
0.0
  0
LINE
  5
81F
  8
_________1
 62
     7
 10
-33.008699999999997
 20
200.97300000000001
 30
0.0
 11
-33.1937
 21
200.96000000000001
 31
0.0
  0
LINE
  5
820
  8
_________1
 62
     7
 10
-33.1937
 20
200.96000000000001
 30
0.0
 11
-33.1937
 21
201.00200000000001
 31
0.0
  0
LINE
  5
821
  8
_________1
 62
     7
 10
-33.1937
 20
200.96000000000001
 30
0.0
 11
-33.404499999999999
 21
200.96899999999999
 31
0.0
  0
LINE
  5
822
  8
_________1
 62
     7
 10
-33.404499999999999
 20
200.96899999999999
 30
0.0
 11
-33.404499999999999
 21
200.99299999999999
 31
0.0
  0
LINE
  5
823
  8
_________1
 62
     7
 10
-33.404499999999999
 20
200.96899999999999
 30
0.0
 11
-33.430399999999999
 21
200.99100000000001
 31
0.0
  0
LINE
  5
824
  8
_________1
 62
     7
 10
-30.7332
 20
200.95599999999999
 30
0.0
 11
-30.917899999999999
 21
200.94300000000001
 31
0.0
  0
LINE
  5
825
  8
_________1
 62
     7
 10
-30.917899999999999
 20
200.94300000000001
 30
0.0
 11
-30.917899999999999
 21
200.97499999999999
 31
0.0
  0
LINE
  5
826
  8
_________1
 62
     7
 10
-30.917899999999999
 20
200.94300000000001
 30
0.0
 11
-31.129000000000001
 21
200.952
 31
0.0
  0
LINE
  5
827
  8
_________1
 62
     7
 10
-31.129000000000001
 20
200.952
 30
0.0
 11
-31.129000000000001
 21
200.976
 31
0.0
  0
LINE
  5
828
  8
_________1
 62
     7
 10
-31.129000000000001
 20
200.952
 30
0.0
 11
-31.154900000000001
 21
200.97399999999999
 31
0.0
  0
LINE
  5
829
  8
_________1
 62
     7
 10
-31.154900000000001
 20
200.97399999999999
 30
0.0
 11
-31.0364
 21
200.982
 31
0.0
  0
LINE
  5
82A
  8
_________1
 62
     7
 10
-31.425000000000001
 20
200.99000000000001
 30
0.0
 11
-31.438099999999999
 21
201.001
 31
0.0
  0
LINE
  5
82B
  8
_________1
 62
     7
 10
-31.130800000000001
 20
200.988
 30
0.0
 11
-31.214099999999998
 21
200.982
 31
0.0
  0
LINE
  5
82C
  8
_________1
 62
     7
 10
-31.214099999999998
 20
200.982
 30
0.0
 11
-31.214099999999998
 21
200.99199999999999
 31
0.0
  0
LINE
  5
82D
  8
_________1
 62
     7
 10
-31.214099999999998
 20
200.982
 30
0.0
 11
-31.425000000000001
 21
200.99000000000001
 31
0.0
  0
LINE
  5
82E
  8
_________1
 62
     7
 10
-31.425000000000001
 20
200.99000000000001
 30
0.0
 11
-31.425000000000001
 21
201.001
 31
0.0
  0
LINE
  5
82F
  8
_________1
 62
     7
 10
-32.639400000000002
 20
200.958
 30
0.0
 11
-32.4544
 21
200.971
 31
0.0
  0
LINE
  5
830
  8
_________1
 62
     7
 10
-32.4544
 20
200.971
 30
0.0
 11
-32.243499999999997
 21
200.96199999999999
 31
0.0
  0
LINE
  5
831
  8
_________1
 62
     7
 10
-32.243499999999997
 20
200.96199999999999
 30
0.0
 11
-32.217700000000001
 21
200.94
 31
0.0
  0
LINE
  5
832
  8
_________1
 62
     7
 10
-32.217700000000001
 20
200.94
 30
0.0
 11
-32.40270000000001
 21
200.92599999999999
 31
0.0
  0
LINE
  5
833
  8
_________1
 62
     7
 10
-32.40270000000001
 20
200.92599999999999
 30
0.0
 11
-32.40270000000001
 21
200.96899999999999
 31
0.0
  0
LINE
  5
834
  8
_________1
 62
     7
 10
-32.40270000000001
 20
200.92599999999999
 30
0.0
 11
-32.613500000000002
 21
200.935
 31
0.0
  0
LINE
  5
835
  8
_________1
 62
     7
 10
-32.613500000000002
 20
200.935
 30
0.0
 11
-32.613500000000002
 21
200.959
 31
0.0
  0
LINE
  5
836
  8
_________1
 62
     7
 10
-32.613500000000002
 20
200.935
 30
0.0
 11
-32.639400000000002
 21
200.958
 31
0.0
  0
LINE
  5
837
  8
_________1
 62
     7
 10
-31.4649
 20
200.982
 30
0.0
 11
-31.254100000000001
 21
200.97300000000001
 31
0.0
  0
LINE
  5
838
  8
_________1
 62
     7
 10
-31.254100000000001
 20
200.97300000000001
 30
0.0
 11
-31.227900000000002
 21
200.95099999999999
 31
0.0
  0
LINE
  5
839
  8
_________1
 62
     7
 10
-31.227900000000002
 20
200.95099999999999
 30
0.0
 11
-31.4129
 21
200.93700000000001
 31
0.0
  0
LINE
  5
83A
  8
_________1
 62
     7
 10
-31.4129
 20
200.93700000000001
 30
0.0
 11
-31.4129
 21
200.97999999999999
 31
0.0
  0
LINE
  5
83B
  8
_________1
 62
     7
 10
-31.4129
 20
200.93700000000001
 30
0.0
 11
-31.623799999999999
 21
200.946
 31
0.0
  0
LINE
  5
83C
  8
_________1
 62
     7
 10
-31.623799999999999
 20
200.946
 30
0.0
 11
-31.623799999999999
 21
200.97
 31
0.0
  0
LINE
  5
83D
  8
_________1
 62
     7
 10
-31.623799999999999
 20
200.946
 30
0.0
 11
-31.649899999999999
 21
200.96799999999999
 31
0.0
  0
LINE
  5
83E
  8
_________1
 62
     7
 10
-31.649899999999999
 20
200.96799999999999
 30
0.0
 11
-31.4649
 21
200.982
 31
0.0
  0
LINE
  5
83F
  8
_________1
 62
     7
 10
-32.1188
 20
200.941
 30
0.0
 11
-32.1447
 21
200.96299999999999
 31
0.0
  0
LINE
  5
840
  8
_________1
 62
     7
 10
-32.1447
 20
200.96299999999999
 30
0.0
 11
-31.959700000000002
 21
200.976
 31
0.0
  0
LINE
  5
841
  8
_________1
 62
     7
 10
-31.959700000000002
 20
200.976
 30
0.0
 11
-31.748799999999999
 21
200.96700000000001
 31
0.0
  0
LINE
  5
842
  8
_________1
 62
     7
 10
-31.748799999999999
 20
200.96700000000001
 30
0.0
 11
-31.7226
 21
200.94499999999999
 31
0.0
  0
LINE
  5
843
  8
_________1
 62
     7
 10
-31.7226
 20
200.94499999999999
 30
0.0
 11
-31.907599999999999
 21
200.93199999999999
 31
0.0
  0
LINE
  5
844
  8
_________1
 62
     7
 10
-31.907599999999999
 20
200.93199999999999
 30
0.0
 11
-31.907599999999999
 21
200.97399999999999
 31
0.0
  0
LINE
  5
845
  8
_________1
 62
     7
 10
-31.907599999999999
 20
200.93199999999999
 30
0.0
 11
-32.1188
 21
200.941
 31
0.0
  0
LINE
  5
846
  8
_________1
 62
     7
 10
-32.1188
 20
200.941
 30
0.0
 11
-32.1188
 21
200.965
 31
0.0
  0
LINE
  5
847
  8
_________1
 62
     7
 10
-31.5425
 20
201.005
 30
0.0
 11
-31.5242
 21
200.989
 31
0.0
  0
LINE
  5
848
  8
_________1
 62
     7
 10
-31.5242
 20
200.989
 30
0.0
 11
-31.7089
 21
200.976
 31
0.0
  0
LINE
  5
849
  8
_________1
 62
     7
 10
-31.7089
 20
200.976
 30
0.0
 11
-31.7089
 21
201.00999999999999
 31
0.0
  0
LINE
  5
84A
  8
_________1
 62
     7
 10
-31.7089
 20
200.976
 30
0.0
 11
-31.920000000000002
 21
200.98500000000001
 31
0.0
  0
LINE
  5
84B
  8
_________1
 62
     7
 10
-31.920000000000002
 20
200.98500000000001
 30
0.0
 11
-31.920000000000002
 21
201.00899999999999
 31
0.0
  0
LINE
  5
84C
  8
_________1
 62
     7
 10
-31.920000000000002
 20
200.98500000000001
 30
0.0
 11
-31.945900000000002
 21
201.00700000000001
 31
0.0
  0
LINE
  5
84D
  8
_________1
 62
     7
 10
-31.945900000000002
 20
201.00700000000001
 30
0.0
 11
-31.863900000000001
 21
201.01300000000001
 31
0.0
  0
LINE
  5
84E
  8
_________1
 62
     7
 10
-32.738300000000002
 20
200.95599999999999
 30
0.0
 11
-32.712400000000009
 21
200.934
 31
0.0
  0
LINE
  5
84F
  8
_________1
 62
     7
 10
-32.712400000000009
 20
200.934
 30
0.0
 11
-32.897399999999998
 21
200.92099999999999
 31
0.0
  0
LINE
  5
850
  8
_________1
 62
     7
 10
-32.897399999999998
 20
200.92099999999999
 30
0.0
 11
-32.897399999999998
 21
200.96299999999999
 31
0.0
  0
LINE
  5
851
  8
_________1
 62
     7
 10
-32.897399999999998
 20
200.92099999999999
 30
0.0
 11
-33.1083
 21
200.93000000000001
 31
0.0
  0
LINE
  5
852
  8
_________1
 62
     7
 10
-33.1083
 20
200.93000000000001
 30
0.0
 11
-33.1083
 21
200.95400000000001
 31
0.0
  0
LINE
  5
853
  8
_________1
 62
     7
 10
-33.1083
 20
200.93000000000001
 30
0.0
 11
-33.134399999999999
 21
200.952
 31
0.0
  0
LINE
  5
854
  8
_________1
 62
     7
 10
-33.134399999999999
 20
200.952
 30
0.0
 11
-32.949399999999997
 21
200.965
 31
0.0
  0
LINE
  5
855
  8
_________1
 62
     7
 10
-32.949399999999997
 20
200.965
 30
0.0
 11
-32.738300000000002
 21
200.95599999999999
 31
0.0
  0
LINE
  5
856
  8
_________1
 62
     7
 10
-32.5398
 20
201.001
 30
0.0
 11
-32.513599999999997
 21
200.97800000000001
 31
0.0
  0
LINE
  5
857
  8
_________1
 62
     7
 10
-32.513599999999997
 20
200.97800000000001
 30
0.0
 11
-32.698599999999999
 21
200.965
 31
0.0
  0
LINE
  5
858
  8
_________1
 62
     7
 10
-32.698599999999999
 20
200.965
 30
0.0
 11
-32.698599999999999
 21
201.00700000000001
 31
0.0
  0
LINE
  5
859
  8
_________1
 62
     7
 10
-32.698599999999999
 20
200.965
 30
0.0
 11
-32.909500000000001
 21
200.97399999999999
 31
0.0
  0
LINE
  5
85A
  8
_________1
 62
     7
 10
-32.909500000000001
 20
200.97399999999999
 30
0.0
 11
-32.909500000000001
 21
200.99799999999999
 31
0.0
  0
LINE
  5
85B
  8
_________1
 62
     7
 10
-32.909500000000001
 20
200.97399999999999
 30
0.0
 11
-32.935699999999997
 21
200.99600000000001
 31
0.0
  0
LINE
  5
85C
  8
_________1
 62
     7
 10
-32.935699999999997
 20
200.99600000000001
 30
0.0
 11
-32.750700000000002
 21
201.00999999999999
 31
0.0
  0
LINE
  5
85D
  8
_________1
 62
     7
 10
-32.750700000000002
 20
201.00999999999999
 30
0.0
 11
-32.5398
 21
201.001
 31
0.0
  0
LINE
  5
85E
  8
_________1
 62
     7
 10
-32.255899999999997
 20
201.01499999999999
 30
0.0
 11
-32.045099999999998
 21
201.006
 31
0.0
  0
LINE
  5
85F
  8
_________1
 62
     7
 10
-32.045099999999998
 20
201.006
 30
0.0
 11
-32.018900000000009
 21
200.98400000000001
 31
0.0
  0
LINE
  5
860
  8
_________1
 62
     7
 10
-32.018900000000009
 20
200.98400000000001
 30
0.0
 11
-32.203899999999997
 21
200.971
 31
0.0
  0
LINE
  5
861
  8
_________1
 62
     7
 10
-32.203899999999997
 20
200.971
 30
0.0
 11
-32.203899999999997
 21
201.01300000000001
 31
0.0
  0
LINE
  5
862
  8
_________1
 62
     7
 10
-32.203899999999997
 20
200.971
 30
0.0
 11
-32.4148
 21
200.97999999999999
 31
0.0
  0
LINE
  5
863
  8
_________1
 62
     7
 10
-32.4148
 20
200.97999999999999
 30
0.0
 11
-32.4148
 21
201.00399999999999
 31
0.0
  0
LINE
  5
864
  8
_________1
 62
     7
 10
-32.4148
 20
200.97999999999999
 30
0.0
 11
-32.440600000000011
 21
201.00200000000001
 31
0.0
  0
LINE
  5
865
  8
_________1
 62
     7
 10
-32.440600000000011
 20
201.00200000000001
 30
0.0
 11
-32.255899999999997
 21
201.01499999999999
 31
0.0
  0
LINE
  5
866
  8
_________1
 62
     7
 10
-32.005099999999999
 20
201.01499999999999
 30
0.0
 11
-32.01550000000001
 21
201.01499999999999
 31
0.0
  0
LINE
  5
867
  8
_________1
 62
     7
 10
-32.900500000000001
 20
201.011
 30
0.0
 11
-32.994900000000001
 21
201.00399999999999
 31
0.0
  0
LINE
  5
868
  8
_________1
 62
     7
 10
-32.994900000000001
 20
201.00399999999999
 30
0.0
 11
-33.057299999999998
 21
201.00700000000001
 31
0.0
  0
LINE
  5
869
  8
_________1
 62
     7
 10
-32.392400000000009
 20
201.017
 30
0.0
 11
-32.499899999999997
 21
201.00999999999999
 31
0.0
  0
LINE
  5
86A
  8
_________1
 62
     7
 10
-32.499899999999997
 20
201.00999999999999
 30
0.0
 11
-32.639699999999998
 21
201.01499999999999
 31
0.0
  0
ARC
  5
86B
  8
_________1
 62
     7
 10
-29.791616000000001
 20
207.163849
 30
0.0
 40
2.409505999999999
 50
2.7538580000000001
 51
5.8560419999999986
  0
ARC
  5
86C
  8
_________1
 62
     7
 10
-32.867084000000013
 20
206.87544500000001
 30
0.0
 40
5.4984159999999997
 50
5.5758449999999993
 51
11.422159000000001
  0
ARC
  5
86D
  8
_________1
 62
     7
 10
-34.929673000000001
 20
207.45388500000001
 30
0.0
 40
2.3045189999999991
 50
167.20293899999999
 51
170.445279
  0
ARC
  5
86E
  8
_________1
 62
     7
 10
-31.907001000000001
 20
206.91294199999999
 30
0.0
 40
5.3751439999999997
 50
170.10729699999999
 51
176.08844099999999
  0
LINE
  5
86F
  8
_________1
 62
     7
 10
-27.301500000000001
 20
207.28
 30
0.0
 11
-27.3398
 21
207.28
 31
0.0
  0
LINE
  5
870
  8
_________1
 62
     7
 10
-37.314799999999998
 20
207.28
 30
0.0
 11
-37.353000000000002
 21
207.28
 31
0.0
  0
ARC
  5
871
  8
_________1
 62
     7
 10
-31.102221
 20
61.177046999999988
 30
0.0
 40
0.6502439999999999
 50
272.1599129999999
 51
357.87165599999997
  0
ARC
  5
872
  8
_________1
 62
     7
 10
-33.552970000000002
 20
61.176718000000001
 30
0.0
 40
0.6499020000000001
 50
182.10038800000001
 51
267.86808300000001
  0
ARC
  5
873
  8
_________1
 62
     7
 10
-31.101406000000001
 20
62.878252000000003
 30
0.0
 40
0.649454
 50
2.1854399999999998
 51
87.909331999999992
  0
ARC
  5
874
  8
_________1
 62
     7
 10
-33.554425000000002
 20
62.879224999999998
 30
0.0
 40
0.648446
 50
92.00799099999999
 51
177.89719700000001
  0
INSERT
  5
875
  8
_________1
 62
     7
  2
AIGNBL0301000D
 10
0.0
 20
0.0
 30
0.0
  0
ARC
  5
876
  8
_________1
 62
     7
 10
-31.712202000000001
 20
107.635738
 30
0.0
 40
0.009634
 50
291.18965400000002
 51
352.14137099999999
  0
ARC
  5
877
  8
_________1
 62
     7
 10
-31.760228999999999
 20
107.72280600000001
 30
0.0
 40
0.108991
 50
280.38850600000001
 51
298.20367599999997
  0
ARC
  5
878
  8
_________1
 62
     7
 10
-31.914666
 20
108.417168
 30
0.0
 40
0.820254
 50
275.50790599999999
 51
282.25362699999999
  0
ARC
  5
879
  8
_________1
 62
     7
 10
-32.163497999999997
 20
110.741207
 30
0.0
 40
3.157541999999999
 50
272.428651
 51
275.95456200000001
  0
ARC
  5
87A
  8
_________1
 62
     7
 10
-32.319564
 20
114.02827499999999
 30
0.0
 40
6.4482919999999986
 50
269.928585
 51
272.57647099999991
  0
ARC
  5
87B
  8
_________1
 62
     7
 10
-32.331611000000002
 20
113.48842399999999
 30
0.0
 40
5.9084370000000002
 50
265.49955599999998
 51
270.03888499999999
  0
ARC
  5
87C
  8
_________1
 62
     7
 10
-32.725197999999999
 20
108.490101
 30
0.0
 40
0.8946430000000001
 50
257.44213999999999
 51
265.51040399999999
  0
ARC
  5
87D
  8
_________1
 62
     7
 10
-32.917790999999987
 20
107.659932
 30
0.0
 40
0.043114
 50
216.27931799999999
 51
267.44124199999999
  0
LINE
  5
87E
  8
_________1
 62
     7
 10
-32.952500000000001
 20
107.634
 30
0.0
 11
-32.952500000000001
 21
160.63499999999999
 31
0.0
  0
LINE
  5
87F
  8
_________1
 62
     7
 10
-31.7027
 20
107.634
 30
0.0
 11
-31.7027
 21
160.63499999999999
 31
0.0
  0
LINE
  5
880
  8
_________1
 62
     7
 10
-31.389800000000001
 20
160.63499999999999
 30
0.0
 11
-31.389800000000001
 21
94.386600000000001
 31
0.0
  0
LINE
  5
881
  8
_________1
 62
     7
 10
-28.8901
 20
179.38499999999999
 30
0.0
 11
-28.8901
 21
168.13499999999999
 31
0.0
  0
LINE
  5
882
  8
_________1
 62
     7
 10
-28.8901
 20
166.63499999999999
 30
0.0
 11
-28.8901
 21
94.386600000000001
 31
0.0
  0
LINE
  5
883
  8
_________1
 62
     7
 10
-33.265000000000001
 20
160.63499999999999
 30
0.0
 11
-33.265000000000001
 21
94.386600000000001
 31
0.0
  0
LINE
  5
884
  8
_________1
 62
     7
 10
-35.765099999999997
 20
179.38499999999999
 30
0.0
 11
-35.765099999999997
 21
168.13499999999999
 31
0.0
  0
LINE
  5
885
  8
_________1
 62
     7
 10
-35.765099999999997
 20
166.63499999999999
 30
0.0
 11
-35.765099999999997
 21
94.386600000000001
 31
0.0
  0
LINE
  5
886
  8
_________1
  6
AIGENLINE001
 62
     7
 10
-30.140000000000001
 20
83.574399999999997
 30
0.0
 11
-30.140000000000001
 21
182.489
 31
0.0
  0
LINE
  5
887
  8
_________1
 62
     7
 10
-27.386600000000001
 20
89.510300000000015
 30
0.0
 11
-27.386600000000001
 21
86.884500000000017
 31
0.0
  0
LINE
  5
888
  8
_________1
 62
     7
 10
-28.761900000000001
 20
89.510300000000015
 30
0.0
 11
-28.761900000000001
 21
86.884500000000017
 31
0.0
  0
ARC
  5
889
  8
_________1
 62
     7
 10
-30.751794
 20
94.701789000000005
 30
0.0
 40
8.5108619999999995
 50
291.64301499999999
 51
293.29081500000001
  0
ARC
  5
88A
  8
_________1
 62
     7
 10
-28.300561999999999
 20
88.558310000000006
 30
0.0
 40
1.896471
 50
281.78779100000003
 51
291.26332000000002
  0
ARC
  5
88B
  8
_________1
 62
     7
 10
-28.094503
 20
87.649244999999993
 30
0.0
 40
0.9646139999999999
 50
270.46569699999998
 51
280.83723800000001
  0
ARC
  5
88C
  8
_________1
 62
     7
 10
-28.086525999999999
 20
87.590582999999995
 30
0.0
 40
0.90592
 50
257.53026799999998
 51
269.991333
  0
ARC
  5
88D
  8
_________1
 62
     7
 10
-27.964003999999999
 20
88.213825999999983
 30
0.0
 40
1.5409889999999991
 50
247.169749
 51
258.085823
  0
ARC
  5
88E
  8
_________1
 62
     7
 10
-27.509599999999999
 20
89.373757999999995
 30
0.0
 40
2.7865349999999989
 50
243.29396499999999
 51
247.812341
  0
ARC
  5
88F
  8
_________1
 62
     7
 10
-28.009124
 20
88.400891000000001
 30
0.0
 40
1.3407359999999999
 50
97.318213
 51
124.15743500000001
  0
ARC
  5
890
  8
_________1
 62
     7
 10
-28.085538
 20
88.834193999999997
 30
0.0
 40
0.9014649999999999
 50
90.071468999999979
 51
96.008945000000026
  0
ARC
  5
891
  8
_________1
 62
     7
 10
-28.087464000000001
 20
88.816294999999997
 30
0.0
 40
0.919364
 50
77.812828999999994
 51
89.950059999999993
  0
ARC
  5
892
  8
_________1
 62
     7
 10
-28.177437999999999
 20
88.350716000000006
 30
0.0
 40
1.393481999999999
 50
66.825141999999985
 51
78.237994
  0
ARC
  5
893
  8
_________1
 62
     7
 10
-28.399906000000001
 20
87.789711999999994
 30
0.0
 40
1.9968339999999991
 50
59.505949999999999
 51
67.291696000000002
  0
LINE
  5
894
  8
_________1
 62
     7
 10
-32.887099999999997
 20
89.510300000000015
 30
0.0
 11
-32.887099999999997
 21
86.884500000000017
 31
0.0
  0
LINE
  5
895
  8
_________1
 62
     7
 10
-31.512499999999999
 20
89.510300000000015
 30
0.0
 11
-31.512499999999999
 21
86.884500000000017
 31
0.0
  0
ARC
  5
896
  8
_________1
 62
     7
 10
-34.937725999999998
 20
94.848340000000007
 30
0.0
 40
8.6692179999999972
 50
291.694098
 51
293.27244000000002
  0
ARC
  5
897
  8
_________1
 62
     7
 10
-32.468449999999997
 20
88.667581000000013
 30
0.0
 40
2.01349
 50
282.24405200000001
 51
291.419332
  0
ARC
  5
898
  8
_________1
 62
     7
 10
-32.197490999999999
 20
87.488270999999983
 30
0.0
 40
0.8036760000000001
 50
270.74496599999998
 51
281.19653699999998
  0
ARC
  5
899
  8
_________1
 62
     7
 10
-32.186239
 20
87.592134999999985
 30
0.0
 40
0.9074729999999998
 50
257.81158900000003
 51
269.94932
  0
ARC
  5
89A
  8
_________1
 62
     7
 10
-32.087088000000001
 20
88.125764000000004
 30
0.0
 40
1.450091999999999
 50
252.94235800000001
 51
258.43382700000001
  0
ARC
  5
89B
  8
_________1
 62
     7
 10
-31.839236
 20
88.930128999999994
 30
0.0
 40
2.2917770000000002
 50
248.54088300000001
 51
252.917306
  0
ARC
  5
89C
  8
_________1
 62
     7
 10
-30.414515000000002
 20
92.524143999999993
 30
0.0
 40
6.157875999999999
 50
246.32612599999999
 51
248.43730600000001
  0
ARC
  5
89D
  8
_________1
 62
     7
 10
-31.885117000000001
 20
87.797218000000001
 30
0.0
 40
1.9846319999999991
 50
107.880505
 51
120.322423
  0
ARC
  5
89E
  8
_________1
 62
     7
 10
-32.162565999999998
 20
88.607945000000001
 30
0.0
 40
1.1279790000000001
 50
91.243328000000034
 51
107.112065
  0
ARC
  5
89F
  8
_________1
 62
     7
 10
-32.187773
 20
88.968981999999997
 30
0.0
 40
0.7666770000000001
 50
76.139672000000004
 51
89.945318
  0
ARC
  5
8A0
  8
_________1
 62
     7
 10
-32.331212999999998
 20
88.291961999999998
 30
0.0
 40
1.4585250000000001
 50
65.826458000000002
 51
77.040120999999985
  0
ARC
  5
8A1
  8
_________1
 62
     7
 10
-32.577596999999997
 20
87.683428000000006
 30
0.0
 40
2.1147320000000001
 50
59.757435000000001
 51
66.488002000000009
  0
ARC
  5
8A2
  8
_________1
 62
     7
 10
-27.451535
 20
80.318782999999996
 30
0.0
 40
6.6951799999999997
 50
101.286687
 51
103.19729100000001
  0
ARC
  5
8A3
  8
_________1
 62
     7
 10
-30.451567000000001
 20
92.415051000000005
 30
0.0
 40
5.7687390000000001
 50
278.578574
 51
284.77831400000002
  0
ARC
  5
8A4
  8
_________1
 62
     7
 10
-29.937377000000001
 20
88.975739000000004
 30
0.0
 40
2.2912110000000001
 50
270.62022400000001
 51
278.69332400000002
  0
LINE
  5
8A5
  8
_________1
 62
     7
 10
-29.912600000000001
 20
86.684700000000007
 30
0.0
 11
-30.361799999999999
 21
86.684700000000007
 31
0.0
  0
ARC
  5
8A6
  8
_________1
 62
     7
 10
-30.361498999999998
 20
88.644812000000002
 30
0.0
 40
1.9601489999999999
 50
261.53813000000002
 51
269.990679
  0
ARC
  5
8A7
  8
_________1
 62
     7
 10
-30.147507000000001
 20
90.299355999999989
 30
0.0
 40
3.6283110000000001
 50
258.55158499999999
 51
262.04038400000002
  0
ARC
  5
8A8
  8
_________1
 62
     7
 10
-28.729333
 20
97.187496999999993
 30
0.0
 40
10.660914999999999
 50
256.53862299999997
 51
258.42927100000003
  0
ARC
  5
8A9
  8
_________1
 62
     7
 10
-32.644196999999998
 20
80.906512000000006
 30
0.0
 40
6.084147999999999
 50
76.376069000000001
 51
79.280000000000001
  0
ARC
  5
8AA
  8
_________1
 62
     7
 10
-30.273406999999999
 20
85.858498999999995
 30
0.0
 40
3.8563349999999992
 50
102.80274199999999
 51
108.74217400000001
  0
ARC
  5
8AB
  8
_________1
 62
     7
 10
-30.031331999999999
 20
84.988977999999989
 30
0.0
 40
4.7580790000000004
 50
94.332246999999995
 51
103.32507099999999
  0
ARC
  5
8AC
  8
_________1
 62
     7
 10
-30.244209000000001
 20
87.452259999999995
 30
0.0
 40
2.2859050000000001
 50
87.316779999999994
 51
93.675730999999985
  0
ARC
  5
8AD
  8
_________1
 62
     7
 10
-30.053965999999999
 20
88.321165000000008
 30
0.0
 40
1.416939999999999
 50
88.958331000000001
 51
93.367457999999999
  0
ARC
  5
8AE
  8
_________1
 62
     7
 10
-30.067609999999998
 20
87.162645999999995
 30
0.0
 40
2.5755259999999991
 50
85.185722999999996
 51
89.123390000000015
  0
ARC
  5
8AF
  8
_________1
 62
     7
 10
-30.265733000000001
 20
84.842607000000001
 30
0.0
 40
4.9040089999999994
 50
72.142374000000004
 51
85.154031999999987
  0
LINE
  5
8B0
  8
_________1
 62
     7
 10
-28.886600000000001
 20
89.911399999999986
 30
0.0
 11
-30.1372
 21
89.911399999999986
 31
0.0
  0
LINE
  5
8B1
  8
_________1
 62
     7
 10
-31.3871
 20
89.911399999999986
 30
0.0
 11
-30.1372
 21
89.911399999999986
 31
0.0
  0
LINE
  5
8B2
  8
_________1
 62
     7
 10
-32.437800000000003
 20
86.635099999999994
 30
0.0
 11
-30.1372
 21
86.635099999999994
 31
0.0
  0
LINE
  5
8B3
  8
_________1
 62
     7
 10
-30.1372
 20
86.635099999999994
 30
0.0
 11
-27.836500000000001
 21
86.635099999999994
 31
0.0
  0
LINE
  5
8B4
  8
_________1
 62
     7
 10
-27.536100000000001
 20
86.834900000000005
 30
0.0
 11
-27.836500000000001
 21
86.659899999999979
 31
0.0
  0
LINE
  5
8B5
  8
_________1
 62
     7
 10
-27.836500000000001
 20
86.659899999999979
 30
0.0
 11
-27.836500000000001
 21
86.635099999999994
 31
0.0
  0
LINE
  5
8B6
  8
_________1
 62
     7
 10
-27.386600000000001
 20
86.884500000000017
 30
0.0
 11
-27.836500000000001
 21
86.659899999999979
 31
0.0
  0
LINE
  5
8B7
  8
_________1
 62
     7
 10
-32.887099999999997
 20
86.884500000000017
 30
0.0
 11
-32.437800000000003
 21
86.635099999999994
 31
0.0
  0
LINE
  5
8B8
  8
_________1
 62
     7
 10
-32.437800000000003
 20
89.760499999999979
 30
0.0
 11
-27.836500000000001
 21
89.760499999999979
 31
0.0
  0
LINE
  5
8B9
  8
_________1
 62
     7
 10
-31.6875
 20
89.885199999999983
 30
0.0
 11
-28.5869
 21
89.885199999999983
 31
0.0
  0
ARC
  5
8BA
  8
_________1
 62
     7
 10
-29.139233000000001
 20
90.582869999999986
 30
0.0
 40
0.7174540000000002
 50
290.615658
 51
326.50896400000011
  0
ARC
  5
8BB
  8
_________1
 62
     7
 10
-28.970248000000002
 20
90.445708999999994
 30
0.0
 40
0.5012850000000002
 50
328.92608999999999
 51
341.361357
  0
LINE
  5
8BC
  8
_________1
 62
     7
 10
-28.4953
 20
90.285499999999999
 30
0.0
 11
-28.462199999999999
 21
90.385400000000004
 31
0.0
  0
LINE
  5
8BD
  8
_________1
 62
     7
 10
-28.462199999999999
 20
90.385400000000004
 30
0.0
 11
-28.462199999999999
 21
90.535600000000002
 31
0.0
  0
LINE
  5
8BE
  8
_________1
 62
     7
 10
-28.462199999999999
 20
90.535600000000002
 30
0.0
 11
-28.511800000000001
 21
90.710600000000014
 31
0.0
  0
LINE
  5
8BF
  8
_________1
 62
     7
 10
-31.787400000000002
 20
90.710600000000014
 30
0.0
 11
-31.762599999999999
 21
90.710600000000014
 31
0.0
  0
ARC
  5
8C0
  8
_________1
 62
     7
 10
-1.9500109999999999
 20
86.392440000000008
 30
0.0
 40
30.148250000000001
 50
171.765085
 51
172.10101399999999
  0
LINE
  5
8C1
  8
_________1
 62
     7
 10
-31.812200000000001
 20
90.535600000000002
 30
0.0
 11
-31.812200000000001
 21
90.385400000000004
 31
0.0
  0
LINE
  5
8C2
  8
_________1
 62
     7
 10
-31.812200000000001
 20
90.385400000000004
 30
0.0
 11
-31.779800000000002
 21
90.285499999999999
 31
0.0
  0
ARC
  5
8C3
  8
_________1
 62
     7
 10
-30.715049
 20
90.641949999999994
 30
0.0
 40
1.1228599999999991
 50
198.508769
 51
203.306194
  0
ARC
  5
8C4
  8
_________1
 62
     7
 10
-31.308482999999999
 20
90.385317000000001
 30
0.0
 40
0.476312
 50
203.19743500000001
 51
222.347196
  0
ARC
  5
8C5
  8
_________1
 62
     7
 10
-31.376749
 20
90.341890000000006
 30
0.0
 40
0.3968479999999999
 50
224.35294999999999
 51
234.71337800000001
  0
ARC
  5
8C6
  8
_________1
 62
     7
 10
-31.183609000000011
 20
90.620491999999999
 30
0.0
 40
0.735841
 50
234.96907999999999
 51
242.37187299999999
  0
ARC
  5
8C7
  8
_________1
 62
     7
 10
-29.407596000000002
 20
94.009709000000001
 30
0.0
 40
4.5621999999999989
 50
242.34904
 51
243.93911700000001
  0
LINE
  5
8C8
  8
_________1
 62
     7
 10
-31.411899999999999
 20
89.911399999999986
 30
0.0
 11
-31.3871
 21
89.911399999999986
 31
0.0
  0
LINE
  5
8C9
  8
_________1
 62
     7
 10
-31.5869
 20
91.135800000000003
 30
0.0
 11
-28.711600000000001
 21
91.135800000000003
 31
0.0
  0
LINE
  5
8CA
  8
_________1
 62
     7
 10
-31.5869
 20
93.135999999999996
 30
0.0
 11
-30.1372
 21
93.135999999999996
 31
0.0
  0
LINE
  5
8CB
  8
_________1
 62
     7
 10
-30.1372
 20
93.135999999999996
 30
0.0
 11
-28.711600000000001
 21
93.135999999999996
 31
0.0
  0
LINE
  5
8CC
  8
_________1
 62
     7
 10
-28.462199999999999
 20
93.685799999999986
 30
0.0
 11
-28.462199999999999
 21
93.561099999999996
 31
0.0
  0
LINE
  5
8CD
  8
_________1
 62
     7
 10
-28.462199999999999
 20
93.561099999999996
 30
0.0
 11
-28.5366
 21
93.435699999999997
 31
0.0
  0
LINE
  5
8CE
  8
_________1
 62
     7
 10
-31.837
 20
93.685799999999986
 30
0.0
 11
-31.812200000000001
 21
93.561099999999996
 31
0.0
  0
LINE
  5
8CF
  8
_________1
 62
     7
 10
-31.812200000000001
 20
93.561099999999996
 30
0.0
 11
-31.762599999999999
 21
93.435699999999997
 31
0.0
  0
LINE
  5
8D0
  8
_________1
 62
     7
 10
-31.837
 20
94.386600000000001
 30
0.0
 11
-28.462199999999999
 21
94.386600000000001
 31
0.0
  0
LINE
  5
8D1
  8
_________1
 62
     7
 10
-31.837
 20
94.386600000000001
 30
0.0
 11
-31.837
 21
93.685799999999986
 31
0.0
  0
LINE
  5
8D2
  8
_________1
 62
     7
 10
-28.462199999999999
 20
94.386600000000001
 30
0.0
 11
-28.462199999999999
 21
93.685799999999986
 31
0.0
  0
LINE
  5
8D3
  8
_________1
 62
     7
 10
-27.836500000000001
 20
89.760499999999979
 30
0.0
 11
-27.386600000000001
 21
89.510300000000015
 31
0.0
  0
LINE
  5
8D4
  8
_________1
 62
     7
 10
-32.437800000000003
 20
89.760499999999979
 30
0.0
 11
-32.887099999999997
 21
89.510300000000015
 31
0.0
  0
LINE
  5
8D5
  8
_________1
 62
     7
 10
-31.762599999999999
 20
93.435699999999997
 30
0.0
 11
-31.5869
 21
93.135999999999996
 31
0.0
  0
LINE
  5
8D6
  8
_________1
 62
     7
 10
-31.5869
 20
91.135800000000003
 30
0.0
 11
-31.762599999999999
 21
90.710600000000014
 31
0.0
  0
LINE
  5
8D7
  8
_________1
 62
     7
 10
-28.5366
 20
93.435699999999997
 30
0.0
 11
-28.711600000000001
 21
93.135999999999996
 31
0.0
  0
LINE
  5
8D8
  8
_________1
 62
     7
 10
-28.711600000000001
 20
91.135800000000003
 30
0.0
 11
-28.511800000000001
 21
90.710600000000014
 31
0.0
  0
LINE
  5
8D9
  8
_________1
 62
     7
 10
-31.5869
 20
93.135999999999996
 30
0.0
 11
-31.5869
 21
91.135800000000003
 31
0.0
  0
LINE
  5
8DA
  8
_________1
 62
     7
 10
-28.711600000000001
 20
93.135999999999996
 30
0.0
 11
-28.711600000000001
 21
91.135800000000003
 31
0.0
  0
LINE
  5
8DB
  8
_________1
 62
     7
 10
-31.6875
 20
89.885199999999983
 30
0.0
 11
-31.6875
 21
89.760499999999979
 31
0.0
  0
LINE
  5
8DC
  8
_________1
 62
     7
 10
-28.5869
 20
89.885199999999983
 30
0.0
 11
-28.5869
 21
89.760499999999979
 31
0.0
  0
LINE
  5
8DD
  8
_________1
 62
     7
 10
-32.887099999999997
 20
86.884500000000017
 30
0.0
 11
-32.437800000000003
 21
86.635099999999994
 31
0.0
  0
LINE
  5
8DE
  8
_________1
 62
     7
 10
-27.386600000000001
 20
86.884500000000017
 30
0.0
 11
-27.836500000000001
 21
86.635099999999994
 31
0.0
  0
INSERT
  5
8DF
  8
_________1
 62
     7
  2
AIGNBL03010023
 10
0.0
 20
0.0
 30
0.0
  0
LINE
  5
8E0
  8
_________1
 62
     7
 10
73.688599999999994
 20
107.586
 30
0.0
 11
74.934700000000007
 21
107.682
 31
0.0
  0
LINE
  5
8E1
  8
_________1
 62
     7
 10
70.388599999999997
 20
166.63499999999999
 30
0.0
 11
74.934700000000007
 21
107.682
 31
0.0
  0
LINE
  5
8E2
  8
_________1
 62
     7
 10
68.315299999999993
 20
177.33699999999999
 30
0.0
 11
69.024299999999997
 21
168.13499999999999
 31
0.0
  0
LINE
  5
8E3
  8
_________1
 62
     7
 10
69.139700000000005
 20
166.63499999999999
 30
0.0
 11
73.688599999999994
 21
107.586
 31
0.0
  0
LINE
  5
8E4
  8
_________1
  6
AIGENLINE001
 62
     7
 10
68.984700000000004
 20
176.708
 30
0.0
 11
74.377700000000004
 21
106.779
 31
0.0
  0
INSERT
  5
8E5
  8
_________1
 62
     7
  2
AIGNBL03010024
 10
0.0
 20
0.0
 30
0.0
  0
INSERT
  5
8E6
  8
_________1
 62
     7
  2
AIGNBL03010025
 10
0.0
 20
0.0
 30
0.0
  0
INSERT
  5
8E7
  8
_________1
 62
     7
  2
AIGNBL03010026
 10
0.0
 20
0.0
 30
0.0
  0
LINE
  5
8E8
  8
_________1
 62
     7
 10
60.587200000000003
 20
168.13499999999999
 30
0.0
 11
54.422899999999991
 21
168.13499999999999
 31
0.0
  0
LINE
  5
8E9
  8
_________1
 62
     7
 10
88.710400000000007
 20
107.634
 30
0.0
 11
75.965199999999996
 21
107.634
 31
0.0
  0
LINE
  5
8EA
  8
_________1
 62
     7
 10
88.710400000000007
 20
180.13499999999999
 30
0.0
 11
75.137299999999996
 21
180.13499999999999
 31
0.0
  0
LINE
  5
8EB
  8
_________1
 62
     7
 10
68.315299999999993
 20
94.386600000000001
 30
0.0
 11
68.315299999999993
 21
166.63499999999999
 31
0.0
  0
LINE
  5
8EC
  8
_________1
 62
     7
 10
68.315299999999993
 20
168.13499999999999
 30
0.0
 11
68.315299999999993
 21
179.38499999999999
 31
0.0
  0
LINE
  5
8ED
  8
_________1
 62
     7
 10
68.315299999999993
 20
174.61199999999999
 30
0.0
 11
68.315299999999993
 21
173.34100000000001
 31
0.0
  0
LINE
  5
8EE
  8
_________1
 62
     7
 10
65.8155
 20
94.386600000000001
 30
0.0
 11
65.8155
 21
166.63499999999999
 31
0.0
  0
LINE
  5
8EF
  8
_________1
 62
     7
 10
65.8155
 20
168.13499999999999
 30
0.0
 11
65.8155
 21
179.38499999999999
 31
0.0
  0
INSERT
  5
8F0
  8
_________1
 62
     7
  2
AIGNBL03010027
 10
0.0
 20
0.0
 30
0.0
  0
LINE
  5
8F1
  8
_________1
 62
     7
 10
67.065399999999997
 20
86.884500000000017
 30
0.0
 11
67.065399999999997
 21
89.509699999999995
 31
0.0
  0
LINE
  5
8F2
  8
_________1
 62
     7
 10
64.689999999999998
 20
86.884500000000017
 30
0.0
 11
64.689999999999998
 21
89.509699999999995
 31
0.0
  0
ARC
  5
8F3
  8
_________1
 62
     7
 10
70.401820000000001
 20
109.69890100000001
 30
0.0
 40
23.518560999999998
 50
255.944354
 51
256.94191599999999
  0
ARC
  5
8F4
  8
_________1
 62
     7
 10
66.184588000000005
 20
91.638169999999988
 30
0.0
 40
4.9720930000000001
 50
257.25949700000001
 51
263.09643
  0
ARC
  5
8F5
  8
_________1
 62
     7
 10
65.901006999999993
 20
89.514465999999999
 30
0.0
 40
2.8298229999999989
 50
263.62808000000001
 51
269.7897779999999
  0
ARC
  5
8F6
  8
_________1
 62
     7
 10
65.889308999999997
 20
89.205625999999995
 30
0.0
 40
2.5209639999999989
 50
270.02988299999998
 51
277.20705500000003
  0
ARC
  5
8F7
  8
_________1
 62
     7
 10
65.677464999999998
 20
91.000335000000007
 30
0.0
 40
4.3280969999999996
 50
277.00867599999998
 51
283.59992599999998
  0
ARC
  5
8F8
  8
_________1
 62
     7
 10
62.895307000000003
 20
103.072119
 30
0.0
 40
16.716142999999999
 50
283.13919600000003
 51
284.445897
  0
ARC
  5
8F9
  8
_________1
 62
     7
 10
65.442809999999994
 20
84.761736999999997
 30
0.0
 40
5.0175279999999987
 50
71.132167999999993
 51
78.857747000000003
  0
ARC
  5
8FA
  8
_________1
 62
     7
 10
65.859543000000002
 20
86.721133999999978
 30
0.0
 40
3.0146850000000001
 50
79.432352000000009
 51
89.409268000000012
  0
ARC
  5
8FB
  8
_________1
 62
     7
 10
65.890968999999998
 20
86.852735999999993
 30
0.0
 40
2.8829220000000002
 50
90.006846999999979
 51
100.852814
  0
ARC
  5
8FC
  8
_________1
 62
     7
 10
66.135649000000001
 20
85.384016000000003
 30
0.0
 40
4.371592999999999
 50
100.377875
 51
109.310738
  0
ARC
  5
8FD
  8
_________1
 62
     7
 10
72.729817000000011
 20
109.509367
 30
0.0
 40
23.323187999999998
 50
255.94425799999999
 51
256.95048500000001
  0
ARC
  5
8FE
  8
_________1
 62
     7
 10
68.562268000000003
 20
91.649647999999985
 30
0.0
 40
4.9837610000000003
 50
257.26457299999998
 51
263.086364
  0
ARC
  5
8FF
  8
_________1
 62
     7
 10
68.275932999999995
 20
89.505673999999999
 30
0.0
 40
2.8210309999999992
 50
263.617998
 51
269.78492499999999
  0
ARC
  5
900
  8
_________1
 62
     7
 10
68.264029000000008
 20
89.208188000000007
 30
0.0
 40
2.523525999999999
 50
270.02984900000001
 51
277.20339100000001
  0
ARC
  5
901
  8
_________1
 62
     7
 10
68.052120000000002
 20
91.002994999999999
 30
0.0
 40
4.3307630000000001
 50
277.00735100000003
 51
283.59615200000002
  0
ARC
  5
902
  8
_________1
 62
     7
 10
65.213979000000009
 20
103.320367
 30
0.0
 40
16.970697000000001
 50
283.13388300000003
 51
284.42230799999999
  0
LINE
  5
903
  8
_________1
 62
     7
 10
69.440799999999996
 20
86.884500000000017
 30
0.0
 11
69.440799999999996
 21
89.509699999999995
 31
0.0
  0
ARC
  5
904
  8
_________1
 62
     7
 10
67.816186999999999
 20
84.752842999999999
 30
0.0
 40
5.0266010000000003
 50
71.143039999999999
 51
78.857267000000007
  0
ARC
  5
905
  8
_________1
 62
     7
 10
68.234569999999991
 20
86.719380000000001
 30
0.0
 40
3.0164360000000001
 50
79.43576400000002
 51
89.415456000000006
  0
ARC
  5
906
  8
_________1
 62
     7
 10
68.265690000000006
 20
86.858442000000011
 30
0.0
 40
2.877216999999999
 50
90.006888999999987
 51
100.863602
  0
ARC
  5
907
  8
_________1
 62
     7
 10
68.512982999999991
 20
85.377406999999977
 30
0.0
 40
4.3784669999999988
 50
100.388957
 51
109.305924
  0
LINE
  5
908
  8
_________1
 62
     7
 10
69.440799999999996
 20
86.684700000000007
 30
0.0
 11
69.440799999999996
 21
86.884500000000017
 31
0.0
  0
LINE
  5
909
  8
_________1
 62
     7
 10
69.440799999999996
 20
89.509699999999995
 30
0.0
 11
69.440799999999996
 21
89.735699999999994
 31
0.0
  0
LINE
  5
90A
  8
_________1
 62
     7
 10
64.689999999999998
 20
86.684700000000007
 30
0.0
 11
64.689999999999998
 21
86.884500000000017
 31
0.0
  0
LINE
  5
90B
  8
_________1
 62
     7
 10
64.689999999999998
 20
89.509699999999995
 30
0.0
 11
64.689999999999998
 21
89.735699999999994
 31
0.0
  0
LINE
  5
90C
  8
_________1
 62
     7
 10
68.316000000000003
 20
89.909999999999997
 30
0.0
 11
67.065399999999997
 21
89.909999999999997
 31
0.0
  0
LINE
  5
90D
  8
_________1
 62
     7
 10
67.065399999999997
 20
89.909999999999997
 30
0.0
 11
65.815899999999999
 21
89.909999999999997
 31
0.0
  0
LINE
  5
90E
  8
_________1
 62
     7
 10
69.440799999999996
 20
86.684700000000007
 30
0.0
 11
69.365700000000004
 21
86.635099999999994
 31
0.0
  0
LINE
  5
90F
  8
_________1
 62
     7
 10
69.365700000000004
 20
86.635099999999994
 30
0.0
 11
64.765100000000004
 21
86.635099999999994
 31
0.0
  0
LINE
  5
910
  8
_________1
 62
     7
 10
64.765100000000004
 20
86.635099999999994
 30
0.0
 11
64.689999999999998
 21
86.684700000000007
 31
0.0
  0
ARC
  5
911
  8
_________1
 62
     7
 10
69.422320999999997
 20
89.701915999999997
 30
0.0
 40
0.038479
 50
61.269488000000003
 51
90.14337900000001
  0
ARC
  5
912
  8
_________1
 62
     7
 10
69.260737000000006
 20
88.382932999999994
 30
0.0
 40
1.3670340000000001
 50
83.215826000000007
 51
88.382910999999993
  0
ARC
  5
913
  8
_________1
 62
     7
 10
68.752849999999995
 20
76.166386000000003
 30
0.0
 40
13.594025
 50
87.696143000000006
 51
89.304108999999997
  0
ARC
  5
914
  8
_________1
 62
     7
 10
67.839694999999992
 20
14.476136
 30
0.0
 40
75.290993
 50
89.179418999999996
 51
89.888678999999996
  0
ARC
  5
915
  8
_________1
 62
     7
 10
67.141419999999997
 20
-288.33824499999997
 30
0.0
 40
378.106176
 50
89.872012999999995
 51
90.360083999999986
  0
LINE
  5
916
  8
_________1
 62
     7
 10
64.765100000000004
 20
89.760499999999979
 30
0.0
 11
64.689999999999998
 21
89.735699999999994
 31
0.0
  0
LINE
  5
917
  8
_________1
 62
     7
 10
68.615700000000004
 20
89.760499999999979
 30
0.0
 11
68.615700000000004
 21
89.885199999999983
 31
0.0
  0
LINE
  5
918
  8
_________1
 62
     7
 10
68.615700000000004
 20
89.885199999999983
 30
0.0
 11
65.515100000000004
 21
89.885199999999983
 31
0.0
  0
LINE
  5
919
  8
_________1
 62
     7
 10
65.515100000000004
 20
89.760499999999979
 30
0.0
 11
65.515100000000004
 21
89.885199999999983
 31
0.0
  0
LINE
  5
91A
  8
_________1
 62
     7
 10
65.815899999999999
 20
89.909999999999997
 30
0.0
 11
65.440299999999993
 21
90.211100000000002
 31
0.0
  0
LINE
  5
91B
  8
_________1
 62
     7
 10
65.440299999999993
 20
90.211100000000002
 30
0.0
 11
65.415199999999999
 21
90.710600000000014
 31
0.0
  0
LINE
  5
91C
  8
_________1
 62
     7
 10
68.716700000000003
 20
90.710600000000014
 30
0.0
 11
68.6905
 21
90.211100000000002
 31
0.0
  0
LINE
  5
91D
  8
_________1
 62
     7
 10
68.6905
 20
90.211100000000002
 30
0.0
 11
68.316000000000003
 21
89.909999999999997
 31
0.0
  0
LINE
  5
91E
  8
_________1
 62
     7
 10
68.515799999999999
 20
91.135800000000003
 30
0.0
 11
65.616
 21
91.135800000000003
 31
0.0
  0
LINE
  5
91F
  8
_________1
 62
     7
 10
65.616
 20
91.135800000000003
 30
0.0
 11
65.415199999999999
 21
90.710600000000014
 31
0.0
  0
LINE
  5
920
  8
_________1
 62
     7
 10
68.716700000000003
 20
90.710600000000014
 30
0.0
 11
68.515799999999999
 21
91.135800000000003
 31
0.0
  0
LINE
  5
921
  8
_________1
 62
     7
 10
68.515799999999999
 20
93.135999999999996
 30
0.0
 11
65.616
 21
93.135999999999996
 31
0.0
  0
LINE
  5
922
  8
_________1
 62
     7
 10
65.002799999999993
 20
79.379599999999996
 30
0.0
 11
65.002799999999993
 21
86.194800000000015
 31
0.0
  0
LINE
  5
923
  8
_________1
 62
     7
 10
69.128
 20
79.379599999999996
 30
0.0
 11
69.128
 21
86.194800000000015
 31
0.0
  0
LINE
  5
924
  8
_________1
 62
     7
 10
65.616
 20
91.135800000000003
 30
0.0
 11
65.616
 21
93.135999999999996
 31
0.0
  0
LINE
  5
925
  8
_________1
 62
     7
 10
68.515799999999999
 20
91.135800000000003
 30
0.0
 11
68.515799999999999
 21
93.135999999999996
 31
0.0
  0
LINE
  5
926
  8
_________1
 62
     7
 10
65.616
 20
93.135999999999996
 30
0.0
 11
65.440299999999993
 21
93.436400000000006
 31
0.0
  0
LINE
  5
927
  8
_________1
 62
     7
 10
68.6905
 20
93.436400000000006
 30
0.0
 11
68.515799999999999
 21
93.135999999999996
 31
0.0
  0
LINE
  5
928
  8
_________1
 62
     7
 10
65.440299999999993
 20
93.436400000000006
 30
0.0
 11
65.390000000000001
 21
93.561099999999996
 31
0.0
  0
LINE
  5
929
  8
_________1
 62
     7
 10
65.390000000000001
 20
93.561099999999996
 30
0.0
 11
65.390000000000001
 21
93.685799999999986
 31
0.0
  0
ARC
  5
92A
  8
_________1
 62
     7
 10
68.147710000000004
 20
93.744667000000007
 30
0.0
 40
0.620659
 50
339.66158999999999
 51
354.56033300000001
  0
ARC
  5
92B
  8
_________1
 62
     7
 10
68.068977000000004
 20
93.754261
 30
0.0
 40
0.69806
 50
332.912893
 51
341.16943100000009
  0
LINE
  5
92C
  8
_________1
 62
     7
 10
68.765600000000006
 20
93.685799999999986
 30
0.0
 11
68.765600000000006
 21
94.386600000000001
 31
0.0
  0
LINE
  5
92D
  8
_________1
 62
     7
 10
68.765600000000006
 20
94.386600000000001
 30
0.0
 11
65.390000000000001
 21
94.386600000000001
 31
0.0
  0
LINE
  5
92E
  8
_________1
 62
     7
 10
65.390000000000001
 20
93.685799999999986
 30
0.0
 11
65.390000000000001
 21
94.386600000000001
 31
0.0
  0
LINE
  5
92F
  8
_________1
  6
AIGENLINE001
 62
     7
 10
67.065399999999997
 20
84.853899999999996
 30
0.0
 11
67.065399999999997
 21
182.52600000000001
 31
0.0
  0
LINE
  5
930
  8
_________1
 62
     7
 10
63.472499999999989
 20
87.634100000000004
 30
0.0
 11
47.793399999999998
 21
87.634100000000004
 31
0.0
  0
LINE
  5
931
  8
_________1
 62
     7
 10
61.770600000000002
 20
254.511
 30
0.0
 11
55.403300000000002
 21
254.511
 31
0.0
  0
ARC
  5
932
  8
_________1
 62
     7
 10
67.81541
 20
260.556803
 30
0.0
 40
3.5002399999999998
 50
270.00002000000001
 51
359.99999000000003
  0
ARC
  5
933
  8
_________1
 62
     7
 10
67.81575500000001
 20
260.55645700000002
 30
0.0
 40
3.4998939999999998
 50
179.99432999999999
 51
269.99437999999998
  0
ARC
  5
934
  8
_________1
 62
     7
 10
67.815584000000001
 20
260.55697400000003
 30
0.0
 40
3.4997229999999999
 50
90.002820000000014
 51
180.00282999999999
  0
ARC
  5
935
  8
_________1
 62
     7
 10
67.815581999999992
 20
260.55662999999998
 30
0.0
 40
3.500067
 50
0.00283
 51
90.002800000000008
  0
LINE
  5
936
  8
_________1
  6
AIGENLINE001
 62
     7
 10
73.917400000000001
 20
260.55700000000002
 30
0.0
 11
61.738199999999999
 21
260.55700000000002
 31
0.0
  0
INSERT
  5
937
  8
_________1
 62
     7
  2
AIGNBL03010028
 10
0.0
 20
0.0
 30
0.0
  0
LINE
  5
938
  8
_________1
  6
AIGENLINE001
 62
     7
 10
67.815399999999997
 20
254.40899999999999
 30
0.0
 11
67.815399999999997
 21
266.90800000000002
 31
0.0
  0
TEXT
  5
939
  8
_________2
 62
     7
 10
177.69399999999999
 20
34.465299999999999
 30
0.0
 40
3.6545800000000002
  1
19.08.06
 41
0.5
  0
TEXT
  5
93A
  8
_________2
 62
     7
 10
169.50999999999999
 20
118.64100000000001
 30
0.0
 40
3.9357000000000002
  1
※快適にお使いいただくためには、0.2～0.3MPa程度の圧力をおすすめします。
 41
0.5
  0
TEXT
  5
93B
  8
_________2
 62
     7
 10
169.50999999999999
 20
124.53400000000001
 30
0.0
 40
3.9357000000000002
  1
0.5MPa（流動圧）
 41
0.5
  0
TEXT
  5
93C
  8
_________2
 62
     7
 10
247.22647499999999
 20
30.3553
 30
0.0
 40
3.9357000000000002
  1
ZU0590R
 41
0.5
 72
     1
 11
253.458
 21
30.3553
 31
0.0
  0
TEXT
  5
93D
  8
_________2
 62
     7
 10
149.3328003333333
 20
34.850499999999997
 30
0.0
 40
3.6545800000000002
  1
井田
 41
0.5
 72
     1
 11
151.221
 21
34.850499999999997
 31
0.0
  0
TEXT
  5
93E
  8
_________2
 62
     7
 10
130.69789066666669
 20
34.850499999999997
 30
0.0
 40
3.6545800000000002
  1
恋塚
 41
0.5
 72
     1
 11
132.64699999999999
 21
34.850499999999997
 31
0.0
  0
TEXT
  5
93F
  8
_________2
 62
     7
 10
290.64778333333328
 20
12.808299999999999
 30
0.0
 40
3.3734599999999988
  1
A3
 41
0.5
 72
     2
 11
293.459
 21
12.808299999999999
 31
0.0
  0
TEXT
  5
940
  8
_________2
 62
     7
 10
134.495
 20
21.954699999999999
 30
0.0
 40
3.9357000000000002
  1
（社）日本水道協会認証品
 41
0.5
  0
LINE
  5
941
  8
_________2
 62
     7
 10
315.209
 20
148.65899999999999
 30
0.0
 11
293.459
 21
148.65899999999999
 31
0.0
  0
LINE
  5
942
  8
_________2
 62
     7
 10
105.20699999999999
 20
17.156300000000002
 30
0.0
 11
105.20699999999999
 21
0.176045
 31
0.0
  0
LINE
  5
943
  8
_________2
 62
     7
 10
105.20699999999999
 20
297.178
 30
0.0
 11
105.20699999999999
 21
280.15800000000002
 31
0.0
  0
LINE
  5
944
  8
_________2
 62
     7
 10
-83.043899999999994
 20
148.65899999999999
 30
0.0
 11
-104.794
 21
148.65899999999999
 31
0.0
  0
INSERT
  5
945
  8
_________2
 62
     7
  2
AIGNBL04010002
 10
0.0
 20
0.0
 30
0.0
  0
TEXT
  5
946
  8
_________2
 62
     7
 10
214.51300000000001
 20
22.9269
 30
0.0
 40
3.0923400000000001
  1
図番
 41
0.5
  0
LINE
  5
947
  8
_________2
 62
     7
 10
213.458
 20
27.156099999999999
 30
0.0
 11
293.459
 21
27.156099999999999
 31
0.0
  0
TEXT
  5
948
  8
_________2
 62
     7
 10
214.51300000000001
 20
32.926699999999997
 30
0.0
 40
3.0923400000000001
  1
品番
 41
0.5
  0
TEXT
  5
949
  8
_________2
 62
     7
 10
214.51300000000001
 20
53.0655
 30
0.0
 40
3.0923400000000001
  1
名称
 41
0.5
  0
TEXT
  5
94A
  8
_________2
 62
     7
 10
201.75325833333329
 20
48.069400000000002
 30
0.0
 40
3.6545800000000002
  1
mm
 41
0.5
 72
     1
 11
203.27600000000001
 21
48.069400000000002
 31
0.0
  0
TEXT
  5
94B
  8
_________2
 62
     7
 10
195.55099999999999
 20
53.0655
 30
0.0
 40
3.0923400000000001
  1
単位
 41
0.5
  0
TEXT
  5
94C
  8
_________2
 62
     7
 10
195.55099999999999
 20
40.658200000000001
 30
0.0
 40
3.0923400000000001
  1
尺度
 41
0.5
  0
TEXT
  5
94D
  8
_________2
 62
     7
 10
200.4570586666666
 20
34.465299999999999
 30
0.0
 40
3.6545800000000002
  1
1 ： 4
 41
0.5
 72
     1
 11
203.86799999999999
 21
34.465299999999999
 31
0.0
  0
TEXT
  5
94E
  8
_________2
 62
     7
 10
247.22647499999999
 20
20.354800000000001
 30
0.0
 40
3.9357000000000002
  1
ZU0590R
 41
0.5
 72
     1
 11
253.458
 21
20.354800000000001
 31
0.0
  0
TEXT
  5
94F
  8
_________2
 62
     7
 10
129.49600000000001
 20
132.15600000000001
 30
0.0
 40
3.9357000000000002
  1
給水圧力
 41
0.5
  0
TEXT
  5
950
  8
_________2
 62
     7
 10
129.49600000000001
 20
139.91900000000001
 30
0.0
 40
3.9357000000000002
  1
用途
 41
0.5
  0
TEXT
  5
951
  8
_________2
 62
     7
 10
169.50999999999999
 20
139.91900000000001
 30
0.0
 40
3.9357000000000002
  1
一般住宅用（屋内用）
 41
0.5
  0
LINE
  5
952
  8
_________2
 62
     7
 10
145.64099999999999
 20
137.81100000000001
 30
0.0
 11
145.64099999999999
 21
116.474
 31
0.0
  0
LINE
  5
953
  8
_________2
 62
     7
 10
166.97200000000001
 20
145.57299999999989
 30
0.0
 11
166.97200000000001
 21
61.980800000000002
 31
0.0
  0
LINE
  5
954
  8
_________2
 62
     7
 10
290.16199999999998
 20
145.57299999999989
 30
0.0
 11
126.95699999999999
 21
145.57299999999989
 31
0.0
  0
LINE
  5
955
  8
_________2
 62
     7
 10
126.95699999999999
 20
145.57299999999989
 30
0.0
 11
126.95699999999999
 21
61.980800000000002
 31
0.0
  0
LINE
  5
956
  8
_________2
 62
     7
 10
126.95699999999999
 20
61.980800000000002
 30
0.0
 11
290.16199999999998
 21
61.980800000000002
 31
0.0
  0
LINE
  5
957
  8
_________2
 62
     7
 10
290.16199999999998
 20
61.980800000000002
 30
0.0
 11
290.16199999999998
 21
145.57299999999989
 31
0.0
  0
TEXT
  5
958
  8
_________2
 62
     7
 10
147.41499999999999
 20
132.15600000000001
 30
0.0
 40
3.9357000000000002
  1
最低必要水圧
 41
0.5
  0
TEXT
  5
959
  8
_________2
 62
     7
 10
169.50999999999999
 20
132.15600000000001
 30
0.0
 40
3.9357000000000002
  1
0.1MPa（流動圧）
 41
0.5
  0
LINE
  5
95A
  8
_________2
 62
     7
 10
126.95699999999999
 20
137.81100000000001
 30
0.0
 11
290.16199999999998
 21
137.81100000000001
 31
0.0
  0
TEXT
  5
95B
  8
_________2
 62
     7
 10
129.49600000000001
 20
110.819
 30
0.0
 40
3.9357000000000002
  1
使用可能水質
 41
0.5
  0
TEXT
  5
95C
  8
_________2
 62
     7
 10
169.50999999999999
 20
110.819
 30
0.0
 40
3.9357000000000002
  1
水道水
 41
0.5
  0
LINE
  5
95D
  8
_________2
 62
     7
 10
126.95699999999999
 20
116.474
 30
0.0
 11
290.16199999999998
 21
116.474
 31
0.0
  0
TEXT
  5
95E
  8
_________2
 62
     7
 10
147.41499999999999
 20
124.53400000000001
 30
0.0
 40
3.9357000000000002
  1
最高水圧
 41
0.5
  0
LINE
  5
95F
  8
_________2
 62
     7
 10
145.64099999999999
 20
130.048
 30
0.0
 11
290.16199999999998
 21
130.048
 31
0.0
  0
TEXT
  5
960
  8
_________2
 62
     7
 10
129.49600000000001
 20
103.197
 30
0.0
 40
3.9357000000000002
  1
使用環境温度
 41
0.5
  0
TEXT
  5
961
  8
_________2
 62
     7
 10
129.49600000000001
 20
89.623299999999986
 30
0.0
 40
3.9357000000000002
  1
最高給湯温度
 41
0.5
  0
TEXT
  5
962
  8
_________2
 62
     7
 10
129.49600000000001
 20
75.920699999999997
 30
0.0
 40
3.9357000000000002
  1
特記事項
 41
0.5
  0
TEXT
  5
963
  8
_________2
 62
     7
 10
169.50999999999999
 20
97.200199999999995
 30
0.0
 40
3.9357000000000002
  1
※寒冷地仕様ではありません、凍結が予想される場合は凍結予防をしてください。
 41
0.5
  0
TEXT
  5
964
  8
_________2
 62
     7
 10
169.50999999999999
 20
103.197
 30
0.0
 40
3.9357000000000002
  1
1～40℃
 41
0.5
  0
LINE
  5
965
  8
_________2
 62
     7
 10
126.95699999999999
 20
108.711
 30
0.0
 11
290.16199999999998
 21
108.711
 31
0.0
  0
TEXT
  5
966
  8
_________2
 62
     7
 10
169.50999999999999
 20
83.626099999999994
 30
0.0
 40
3.9357000000000002
  1
※安全のため給湯温度は60℃以下でのご使用をおすすめします。
 41
0.5
  0
TEXT
  5
967
  8
_________2
 62
     7
 10
169.50999999999999
 20
89.623299999999986
 30
0.0
 40
3.9357000000000002
  1
80℃
 41
0.5
  0
TEXT
  5
968
  8
_________2
 62
     7
 10
169.50999999999999
 20
63.926200000000001
 30
0.0
 40
3.9357000000000002
  1
（3）フレキホース寸法公差\U+00B120。
 41
0.5
  0
TEXT
  5
969
  8
_________2
 62
     7
 10
169.50999999999999
 20
69.923500000000004
 30
0.0
 40
3.9357000000000002
  1
（2）湯水を逆に配管しないでください。
 41
0.5
  0
TEXT
  5
96A
  8
_________2
 62
     7
 10
169.50999999999999
 20
75.920699999999997
 30
0.0
 40
3.9357000000000002
  1
（1）水圧は湯水ほぼ同圧、且つ湯圧が水圧より高くならないように設定してください。
 41
0.5
  0
TEXT
  5
96B
  8
_________2
 62
     7
 10
219.08699999999999
 20
45.473100000000002
 30
0.0
 40
3.9357000000000002
  1
ウィンド　湯水混合水栓
 41
0.5
  0
TEXT
  5
96C
  8
_________2
 62
     7
 10
176.501
 20
40.658200000000001
 30
0.0
 40
3.0923400000000001
  1
日付
 41
0.5
  0
TEXT
  5
96D
  8
_________2
 62
     7
 10
139.547
 20
40.658200000000001
 30
0.0
 40
3.0923400000000001
  1
検図
 41
0.5
  0
TEXT
  5
96E
  8
_________2
 62
     7
 10
127.929
 20
26.4588
 30
0.0
 40
3.0923400000000001
  1
備考
 41
0.5
  0
TEXT
  5
96F
  8
_________2
 62
     7
 10
127.929
 20
40.658200000000001
 30
0.0
 40
3.0923400000000001
  1
製図
 41
0.5
  0
TEXT
  5
970
  8
_________2
 62
     7
 10
133.69596533333331
 20
49.184199999999997
 30
0.0
 40
4.4979399999999989
  1
セラトレーディング株式会社
 41
0.5
 72
     1
 11
151.08799999999999
 21
49.184199999999997
 31
0.0
  0
LINE
  5
971
  8
_________2
 62
     7
 10
293.459
 20
17.156300000000002
 30
0.0
 11
-83.043899999999994
 21
17.156300000000002
 31
0.0
  0
LINE
  5
972
  8
_________2
 62
     7
 10
-83.043899999999994
 20
17.156300000000002
 30
0.0
 11
-83.043899999999994
 21
280.15800000000002
 31
0.0
  0
LINE
  5
973
  8
_________2
 62
     7
 10
-83.043899999999994
 20
280.15800000000002
 30
0.0
 11
293.459
 21
280.15800000000002
 31
0.0
  0
LINE
  5
974
  8
_________2
 62
     7
 10
293.459
 20
280.15800000000002
 30
0.0
 11
293.459
 21
17.156300000000002
 31
0.0
  0
LINE
  5
975
  8
_________2
 62
     7
 10
175.458
 20
30.656400000000001
 30
0.0
 11
175.458
 21
57.156199999999998
 31
0.0
  0
LINE
  5
976
  8
_________2
 62
     7
 10
194.458
 20
30.656400000000001
 30
0.0
 11
194.458
 21
57.156199999999998
 31
0.0
  0
LINE
  5
977
  8
_________2
 62
     7
 10
126.95699999999999
 20
17.156300000000002
 30
0.0
 11
126.95699999999999
 21
57.156199999999998
 31
0.0
  0
LINE
  5
978
  8
_________2
 62
     7
 10
213.458
 20
17.156300000000002
 30
0.0
 11
213.458
 21
57.156199999999998
 31
0.0
  0
LINE
  5
979
  8
_________2
 62
     7
 10
138.45699999999999
 20
30.656400000000001
 30
0.0
 11
138.45699999999999
 21
44.65659999999999
 31
0.0
  0
LINE
  5
97A
  8
_________2
 62
     7
 10
126.95699999999999
 20
30.656400000000001
 30
0.0
 11
213.458
 21
30.656400000000001
 31
0.0
  0
LINE
  5
97B
  8
_________2
 62
     7
 10
126.95699999999999
 20
44.65659999999999
 30
0.0
 11
213.458
 21
44.65659999999999
 31
0.0
  0
LINE
  5
97C
  8
_________2
 62
     7
 10
213.458
 20
37.15590000000001
 30
0.0
 11
293.459
 21
37.15590000000001
 31
0.0
  0
LINE
  5
97D
  8
_________2
 62
     7
 10
126.95699999999999
 20
95.137299999999996
 30
0.0
 11
290.16199999999998
 21
95.137299999999996
 31
0.0
  0
LINE
  5
97E
  8
_________2
 62
     7
 10
126.95699999999999
 20
81.563199999999995
 30
0.0
 11
290.16199999999998
 21
81.563199999999995
 31
0.0
  0
LINE
  5
97F
  8
_________2
 62
     7
 10
126.95699999999999
 20
57.156199999999998
 30
0.0
 11
293.459
 21
57.156199999999998
 31
0.0
  0
ENDSEC
  0
EOF
