  0
SECTION
  2
HEADER
  9
$ACADVER
  1
AC1009
  9
$INSBASE
 10
0.0
 20
0.0
 30
0.0
  9
$EXTMIN
 10
-4.7012099999999988
 20
-21.070999999999991
 30
0.0
  9
$EXTMAX
 10
205.30099999999999
 20
275.93099999999993
 30
0.0
  9
$LIMMIN
 10
0.0
 20
0.0
  9
$LIMMAX
 10
12.0
 20
9.0
  9
$ORTHOMODE
 70
     0
  9
$REGENMODE
 70
     1
  9
$FILLMODE
 70
     1
  9
$QTEXTMODE
 70
     0
  9
$MIRRTEXT
 70
     1
  9
$DRAGMODE
 70
     2
  9
$LTSCALE
 40
1.0
  9
$OSMODE
 70
    37
  9
$ATTMODE
 70
     1
  9
$TEXTSIZE
 40
0.0
  9
$TRACEWID
 40
0.05
  9
$TEXTSTYLE
  7
STANDARD
  9
$CLAYER
  8
0
  9
$CELTYPE
  6
CONTINUOUS
  9
$CECOLOR
 62
   256
  9
$DIMSCALE
 40
1.0
  9
$DIMASZ
 40
0.18
  9
$DIMEXO
 40
0.0625
  9
$DIMDLI
 40
0.38
  9
$DIMRND
 40
0.0
  9
$DIMDLE
 40
0.0
  9
$DIMEXE
 40
0.18
  9
$DIMTP
 40
0.0
  9
$DIMTM
 40
0.0
  9
$DIMTXT
 40
0.18
  9
$DIMCEN
 40
0.09
  9
$DIMTSZ
 40
0.0
  9
$DIMTOL
 70
     0
  9
$DIMLIM
 70
     0
  9
$DIMTIH
 70
     1
  9
$DIMTOH
 70
     1
  9
$DIMSE1
 70
     0
  9
$DIMSE2
 70
     0
  9
$DIMTAD
 70
     0
  9
$DIMZIN
 70
     0
  9
$DIMBLK
  1

  9
$DIMASO
 70
     1
  9
$DIMSHO
 70
     1
  9
$DIMPOST
  1

  9
$DIMAPOST
  1

  9
$DIMALT
 70
     0
  9
$DIMALTD
 70
     2
  9
$DIMALTF
 40
25.399999999999999
  9
$DIMLFAC
 40
1.0
  9
$DIMTOFL
 70
     0
  9
$DIMTVP
 40
0.0
  9
$DIMTIX
 70
     0
  9
$DIMSOXD
 70
     0
  9
$DIMSAH
 70
     0
  9
$DIMBLK1
  1

  9
$DIMBLK2
  1

  9
$DIMSTYLE
  2
STANDARD
  9
$DIMCLRD
 70
     0
  9
$DIMCLRE
 70
     0
  9
$DIMCLRT
 70
     0
  9
$DIMTFAC
 40
1.0
  9
$DIMGAP
 40
0.09
  9
$LUNITS
 70
     2
  9
$LUPREC
 70
     4
  9
$SKETCHINC
 40
0.1
  9
$FILLETRAD
 40
0.0
  9
$AUNITS
 70
     0
  9
$AUPREC
 70
     0
  9
$MENU
  1
.
  9
$ELEVATION
 40
0.0
  9
$PELEVATION
 40
0.0
  9
$THICKNESS
 40
0.0
  9
$LIMCHECK
 70
     0
  9
$BLIPMODE
 70
     0
  9
$CHAMFERA
 40
0.0
  9
$CHAMFERB
 40
0.0
  9
$SKPOLY
 70
     0
  9
$TDCREATE
 40
2444972.375
  9
$TDUPDATE
 40
2456676.2507179859
  9
$TDINDWG
 40
0.0000130208
  9
$TDUSRTIMER
 40
0.0000130208
  9
$USRTIMER
 70
     1
  9
$ANGBASE
 50
0.0
  9
$ANGDIR
 70
     0
  9
$PDMODE
 70
     0
  9
$PDSIZE
 40
0.0
  9
$PLINEWID
 40
0.0
  9
$COORDS
 70
     1
  9
$SPLFRAME
 70
     0
  9
$SPLINETYPE
 70
     6
  9
$SPLINESEGS
 70
     8
  9
$ATTDIA
 70
     0
  9
$ATTREQ
 70
     1
  9
$HANDLING
 70
     1
  9
$HANDSEED
  5
8CB
  9
$SURFTAB1
 70
     6
  9
$SURFTAB2
 70
     6
  9
$SURFTYPE
 70
     6
  9
$SURFU
 70
     6
  9
$SURFV
 70
     6
  9
$UCSNAME
  2

  9
$UCSORG
 10
0.0
 20
0.0
 30
0.0
  9
$UCSXDIR
 10
1.0
 20
0.0
 30
0.0
  9
$UCSYDIR
 10
0.0
 20
1.0
 30
0.0
  9
$PUCSNAME
  2

  9
$PUCSORG
 10
0.0
 20
0.0
 30
0.0
  9
$PUCSXDIR
 10
1.0
 20
0.0
 30
0.0
  9
$PUCSYDIR
 10
0.0
 20
1.0
 30
0.0
  9
$USERI1
 70
     0
  9
$USERI2
 70
     0
  9
$USERI3
 70
     0
  9
$USERI4
 70
     0
  9
$USERI5
 70
     0
  9
$USERR1
 40
0.0
  9
$USERR2
 40
0.0
  9
$USERR3
 40
0.0
  9
$USERR4
 40
0.0
  9
$USERR5
 40
0.0
  9
$WORLDVIEW
 70
     1
  9
$SHADEDGE
 70
     3
  9
$SHADEDIF
 70
    70
  9
$TILEMODE
 70
     1
  9
$MAXACTVP
 70
    48
  9
$PLIMCHECK
 70
     0
  9
$PEXTMIN
 10
1.0000000000000000E+020
 20
1.0000000000000000E+020
 30
1.0000000000000000E+020
  9
$PEXTMAX
 10
-1.0000000000000000E+020
 20
-1.0000000000000000E+020
 30
-1.0000000000000000E+020
  9
$PLIMMIN
 10
0.0
 20
0.0
  9
$PLIMMAX
 10
12.0
 20
9.0
  9
$UNITMODE
 70
     0
  9
$VISRETAIN
 70
     1
  9
$PLINEGEN
 70
     0
  9
$PSLTSCALE
 70
     1
  0
ENDSEC
  0
SECTION
  2
TABLES
  0
TABLE
  2
VPORT
 70
     2
  0
VPORT
  2
*ACTIVE
 70
     0
 10
0.0
 20
0.0
 11
1.0
 21
1.0
 12
202.006301769564
 22
127.42999999999989
 13
0.0
 23
0.0
 14
1.0
 24
1.0
 15
0.0
 25
0.0
 16
0.0
 26
0.0
 36
1.0
 17
0.0
 27
0.0
 37
0.0
 40
299.45318569463541
 41
2.2894736842105261
 42
50.0
 43
0.0
 44
0.0
 50
0.0
 51
0.0
 71
     0
 72
   100
 73
     1
 74
     1
 75
     0
 76
     0
 77
     0
 78
     0
  0
ENDTAB
  0
TABLE
  2
LTYPE
 70
     3
  0
LTYPE
  2
CONTINUOUS
 70
     0
  3
Solid line
 72
    65
 73
     0
 40
0.0
  0
LTYPE
  2
AIGENLINE001
 70
     0
  3
generate AI->DXF Converter
 72
    65
 73
     4
 40
5.8561449999999988
 49
3.5278
 49
-0.776115
 49
0.776115
 49
-0.776115
  0
LTYPE
  2
AIGENLINE002
 70
     0
  3
generate AI->DXF Converter
 72
    65
 73
     6
 40
7.4083750000000004
 49
3.5278
 49
-0.776115
 49
0.776115
 49
-0.776115
 49
0.776115
 49
-0.776115
  0
ENDTAB
  0
TABLE
  2
LAYER
 70
     3
  0
LAYER
  2
0
 70
     0
 62
     7
  6
CONTINUOUS
  0
LAYER
  2
_________4
 70
     0
 62
     7
  6
CONTINUOUS
  0
LAYER
  2
_________2
 70
     0
 62
     7
  6
CONTINUOUS
  0
ENDTAB
  0
TABLE
  2
STYLE
 70
     1
  0
STYLE
  2
STANDARD
 70
     0
 40
0.0
 41
0.0
 50
0.0
 71
     0
 42
0.0
  3
TXT
  4
EXTFONT.SHX
  0
ENDTAB
  0
TABLE
  2
VIEW
 70
     0
  0
ENDTAB
  0
TABLE
  2
UCS
 70
     0
  0
ENDTAB
  0
TABLE
  2
APPID
 70
     1
  0
APPID
  2
ACAD
 70
     0
  0
ENDTAB
  0
TABLE
  2
DIMSTYLE
 70
     1
  0
DIMSTYLE
  2
STANDARD
 70
     0
  3

  4

  5

  6

  7

 40
1.0
 41
0.18
 42
0.0625
 43
0.38
 44
0.18
 45
0.0
 46
0.0
 47
0.0
 48
0.0
140
0.18
141
0.09
142
0.0
143
25.399999999999999
144
1.0
145
0.0
146
1.0
147
0.09
 71
     0
 72
     0
 73
     1
 74
     1
 75
     0
 76
     0
 77
     0
 78
     0
170
     0
171
     2
172
     0
173
     0
174
     0
175
     0
176
     0
177
     0
178
     0
  0
ENDTAB
  0
ENDSEC
  0
SECTION
  2
BLOCKS
  0
BLOCK
  8
0
  2
$MODEL_SPACE
 70
     0
 10
0.0
 20
0.0
 30
0.0
  3
$MODEL_SPACE
  1

  0
ENDBLK
  5
1A
  8
0
  0
BLOCK
 67
     1
  8
0
  2
$PAPER_SPACE
 70
     0
 10
0.0
 20
0.0
 30
0.0
  3
$PAPER_SPACE
  1

  0
ENDBLK
  5
17
 67
     1
  8
0
  0
ENDSEC
  0
SECTION
  2
ENTITIES
  0
TEXT
  5
24
  8
0
 62
     7
 10
97.240482499999999
 20
49.434699999999999
 30
0.0
 40
3.0923400000000001
  1
180
 41
0.5
 72
     1
 11
98.915499999999994
 21
49.434699999999999
 31
0.0
  0
TEXT
  5
25
  8
0
 62
     7
 10
97.058600000000013
 20
67.172849999999997
 30
0.0
 40
3.0923400000000001
  1
%%c5
 50
90.0
 41
0.5
 72
     2
 11
97.058600000000013
 21
69.749799999999993
 31
0.0
  0
TEXT
  5
26
  8
0
 62
     7
 10
84.103317999999987
 20
54.704300000000003
 30
0.0
 40
3.0923400000000001
  1
G1 1/4
 41
0.5
 72
     2
 11
91.215699999999998
 21
54.704300000000003
 31
0.0
  0
TEXT
  5
27
  8
0
 62
     7
 10
63.776699999999998
 20
63.567272500000001
 30
0.0
 40
3.0923400000000001
  1
50
 50
90.0
 41
0.5
 72
     1
 11
63.776699999999998
 21
64.726900000000001
 31
0.0
  0
TEXT
  5
28
  8
0
 62
     7
 10
63.351599999999998
 20
72.624422500000009
 30
0.0
 40
3.0923400000000001
  1
max.50
 50
90.0
 41
0.5
 72
     1
 11
63.351599999999998
 21
76.361000000000004
 31
0.0
  0
TEXT
  5
29
  8
0
 62
     7
 10
75.380539999999996
 20
87.224900000000005
 30
0.0
 40
3.0923400000000001
  1
%%c63
 41
0.5
 72
     1
 11
77.442099999999996
 21
87.224900000000005
 31
0.0
  0
TEXT
  5
2A
  8
0
 62
     7
 10
137.494
 20
59.082000000000001
 30
0.0
 40
3.865419999999999
  1
G 3/8
 41
0.5
  0
TEXT
  5
2B
  8
0
 62
     7
 10
162.554845
 20
174.87299999999991
 30
0.0
 40
3.0923400000000001
  1
max.40
 41
0.5
 72
     2
 11
170.02799999999999
 21
174.87299999999991
 31
0.0
  0
TEXT
  5
2C
  8
0
 62
     7
 10
137.16499999999999
 20
147.81357499999999
 30
0.0
 40
3.0923400000000001
  1
max.45
 50
90.0
 41
0.5
 72
     1
 11
137.16499999999999
 21
151.679
 31
0.0
  0
TEXT
  5
2D
  8
0
 62
     7
 10
162.34434749526301
 20
94.515170833596699
 30
0.0
 40
3.0923400000000001
  1
%%c5
 50
4.5991200000000001
 41
0.5
 72
     2
 11
164.9129999999999
 21
94.721799999999988
 31
0.0
  0
TEXT
  5
2E
  8
0
 62
     7
 10
167.29099999999991
 20
119.49628749999999
 30
0.0
 40
3.0923400000000001
  1
290
 50
90.0
 41
0.5
 72
     1
 11
167.29099999999991
 21
121.429
 31
0.0
  0
TEXT
  5
2F
  8
0
 62
     7
 10
130.5739999999999
 20
109.7424399999999
 30
0.0
 40
3.0923400000000001
  1
367
 50
90.0
 41
0.5
 72
     1
 11
130.5739999999999
 21
111.804
 31
0.0
  0
TEXT
  5
30
  8
0
 62
     7
 10
138.45400000000001
 20
234.7339999999999
 30
0.0
 40
3.0923400000000001
  1
%%c35
 41
0.5
  0
TEXT
  5
31
  8
0
 62
     7
 10
146.2326459999999
 20
226.465
 30
0.0
 40
3.0923400000000001
  1
水栓取付穴
 41
0.5
 72
     1
 11
150.66499999999999
 21
226.465
 31
0.0
  0
TEXT
  5
32
  8
0
 62
     7
 10
49.233125000000001
 20
172.1579999999999
 30
0.0
 40
3.0923400000000001
  1
43
 41
0.5
 72
     1
 11
50.521599999999999
 21
172.1579999999999
 31
0.0
  0
TEXT
  5
33
  8
0
 62
     7
 10
157.10304999999991
 20
165.4609999999999
 30
0.0
 40
3.0923400000000001
  1
43
 41
0.5
 72
     2
 11
159.67999999999989
 21
165.4609999999999
 31
0.0
  0
TEXT
  5
34
  8
0
 62
     7
 10
140.57599999999991
 20
162.072
 30
0.0
 40
3.0923400000000001
  1
51
 41
0.5
  0
TEXT
  5
35
  8
0
 62
     7
 10
49.490819999999999
 20
165.26899999999989
 30
0.0
 40
3.0923400000000001
  1
51
 41
0.5
 72
     1
 11
50.521599999999999
 21
165.26899999999989
 31
0.0
  0
TEXT
  5
36
  8
0
 62
     7
 10
37.085634999999989
 20
209.23799999999989
 30
0.0
 40
3.0923400000000001
  1
45%%d
 41
0.5
 72
     1
 11
38.889499999999991
 21
209.23799999999989
 31
0.0
  0
TEXT
  5
37
  8
0
 62
     7
 10
61.469135000000001
 20
209.23799999999989
 30
0.0
 40
3.0923400000000001
  1
45%%d
 41
0.5
 72
     1
 11
63.27300000000001
 21
209.23799999999989
 31
0.0
  0
TEXT
  5
38
  8
0
 62
     7
 10
119.74544
 20
162.643
 30
0.0
 40
3.0923400000000001
  1
5.5%%d
 41
0.5
 72
     1
 11
121.8069999999999
 21
162.643
 31
0.0
  0
TEXT
  5
39
  8
0
 62
     7
 10
68.673599999999993
 20
227.39699999999999
 30
0.0
 40
3.0923400000000001
  1
水
 41
0.5
  0
TEXT
  5
3A
  8
0
 62
     7
 10
30.562007999999999
 20
227.39699999999999
 30
0.0
 40
3.0923400000000001
  1
湯
 41
0.5
 72
     2
 11
32.005099999999992
 21
227.39699999999999
 31
0.0
  0
TEXT
  5
3B
  8
0
 62
     7
 10
133.24598599999999
 20
201.809
 30
0.0
 40
3.0923400000000001
  1
開
 41
0.5
 72
     2
 11
134.58600000000001
 21
201.809
 31
0.0
  0
TEXT
  5
3C
  8
0
 62
     7
 10
125.42598599999999
 20
187.697
 30
0.0
 40
3.0923400000000001
  1
閉
 41
0.5
 72
     2
 11
126.76600000000001
 21
187.697
 31
0.0
  0
TEXT
  5
3D
  8
0
 62
     7
 10
134.74383
 20
167.79099999999991
 30
0.0
 40
3.0923400000000001
  1
115
 41
0.5
 72
     1
 11
136.28999999999999
 21
167.79099999999991
 31
0.0
  0
TEXT
  5
3E
  8
0
 62
     7
 10
96.791899999999998
 20
177.37513499999989
 30
0.0
 40
3.0923400000000001
  1
172
 50
90.0
 41
0.5
 72
     1
 11
96.791899999999998
 21
179.17899999999989
 31
0.0
  0
TEXT
  5
3F
  8
0
 62
     7
 10
103.87299999999991
 20
173.25013499999989
 30
0.0
 40
3.0923400000000001
  1
139
 50
90.0
 41
0.5
 72
     1
 11
103.87299999999991
 21
175.05399999999989
 31
0.0
  0
TEXT
  5
40
  8
0
 62
     7
 10
130.63499999999991
 20
168.569525
 30
0.0
 40
3.0923400000000001
  1
79
 50
90.0
 41
0.5
 72
     1
 11
130.63499999999991
 21
169.85799999999989
 31
0.0
  0
TEXT
  5
41
  8
0
 62
     7
 10
110.955
 20
166.51937249999989
 30
0.0
 40
3.0923400000000001
  1
80
 50
90.0
 41
0.5
 72
     1
 11
110.955
 21
167.679
 31
0.0
  0
LINE
  5
42
  8
_________4
  6
AIGENLINE001
 62
     7
 10
48.334000000000003
 20
61.8688
 30
0.0
 11
48.334000000000003
 21
159.5329999999999
 31
0.0
  0
LINE
  5
43
  8
_________4
 62
     7
 10
49.711999999999989
 20
67.805099999999996
 30
0.0
 11
49.711999999999989
 21
65.179199999999994
 31
0.0
  0
ARC
  5
44
  8
_________4
 62
     7
 10
50.407474000000001
 20
66.055789000000004
 30
0.0
 40
1.0771949999999999
 50
253.73839099999989
 51
265.12532799999991
  0
ARC
  5
45
  8
_________4
 62
     7
 10
50.659219999999998
 20
66.976348999999999
 30
0.0
 40
2.031483999999999
 50
242.2078479999999
 51
254.192598
  0
ARC
  5
46
  8
_________4
 62
     7
 10
50.454694000000003
 20
66.709164999999999
 30
0.0
 40
1.3238589999999999
 50
93.846168999999989
 51
124.12499199999991
  0
LINE
  5
47
  8
_________4
 62
     7
 10
45.58679999999999
 20
67.805099999999996
 30
0.0
 11
45.58679999999999
 21
65.179199999999994
 31
0.0
  0
LINE
  5
48
  8
_________4
 62
     7
 10
46.96139999999999
 20
67.805099999999996
 30
0.0
 11
46.96139999999999
 21
65.179199999999994
 31
0.0
  0
ARC
  5
49
  8
_________4
 62
     7
 10
43.536188000000003
 20
73.143068
 30
0.0
 40
8.6692179999999972
 50
291.694098
 51
293.27244000000002
  0
ARC
  5
4A
  8
_________4
 62
     7
 10
46.005465000000001
 20
66.962307999999993
 30
0.0
 40
2.01349
 50
282.24405200000001
 51
291.41933199999988
  0
ARC
  5
4B
  8
_________4
 62
     7
 10
46.276423999999999
 20
65.782997999999992
 30
0.0
 40
0.8036760000000001
 50
270.74496599999998
 51
281.19653699999998
  0
ARC
  5
4C
  8
_________4
 62
     7
 10
46.287681999999997
 20
65.886921999999998
 30
0.0
 40
0.9075319999999999
 50
257.81198299999988
 51
269.94892599999991
  0
ARC
  5
4D
  8
_________4
 62
     7
 10
46.38668599999999
 20
66.419875000000005
 30
0.0
 40
1.44946
 50
252.9407139999999
 51
258.43437299999999
  0
ARC
  5
4E
  8
_________4
 62
     7
 10
46.634684
 20
67.224857
 30
0.0
 40
2.2917770000000002
 50
248.54088300000001
 51
252.91730599999991
  0
ARC
  5
4F
  8
_________4
 62
     7
 10
48.057029999999997
 20
70.813321999999999
 30
0.0
 40
6.1518420000000003
 50
246.32558999999989
 51
248.43888699999999
  0
ARC
  5
50
  8
_________4
 62
     7
 10
46.588762000000003
 20
66.092006999999995
 30
0.0
 40
1.984561
 50
107.8799179999999
 51
120.3224249999999
  0
ARC
  5
51
  8
_________4
 62
     7
 10
46.311324999999989
 20
66.902854000000005
 30
0.0
 40
1.1277969999999991
 50
91.242338000000004
 51
107.113371
  0
ARC
  5
52
  8
_________4
 62
     7
 10
46.286146999999993
 20
67.263714000000007
 30
0.0
 40
0.766672
 50
76.139626000000007
 51
89.945769999999996
  0
ARC
  5
53
  8
_________4
 62
     7
 10
46.142744
 20
66.586832999999984
 30
0.0
 40
1.458377
 50
65.825644999999994
 51
77.040245999999996
  0
ARC
  5
54
  8
_________4
 62
     7
 10
45.896316999999989
 20
65.978156000000013
 30
0.0
 40
2.1147320000000001
 50
59.757435000000001
 51
66.488002000000009
  0
ARC
  5
55
  8
_________4
 62
     7
 10
51.021928000000003
 20
58.615765000000003
 30
0.0
 40
6.692880999999999
 50
101.286674
 51
103.1978889999999
  0
ARC
  5
56
  8
_________4
 62
     7
 10
48.022308000000002
 20
70.710032999999996
 30
0.0
 40
5.7689959999999987
 50
278.57858599999992
 51
284.77810199999988
  0
ARC
  5
57
  8
_________4
 62
     7
 10
48.536538
 20
67.270467000000011
 30
0.0
 40
2.2912110000000001
 50
270.62022400000001
 51
278.69332400000002
  0
LINE
  5
58
  8
_________4
 62
     7
 10
48.561300000000003
 20
64.979399999999984
 30
0.0
 11
48.112099999999991
 21
64.979399999999984
 31
0.0
  0
ARC
  5
59
  8
_________4
 62
     7
 10
48.112415000000013
 20
66.939540000000008
 30
0.0
 40
1.9601489999999999
 50
261.53812999999991
 51
269.990679
  0
ARC
  5
5A
  8
_________4
 62
     7
 10
48.32673599999999
 20
68.595999000000006
 30
0.0
 40
3.6302529999999988
 50
258.55251800000002
 51
262.03944999999987
  0
ARC
  5
5B
  8
_________4
 62
     7
 10
49.746495000000003
 20
75.490847000000002
 30
0.0
 40
10.669745999999989
 50
256.53940499999999
 51
258.42848900000001
  0
ARC
  5
5C
  8
_________4
 62
     7
 10
45.829718
 20
59.201240000000013
 30
0.0
 40
6.084147999999999
 50
76.376069000000001
 51
79.280000000000001
  0
ARC
  5
5D
  8
_________4
 62
     7
 10
48.200507000000002
 20
64.153227000000001
 30
0.0
 40
3.8563349999999992
 50
102.8027419999999
 51
108.74217400000001
  0
ARC
  5
5E
  8
_________4
 62
     7
 10
48.442681
 20
63.28307800000001
 30
0.0
 40
4.7587120000000001
 50
94.332845999999975
 51
103.3244709999999
  0
ARC
  5
5F
  8
_________4
 62
     7
 10
48.229706
 20
65.746988000000002
 30
0.0
 40
2.2859050000000001
 50
87.316779999999994
 51
93.675730999999985
  0
ARC
  5
60
  8
_________4
 62
     7
 10
48.419975000000001
 20
66.614558000000002
 30
0.0
 40
1.418274
 50
88.960406000000006
 51
93.365382999999994
  0
ARC
  5
61
  8
_________4
 62
     7
 10
48.406325000000002
 20
65.457778000000005
 30
0.0
 40
2.5751209999999989
 50
85.185413999999994
 51
89.123698999999988
  0
ARC
  5
62
  8
_________4
 62
     7
 10
48.208181000000003
 20
63.137334000000003
 30
0.0
 40
4.9040089999999994
 50
72.142374000000004
 51
85.154031999999987
  0
LINE
  5
63
  8
_________4
 62
     7
 10
49.587299999999999
 20
68.206100000000006
 30
0.0
 11
48.3367
 21
68.206100000000006
 31
0.0
  0
LINE
  5
64
  8
_________4
 62
     7
 10
47.086799999999997
 20
68.206100000000006
 30
0.0
 11
48.3367
 21
68.206100000000006
 31
0.0
  0
LINE
  5
65
  8
_________4
 62
     7
 10
46.03609999999999
 20
64.9298
 30
0.0
 11
48.3367
 21
64.9298
 31
0.0
  0
LINE
  5
66
  8
_________4
 62
     7
 10
48.3367
 20
64.9298
 30
0.0
 11
50.6374
 21
64.9298
 31
0.0
  0
LINE
  5
67
  8
_________4
 62
     7
 10
45.58679999999999
 20
65.179199999999994
 30
0.0
 11
46.03609999999999
 21
64.9298
 31
0.0
  0
LINE
  5
68
  8
_________4
 62
     7
 10
46.03609999999999
 20
68.055199999999999
 30
0.0
 11
50.6374
 21
68.055199999999999
 31
0.0
  0
LINE
  5
69
  8
_________4
 62
     7
 10
46.7864
 20
68.179900000000004
 30
0.0
 11
49.887
 21
68.179900000000004
 31
0.0
  0
ARC
  5
6A
  8
_________4
 62
     7
 10
49.335309000000002
 20
68.876822000000004
 30
0.0
 40
0.716507
 50
290.59053399999988
 51
326.53321899999992
  0
ARC
  5
6B
  8
_________4
 62
     7
 10
49.503213000000002
 20
68.740622999999999
 30
0.0
 40
0.5017740000000001
 50
328.93488500000001
 51
341.35771599999998
  0
LINE
  5
6C
  8
_________4
 62
     7
 10
49.978700000000003
 20
68.580200000000005
 30
0.0
 11
50.011699999999998
 21
68.680099999999996
 31
0.0
  0
LINE
  5
6D
  8
_________4
 62
     7
 10
50.011699999999998
 20
68.680099999999996
 30
0.0
 11
50.011699999999998
 21
68.830299999999994
 31
0.0
  0
LINE
  5
6E
  8
_________4
 62
     7
 10
50.011699999999998
 20
68.830299999999994
 30
0.0
 11
49.9621
 21
69.005399999999995
 31
0.0
  0
LINE
  5
6F
  8
_________4
 62
     7
 10
46.686500000000002
 20
69.005399999999995
 30
0.0
 11
46.711300000000001
 21
69.005399999999995
 31
0.0
  0
ARC
  5
70
  8
_________4
 62
     7
 10
153.874843
 20
53.724043000000002
 30
0.0
 40
108.272147
 50
171.88628
 51
171.97981899999991
  0
LINE
  5
71
  8
_________4
 62
     7
 10
46.661700000000003
 20
68.830299999999994
 30
0.0
 11
46.661700000000003
 21
68.680099999999996
 31
0.0
  0
LINE
  5
72
  8
_________4
 62
     7
 10
46.661700000000003
 20
68.680099999999996
 30
0.0
 11
46.694099999999999
 21
68.580200000000005
 31
0.0
  0
ARC
  5
73
  8
_________4
 62
     7
 10
47.75886599999999
 20
68.936678000000001
 30
0.0
 40
1.1228599999999991
 50
198.508769
 51
203.306194
  0
ARC
  5
74
  8
_________4
 62
     7
 10
47.165345000000002
 20
68.680002999999999
 30
0.0
 40
0.4762170000000001
 50
203.19695899999999
 51
222.350945
  0
ARC
  5
75
  8
_________4
 62
     7
 10
47.097427999999987
 20
68.636893000000001
 30
0.0
 40
0.397225
 50
224.35538399999999
 51
234.70535699999991
  0
ARC
  5
76
  8
_________4
 62
     7
 10
47.290013000000002
 20
68.914775000000006
 30
0.0
 40
0.7353100000000001
 50
234.967907
 51
242.37642099999999
  0
ARC
  5
77
  8
_________4
 62
     7
 10
49.061726999999998
 20
72.295170999999996
 30
0.0
 40
4.5518589999999994
 50
242.34616299999999
 51
243.93979300000001
  0
LINE
  5
78
  8
_________4
 62
     7
 10
47.061999999999991
 20
68.206100000000006
 30
0.0
 11
47.086799999999997
 21
68.206100000000006
 31
0.0
  0
LINE
  5
79
  8
_________4
 62
     7
 10
46.886999999999993
 20
69.430499999999995
 30
0.0
 11
49.76230000000001
 21
69.430499999999995
 31
0.0
  0
LINE
  5
7A
  8
_________4
 62
     7
 10
46.886999999999993
 20
71.430700000000002
 30
0.0
 11
48.3367
 21
71.430700000000002
 31
0.0
  0
LINE
  5
7B
  8
_________4
 62
     7
 10
48.3367
 20
71.430700000000002
 30
0.0
 11
49.76230000000001
 21
71.430700000000002
 31
0.0
  0
LINE
  5
7C
  8
_________4
 62
     7
 10
50.011699999999998
 20
71.980599999999995
 30
0.0
 11
50.011699999999998
 21
71.855800000000002
 31
0.0
  0
LINE
  5
7D
  8
_________4
 62
     7
 10
50.011699999999998
 20
71.855800000000002
 30
0.0
 11
49.9373
 21
71.730400000000003
 31
0.0
  0
LINE
  5
7E
  8
_________4
 62
     7
 10
46.63689999999999
 20
71.980599999999995
 30
0.0
 11
46.661700000000003
 21
71.855800000000002
 31
0.0
  0
LINE
  5
7F
  8
_________4
 62
     7
 10
46.661700000000003
 20
71.855800000000002
 30
0.0
 11
46.711300000000001
 21
71.730400000000003
 31
0.0
  0
LINE
  5
80
  8
_________4
 62
     7
 10
46.63689999999999
 20
72.681299999999993
 30
0.0
 11
50.011699999999998
 21
72.681299999999993
 31
0.0
  0
LINE
  5
81
  8
_________4
 62
     7
 10
46.63689999999999
 20
72.681299999999993
 30
0.0
 11
46.63689999999999
 21
71.980599999999995
 31
0.0
  0
LINE
  5
82
  8
_________4
 62
     7
 10
50.011699999999998
 20
72.681299999999993
 30
0.0
 11
50.011699999999998
 21
71.980599999999995
 31
0.0
  0
LINE
  5
83
  8
_________4
 62
     7
 10
46.03609999999999
 20
68.055199999999999
 30
0.0
 11
45.58679999999999
 21
67.805099999999996
 31
0.0
  0
LINE
  5
84
  8
_________4
 62
     7
 10
46.711300000000001
 20
71.730400000000003
 30
0.0
 11
46.886999999999993
 21
71.430700000000002
 31
0.0
  0
LINE
  5
85
  8
_________4
 62
     7
 10
46.886999999999993
 20
69.430499999999995
 30
0.0
 11
46.711300000000001
 21
69.005399999999995
 31
0.0
  0
LINE
  5
86
  8
_________4
 62
     7
 10
49.9373
 20
71.730400000000003
 30
0.0
 11
49.76230000000001
 21
71.430700000000002
 31
0.0
  0
LINE
  5
87
  8
_________4
 62
     7
 10
49.76230000000001
 20
69.430499999999995
 30
0.0
 11
49.9621
 21
69.005399999999995
 31
0.0
  0
LINE
  5
88
  8
_________4
 62
     7
 10
46.886999999999993
 20
71.430700000000002
 30
0.0
 11
46.886999999999993
 21
69.430499999999995
 31
0.0
  0
LINE
  5
89
  8
_________4
 62
     7
 10
49.76230000000001
 20
71.430700000000002
 30
0.0
 11
49.76230000000001
 21
69.430499999999995
 31
0.0
  0
LINE
  5
8A
  8
_________4
 62
     7
 10
46.7864
 20
68.179900000000004
 30
0.0
 11
46.7864
 21
68.055199999999999
 31
0.0
  0
LINE
  5
8B
  8
_________4
 62
     7
 10
49.887
 20
68.179900000000004
 30
0.0
 11
49.887
 21
68.055199999999999
 31
0.0
  0
LINE
  5
8C
  8
_________4
 62
     7
 10
45.58679999999999
 20
65.179199999999994
 30
0.0
 11
46.03609999999999
 21
64.9298
 31
0.0
  0
LINE
  5
8D
  8
0
 62
     7
 10
146.43199999999999
 20
140.929
 30
0.0
 11
146.43199999999999
 21
144.179
 31
0.0
  0
ARC
  5
8E
  8
0
 62
     7
 10
148.67092600000001
 20
140.40970599999989
 30
0.0
 40
2.120115999999999
 50
255.315845
 51
270.04679900000002
  0
ARC
  5
8F
  8
0
 62
     7
 10
147.17850999999999
 20
140.470055
 30
0.0
 40
2.1788899999999991
 50
255.682839
 51
284.31718000000001
  0
LINE
  5
90
  8
0
 62
     7
 10
146.43199999999999
 20
138.35900000000001
 30
0.0
 11
146.43199999999999
 21
138.29900000000001
 31
0.0
  0
ARC
  5
91
  8
0
 62
     7
 10
156.33146199999999
 20
155.46363899999989
 30
0.0
 40
19.815035000000002
 50
240.0256
 51
240.72692799999999
  0
LINE
  5
92
  8
0
 62
     7
 10
148.66499999999999
 20
138.179
 30
0.0
 11
146.642
 21
138.179
 31
0.0
  0
LINE
  5
93
  8
0
 62
     7
 10
147.71700000000001
 20
140.80500000000001
 30
0.0
 11
147.71700000000001
 21
138.35900000000001
 31
0.0
  0
LINE
  5
94
  8
0
 62
     7
 10
148.1329999999999
 20
138.35900000000001
 30
0.0
 11
147.71700000000001
 21
138.35900000000001
 31
0.0
  0
LINE
  5
95
  8
0
 62
     7
 10
148.1329999999999
 20
138.35900000000001
 30
0.0
 11
148.1329999999999
 21
140.80500000000001
 31
0.0
  0
LINE
  5
96
  8
0
 62
     7
 10
146.43199999999999
 20
140.80500000000001
 30
0.0
 11
146.43199999999999
 21
138.35900000000001
 31
0.0
  0
LINE
  5
97
  8
0
 62
     7
 10
146.6399999999999
 20
138.35900000000001
 30
0.0
 11
146.43199999999999
 21
138.35900000000001
 31
0.0
  0
LINE
  5
98
  8
0
 62
     7
 10
146.6399999999999
 20
138.35900000000001
 30
0.0
 11
146.6399999999999
 21
140.80500000000001
 31
0.0
  0
LINE
  5
99
  8
0
 62
     7
 10
148.673
 20
140.929
 30
0.0
 11
147.179
 21
140.929
 31
0.0
  0
ARC
  5
9A
  8
0
 62
     7
 10
147.17709499999989
 20
139.757259
 30
0.0
 40
1.1718090000000001
 50
73.050236999999996
 51
89.930774
  0
ARC
  5
9B
  8
0
 62
     7
 10
147.0754729999999
 20
139.3679709999999
 30
0.0
 40
1.5738979999999989
 50
65.932569999999998
 51
73.643028999999999
  0
LINE
  5
9C
  8
0
 62
     7
 10
148.1329999999999
 20
140.80500000000001
 30
0.0
 11
147.71700000000001
 21
140.80500000000001
 31
0.0
  0
ARC
  5
9D
  8
0
 62
     7
 10
148.76184299999991
 20
139.38517300000001
 30
0.0
 40
1.552691
 50
99.688777000000002
 51
113.871206
  0
ARC
  5
9E
  8
0
 62
     7
 10
148.67521999999991
 20
139.779629
 30
0.0
 40
1.14944
 50
90.110550000000003
 51
98.741538000000006
  0
LINE
  5
9F
  8
0
 62
     7
 10
147.179
 20
140.929
 30
0.0
 11
146.43199999999999
 21
140.929
 31
0.0
  0
LINE
  5
A0
  8
0
 62
     7
 10
146.43199999999999
 20
140.929
 30
0.0
 11
146.43199999999999
 21
140.80500000000001
 31
0.0
  0
LINE
  5
A1
  8
0
 62
     7
 10
146.6399999999999
 20
140.80500000000001
 30
0.0
 11
146.43199999999999
 21
140.80500000000001
 31
0.0
  0
ARC
  5
A2
  8
0
 62
     7
 10
147.26850099999999
 20
139.384131
 30
0.0
 40
1.5538299999999989
 50
99.706469999999996
 51
113.87117499999999
  0
ARC
  5
A3
  8
0
 62
     7
 10
147.18085600000001
 20
139.78431399999991
 30
0.0
 40
1.144755999999999
 50
90.117397999999994
 51
98.759525000000025
  0
LINE
  5
A4
  8
0
 62
     7
 10
146.93000000000001
 20
156.929
 30
0.0
 11
146.93000000000001
 21
145.67899999999989
 31
0.0
  0
LINE
  5
A5
  8
0
 62
     7
 10
144.37700000000001
 20
144.2289999999999
 30
0.0
 11
144.37700000000001
 21
145.12899999999999
 31
0.0
  0
LINE
  5
A6
  8
0
 62
     7
 10
153.90199999999999
 20
144.2289999999999
 30
0.0
 11
153.90199999999999
 21
145.12899999999999
 31
0.0
  0
ARC
  5
A7
  8
0
 62
     7
 10
153.85065499999999
 20
145.1276179999999
 30
0.0
 40
0.051375
 50
1.936531
 51
88.063458999999995
  0
ARC
  5
A8
  8
0
 62
     7
 10
144.42854099999991
 20
145.12734099999989
 30
0.0
 40
0.051639
 50
91.443960999999987
 51
177.76573500000001
  0
ARC
  5
A9
  8
0
 62
     7
 10
153.8505879999999
 20
144.23043200000001
 30
0.0
 40
0.051445
 50
272.00930599999992
 51
357.99070399999999
  0
ARC
  5
AA
  8
0
 62
     7
 10
144.4290409999999
 20
144.2311489999999
 30
0.0
 40
0.052161
 50
182.76987500000001
 51
268.02042799999992
  0
LINE
  5
AB
  8
0
 62
     7
 10
144.42699999999999
 20
144.179
 30
0.0
 11
153.852
 21
144.179
 31
0.0
  0
LINE
  5
AC
  8
0
 62
     7
 10
144.37700000000001
 20
145.67899999999989
 30
0.0
 11
144.37700000000001
 21
145.179
 31
0.0
  0
LINE
  5
AD
  8
0
 62
     7
 10
153.90199999999999
 20
145.67899999999989
 30
0.0
 11
153.90199999999999
 21
145.179
 31
0.0
  0
LINE
  5
AE
  8
0
 62
     7
 10
144.37700000000001
 20
145.67899999999989
 30
0.0
 11
153.90199999999999
 21
145.67899999999989
 31
0.0
  0
LINE
  5
AF
  8
0
 62
     7
 10
144.37700000000001
 20
145.179
 30
0.0
 11
153.90199999999999
 21
145.179
 31
0.0
  0
LINE
  5
B0
  8
0
 62
     7
 10
52.015799999999992
 20
140.929
 30
0.0
 11
52.015799999999992
 21
144.179
 31
0.0
  0
LINE
  5
B1
  8
0
 62
     7
 10
49.027500000000011
 20
140.929
 30
0.0
 11
49.027500000000011
 21
144.179
 31
0.0
  0
LINE
  5
B2
  8
0
 62
     7
 10
50.272500000000001
 20
138.29900000000001
 30
0.0
 11
50.272500000000001
 21
139.05099999999999
 31
0.0
  0
LINE
  5
B3
  8
0
 62
     7
 10
50.272500000000001
 20
139.05099999999999
 30
0.0
 11
50.770699999999991
 21
139.05099999999999
 31
0.0
  0
LINE
  5
B4
  8
0
 62
     7
 10
50.770699999999991
 20
139.05099999999999
 30
0.0
 11
50.770699999999991
 21
138.29900000000001
 31
0.0
  0
LINE
  5
B5
  8
0
 62
     7
 10
49.214199999999998
 20
138.179
 30
0.0
 11
48.902799999999999
 21
138.35900000000001
 31
0.0
  0
LINE
  5
B6
  8
0
 62
     7
 10
51.829000000000001
 20
138.179
 30
0.0
 11
52.140099999999997
 21
138.35900000000001
 31
0.0
  0
LINE
  5
B7
  8
0
 62
     7
 10
48.902799999999999
 20
140.80500000000001
 30
0.0
 11
48.902799999999999
 21
138.35900000000001
 31
0.0
  0
LINE
  5
B8
  8
0
 62
     7
 10
52.140099999999997
 20
140.80500000000001
 30
0.0
 11
52.140099999999997
 21
138.35900000000001
 31
0.0
  0
LINE
  5
B9
  8
0
 62
     7
 10
49.027500000000011
 20
140.929
 30
0.0
 11
48.902799999999999
 21
140.80500000000001
 31
0.0
  0
LINE
  5
BA
  8
0
 62
     7
 10
52.015799999999992
 20
140.929
 30
0.0
 11
52.140099999999997
 21
140.80500000000001
 31
0.0
  0
ARC
  5
BB
  8
0
 62
     7
 10
49.227452999999997
 20
139.0705989999999
 30
0.0
 40
0.7768470000000001
 50
246.37937599999989
 51
293.62064399999991
  0
ARC
  5
BC
  8
0
 62
     7
 10
50.560690999999998
 20
141.28735900000001
 30
0.0
 40
3.0023270000000002
 50
257.26944300000002
 51
264.49230899999992
  0
LINE
  5
BD
  8
0
 62
     7
 10
50.272500000000001
 20
138.29900000000001
 30
0.0
 11
50.272500000000001
 21
138.179
 31
0.0
  0
LINE
  5
BE
  8
0
 62
     7
 10
49.214199999999998
 20
138.179
 30
0.0
 11
50.272500000000001
 21
138.179
 31
0.0
  0
LINE
  5
BF
  8
0
 62
     7
 10
50.770699999999991
 20
138.179
 30
0.0
 11
51.829000000000001
 21
138.179
 31
0.0
  0
LINE
  5
C0
  8
0
 62
     7
 10
50.770699999999991
 20
138.179
 30
0.0
 11
50.770699999999991
 21
138.29900000000001
 31
0.0
  0
ARC
  5
C1
  8
0
 62
     7
 10
50.519235000000002
 20
141.0586999999999
 30
0.0
 40
2.771239
 50
275.20611000000002
 51
283.03217799999987
  0
ARC
  5
C2
  8
0
 62
     7
 10
51.815424999999991
 20
139.06984199999991
 30
0.0
 40
0.776153
 50
246.356964
 51
293.643056
  0
LINE
  5
C3
  8
0
 62
     7
 10
48.916200000000003
 20
140.80500000000001
 30
0.0
 11
48.916200000000003
 21
138.35900000000001
 31
0.0
  0
LINE
  5
C4
  8
0
 62
     7
 10
48.902799999999999
 20
138.35900000000001
 30
0.0
 11
48.916200000000003
 21
138.35900000000001
 31
0.0
  0
LINE
  5
C5
  8
0
 62
     7
 10
52.1267
 20
138.35900000000001
 30
0.0
 11
52.140099999999997
 21
138.35900000000001
 31
0.0
  0
LINE
  5
C6
  8
0
 62
     7
 10
52.1267
 20
138.35900000000001
 30
0.0
 11
52.1267
 21
140.80500000000001
 31
0.0
  0
LINE
  5
C7
  8
0
 62
     7
 10
49.899099999999997
 20
140.80500000000001
 30
0.0
 11
49.899099999999997
 21
138.35900000000001
 31
0.0
  0
LINE
  5
C8
  8
0
 62
     7
 10
49.538699999999999
 20
138.35900000000001
 30
0.0
 11
49.899099999999997
 21
138.35900000000001
 31
0.0
  0
LINE
  5
C9
  8
0
 62
     7
 10
49.538699999999999
 20
138.35900000000001
 30
0.0
 11
49.538699999999999
 21
140.80500000000001
 31
0.0
  0
LINE
  5
CA
  8
0
 62
     7
 10
51.504199999999997
 20
140.80500000000001
 30
0.0
 11
51.504199999999997
 21
138.35900000000001
 31
0.0
  0
LINE
  5
CB
  8
0
 62
     7
 10
51.144100000000002
 20
138.35900000000001
 30
0.0
 11
51.504199999999997
 21
138.35900000000001
 31
0.0
  0
LINE
  5
CC
  8
0
 62
     7
 10
51.144100000000002
 20
138.35900000000001
 30
0.0
 11
51.144100000000002
 21
140.80500000000001
 31
0.0
  0
LINE
  5
CD
  8
0
 62
     7
 10
49.027500000000011
 20
140.929
 30
0.0
 11
49.227600000000002
 21
140.929
 31
0.0
  0
ARC
  5
CE
  8
0
 62
     7
 10
49.228903999999993
 20
140.51787799999991
 30
0.0
 40
0.411192
 50
90.178242000000012
 51
119.17113999999989
  0
ARC
  5
CF
  8
0
 62
     7
 10
49.357950999999993
 20
140.23849699999991
 30
0.0
 40
0.718422
 50
117.296899
 51
127.945301
  0
LINE
  5
D0
  8
0
 62
     7
 10
48.902799999999999
 20
140.80500000000001
 30
0.0
 11
48.916200000000003
 21
140.80500000000001
 31
0.0
  0
LINE
  5
D1
  8
0
 62
     7
 10
49.227600000000002
 20
140.929
 30
0.0
 11
50.521299999999997
 21
140.929
 31
0.0
  0
ARC
  5
D2
  8
0
 62
     7
 10
50.523716
 20
139.29411399999989
 30
0.0
 40
1.634954999999999
 50
90.085816000000008
 51
112.46080499999989
  0
LINE
  5
D3
  8
0
 62
     7
 10
49.538699999999999
 20
140.80500000000001
 30
0.0
 11
49.899099999999997
 21
140.80500000000001
 31
0.0
  0
ARC
  5
D4
  8
0
 62
     7
 10
49.076431999999997
 20
140.201898
 30
0.0
 40
0.75993
 50
52.531230000000001
 51
65.241938000000005
  0
ARC
  5
D5
  8
0
 62
     7
 10
49.21866099999999
 20
140.49392
 30
0.0
 40
0.4352390000000001
 50
66.145162999999997
 51
88.819880999999995
  0
LINE
  5
D6
  8
0
 62
     7
 10
52.1267
 20
140.80500000000001
 30
0.0
 11
52.140099999999997
 21
140.80500000000001
 31
0.0
  0
ARC
  5
D7
  8
0
 62
     7
 10
51.658766999999997
 20
140.19191599999999
 30
0.0
 40
0.771284
 50
52.649935999999997
 51
65.183806000000004
  0
ARC
  5
D8
  8
0
 62
     7
 10
51.806480999999991
 20
140.4939709999999
 30
0.0
 40
0.4351850000000001
 50
66.144925000000001
 51
88.845096000000012
  0
LINE
  5
D9
  8
0
 62
     7
 10
51.815300000000001
 20
140.929
 30
0.0
 11
52.015799999999992
 21
140.929
 31
0.0
  0
LINE
  5
DA
  8
0
 62
     7
 10
50.521299999999997
 20
140.929
 30
0.0
 11
51.815300000000001
 21
140.929
 31
0.0
  0
ARC
  5
DB
  8
0
 62
     7
 10
51.816541000000001
 20
140.519103
 30
0.0
 40
0.409966
 50
90.180075000000016
 51
119.215683
  0
ARC
  5
DC
  8
0
 62
     7
 10
51.946252000000001
 20
140.238056
 30
0.0
 40
0.7189720000000001
 50
117.3052739999999
 51
127.94440899999999
  0
LINE
  5
DD
  8
0
 62
     7
 10
51.144100000000002
 20
140.80500000000001
 30
0.0
 11
51.504199999999997
 21
140.80500000000001
 31
0.0
  0
ARC
  5
DE
  8
0
 62
     7
 10
50.467903
 20
139.03493899999989
 30
0.0
 40
1.894879999999999
 50
69.091418999999973
 51
88.386223000000001
  0
LINE
  5
DF
  8
0
 62
     7
 10
147.17999999999989
 20
156.929
 30
0.0
 11
147.17999999999989
 21
145.67899999999989
 31
0.0
  0
LINE
  5
E0
  8
0
 62
     7
 10
51.267699999999998
 20
156.929
 30
0.0
 11
51.267699999999998
 21
145.67899999999989
 31
0.0
  0
LINE
  5
E1
  8
0
 62
     7
 10
49.775199999999998
 20
156.929
 30
0.0
 11
49.775199999999998
 21
145.67899999999989
 31
0.0
  0
LINE
  5
E2
  8
0
 62
     7
 10
49.525300000000001
 20
156.929
 30
0.0
 11
49.525300000000001
 21
145.67899999999989
 31
0.0
  0
LINE
  5
E3
  8
0
 62
     7
 10
51.517600000000002
 20
156.929
 30
0.0
 11
51.517600000000002
 21
145.67899999999989
 31
0.0
  0
LINE
  5
E4
  8
0
 62
     7
 10
56.684600000000003
 20
144.2289999999999
 30
0.0
 11
56.684600000000003
 21
145.12899999999999
 31
0.0
  0
LINE
  5
E5
  8
0
 62
     7
 10
44.3583
 20
144.2289999999999
 30
0.0
 11
44.3583
 21
145.12899999999999
 31
0.0
  0
ARC
  5
E6
  8
0
 62
     7
 10
56.633088000000001
 20
145.1274709999999
 30
0.0
 40
0.051528
 50
2.0951580000000001
 51
87.904831999999999
  0
ARC
  5
E7
  8
0
 62
     7
 10
44.410057999999999
 20
145.12718799999999
 30
0.0
 40
0.051807
 50
91.999636999999993
 51
177.603825
  0
ARC
  5
E8
  8
0
 62
     7
 10
56.633235999999997
 20
144.23036499999989
 30
0.0
 40
0.051375
 50
271.93654099999998
 51
358.063469
  0
ARC
  5
E9
  8
0
 62
     7
 10
44.409801999999999
 20
144.23053699999991
 30
0.0
 40
0.051541
 50
182.121826
 51
268.27471299999991
  0
LINE
  5
EA
  8
0
 62
     7
 10
56.634999999999991
 20
144.179
 30
0.0
 11
44.408299999999997
 21
144.179
 31
0.0
  0
LINE
  5
EB
  8
0
 62
     7
 10
44.3583
 20
145.67899999999989
 30
0.0
 11
44.3583
 21
145.179
 31
0.0
  0
LINE
  5
EC
  8
0
 62
     7
 10
56.684600000000003
 20
145.67899999999989
 30
0.0
 11
56.684600000000003
 21
145.179
 31
0.0
  0
LINE
  5
ED
  8
0
 62
     7
 10
56.684600000000003
 20
145.67899999999989
 30
0.0
 11
44.3583
 21
145.67899999999989
 31
0.0
  0
LINE
  5
EE
  8
0
 62
     7
 10
56.684600000000003
 20
145.179
 30
0.0
 11
44.3583
 21
145.179
 31
0.0
  0
ARC
  5
EF
  8
0
 62
     7
 10
121.89578400000001
 20
177.590101
 30
0.0
 40
10.506569999999989
 50
248.367311
 51
270.06224800000001
  0
ARC
  5
F0
  8
0
 62
     7
 10
50.521869999999993
 20
239.850741
 30
0.0
 40
33.922244999999997
 50
224.999447
 51
315.00016199999988
  0
LINE
  5
F1
  8
0
 62
     7
 10
156.41499999999991
 20
157.679
 30
0.0
 11
144.91499999999991
 21
157.679
 31
0.0
  0
LINE
  5
F2
  8
0
 62
     7
 10
144.91499999999991
 20
157.679
 30
0.0
 11
144.91499999999991
 21
156.929
 31
0.0
  0
LINE
  5
F3
  8
0
 62
     7
 10
144.91499999999991
 20
156.929
 30
0.0
 11
156.41499999999991
 21
156.929
 31
0.0
  0
LINE
  5
F4
  8
0
 62
     7
 10
156.41499999999991
 20
156.929
 30
0.0
 11
156.41499999999991
 21
157.679
 31
0.0
  0
LINE
  5
F5
  8
0
 62
     7
 10
157.03999999999999
 20
158.429
 30
0.0
 11
144.28999999999991
 21
158.429
 31
0.0
  0
LINE
  5
F6
  8
0
 62
     7
 10
144.28999999999991
 20
158.429
 30
0.0
 11
144.28999999999991
 21
157.679
 31
0.0
  0
LINE
  5
F7
  8
0
 62
     7
 10
144.28999999999991
 20
157.679
 30
0.0
 11
157.03999999999999
 21
157.679
 31
0.0
  0
LINE
  5
F8
  8
0
 62
     7
 10
157.03999999999999
 20
157.679
 30
0.0
 11
157.03999999999999
 21
158.429
 31
0.0
  0
LINE
  5
F9
  8
0
 62
     7
 10
44.771700000000003
 20
157.679
 30
0.0
 11
56.271900000000002
 21
157.679
 31
0.0
  0
LINE
  5
FA
  8
0
 62
     7
 10
56.271900000000002
 20
157.679
 30
0.0
 11
56.271900000000002
 21
156.929
 31
0.0
  0
LINE
  5
FB
  8
0
 62
     7
 10
56.271900000000002
 20
156.929
 30
0.0
 11
44.771700000000003
 21
156.929
 31
0.0
  0
LINE
  5
FC
  8
0
 62
     7
 10
44.771700000000003
 20
156.929
 30
0.0
 11
44.771700000000003
 21
157.679
 31
0.0
  0
LINE
  5
FD
  8
0
 62
     7
 10
44.146799999999992
 20
158.429
 30
0.0
 11
56.896799999999999
 21
158.429
 31
0.0
  0
LINE
  5
FE
  8
0
 62
     7
 10
56.896799999999999
 20
158.429
 30
0.0
 11
56.896799999999999
 21
157.679
 31
0.0
  0
LINE
  5
FF
  8
0
 62
     7
 10
56.896799999999999
 20
157.679
 30
0.0
 11
44.146799999999992
 21
157.679
 31
0.0
  0
LINE
  5
100
  8
0
 62
     7
 10
44.146799999999992
 20
157.679
 30
0.0
 11
44.146799999999992
 21
158.429
 31
0.0
  0
LINE
  5
101
  8
0
 62
     7
 10
45.335000000000001
 20
191.8309999999999
 30
0.0
 11
45.337400000000002
 21
191.78200000000001
 31
0.0
  0
LINE
  5
102
  8
0
 62
     7
 10
45.337400000000002
 20
191.78200000000001
 30
0.0
 11
45.344999999999999
 21
191.73400000000001
 31
0.0
  0
LINE
  5
103
  8
0
 62
     7
 10
45.344999999999999
 20
191.73400000000001
 30
0.0
 11
45.356699999999989
 21
191.68599999999989
 31
0.0
  0
LINE
  5
104
  8
0
 62
     7
 10
45.356699999999989
 20
191.68599999999989
 30
0.0
 11
45.373199999999997
 21
191.6399999999999
 31
0.0
  0
LINE
  5
105
  8
0
 62
     7
 10
45.373199999999997
 20
191.6399999999999
 30
0.0
 11
45.394199999999991
 21
191.59599999999989
 31
0.0
  0
LINE
  5
106
  8
0
 62
     7
 10
45.394199999999991
 20
191.59599999999989
 30
0.0
 11
45.419400000000003
 21
191.554
 31
0.0
  0
LINE
  5
107
  8
0
 62
     7
 10
45.419400000000003
 20
191.554
 30
0.0
 11
45.448700000000002
 21
191.5149999999999
 31
0.0
  0
LINE
  5
108
  8
0
 62
     7
 10
45.448700000000002
 20
191.5149999999999
 30
0.0
 11
45.481400000000001
 21
191.47900000000001
 31
0.0
  0
LINE
  5
109
  8
0
 62
     7
 10
45.481400000000001
 20
191.47900000000001
 30
0.0
 11
45.517600000000002
 21
191.446
 31
0.0
  0
LINE
  5
10A
  8
0
 62
     7
 10
45.517600000000002
 20
191.446
 30
0.0
 11
45.556899999999999
 21
191.417
 31
0.0
  0
LINE
  5
10B
  8
0
 62
     7
 10
45.556899999999999
 20
191.417
 30
0.0
 11
45.598499999999987
 21
191.392
 31
0.0
  0
LINE
  5
10C
  8
0
 62
     7
 10
45.598499999999987
 20
191.392
 30
0.0
 11
45.642599999999987
 21
191.3709999999999
 31
0.0
  0
LINE
  5
10D
  8
0
 62
     7
 10
45.642599999999987
 20
191.3709999999999
 30
0.0
 11
45.688800000000001
 21
191.3549999999999
 31
0.0
  0
LINE
  5
10E
  8
0
 62
     7
 10
45.688800000000001
 20
191.3549999999999
 30
0.0
 11
45.735999999999997
 21
191.3429999999999
 31
0.0
  0
LINE
  5
10F
  8
0
 62
     7
 10
45.735999999999997
 20
191.3429999999999
 30
0.0
 11
45.784199999999998
 21
191.3359999999999
 31
0.0
  0
LINE
  5
110
  8
0
 62
     7
 10
45.784199999999998
 20
191.3359999999999
 30
0.0
 11
45.832799999999999
 21
191.33399999999989
 31
0.0
  0
ARC
  5
111
  8
0
 62
     7
 10
55.196423000000003
 20
191.8424729999999
 30
0.0
 40
0.512641
 50
286.901836
 51
358.66197999999991
  0
ARC
  5
112
  8
0
 62
     7
 10
55.211535999999988
 20
191.834012
 30
0.0
 40
0.500296
 50
269.95058
 51
285.52731999999997
  0
LINE
  5
113
  8
0
 62
     7
 10
53.261200000000002
 20
178.38200000000001
 30
0.0
 11
53.825499999999998
 21
178.38200000000001
 31
0.0
  0
LINE
  5
114
  8
0
 62
     7
 10
47.218400000000003
 20
178.38200000000001
 30
0.0
 11
47.782699999999998
 21
178.38200000000001
 31
0.0
  0
LINE
  5
115
  8
0
 62
     7
 10
48.231000000000002
 20
180.26699999999991
 30
0.0
 11
47.881300000000003
 21
180.26099999999991
 31
0.0
  0
LINE
  5
116
  8
0
 62
     7
 10
47.881300000000003
 20
180.26099999999991
 30
0.0
 11
47.606000000000002
 21
180.25099999999989
 31
0.0
  0
LINE
  5
117
  8
0
 62
     7
 10
47.606000000000002
 20
180.25099999999989
 30
0.0
 11
47.332500000000003
 21
180.23599999999999
 31
0.0
  0
LINE
  5
118
  8
0
 62
     7
 10
47.332500000000003
 20
180.23599999999999
 30
0.0
 11
47.072699999999998
 21
180.214
 31
0.0
  0
LINE
  5
119
  8
0
 62
     7
 10
47.072699999999998
 20
180.214
 30
0.0
 11
46.942100000000003
 21
180.19800000000001
 31
0.0
  0
LINE
  5
11A
  8
0
 62
     7
 10
46.942100000000003
 20
180.19800000000001
 30
0.0
 11
46.828400000000002
 21
180.18199999999999
 31
0.0
  0
LINE
  5
11B
  8
0
 62
     7
 10
46.828400000000002
 20
180.18199999999999
 30
0.0
 11
46.733999999999988
 21
180.1629999999999
 31
0.0
  0
LINE
  5
11C
  8
0
 62
     7
 10
46.733999999999988
 20
180.1629999999999
 30
0.0
 11
46.664499999999997
 21
180.143
 31
0.0
  0
LINE
  5
11D
  8
0
 62
     7
 10
46.664499999999997
 20
180.143
 30
0.0
 11
46.620399999999997
 21
180.12299999999991
 31
0.0
  0
LINE
  5
11E
  8
0
 62
     7
 10
46.620399999999997
 20
180.12299999999991
 30
0.0
 11
46.60179999999999
 21
180.10400000000001
 31
0.0
  0
LINE
  5
11F
  8
0
 62
     7
 10
48.343999999999987
 20
180.26699999999991
 30
0.0
 11
48.231000000000002
 21
180.26699999999991
 31
0.0
  0
LINE
  5
120
  8
0
 62
     7
 10
48.343999999999987
 20
180.26699999999991
 30
0.0
 11
52.699599999999997
 21
180.26699999999991
 31
0.0
  0
LINE
  5
121
  8
0
 62
     7
 10
52.813000000000002
 20
180.26699999999991
 30
0.0
 11
52.699599999999997
 21
180.26699999999991
 31
0.0
  0
LINE
  5
122
  8
0
 62
     7
 10
54.441800000000001
 20
180.10400000000001
 30
0.0
 11
54.423200000000001
 21
180.12299999999991
 31
0.0
  0
LINE
  5
123
  8
0
 62
     7
 10
54.423200000000001
 20
180.12299999999991
 30
0.0
 11
54.3795
 21
180.143
 31
0.0
  0
LINE
  5
124
  8
0
 62
     7
 10
54.3795
 20
180.143
 30
0.0
 11
54.309899999999999
 21
180.1629999999999
 31
0.0
  0
LINE
  5
125
  8
0
 62
     7
 10
54.309899999999999
 20
180.1629999999999
 30
0.0
 11
54.215499999999992
 21
180.18199999999999
 31
0.0
  0
LINE
  5
126
  8
0
 62
     7
 10
54.215499999999992
 20
180.18199999999999
 30
0.0
 11
54.111800000000002
 21
180.197
 31
0.0
  0
LINE
  5
127
  8
0
 62
     7
 10
54.111800000000002
 20
180.197
 30
0.0
 11
53.993299999999991
 21
180.21199999999999
 31
0.0
  0
LINE
  5
128
  8
0
 62
     7
 10
53.993299999999991
 20
180.21199999999999
 30
0.0
 11
53.729700000000001
 21
180.23400000000001
 31
0.0
  0
LINE
  5
129
  8
0
 62
     7
 10
53.729700000000001
 20
180.23400000000001
 30
0.0
 11
53.438200000000002
 21
180.25099999999989
 31
0.0
  0
LINE
  5
12A
  8
0
 62
     7
 10
53.438200000000002
 20
180.25099999999989
 30
0.0
 11
53.162599999999991
 21
180.26099999999991
 31
0.0
  0
LINE
  5
12B
  8
0
 62
     7
 10
53.162599999999991
 20
180.26099999999991
 30
0.0
 11
52.813000000000002
 21
180.26699999999991
 31
0.0
  0
ARC
  5
12C
  8
0
 62
     7
 10
53.827468000000003
 20
182.16967600000001
 30
0.0
 40
3.7875339999999991
 50
269.96991000000003
 51
278.22198500000002
  0
ARC
  5
12D
  8
0
 62
     7
 10
53.983676000000003
 20
180.99990399999999
 30
0.0
 40
2.6074769999999989
 50
278.50073199999991
 51
289.322609
  0
ARC
  5
12E
  8
0
 62
     7
 10
54.298881000000009
 20
180.0253899999999
 30
0.0
 40
1.5837570000000001
 50
290.22720199999992
 51
303.06110200000001
  0
LINE
  5
12F
  8
0
 62
     7
 10
55.1629
 20
178.69799999999989
 30
0.0
 11
55.165599999999998
 21
178.6999999999999
 31
0.0
  0
ARC
  5
130
  8
0
 62
     7
 10
54.500216999999999
 20
179.6918959999999
 30
0.0
 40
1.194596999999999
 50
303.84982599999989
 51
328.75162699999993
  0
ARC
  5
131
  8
0
 62
     7
 10
54.506695000000001
 20
179.670807
 30
0.0
 40
1.1782109999999999
 50
329.46500200000003
 51
346.45809100000002
  0
ARC
  5
132
  8
0
 62
     7
 10
53.987009999999991
 20
179.81332
 30
0.0
 40
1.7169009999999989
 50
345.89532200000002
 51
0.7677970000000002
  0
LINE
  5
133
  8
0
 62
     7
 10
54.441800000000001
 20
180.0919999999999
 30
0.0
 11
53.825499999999998
 21
178.38200000000001
 31
0.0
  0
LINE
  5
134
  8
0
 62
     7
 10
55.31069999999999
 20
180.92500000000001
 30
0.0
 11
55.307600000000001
 21
180.83199999999991
 31
0.0
  0
LINE
  5
135
  8
0
 62
     7
 10
55.307600000000001
 20
180.83199999999991
 30
0.0
 11
55.298299999999998
 21
180.74199999999999
 31
0.0
  0
LINE
  5
136
  8
0
 62
     7
 10
55.298299999999998
 20
180.74199999999999
 30
0.0
 11
55.290999999999997
 21
180.69799999999989
 31
0.0
  0
LINE
  5
137
  8
0
 62
     7
 10
55.290999999999997
 20
180.69799999999989
 30
0.0
 11
55.2821
 21
180.655
 31
0.0
  0
LINE
  5
138
  8
0
 62
     7
 10
55.2821
 20
180.655
 30
0.0
 11
55.2714
 21
180.61299999999989
 31
0.0
  0
LINE
  5
139
  8
0
 62
     7
 10
55.2714
 20
180.61299999999989
 30
0.0
 11
55.259
 21
180.57199999999989
 31
0.0
  0
LINE
  5
13A
  8
0
 62
     7
 10
55.259
 20
180.57199999999989
 30
0.0
 11
55.244500000000002
 21
180.53200000000001
 31
0.0
  0
LINE
  5
13B
  8
0
 62
     7
 10
55.244500000000002
 20
180.53200000000001
 30
0.0
 11
55.22829999999999
 21
180.494
 31
0.0
  0
LINE
  5
13C
  8
0
 62
     7
 10
55.22829999999999
 20
180.494
 30
0.0
 11
55.209699999999998
 21
180.45699999999999
 31
0.0
  0
LINE
  5
13D
  8
0
 62
     7
 10
55.209699999999998
 20
180.45699999999999
 30
0.0
 11
55.189700000000002
 21
180.42199999999991
 31
0.0
  0
LINE
  5
13E
  8
0
 62
     7
 10
55.189700000000002
 20
180.42199999999991
 30
0.0
 11
55.167400000000001
 21
180.38800000000001
 31
0.0
  0
LINE
  5
13F
  8
0
 62
     7
 10
55.167400000000001
 20
180.38800000000001
 30
0.0
 11
55.14289999999999
 21
180.35599999999999
 31
0.0
  0
LINE
  5
140
  8
0
 62
     7
 10
55.14289999999999
 20
180.35599999999999
 30
0.0
 11
55.116700000000002
 21
180.32599999999991
 31
0.0
  0
LINE
  5
141
  8
0
 62
     7
 10
55.116700000000002
 20
180.32599999999991
 30
0.0
 11
55.088500000000003
 21
180.29799999999989
 31
0.0
  0
LINE
  5
142
  8
0
 62
     7
 10
55.088500000000003
 20
180.29799999999989
 30
0.0
 11
55.058500000000002
 21
180.2709999999999
 31
0.0
  0
LINE
  5
143
  8
0
 62
     7
 10
55.058500000000002
 20
180.2709999999999
 30
0.0
 11
55.026800000000001
 21
180.24700000000001
 31
0.0
  0
LINE
  5
144
  8
0
 62
     7
 10
55.026800000000001
 20
180.24700000000001
 30
0.0
 11
54.993400000000001
 21
180.22399999999999
 31
0.0
  0
LINE
  5
145
  8
0
 62
     7
 10
54.993400000000001
 20
180.22399999999999
 30
0.0
 11
54.957900000000002
 21
180.203
 31
0.0
  0
LINE
  5
146
  8
0
 62
     7
 10
54.957900000000002
 20
180.203
 30
0.0
 11
54.920999999999999
 21
180.184
 31
0.0
  0
LINE
  5
147
  8
0
 62
     7
 10
54.920999999999999
 20
180.184
 30
0.0
 11
54.882800000000003
 21
180.167
 31
0.0
  0
LINE
  5
148
  8
0
 62
     7
 10
54.882800000000003
 20
180.167
 30
0.0
 11
54.843200000000003
 21
180.15199999999999
 31
0.0
  0
LINE
  5
149
  8
0
 62
     7
 10
54.843200000000003
 20
180.15199999999999
 30
0.0
 11
54.802199999999999
 21
180.1389999999999
 31
0.0
  0
LINE
  5
14A
  8
0
 62
     7
 10
54.802199999999999
 20
180.1389999999999
 30
0.0
 11
54.760100000000001
 21
180.12700000000001
 31
0.0
  0
LINE
  5
14B
  8
0
 62
     7
 10
54.760100000000001
 20
180.12700000000001
 30
0.0
 11
54.717100000000002
 21
180.11799999999999
 31
0.0
  0
LINE
  5
14C
  8
0
 62
     7
 10
54.717100000000002
 20
180.11799999999999
 30
0.0
 11
54.627800000000001
 21
180.10299999999989
 31
0.0
  0
LINE
  5
14D
  8
0
 62
     7
 10
54.627800000000001
 20
180.10299999999989
 30
0.0
 11
54.535899999999998
 21
180.095
 31
0.0
  0
LINE
  5
14E
  8
0
 62
     7
 10
54.535899999999998
 20
180.095
 30
0.0
 11
54.441800000000001
 21
180.0919999999999
 31
0.0
  0
ARC
  5
14F
  8
0
 62
     7
 10
54.423825000000001
 20
180.097984
 30
0.0
 40
0.018862
 50
342.46028200000001
 51
17.539718000000001
  0
LINE
  5
150
  8
0
 62
     7
 10
55.308300000000003
 20
180.93199999999999
 30
0.0
 11
55.3048
 21
180.839
 31
0.0
  0
LINE
  5
151
  8
0
 62
     7
 10
55.3048
 20
180.839
 30
0.0
 11
55.295499999999997
 21
180.75
 31
0.0
  0
LINE
  5
152
  8
0
 62
     7
 10
55.295499999999997
 20
180.75
 30
0.0
 11
55.288600000000002
 21
180.7059999999999
 31
0.0
  0
LINE
  5
153
  8
0
 62
     7
 10
55.288600000000002
 20
180.7059999999999
 30
0.0
 11
55.279699999999991
 21
180.66300000000001
 31
0.0
  0
LINE
  5
154
  8
0
 62
     7
 10
55.279699999999991
 20
180.66300000000001
 30
0.0
 11
55.268999999999998
 21
180.6209999999999
 31
0.0
  0
LINE
  5
155
  8
0
 62
     7
 10
55.268999999999998
 20
180.6209999999999
 30
0.0
 11
55.256599999999999
 21
180.5809999999999
 31
0.0
  0
LINE
  5
156
  8
0
 62
     7
 10
55.256599999999999
 20
180.5809999999999
 30
0.0
 11
55.242100000000001
 21
180.541
 31
0.0
  0
LINE
  5
157
  8
0
 62
     7
 10
55.242100000000001
 20
180.541
 30
0.0
 11
55.225900000000003
 21
180.50299999999999
 31
0.0
  0
LINE
  5
158
  8
0
 62
     7
 10
55.225900000000003
 20
180.50299999999999
 30
0.0
 11
55.207700000000003
 21
180.46599999999989
 31
0.0
  0
LINE
  5
159
  8
0
 62
     7
 10
55.207700000000003
 20
180.46599999999989
 30
0.0
 11
55.1873
 21
180.4309999999999
 31
0.0
  0
LINE
  5
15A
  8
0
 62
     7
 10
55.1873
 20
180.4309999999999
 30
0.0
 11
55.165300000000002
 21
180.39799999999991
 31
0.0
  0
LINE
  5
15B
  8
0
 62
     7
 10
55.165300000000002
 20
180.39799999999991
 30
0.0
 11
55.140799999999992
 21
180.3659999999999
 31
0.0
  0
LINE
  5
15C
  8
0
 62
     7
 10
55.140799999999992
 20
180.3659999999999
 30
0.0
 11
55.114600000000003
 21
180.3359999999999
 31
0.0
  0
LINE
  5
15D
  8
0
 62
     7
 10
55.114600000000003
 20
180.3359999999999
 30
0.0
 11
55.0867
 21
180.30799999999991
 31
0.0
  0
LINE
  5
15E
  8
0
 62
     7
 10
55.0867
 20
180.30799999999991
 30
0.0
 11
55.056800000000003
 21
180.28099999999989
 31
0.0
  0
LINE
  5
15F
  8
0
 62
     7
 10
55.056800000000003
 20
180.28099999999989
 30
0.0
 11
55.025100000000002
 21
180.25700000000001
 31
0.0
  0
LINE
  5
160
  8
0
 62
     7
 10
55.025100000000002
 20
180.25700000000001
 30
0.0
 11
54.991700000000002
 21
180.23400000000001
 31
0.0
  0
LINE
  5
161
  8
0
 62
     7
 10
54.991700000000002
 20
180.23400000000001
 30
0.0
 11
54.956499999999998
 21
180.214
 31
0.0
  0
LINE
  5
162
  8
0
 62
     7
 10
54.956499999999998
 20
180.214
 30
0.0
 11
54.919600000000003
 21
180.19499999999991
 31
0.0
  0
LINE
  5
163
  8
0
 62
     7
 10
54.919600000000003
 20
180.19499999999991
 30
0.0
 11
54.881799999999991
 21
180.17799999999991
 31
0.0
  0
LINE
  5
164
  8
0
 62
     7
 10
54.881799999999991
 20
180.17799999999991
 30
0.0
 11
54.842100000000002
 21
180.1629999999999
 31
0.0
  0
LINE
  5
165
  8
0
 62
     7
 10
54.842100000000002
 20
180.1629999999999
 30
0.0
 11
54.801099999999991
 21
180.15000000000001
 31
0.0
  0
LINE
  5
166
  8
0
 62
     7
 10
54.801099999999991
 20
180.15000000000001
 30
0.0
 11
54.759399999999999
 21
180.13799999999989
 31
0.0
  0
LINE
  5
167
  8
0
 62
     7
 10
54.759399999999999
 20
180.13799999999989
 30
0.0
 11
54.7164
 21
180.12899999999999
 31
0.0
  0
LINE
  5
168
  8
0
 62
     7
 10
54.7164
 20
180.12899999999999
 30
0.0
 11
54.627499999999991
 21
180.114
 31
0.0
  0
LINE
  5
169
  8
0
 62
     7
 10
54.627499999999991
 20
180.114
 30
0.0
 11
54.535899999999998
 21
180.10599999999991
 31
0.0
  0
LINE
  5
16A
  8
0
 62
     7
 10
54.535899999999998
 20
180.10599999999991
 30
0.0
 11
54.441800000000001
 21
180.10400000000001
 31
0.0
  0
LINE
  5
16B
  8
0
 62
     7
 10
46.6021
 20
180.0919999999999
 30
0.0
 11
47.218400000000003
 21
178.38200000000001
 31
0.0
  0
ARC
  5
16C
  8
0
 62
     7
 10
46.616376999999993
 20
180.098421
 30
0.0
 40
0.015533
 50
160.25912700000001
 51
203.21228199999999
  0
LINE
  5
16D
  8
0
 62
     7
 10
45.732900000000001
 20
180.92500000000001
 30
0.0
 11
45.7363
 21
180.83199999999991
 31
0.0
  0
LINE
  5
16E
  8
0
 62
     7
 10
45.7363
 20
180.83199999999991
 30
0.0
 11
45.745600000000003
 21
180.74199999999999
 31
0.0
  0
LINE
  5
16F
  8
0
 62
     7
 10
45.745600000000003
 20
180.74199999999999
 30
0.0
 11
45.75289999999999
 21
180.69799999999989
 31
0.0
  0
LINE
  5
170
  8
0
 62
     7
 10
45.75289999999999
 20
180.69799999999989
 30
0.0
 11
45.761499999999998
 21
180.655
 31
0.0
  0
LINE
  5
171
  8
0
 62
     7
 10
45.761499999999998
 20
180.655
 30
0.0
 11
45.772199999999991
 21
180.61299999999989
 31
0.0
  0
LINE
  5
172
  8
0
 62
     7
 10
45.772199999999991
 20
180.61299999999989
 30
0.0
 11
45.78459999999999
 21
180.57199999999989
 31
0.0
  0
LINE
  5
173
  8
0
 62
     7
 10
45.78459999999999
 20
180.57199999999989
 30
0.0
 11
45.798999999999999
 21
180.53200000000001
 31
0.0
  0
LINE
  5
174
  8
0
 62
     7
 10
45.798999999999999
 20
180.53200000000001
 30
0.0
 11
45.815600000000003
 21
180.494
 31
0.0
  0
LINE
  5
175
  8
0
 62
     7
 10
45.815600000000003
 20
180.494
 30
0.0
 11
45.833799999999997
 21
180.45699999999999
 31
0.0
  0
LINE
  5
176
  8
0
 62
     7
 10
45.833799999999997
 20
180.45699999999999
 30
0.0
 11
45.854199999999999
 21
180.42199999999991
 31
0.0
  0
LINE
  5
177
  8
0
 62
     7
 10
45.854199999999999
 20
180.42199999999991
 30
0.0
 11
45.876199999999997
 21
180.38800000000001
 31
0.0
  0
LINE
  5
178
  8
0
 62
     7
 10
45.876199999999997
 20
180.38800000000001
 30
0.0
 11
45.900699999999993
 21
180.35599999999999
 31
0.0
  0
LINE
  5
179
  8
0
 62
     7
 10
45.900699999999993
 20
180.35599999999999
 30
0.0
 11
45.926900000000003
 21
180.32599999999991
 31
0.0
  0
LINE
  5
17A
  8
0
 62
     7
 10
45.926900000000003
 20
180.32599999999991
 30
0.0
 11
45.955099999999987
 21
180.29799999999989
 31
0.0
  0
LINE
  5
17B
  8
0
 62
     7
 10
45.955099999999987
 20
180.29799999999989
 30
0.0
 11
45.985100000000003
 21
180.2709999999999
 31
0.0
  0
LINE
  5
17C
  8
0
 62
     7
 10
45.985100000000003
 20
180.2709999999999
 30
0.0
 11
46.016800000000003
 21
180.24700000000001
 31
0.0
  0
LINE
  5
17D
  8
0
 62
     7
 10
46.016800000000003
 20
180.24700000000001
 30
0.0
 11
46.0505
 21
180.22399999999999
 31
0.0
  0
LINE
  5
17E
  8
0
 62
     7
 10
46.0505
 20
180.22399999999999
 30
0.0
 11
46.085700000000003
 21
180.203
 31
0.0
  0
LINE
  5
17F
  8
0
 62
     7
 10
46.085700000000003
 20
180.203
 30
0.0
 11
46.122500000000002
 21
180.184
 31
0.0
  0
LINE
  5
180
  8
0
 62
     7
 10
46.122500000000002
 20
180.184
 30
0.0
 11
46.160800000000002
 21
180.167
 31
0.0
  0
LINE
  5
181
  8
0
 62
     7
 10
46.160800000000002
 20
180.167
 30
0.0
 11
46.200699999999998
 21
180.15199999999999
 31
0.0
  0
LINE
  5
182
  8
0
 62
     7
 10
46.200699999999998
 20
180.15199999999999
 30
0.0
 11
46.241399999999992
 21
180.1389999999999
 31
0.0
  0
LINE
  5
183
  8
0
 62
     7
 10
46.241399999999992
 20
180.1389999999999
 30
0.0
 11
46.283799999999992
 21
180.12700000000001
 31
0.0
  0
LINE
  5
184
  8
0
 62
     7
 10
46.283799999999992
 20
180.12700000000001
 30
0.0
 11
46.326799999999992
 21
180.11799999999999
 31
0.0
  0
LINE
  5
185
  8
0
 62
     7
 10
46.326799999999992
 20
180.11799999999999
 30
0.0
 11
46.415700000000001
 21
180.10299999999989
 31
0.0
  0
LINE
  5
186
  8
0
 62
     7
 10
46.415700000000001
 20
180.10299999999989
 30
0.0
 11
46.508000000000003
 21
180.095
 31
0.0
  0
LINE
  5
187
  8
0
 62
     7
 10
46.508000000000003
 20
180.095
 30
0.0
 11
46.6021
 21
180.0919999999999
 31
0.0
  0
LINE
  5
188
  8
0
 62
     7
 10
45.735700000000001
 20
180.93199999999999
 30
0.0
 11
45.738799999999991
 21
180.839
 31
0.0
  0
LINE
  5
189
  8
0
 62
     7
 10
45.738799999999991
 20
180.839
 30
0.0
 11
45.748100000000001
 21
180.75
 31
0.0
  0
LINE
  5
18A
  8
0
 62
     7
 10
45.748100000000001
 20
180.75
 30
0.0
 11
45.755299999999991
 21
180.7059999999999
 31
0.0
  0
LINE
  5
18B
  8
0
 62
     7
 10
45.755299999999991
 20
180.7059999999999
 30
0.0
 11
45.763899999999992
 21
180.66300000000001
 31
0.0
  0
LINE
  5
18C
  8
0
 62
     7
 10
45.763899999999992
 20
180.66300000000001
 30
0.0
 11
45.7746
 21
180.6209999999999
 31
0.0
  0
LINE
  5
18D
  8
0
 62
     7
 10
45.7746
 20
180.6209999999999
 30
0.0
 11
45.787300000000002
 21
180.5809999999999
 31
0.0
  0
LINE
  5
18E
  8
0
 62
     7
 10
45.787300000000002
 20
180.5809999999999
 30
0.0
 11
45.80149999999999
 21
180.541
 31
0.0
  0
LINE
  5
18F
  8
0
 62
     7
 10
45.80149999999999
 20
180.541
 30
0.0
 11
45.817599999999999
 21
180.50299999999999
 31
0.0
  0
LINE
  5
190
  8
0
 62
     7
 10
45.817599999999999
 20
180.50299999999999
 30
0.0
 11
45.836300000000001
 21
180.46599999999989
 31
0.0
  0
LINE
  5
191
  8
0
 62
     7
 10
45.836300000000001
 20
180.46599999999989
 30
0.0
 11
45.856200000000001
 21
180.4309999999999
 31
0.0
  0
LINE
  5
192
  8
0
 62
     7
 10
45.856200000000001
 20
180.4309999999999
 30
0.0
 11
45.878599999999999
 21
180.39799999999991
 31
0.0
  0
LINE
  5
193
  8
0
 62
     7
 10
45.878599999999999
 20
180.39799999999991
 30
0.0
 11
45.902700000000003
 21
180.3659999999999
 31
0.0
  0
LINE
  5
194
  8
0
 62
     7
 10
45.902700000000003
 20
180.3659999999999
 30
0.0
 11
45.928899999999992
 21
180.3359999999999
 31
0.0
  0
LINE
  5
195
  8
0
 62
     7
 10
45.928899999999992
 20
180.3359999999999
 30
0.0
 11
45.956800000000001
 21
180.30799999999991
 31
0.0
  0
LINE
  5
196
  8
0
 62
     7
 10
45.956800000000001
 20
180.30799999999991
 30
0.0
 11
45.986800000000002
 21
180.28099999999989
 31
0.0
  0
LINE
  5
197
  8
0
 62
     7
 10
45.986800000000002
 20
180.28099999999989
 30
0.0
 11
46.018500000000003
 21
180.25700000000001
 31
0.0
  0
LINE
  5
198
  8
0
 62
     7
 10
46.018500000000003
 20
180.25700000000001
 30
0.0
 11
46.051900000000003
 21
180.23400000000001
 31
0.0
  0
LINE
  5
199
  8
0
 62
     7
 10
46.051900000000003
 20
180.23400000000001
 30
0.0
 11
46.0871
 21
180.214
 31
0.0
  0
LINE
  5
19A
  8
0
 62
     7
 10
46.0871
 20
180.214
 30
0.0
 11
46.123899999999999
 21
180.19499999999991
 31
0.0
  0
LINE
  5
19B
  8
0
 62
     7
 10
46.123899999999999
 20
180.19499999999991
 30
0.0
 11
46.162199999999999
 21
180.17799999999991
 31
0.0
  0
LINE
  5
19C
  8
0
 62
     7
 10
46.162199999999999
 20
180.17799999999991
 30
0.0
 11
46.2014
 21
180.1629999999999
 31
0.0
  0
LINE
  5
19D
  8
0
 62
     7
 10
46.2014
 20
180.1629999999999
 30
0.0
 11
46.242400000000004
 21
180.15000000000001
 31
0.0
  0
LINE
  5
19E
  8
0
 62
     7
 10
46.242400000000004
 20
180.15000000000001
 30
0.0
 11
46.284499999999987
 21
180.13799999999989
 31
0.0
  0
LINE
  5
19F
  8
0
 62
     7
 10
46.284499999999987
 20
180.13799999999989
 30
0.0
 11
46.327500000000001
 21
180.12899999999999
 31
0.0
  0
LINE
  5
1A0
  8
0
 62
     7
 10
46.327500000000001
 20
180.12899999999999
 30
0.0
 11
46.4161
 21
180.114
 31
0.0
  0
LINE
  5
1A1
  8
0
 62
     7
 10
46.4161
 20
180.114
 30
0.0
 11
46.508000000000003
 21
180.10599999999991
 31
0.0
  0
LINE
  5
1A2
  8
0
 62
     7
 10
46.508000000000003
 20
180.10599999999991
 30
0.0
 11
46.60179999999999
 21
180.10400000000001
 31
0.0
  0
ARC
  5
1A3
  8
0
 62
     7
 10
47.216423999999989
 20
182.16894199999999
 30
0.0
 40
3.7867989999999989
 50
261.85045099999991
 51
270.03040699999991
  0
ARC
  5
1A4
  8
0
 62
     7
 10
47.056001000000002
 20
180.95954199999991
 30
0.0
 40
2.566902999999999
 50
249.44108099999991
 51
261.56833
  0
ARC
  5
1A5
  8
0
 62
     7
 10
46.72752899999999
 20
179.99485100000001
 30
0.0
 40
1.5486159999999991
 50
236.86519799999999
 51
248.28598099999991
  0
ARC
  5
1A6
  8
0
 62
     7
 10
46.561276999999997
 20
179.72355999999999
 30
0.0
 40
1.2305989999999991
 50
225.72791100000001
 51
236.44273199999989
  0
ARC
  5
1A7
  8
0
 62
     7
 10
46.489390999999991
 20
179.64346699999999
 30
0.0
 40
1.123078
 50
195.37159399999999
 51
225.50151099999991
  0
ARC
  5
1A8
  8
0
 62
     7
 10
46.865451
 20
179.78340800000001
 30
0.0
 40
1.523188
 50
184.857642
 51
196.697675
  0
ARC
  5
1A9
  8
0
 62
     7
 10
47.451611999999997
 20
179.83719500000001
 30
0.0
 40
2.1118019999999991
 50
180.023561
 51
184.965002
  0
ARC
  5
1AA
  8
0
 62
     7
 10
48.222648
 20
142.70270999999991
 30
0.0
 40
38.380404999999989
 50
89.995820999999992
 51
91.085689000000016
  0
ARC
  5
1AB
  8
0
 62
     7
 10
44.200068999999992
 20
327.65645899999993
 30
0.0
 40
146.6172709999999
 50
271.21705899999989
 51
271.287891
  0
ARC
  5
1AC
  8
0
 62
     7
 10
47.697152000000003
 20
163.77444199999991
 30
0.0
 40
17.302059
 50
91.26821600000001
 51
91.871955999999997
  0
ARC
  5
1AD
  8
0
 62
     7
 10
48.145116999999999
 20
149.11024299999991
 30
0.0
 40
31.973081000000001
 50
91.815871000000016
 51
92.417598000000027
  0
ARC
  5
1AE
  8
0
 62
     7
 10
47.649928000000003
 20
161.18141799999989
 30
0.0
 40
19.891767000000002
 50
92.459209999999999
 51
93.324633999999989
  0
ARC
  5
1AF
  8
0
 62
     7
 10
47.490855999999987
 20
164.90016799999989
 30
0.0
 40
16.170151000000001
 50
93.526102000000023
 51
93.875956000000016
  0
ARC
  5
1B0
  8
0
 62
     7
 10
46.49215499999999
 20
179.401296
 30
0.0
 40
1.634762
 50
93.308633
 51
94.543160999999984
  0
ARC
  5
1B1
  8
0
 62
     7
 10
47.321417999999987
 20
167.32269600000001
 30
0.0
 40
13.741713000000001
 50
94.000738999999996
 51
94.513527000000011
  0
ARC
  5
1B2
  8
0
 62
     7
 10
46.806431000000003
 20
174.18182299999989
 30
0.0
 40
6.8633800000000003
 50
94.733800000000002
 51
95.655036999999979
  0
ARC
  5
1B3
  8
0
 62
     7
 10
46.35598199999999
 20
178.386944
 30
0.0
 40
2.634557
 50
94.918021999999993
 51
96.695411000000007
  0
ARC
  5
1B4
  8
0
 62
     7
 10
45.999009999999998
 20
181.38798199999999
 30
0.0
 40
0.387662
 50
275.02535499999999
 51
277.38155899999992
  0
ARC
  5
1B5
  8
0
 62
     7
 10
46.366607999999999
 20
178.1705179999999
 30
0.0
 40
2.8508829999999992
 50
96.720735000000005
 51
101.102079
  0
ARC
  5
1B6
  8
0
 62
     7
 10
45.932559999999988
 20
180.48902699999991
 30
0.0
 40
0.492611
 50
103.489695
 51
110.127342
  0
ARC
  5
1B7
  8
0
 62
     7
 10
45.776795
 20
180.90376000000001
 30
0.0
 40
0.049733
 50
106.04590899999999
 51
145.81577599999989
  0
LINE
  5
1B8
  8
0
 62
     7
 10
52.818100000000001
 20
181.08299999999991
 30
0.0
 11
52.699599999999997
 21
181.08299999999991
 31
0.0
  0
LINE
  5
1B9
  8
0
 62
     7
 10
48.343999999999987
 20
181.08299999999991
 30
0.0
 11
52.699599999999997
 21
181.08299999999991
 31
0.0
  0
LINE
  5
1BA
  8
0
 62
     7
 10
48.343999999999987
 20
181.08299999999991
 30
0.0
 11
48.2254
 21
181.08299999999991
 31
0.0
  0
ARC
  5
1BB
  8
0
 62
     7
 10
55.289113999999998
 20
180.923689
 30
0.0
 40
0.020752
 50
22.713926999999991
 51
60.537909999999989
  0
ARC
  5
1BC
  8
0
 62
     7
 10
55.230144000000003
 20
180.83328299999991
 30
0.0
 40
0.128655
 50
57.473050000000001
 51
74.430265000000006
  0
ARC
  5
1BD
  8
0
 62
     7
 10
55.059713999999992
 20
180.28545700000001
 30
0.0
 40
0.702333
 50
73.032422999999994
 51
80.505042000000003
  0
ARC
  5
1BE
  8
0
 62
     7
 10
54.736024999999998
 20
178.478745
 30
0.0
 40
2.537777999999999
 50
80.025984999999991
 51
83.475679999999997
  0
ARC
  5
1BF
  8
0
 62
     7
 10
55.127583999999999
 20
182.00350199999991
 30
0.0
 40
1.008707999999999
 50
262.45274000000001
 51
264.12760800000001
  0
LINE
  5
1C0
  8
0
 62
     7
 10
54.995100000000001
 20
181.00399999999999
 30
0.0
 11
54.93
 21
181.00999999999999
 31
0.0
  0
ARC
  5
1C1
  8
0
 62
     7
 10
54.387883999999993
 20
175.60464400000001
 30
0.0
 40
5.4328919999999989
 50
84.273436999999987
 51
85.404347999999985
  0
ARC
  5
1C2
  8
0
 62
     7
 10
53.818241999999998
 20
169.1433759999999
 30
0.0
 40
11.919134
 50
85.163448000000002
 51
87.813422000000003
  0
ARC
  5
1C3
  8
0
 62
     7
 10
54.245319999999992
 20
180.67528899999999
 30
0.0
 40
0.379553
 50
85.817873000000006
 51
87.641131999999999
  0
ARC
  5
1C4
  8
0
 62
     7
 10
53.117619999999988
 20
154.8435879999999
 30
0.0
 40
26.235856999999999
 50
87.502330999999998
 51
88.205542000000008
  0
ARC
  5
1C5
  8
0
 62
     7
 10
58.827393999999991
 20
364.43449099999998
 30
0.0
 40
183.43305699999999
 50
268.40774399999992
 51
268.47297900000001
  0
ARC
  5
1C6
  8
0
 62
     7
 10
53.277236000000002
 20
164.34956099999999
 30
0.0
 40
16.728840999999999
 50
88.447748000000004
 51
88.971777000000003
  0
ARC
  5
1C7
  8
0
 62
     7
 10
53.046453999999997
 20
157.687061
 30
0.0
 40
23.394673999999991
 50
88.699466999999984
 51
89.620097999999999
  0
ARC
  5
1C8
  8
0
 62
     7
 10
52.58030999999999
 20
94.159470999999996
 30
0.0
 40
86.923969999999997
 50
89.590485999999999
 51
89.843233999999995
  0
LINE
  5
1C9
  8
0
 62
     7
 10
55.31069999999999
 20
180.92500000000001
 30
0.0
 11
55.703800000000001
 21
179.8359999999999
 31
0.0
  0
LINE
  5
1CA
  8
0
 62
     7
 10
55.320700000000002
 20
183.9489999999999
 30
0.0
 11
55.308300000000003
 21
180.93199999999999
 31
0.0
  0
LINE
  5
1CB
  8
0
 62
     7
 10
45.732900000000001
 20
180.92500000000001
 30
0.0
 11
45.33979999999999
 21
179.8359999999999
 31
0.0
  0
LINE
  5
1CC
  8
0
 62
     7
 10
45.722900000000003
 20
183.9489999999999
 30
0.0
 11
45.735700000000001
 21
180.93199999999999
 31
0.0
  0
ARC
  5
1CD
  8
0
 62
     7
 10
54.933095999999992
 20
183.93625900000001
 30
0.0
 40
0.387788
 50
1.9497390000000001
 51
87.812455
  0
LINE
  5
1CE
  8
0
 62
     7
 10
54.947899999999997
 20
184.32400000000001
 30
0.0
 11
54.947200000000002
 21
184.32400000000001
 31
0.0
  0
ARC
  5
1CF
  8
0
 62
     7
 10
46.110023999999989
 20
183.936654
 30
0.0
 40
0.387351
 50
92.021803000000006
 51
178.0045889999999
  0
LINE
  5
1D0
  8
0
 62
     7
 10
45.722900000000003
 20
183.9499999999999
 30
0.0
 11
45.722900000000003
 21
183.9499999999999
 31
0.0
  0
LINE
  5
1D1
  8
0
 62
     7
 10
50.521999999999998
 20
188.83199999999999
 30
0.0
 11
50.505800000000001
 21
188.83199999999999
 31
0.0
  0
ARC
  5
1D2
  8
0
 62
     7
 10
50.483764000000001
 20
189.155282
 30
0.0
 40
0.324157
 50
271.08754799999991
 51
273.89157699999998
  0
ARC
  5
1D3
  8
0
 62
     7
 10
50.505839000000002
 20
188.54827299999991
 30
0.0
 40
0.283359
 50
93.221324999999993
 51
96.507683000000014
  0
LINE
  5
1D4
  8
0
 62
     7
 10
50.473700000000001
 20
188.83000000000001
 30
0.0
 11
50.457900000000002
 21
188.82799999999989
 31
0.0
  0
ARC
  5
1D5
  8
0
 62
     7
 10
50.540585999999998
 20
188.116085
 30
0.0
 40
0.717128
 50
96.622889000000001
 51
97.927098999999998
  0
ARC
  5
1D6
  8
0
 62
     7
 10
50.509900000000002
 20
188.32480899999999
 30
0.0
 40
0.506169
 50
97.745237000000003
 51
99.559825000000018
  0
ARC
  5
1D7
  8
0
 62
     7
 10
50.505065000000002
 20
188.35083999999989
 30
0.0
 40
0.479697
 50
99.506668999999974
 51
101.431657
  0
LINE
  5
1D8
  8
0
 62
     7
 10
50.409999999999997
 20
188.82099999999991
 30
0.0
 11
50.394500000000001
 21
188.81800000000001
 31
0.0
  0
ARC
  5
1D9
  8
0
 62
     7
 10
50.520384
 20
188.26719299999991
 30
0.0
 40
0.5647660000000001
 50
102.8805499999999
 51
111.035787
  0
ARC
  5
1DA
  8
0
 62
     7
 10
50.457957999999998
 20
188.40865099999991
 30
0.0
 40
0.410396
 50
109.99025399999999
 51
112.25915999999999
  0
LINE
  5
1DB
  8
0
 62
     7
 10
50.302500000000002
 20
188.7879999999999
 30
0.0
 11
50.287999999999997
 21
188.7819999999999
 31
0.0
  0
LINE
  5
1DC
  8
0
 62
     7
 10
50.287999999999997
 20
188.7819999999999
 30
0.0
 11
50.273600000000002
 21
188.7759999999999
 31
0.0
  0
ARC
  5
1DD
  8
0
 62
     7
 10
50.84329799999999
 20
187.617988
 30
0.0
 40
1.29017
 50
116.205821
 51
116.924255
  0
ARC
  5
1DE
  8
0
 62
     7
 10
50.388798999999999
 20
188.50963400000001
 30
0.0
 40
0.289373
 50
116.63017600000001
 51
119.80450999999989
  0
ARC
  5
1DF
  8
0
 62
     7
 10
50.462750999999997
 20
188.35595799999999
 30
0.0
 40
0.459641
 50
118.28187199999989
 51
120.300826
  0
ARC
  5
1E0
  8
0
 62
     7
 10
50.062598000000001
 20
189.02340699999999
 30
0.0
 40
0.318639
 50
298.99713199999991
 51
301.87135299999989
  0
LINE
  5
1E1
  8
0
 62
     7
 10
50.217100000000002
 20
188.745
 30
0.0
 11
50.203600000000002
 21
188.7359999999999
 31
0.0
  0
ARC
  5
1E2
  8
0
 62
     7
 10
50.309632000000001
 20
188.566778
 30
0.0
 40
0.199474
 50
122.101607
 51
126.659055
  0
ARC
  5
1E3
  8
0
 62
     7
 10
50.436207000000003
 20
188.37353999999991
 30
0.0
 40
0.430284
 50
124.816676
 51
126.968628
  0
ARC
  5
1E4
  8
0
 62
     7
 10
50.661050000000003
 20
188.07629900000001
 30
0.0
 40
0.8029859999999999
 50
127.03192799999999
 51
128.180026
  0
LINE
  5
1E5
  8
0
 62
     7
 10
50.164700000000003
 20
188.708
 30
0.0
 11
50.15229999999999
 21
188.69799999999989
 31
0.0
  0
ARC
  5
1E6
  8
0
 62
     7
 10
50.435600999999998
 20
188.36023499999999
 30
0.0
 40
0.440475
 50
130.02953600000001
 51
132.11008399999989
  0
LINE
  5
1E7
  8
0
 62
     7
 10
50.1402
 20
188.68700000000001
 30
0.0
 11
50.128500000000003
 21
188.6759999999999
 31
0.0
  0
ARC
  5
1E8
  8
0
 62
     7
 10
50.869489999999999
 20
187.88926299999989
 30
0.0
 40
1.0808459999999991
 50
133.27832699999999
 51
134.13730899999999
  0
ARC
  5
1E9
  8
0
 62
     7
 10
50.953685999999998
 20
187.82920100000001
 30
0.0
 40
1.1827299999999989
 50
135.03836799999991
 51
135.82317599999999
  0
ARC
  5
1EA
  8
0
 62
     7
 10
51.861816999999988
 20
187.05374
 30
0.0
 40
2.3756719999999998
 50
137.673303
 51
138.444062
  0
ARC
  5
1EB
  8
0
 62
     7
 10
49.870024000000001
 20
188.791854
 30
0.0
 40
0.268574
 50
319.44761199999999
 51
322.84564799999998
  0
ARC
  5
1EC
  8
0
 62
     7
 10
50.368606
 20
188.37611699999991
 30
0.0
 40
0.380632
 50
140.69216399999999
 51
143.130259
  0
ARC
  5
1ED
  8
0
 62
     7
 10
50.476257000000011
 20
188.29396399999999
 30
0.0
 40
0.516045
 50
143.004594
 51
144.75669199999999
  0
LINE
  5
1EE
  8
0
 62
     7
 10
50.0548
 20
188.59200000000001
 30
0.0
 11
50.045499999999997
 21
188.57900000000001
 31
0.0
  0
ARC
  5
1EF
  8
0
 62
     7
 10
48.601047999999999
 20
189.48333400000001
 30
0.0
 40
1.7043689999999989
 50
327.39911999999998
 51
327.940516
  0
ARC
  5
1F0
  8
0
 62
     7
 10
50.762445
 20
188.11488399999999
 30
0.0
 40
0.853866
 50
148.183087
 51
149.25157300000001
  0
ARC
  5
1F1
  8
0
 62
     7
 10
50.252426
 20
188.41357999999991
 30
0.0
 40
0.262863
 50
148.3683879999999
 51
151.833775
  0
ARC
  5
1F2
  8
0
 62
     7
 10
50.219253999999999
 20
188.42201799999989
 30
0.0
 40
0.229783
 50
149.78370899999999
 51
153.78154599999999
  0
LINE
  5
1F3
  8
0
 62
     7
 10
50.013100000000001
 20
188.52399999999989
 30
0.0
 11
50.00589999999999
 21
188.50899999999999
 31
0.0
  0
ARC
  5
1F4
  8
0
 62
     7
 10
51.539884000000001
 20
187.760976
 30
0.0
 40
1.7066969999999999
 50
154.00287399999991
 51
154.53568100000001
  0
LINE
  5
1F5
  8
0
 62
     7
 10
49.999000000000002
 20
188.495
 30
0.0
 11
49.992800000000003
 21
188.47999999999999
 31
0.0
  0
ARC
  5
1F6
  8
0
 62
     7
 10
50.226238000000002
 20
188.3790939999999
 30
0.0
 40
0.254308
 50
156.633894
 51
160.223457
  0
ARC
  5
1F7
  8
0
 62
     7
 10
50.215558999999999
 20
188.37253899999999
 30
0.0
 40
0.246671
 50
157.95084900000001
 51
161.660448
  0
ARC
  5
1F8
  8
0
 62
     7
 10
50.131368999999999
 20
188.39057299999999
 30
0.0
 40
0.161356
 50
158.330691
 51
164.01985400000001
  0
ARC
  5
1F9
  8
0
 62
     7
 10
51.058409999999988
 20
188.086116
 30
0.0
 40
1.137008999999999
 50
162.13111499999991
 51
162.9409949999999
  0
ARC
  5
1FA
  8
0
 62
     7
 10
51.302526999999998
 20
188.05249299999991
 30
0.0
 40
1.380812999999999
 50
164.57897600000001
 51
165.23784199999989
  0
ARC
  5
1FB
  8
0
 62
     7
 10
50.255358000000001
 20
188.3263959999999
 30
0.0
 40
0.298423
 50
164.86070399999991
 51
167.9573629999999
  0
ARC
  5
1FC
  8
0
 62
     7
 10
49.621147000000001
 20
188.45568499999999
 30
0.0
 40
0.348855
 50
346.28650499999998
 51
348.922684
  0
ARC
  5
1FD
  8
0
 62
     7
 10
50.228003999999999
 20
188.31822
 30
0.0
 40
0.273486
 50
168.44896900000001
 51
171.81937899999991
  0
ARC
  5
1FE
  8
0
 62
     7
 10
50.134492999999999
 20
188.32185199999989
 30
0.0
 40
0.180671
 50
168.73823100000001
 51
173.769407
  0
ARC
  5
1FF
  8
0
 62
     7
 10
50.072422000000003
 20
188.31807099999989
 30
0.0
 40
0.119837
 50
168.74518999999989
 51
176.39195599999991
  0
LINE
  5
200
  8
0
 62
     7
 10
49.952800000000011
 20
188.32599999999991
 30
0.0
 11
49.951099999999997
 21
188.30999999999989
 31
0.0
  0
LINE
  5
201
  8
0
 62
     7
 10
49.951099999999997
 20
188.30999999999989
 30
0.0
 11
49.950099999999999
 21
188.2939999999999
 31
0.0
  0
LINE
  5
202
  8
0
 62
     7
 10
49.950099999999999
 20
188.2939999999999
 30
0.0
 11
49.94939999999999
 21
188.27799999999991
 31
0.0
  0
ARC
  5
203
  8
0
 62
     7
 10
50.161103000000011
 20
188.26519499999989
 30
0.0
 40
0.212096
 50
176.613079
 51
180.89619200000001
  0
ARC
  5
204
  8
0
 62
     7
 10
50.26242899999999
 20
188.26060399999989
 30
0.0
 40
0.313399
 50
179.76708600000001
 51
182.69686899999991
  0
LINE
  5
205
  8
0
 62
     7
 10
49.94939999999999
 20
188.2459999999999
 30
0.0
 11
49.950099999999999
 21
188.2299999999999
 31
0.0
  0
LINE
  5
206
  8
0
 62
     7
 10
49.950099999999999
 20
188.2299999999999
 30
0.0
 11
49.951099999999997
 21
188.214
 31
0.0
  0
LINE
  5
207
  8
0
 62
     7
 10
49.951099999999997
 20
188.214
 30
0.0
 11
49.952800000000011
 21
188.19799999999989
 31
0.0
  0
ARC
  5
208
  8
0
 62
     7
 10
50.073388999999999
 20
188.20563899999991
 30
0.0
 40
0.120811
 50
183.63889499999999
 51
191.22395900000001
  0
ARC
  5
209
  8
0
 62
     7
 10
50.265863000000003
 20
188.2219429999999
 30
0.0
 40
0.313513
 50
187.29681199999999
 51
190.19555
  0
ARC
  5
20A
  8
0
 62
     7
 10
50.157345999999997
 20
188.19307499999999
 30
0.0
 40
0.201809
 50
187.581808
 51
192.14984299999989
  0
ARC
  5
20B
  8
0
 62
     7
 10
49.758549000000002
 20
188.09809699999991
 30
0.0
 40
0.208236
 50
10.186871999999999
 51
14.603939
  0
ARC
  5
20C
  8
0
 62
     7
 10
50.172240000000002
 20
188.17773600000001
 30
0.0
 40
0.213083
 50
191.590115
 51
195.88245900000001
  0
LINE
  5
20D
  8
0
 62
     7
 10
49.967300000000002
 20
188.119
 30
0.0
 11
49.971400000000003
 21
188.10400000000001
 31
0.0
  0
ARC
  5
20E
  8
0
 62
     7
 10
49.544629999999998
 20
187.96122199999999
 30
0.0
 40
0.450019
 50
16.440767000000001
 51
18.487082999999998
  0
ARC
  5
20F
  8
0
 62
     7
 10
50.475620999999997
 20
188.2524019999999
 30
0.0
 40
0.525554
 50
198.1614889999999
 51
199.889759
  0
ARC
  5
210
  8
0
 62
     7
 10
50.338625999999991
 20
188.1949149999999
 30
0.0
 40
0.377247
 50
198.75815600000001
 51
201.20809199999991
  0
ARC
  5
211
  8
0
 62
     7
 10
50.192205999999999
 20
188.13103499999991
 30
0.0
 40
0.217734
 50
199.4749379999999
 51
203.66771199999999
  0
ARC
  5
212
  8
0
 62
     7
 10
49.307326000000003
 20
187.74798799999991
 30
0.0
 40
0.746498
 50
22.098089999999999
 51
23.330729999999999
  0
ARC
  5
213
  8
0
 62
     7
 10
49.61802999999999
 20
187.83641299999991
 30
0.0
 40
0.426787
 50
24.665310999999999
 51
26.796094
  0
LINE
  5
214
  8
0
 62
     7
 10
50.00589999999999
 20
188.01499999999999
 30
0.0
 11
50.013100000000001
 21
188.0
 31
0.0
  0
ARC
  5
215
  8
0
 62
     7
 10
50.271026999999997
 20
188.13111599999991
 30
0.0
 40
0.289308
 50
206.93875099999991
 51
210.083775
  0
ARC
  5
216
  8
0
 62
     7
 10
50.179864999999999
 20
188.06726499999991
 30
0.0
 40
0.178675
 50
207.01875999999999
 51
212.16586599999999
  0
LINE
  5
217
  8
0
 62
     7
 10
50.028599999999997
 20
187.97200000000001
 30
0.0
 11
50.036900000000003
 21
187.959
 31
0.0
  0
ARC
  5
218
  8
0
 62
     7
 10
50.274732999999998
 20
188.10152500000001
 30
0.0
 40
0.277522
 50
211.01324500000001
 51
214.30861299999989
  0
ARC
  5
219
  8
0
 62
     7
 10
50.536057
 20
188.283806
 30
0.0
 40
0.5961310000000001
 50
214.6230239999999
 51
216.16659899999999
  0
ARC
  5
21A
  8
0
 62
     7
 10
51.13091
 20
188.69700099999989
 30
0.0
 40
1.320314999999999
 50
215.4084839999999
 51
216.099322
  0
ARC
  5
21B
  8
0
 62
     7
 10
46.860171999999999
 20
185.39761299999989
 30
0.0
 40
4.0771300000000004
 50
37.974969999999992
 51
38.202567999999999
  0
ARC
  5
21C
  8
0
 62
     7
 10
49.647323
 20
187.54751899999991
 30
0.0
 40
0.5575700000000001
 50
38.434001000000002
 51
40.056859999999993
  0
ARC
  5
21D
  8
0
 62
     7
 10
51.795043
 20
189.3989389999999
 30
0.0
 40
2.2785729999999988
 50
221.33231499999991
 51
222.13914800000001
  0
ARC
  5
21E
  8
0
 62
     7
 10
50.645999000000003
 20
188.391288
 30
0.0
 40
0.750845
 50
223.95110699999989
 51
225.18734900000001
  0
ARC
  5
21F
  8
0
 62
     7
 10
50.386759999999988
 20
188.133714
 30
0.0
 40
0.385417
 50
225.54001
 51
227.9314279999999
  0
ARC
  5
220
  8
0
 62
     7
 10
50.374862999999998
 20
188.10174599999991
 30
0.0
 40
0.353938
 50
225.893261
 51
228.47837000000001
  0
LINE
  5
221
  8
0
 62
     7
 10
50.1402
 20
187.83699999999999
 30
0.0
 11
50.15229999999999
 21
187.82599999999999
 31
0.0
  0
ARC
  5
222
  8
0
 62
     7
 10
50.747653
 20
188.540133
 30
0.0
 40
0.929565
 50
230.1731299999999
 51
231.16147000000001
  0
LINE
  5
223
  8
0
 62
     7
 10
50.164700000000003
 20
187.81599999999989
 30
0.0
 11
50.177399999999992
 21
187.8059999999999
 31
0.0
  0
LINE
  5
224
  8
0
 62
     7
 10
50.177399999999992
 20
187.8059999999999
 30
0.0
 11
50.1905
 21
187.79699999999991
 31
0.0
  0
ARC
  5
225
  8
0
 62
     7
 10
50.691628000000001
 20
188.50155599999999
 30
0.0
 40
0.8646089999999999
 50
234.58047400000001
 51
235.63815099999991
  0
LINE
  5
226
  8
0
 62
     7
 10
50.203600000000002
 20
187.7879999999999
 30
0.0
 11
50.217100000000002
 21
187.779
 31
0.0
  0
ARC
  5
227
  8
0
 62
     7
 10
49.991262999999996
 20
187.38709399999991
 30
0.0
 40
0.4523390000000001
 50
58.018383999999998
 51
60.054088999999998
  0
ARC
  5
228
  8
0
 62
     7
 10
50.575868999999997
 20
188.36927199999991
 30
0.0
 40
0.6908250000000001
 50
240.03701399999991
 51
241.38028799999989
  0
ARC
  5
229
  8
0
 62
     7
 10
50.375664999999998
 20
187.98947200000001
 30
0.0
 40
0.261606
 50
240.026974
 51
243.53833999999989
  0
LINE
  5
22A
  8
0
 62
     7
 10
50.259099999999989
 20
187.755
 30
0.0
 11
50.273600000000002
 21
187.74799999999999
 31
0.0
  0
ARC
  5
22B
  8
0
 62
     7
 10
50.016798999999999
 20
187.161191
 30
0.0
 40
0.6405610000000001
 50
64.948627999999985
 51
66.369178000000005
  0
ARC
  5
22C
  8
0
 62
     7
 10
50.526716999999998
 20
188.26375999999999
 30
0.0
 40
0.574224
 50
245.43883299999999
 51
247.01649399999999
  0
ARC
  5
22D
  8
0
 62
     7
 10
52.023493999999999
 20
192.16690700000001
 30
0.0
 40
4.7542140000000002
 50
248.77736999999999
 51
248.97321600000001
  0
ARC
  5
22E
  8
0
 62
     7
 10
50.507331999999991
 20
188.21734900000001
 30
0.0
 40
0.523644
 50
248.76374799999999
 51
257.55513699999989
  0
LINE
  5
22F
  8
0
 62
     7
 10
50.394500000000001
 20
187.7059999999999
 30
0.0
 11
50.409999999999997
 21
187.70299999999989
 31
0.0
  0
LINE
  5
230
  8
0
 62
     7
 10
50.409999999999997
 20
187.70299999999989
 30
0.0
 11
50.425800000000002
 21
187.6999999999999
 31
0.0
  0
LINE
  5
231
  8
0
 62
     7
 10
50.425800000000002
 20
187.6999999999999
 30
0.0
 11
50.441699999999997
 21
187.697
 31
0.0
  0
LINE
  5
232
  8
0
 62
     7
 10
50.441699999999997
 20
187.697
 30
0.0
 11
50.457900000000002
 21
187.69499999999991
 31
0.0
  0
LINE
  5
233
  8
0
 62
     7
 10
50.457900000000002
 20
187.69499999999991
 30
0.0
 11
50.473700000000001
 21
187.69399999999999
 31
0.0
  0
LINE
  5
234
  8
0
 62
     7
 10
50.473700000000001
 20
187.69399999999999
 30
0.0
 11
50.489899999999992
 21
187.6929999999999
 31
0.0
  0
LINE
  5
235
  8
0
 62
     7
 10
50.489899999999992
 20
187.6929999999999
 30
0.0
 11
50.505800000000001
 21
187.69200000000001
 31
0.0
  0
LINE
  5
236
  8
0
 62
     7
 10
50.505800000000001
 20
187.69200000000001
 30
0.0
 11
50.521999999999998
 21
187.69200000000001
 31
0.0
  0
LINE
  5
237
  8
0
 62
     7
 10
50.521999999999998
 20
187.69200000000001
 30
0.0
 11
50.553999999999988
 21
187.6929999999999
 31
0.0
  0
LINE
  5
238
  8
0
 62
     7
 10
50.553999999999988
 20
187.6929999999999
 30
0.0
 11
50.586000000000013
 21
187.69499999999991
 31
0.0
  0
ARC
  5
239
  8
0
 62
     7
 10
50.498944999999999
 20
188.42604499999999
 30
0.0
 40
0.735888
 50
276.79666800000001
 51
279.28913799999992
  0
LINE
  5
23A
  8
0
 62
     7
 10
50.617699999999999
 20
187.6999999999999
 30
0.0
 11
50.633600000000001
 21
187.70299999999989
 31
0.0
  0
LINE
  5
23B
  8
0
 62
     7
 10
50.633600000000001
 20
187.70299999999989
 30
0.0
 11
50.649099999999997
 21
187.7059999999999
 31
0.0
  0
ARC
  5
23C
  8
0
 62
     7
 10
50.539538999999998
 20
188.20611199999999
 30
0.0
 40
0.5119600000000001
 50
282.35476599999998
 51
289.57807799999989
  0
ARC
  5
23D
  8
0
 62
     7
 10
50.533134999999987
 20
188.23810499999999
 30
0.0
 40
0.544269
 50
289.084722
 51
292.45980299999991
  0
ARC
  5
23E
  8
0
 62
     7
 10
50.474012000000002
 20
188.38008699999989
 30
0.0
 40
0.6980690000000001
 50
292.49232000000001
 51
295.11958099999998
  0
ARC
  5
23F
  8
0
 62
     7
 10
50.341070000000002
 20
188.61165099999991
 30
0.0
 40
0.9644200000000001
 50
296.43077199999999
 51
298.34408599999989
  0
ARC
  5
240
  8
0
 62
     7
 10
50.504829000000001
 20
188.29502500000001
 30
0.0
 40
0.608039
 50
298.92800999999997
 51
301.94047399999999
  0
ARC
  5
241
  8
0
 62
     7
 10
50.597406999999997
 20
188.15180100000001
 30
0.0
 40
0.4375300000000001
 50
301.57496800000001
 51
305.80518000000001
  0
ARC
  5
242
  8
0
 62
     7
 10
50.473252000000002
 20
188.33034799999999
 30
0.0
 40
0.654979
 50
305.47593299999988
 51
308.26387399999999
  0
ARC
  5
243
  8
0
 62
     7
 10
50.621408000000002
 20
188.14555100000001
 30
0.0
 40
0.418136
 50
308.0055109999999
 51
312.3948279999999
  0
ARC
  5
244
  8
0
 62
     7
 10
50.651907999999992
 20
188.12947099999991
 30
0.0
 40
0.385873
 50
310.65972299999987
 51
315.42043200000001
  0
ARC
  5
245
  8
0
 62
     7
 10
50.586133000000011
 20
188.20130399999999
 30
0.0
 40
0.483169
 50
314.82789400000001
 51
318.64352500000001
  0
ARC
  5
246
  8
0
 62
     7
 10
50.61240699999999
 20
188.18929099999991
 30
0.0
 40
0.455586
 50
317.59418999999991
 51
321.60601099999991
  0
ARC
  5
247
  8
0
 62
     7
 10
50.648502000000001
 20
188.16769500000001
 30
0.0
 40
0.41392
 50
320.84580599999993
 51
325.29145499999993
  0
ARC
  5
248
  8
0
 62
     7
 10
50.59088599999999
 20
188.220021
 30
0.0
 40
0.4911850000000001
 50
324.10059699999988
 51
327.83515499999999
  0
ARC
  5
249
  8
0
 62
     7
 10
50.658437999999997
 20
188.18622500000001
 30
0.0
 40
0.416074
 50
326.822677
 51
331.24981700000001
  0
ARC
  5
24A
  8
0
 62
     7
 10
50.644261999999991
 20
188.1969149999999
 30
0.0
 40
0.4336520000000001
 50
330.91235799999998
 51
335.12718699999999
  0
ARC
  5
24B
  8
0
 62
     7
 10
50.714224000000002
 20
188.177482
 30
0.0
 40
0.362198
 50
333.26088199999998
 51
338.31182899999999
  0
ARC
  5
24C
  8
0
 62
     7
 10
50.524107999999998
 20
188.26673099999999
 30
0.0
 40
0.571978
 50
337.04224499999998
 51
340.266186
  0
ARC
  5
24D
  8
0
 62
     7
 10
50.467317000000001
 20
188.2796699999999
 30
0.0
 40
0.629841
 50
340.90265599999998
 51
343.7971
  0
ARC
  5
24E
  8
0
 62
     7
 10
50.53726300000001
 20
188.263159
 30
0.0
 40
0.558078
 50
343.42110000000002
 51
346.716069
  0
ARC
  5
24F
  8
0
 62
     7
 10
45.560811000000001
 20
189.23711900000001
 30
0.0
 40
5.6285689999999997
 50
348.70729399999999
 51
349.0343299999999
  0
ARC
  5
250
  8
0
 62
     7
 10
50.327741000000003
 20
188.290345
 30
0.0
 40
0.768917
 50
350.727396
 51
353.10007599999989
  0
ARC
  5
251
  8
0
 62
     7
 10
49.682510000000001
 20
188.335847
 30
0.0
 40
1.4153109999999991
 50
354.40952799999991
 51
355.70445100000001
  0
ARC
  5
252
  8
0
 62
     7
 10
49.760515999999988
 20
188.27453899999989
 30
0.0
 40
1.3340780000000001
 50
358.0798319999999
 51
359.45621399999987
  0
ARC
  5
253
  8
0
 62
     7
 10
50.325790000000012
 20
188.26119800000001
 30
0.0
 40
0.768744
 50
0.05071
 51
2.4265590000000001
  0
ARC
  5
254
  8
0
 62
     7
 10
50.341778000000012
 20
188.244755
 30
0.0
 40
0.753661
 50
3.727068
 51
6.1589520000000002
  0
ARC
  5
255
  8
0
 62
     7
 10
49.941678000000003
 20
188.17838800000001
 30
0.0
 40
1.1588020000000001
 50
7.2991059999999992
 51
8.8734220000000015
  0
ARC
  5
256
  8
0
 62
     7
 10
46.212083
 20
187.41458299999991
 30
0.0
 40
4.9648190000000003
 50
10.943808999999989
 51
11.314567
  0
ARC
  5
257
  8
0
 62
     7
 10
48.798446999999989
 20
187.79673999999989
 30
0.0
 40
2.3574820000000001
 50
14.541463
 51
15.321367999999991
  0
ARC
  5
258
  8
0
 62
     7
 10
50.687806999999999
 20
188.3148379999999
 30
0.0
 40
0.3983729999999999
 50
15.256258000000001
 51
19.856832999999991
  0
ARC
  5
259
  8
0
 62
     7
 10
50.688555000000001
 20
188.3203739999999
 30
0.0
 40
0.395821
 50
19.139894000000002
 51
23.776066
  0
ARC
  5
25A
  8
0
 62
     7
 10
50.785764999999998
 20
188.37827499999989
 30
0.0
 40
0.283852
 50
20.990463999999999
 51
27.436824999999999
  0
ARC
  5
25B
  8
0
 62
     7
 10
50.619526999999998
 20
188.31542300000001
 30
0.0
 40
0.4608220000000001
 50
24.847840999999988
 51
28.833172000000001
  0
ARC
  5
25C
  8
0
 62
     7
 10
50.657952000000002
 20
188.33580699999999
 30
0.0
 40
0.417332
 50
28.925708999999991
 51
33.319225000000003
  0
ARC
  5
25D
  8
0
 62
     7
 10
50.715598999999997
 20
188.38910000000001
 30
0.0
 40
0.34013
 50
31.151206999999999
 51
36.569459000000002
  0
ARC
  5
25E
  8
0
 62
     7
 10
50.482768
 20
188.2288749999999
 30
0.0
 40
0.6226659999999999
 50
35.645761
 51
38.587952000000001
  0
ARC
  5
25F
  8
0
 62
     7
 10
50.666511
 20
188.38217900000001
 30
0.0
 40
0.383461
 50
37.806932000000003
 51
42.593386999999993
  0
ARC
  5
260
  8
0
 62
     7
 10
50.643588000000001
 20
188.37439099999989
 30
0.0
 40
0.405725
 50
41.212071999999992
 51
45.738672999999991
  0
ARC
  5
261
  8
0
 62
     7
 10
50.565899000000002
 20
188.305015
 30
0.0
 40
0.509683
 50
44.927166
 51
48.544232999999998
  0
ARC
  5
262
  8
0
 62
     7
 10
50.560191000000003
 20
188.30238899999989
 30
0.0
 40
0.5154360000000001
 50
48.261986999999991
 51
51.810090000000002
  0
ARC
  5
263
  8
0
 62
     7
 10
50.587043999999992
 20
188.34836799999991
 30
0.0
 40
0.4627530000000001
 50
50.903497999999999
 51
54.862768999999993
  0
ARC
  5
264
  8
0
 62
     7
 10
50.316983999999998
 20
187.9513189999999
 30
0.0
 40
0.9429110000000001
 50
55.328648000000001
 51
57.291203999999993
  0
ARC
  5
265
  8
0
 62
     7
 10
50.508994000000001
 20
188.230175
 30
0.0
 40
0.604615
 50
58.322054999999999
 51
61.343339999999998
  0
ARC
  5
266
  8
0
 62
     7
 10
50.504398999999999
 20
188.2271969999999
 30
0.0
 40
0.6094380000000002
 50
61.098579000000008
 51
64.126563000000004
  0
ARC
  5
267
  8
0
 62
     7
 10
50.556907000000002
 20
188.33139199999991
 30
0.0
 40
0.4927770000000001
 50
64.332993000000002
 51
68.055105000000012
  0
ARC
  5
268
  8
0
 62
     7
 10
50.484639000000001
 20
188.16721100000001
 30
0.0
 40
0.672094
 50
67.571275999999997
 51
70.309562
  0
ARC
  5
269
  8
0
 62
     7
 10
50.515140000000002
 20
188.2323639999999
 30
0.0
 40
0.6005120000000001
 50
70.955056999999996
 51
77.112099000000001
  0
ARC
  5
26A
  8
0
 62
     7
 10
50.423290000000001
 20
187.7865699999999
 30
0.0
 40
1.0556080000000001
 50
77.649242999999998
 51
78.509263000000004
  0
ARC
  5
26B
  8
0
 62
     7
 10
50.524090000000001
 20
188.27284299999999
 30
0.0
 40
0.559004
 50
78.704883999999993
 51
80.356750000000034
  0
ARC
  5
26C
  8
0
 62
     7
 10
50.487096000000001
 20
188.0138509999999
 30
0.0
 40
0.8205629999999999
 50
80.839478999999997
 51
83.074714
  0
ARC
  5
26D
  8
0
 62
     7
 10
50.469309000000003
 20
187.65909799999989
 30
0.0
 40
1.1751409999999991
 50
84.299447000000001
 51
85.867402999999996
  0
ARC
  5
26E
  8
0
 62
     7
 10
50.504663000000001
 20
187.28248199999999
 30
0.0
 40
1.549488
 50
88.175496999999979
 51
89.360528000000002
  0
LINE
  5
26F
  8
0
 62
     7
 10
55.936000000000007
 20
239.03899999999999
 30
0.0
 11
55.936000000000007
 21
239.32599999999999
 31
0.0
  0
LINE
  5
270
  8
0
 62
     7
 10
45.107599999999998
 20
239.03899999999999
 30
0.0
 11
45.107599999999998
 21
239.32599999999999
 31
0.0
  0
LINE
  5
271
  8
0
 62
     7
 10
56.683500000000002
 20
241.95899999999989
 30
0.0
 11
56.596400000000003
 21
238.108
 31
0.0
  0
ARC
  5
272
  8
0
 62
     7
 10
54.993468000000007
 20
237.582898
 30
0.0
 40
1.388471999999999
 50
309.13549799999993
 51
319.46916499999992
  0
ARC
  5
273
  8
0
 62
     7
 10
54.407693999999992
 20
238.10231099999999
 30
0.0
 40
2.1712829999999999
 50
319.09673599999991
 51
337.16899000000001
  0
ARC
  5
274
  8
0
 62
     7
 10
54.285097999999998
 20
238.19716600000001
 30
0.0
 40
2.3214220000000001
 50
336.18528599999991
 51
353.27695599999993
  0
ARC
  5
275
  8
0
 62
     7
 10
55.167051000000001
 20
238.06217000000001
 30
0.0
 40
1.430061
 50
354.51173399999999
 51
1.8256429999999999
  0
ARC
  5
276
  8
0
 62
     7
 10
45.943798999999991
 20
238.05518299999989
 30
0.0
 40
1.4971959999999991
 50
177.98868100000001
 51
193.47570899999991
  0
ARC
  5
277
  8
0
 62
     7
 10
46.817584999999987
 20
238.22340299999991
 30
0.0
 40
2.386463
 50
192.514543
 51
221.8784959999999
  0
ARC
  5
278
  8
0
 62
     7
 10
46.078321999999993
 20
237.609241
 30
0.0
 40
1.426509
 50
223.33325600000001
 51
230.66378399999999
  0
LINE
  5
279
  8
0
 62
     7
 10
44.447499999999991
 20
238.108
 30
0.0
 11
44.360399999999998
 21
241.95899999999989
 31
0.0
  0
ARC
  5
27A
  8
0
 62
     7
 10
50.493445999999999
 20
242.12193199999999
 30
0.0
 40
6.135235999999999
 50
173.857148
 51
181.51832399999989
  0
ARC
  5
27B
  8
0
 62
     7
 10
50.688352999999992
 20
242.09318399999989
 30
0.0
 40
6.3321059999999987
 50
168.22240099999991
 51
173.78723899999989
  0
ARC
  5
27C
  8
0
 62
     7
 10
49.940558000000003
 20
242.25947999999991
 30
0.0
 40
5.5661189999999996
 50
166.21820500000001
 51
168.32698300000001
  0
ARC
  5
27D
  8
0
 62
     7
 10
50.607557999999997
 20
242.09634
 30
0.0
 40
6.2527809999999988
 50
163.40239199999999
 51
166.22236000000001
  0
ARC
  5
27E
  8
0
 62
     7
 10
49.11450399999999
 20
242.56266199999999
 30
0.0
 40
4.6887759999999989
 50
162.39723699999999
 51
163.65172799999991
  0
ARC
  5
27F
  8
0
 62
     7
 10
51.644959
 20
241.7532029999999
 30
0.0
 40
7.3455409999999999
 50
161.14684800000001
 51
162.34802999999991
  0
ARC
  5
280
  8
0
 62
     7
 10
50.885880999999991
 20
241.994393
 30
0.0
 40
6.5492710000000001
 50
160.54930100000001
 51
160.99777399999991
  0
ARC
  5
281
  8
0
 62
     7
 10
48.926178999999998
 20
242.69696200000001
 30
0.0
 40
4.4674699999999987
 50
159.357482
 51
160.6762699999999
  0
ARC
  5
282
  8
0
 62
     7
 10
42.766449999999999
 20
245.03699499999999
 30
0.0
 40
2.1218180000000002
 50
338.864057
 51
340.249076
  0
ARC
  5
283
  8
0
 62
     7
 10
50.900576999999998
 20
241.95408099999989
 30
0.0
 40
6.5773720000000004
 50
157.57398399999991
 51
158.91818000000001
  0
ARC
  5
284
  8
0
 62
     7
 10
50.981670999999999
 20
241.92024199999989
 30
0.0
 40
6.6652429999999994
 50
156.687127
 51
157.57103599999999
  0
ARC
  5
285
  8
0
 62
     7
 10
50.782452999999997
 20
241.99867399999999
 30
0.0
 40
6.4512529999999986
 50
154.80382900000001
 51
156.62662399999999
  0
ARC
  5
286
  8
0
 62
     7
 10
59.752854999999997
 20
237.61920499999991
 30
0.0
 40
16.433223000000002
 50
153.944243
 51
154.30203
  0
ARC
  5
287
  8
0
 62
     7
 10
50.240450000000003
 20
242.25279699999999
 30
0.0
 40
5.8523290000000001
 50
150.78120699999991
 51
153.79138999999989
  0
ARC
  5
288
  8
0
 62
     7
 10
50.225811999999998
 20
242.29064299999999
 30
0.0
 40
5.8211360000000001
 50
149.0199649999999
 51
151.03598799999989
  0
ARC
  5
289
  8
0
 62
     7
 10
50.513193000000001
 20
242.11871899999991
 30
0.0
 40
6.1560180000000004
 50
143.30954299999991
 51
149.02488199999999
  0
ARC
  5
28A
  8
0
 62
     7
 10
50.570149999999991
 20
242.0853359999999
 30
0.0
 40
6.2216399999999989
 50
139.6050919999999
 51
143.37641999999991
  0
ARC
  5
28B
  8
0
 62
     7
 10
50.758313000000001
 20
241.908018
 30
0.0
 40
6.479868999999999
 50
134.05650499999999
 51
139.48921499999989
  0
ARC
  5
28C
  8
0
 62
     7
 10
50.317478999999999
 20
242.36390299999991
 30
0.0
 40
5.8457039999999996
 50
132.05275599999999
 51
134.0584649999999
  0
ARC
  5
28D
  8
0
 62
     7
 10
50.37959
 20
242.3016209999999
 30
0.0
 40
5.9335550000000001
 50
128.13169699999989
 51
132.09526199999999
  0
ARC
  5
28E
  8
0
 62
     7
 10
50.483325999999998
 20
242.18147599999989
 30
0.0
 40
6.0921180000000001
 50
126.268233
 51
128.20140699999999
  0
ARC
  5
28F
  8
0
 62
     7
 10
50.766401000000002
 20
241.76545999999999
 30
0.0
 40
6.5950160000000002
 50
123.430982
 51
126.112981
  0
ARC
  5
290
  8
0
 62
     7
 10
49.599485999999999
 20
243.55737799999989
 30
0.0
 40
4.4566999999999988
 50
122.2835
 51
123.602948
  0
ARC
  5
291
  8
0
 62
     7
 10
50.810436000000003
 20
241.62579600000001
 30
0.0
 40
6.7364729999999993
 50
120.46977800000001
 51
122.2161449999999
  0
ARC
  5
292
  8
0
 62
     7
 10
51.591276000000001
 20
240.26762099999999
 30
0.0
 40
8.3030460000000001
 50
119.65310700000001
 51
120.3613999999999
  0
ARC
  5
293
  8
0
 62
     7
 10
50.429623999999997
 20
242.27617000000001
 30
0.0
 40
5.9828400000000004
 50
116.55625000000001
 51
119.5018629999999
  0
ARC
  5
294
  8
0
 62
     7
 10
50.707504
 20
241.70745700000001
 30
0.0
 40
6.6157869999999992
 50
114.729962
 51
116.506923
  0
ARC
  5
295
  8
0
 62
     7
 10
50.536152000000001
 20
242.0688439999999
 30
0.0
 40
6.2158610000000003
 50
109.0273169999999
 51
114.688911
  0
ARC
  5
296
  8
0
 62
     7
 10
50.341397000000001
 20
242.70699300000001
 30
0.0
 40
5.5491349999999988
 50
105.04800899999999
 51
109.27445
  0
ARC
  5
297
  8
0
 62
     7
 10
50.551576000000011
 20
242.013599
 30
0.0
 40
6.2733619999999997
 50
97.773551999999981
 51
105.257587
  0
ARC
  5
298
  8
0
 62
     7
 10
50.57167299999999
 20
241.78296299999991
 30
0.0
 40
6.504607
 50
95.932086999999996
 51
97.674158000000006
  0
ARC
  5
299
  8
0
 62
     7
 10
50.567588999999998
 20
242.50182499999991
 30
0.0
 40
5.780289999999999
 50
82.325856000000002
 51
84.272072999999992
  0
ARC
  5
29A
  8
0
 62
     7
 10
50.500421000000003
 20
242.00893799999989
 30
0.0
 40
6.2777329999999996
 50
74.829751000000002
 51
82.319041000000013
  0
ARC
  5
29B
  8
0
 62
     7
 10
50.578214000000003
 20
242.30343599999989
 30
0.0
 40
5.973139999999999
 50
70.877606999999998
 51
74.810718000000008
  0
ARC
  5
29C
  8
0
 62
     7
 10
50.572285000000001
 20
242.24188899999999
 30
0.0
 40
6.033250999999999
 50
63.222227000000011
 51
71.015872999999999
  0
ARC
  5
29D
  8
0
 62
     7
 10
50.491748000000001
 20
242.06898199999989
 30
0.0
 40
6.2239029999999991
 50
59.501604000000007
 51
63.277463000000012
  0
ARC
  5
29E
  8
0
 62
     7
 10
50.568458
 20
242.190425
 30
0.0
 40
6.0803320000000003
 50
51.813840000000013
 51
59.543660000000003
  0
ARC
  5
29F
  8
0
 62
     7
 10
50.457428
 20
242.0454069999999
 30
0.0
 40
6.2629589999999986
 50
48.084668000000001
 51
51.835630000000002
  0
ARC
  5
2A0
  8
0
 62
     7
 10
50.517780999999992
 20
242.11677
 30
0.0
 40
6.1695379999999993
 50
40.442233999999992
 51
48.059021999999999
  0
ARC
  5
2A1
  8
0
 62
     7
 10
50.559947999999999
 20
242.1532839999999
 30
0.0
 40
6.1137610000000002
 50
36.595703
 51
40.438140999999987
  0
ARC
  5
2A2
  8
0
 62
     7
 10
50.505380000000002
 20
242.10832199999999
 30
0.0
 40
6.1843769999999987
 50
29.028325999999989
 51
36.628749999999989
  0
ARC
  5
2A3
  8
0
 62
     7
 10
50.50990800000001
 20
242.11502300000001
 30
0.0
 40
6.177166999999999
 50
25.190757000000001
 51
28.994360999999991
  0
ARC
  5
2A4
  8
0
 62
     7
 10
50.447332000000003
 20
242.09265699999989
 30
0.0
 40
6.2433149999999991
 50
17.603328000000001
 51
25.132062999999999
  0
ARC
  5
2A5
  8
0
 62
     7
 10
50.533445999999998
 20
242.12055399999991
 30
0.0
 40
6.1527969999999996
 50
13.77707
 51
17.598227999999999
  0
ARC
  5
2A6
  8
0
 62
     7
 10
50.450710999999998
 20
242.10996599999999
 30
0.0
 40
6.2356800000000003
 50
6.1524879999999991
 51
13.690514
  0
ARC
  5
2A7
  8
0
 62
     7
 10
50.563867999999999
 20
242.12233499999999
 30
0.0
 40
6.1218500000000002
 50
358.47460099999989
 51
6.150898999999999
  0
LINE
  5
2A8
  8
0
  6
AIGENLINE002
 62
     7
 10
48.769799999999989
 20
230.69799999999989
 30
0.0
 11
40.431600000000003
 21
222.785
 31
0.0
  0
LINE
  5
2A9
  8
0
  6
AIGENLINE002
 62
     7
 10
40.431600000000003
 20
222.785
 30
0.0
 11
40.204500000000003
 21
222.59899999999999
 31
0.0
  0
ARC
  5
2AA
  8
0
  6
AIGENLINE002
 62
     7
 10
39.050258999999997
 20
224.2289899999999
 30
0.0
 40
1.9977020000000001
 50
293.88001000000003
 51
305.29552999999993
  0
ARC
  5
2AB
  8
0
  6
AIGENLINE002
 62
     7
 10
39.053128999999998
 20
224.25641999999999
 30
0.0
 40
2.021668
 50
245.892109
 51
293.49092300000001
  0
ARC
  5
2AC
  8
0
  6
AIGENLINE002
 62
     7
 10
39.058596000000001
 20
224.23087000000001
 30
0.0
 40
2.0006390000000001
 50
225.271624
 51
245.4503
  0
LINE
  5
2AD
  8
0
  6
AIGENLINE002
 62
     7
 10
37.650700000000001
 20
222.80999999999989
 30
0.0
 11
37.483199999999989
 21
222.976
 31
0.0
  0
LINE
  5
2AE
  8
0
  6
AIGENLINE002
 62
     7
 10
37.483199999999989
 20
222.976
 30
0.0
 11
33.479599999999998
 21
226.97999999999999
 31
0.0
  0
LINE
  5
2AF
  8
0
  6
AIGENLINE002
 62
     7
 10
33.479599999999998
 20
226.97999999999999
 30
0.0
 11
33.47999999999999
 21
226.97999999999999
 31
0.0
  0
ARC
  5
2B0
  8
0
  6
AIGENLINE002
 62
     7
 10
34.904367999999991
 20
228.38948500000001
 30
0.0
 40
2.0038680000000002
 50
204.55599499999991
 51
224.69896899999989
  0
ARC
  5
2B1
  8
0
  6
AIGENLINE002
 62
     7
 10
34.925452
 20
228.38283399999989
 30
0.0
 40
2.0203349999999989
 50
156.49302099999991
 51
204.135932
  0
ARC
  5
2B2
  8
0
  6
AIGENLINE002
 62
     7
 10
34.910691999999997
 20
228.3721819999999
 30
0.0
 40
2.0111089999999989
 50
144.7096939999999
 51
156.047009
  0
LINE
  5
2B3
  8
0
  6
AIGENLINE002
 62
     7
 10
33.269199999999991
 20
229.53399999999999
 30
0.0
 11
33.4559
 21
229.761
 31
0.0
  0
LINE
  5
2B4
  8
0
  6
AIGENLINE002
 62
     7
 10
33.4559
 20
229.761
 30
0.0
 11
46.1188
 21
243.1049999999999
 31
0.0
  0
LINE
  5
2B5
  8
0
  6
AIGENLINE001
 62
     7
 10
50.521599999999999
 20
239.85099999999991
 30
0.0
 11
34.46629999999999
 21
223.79599999999999
 31
0.0
  0
LINE
  5
2B6
  8
0
 62
     7
 10
34.46629999999999
 20
223.79599999999999
 30
0.0
 11
25.979600000000001
 21
215.309
 31
0.0
  0
LINE
  5
2B7
  8
0
  6
AIGENLINE002
 62
     7
 10
52.273800000000001
 20
230.69799999999989
 30
0.0
 11
60.611699999999999
 21
222.785
 31
0.0
  0
LINE
  5
2B8
  8
0
  6
AIGENLINE002
 62
     7
 10
60.611699999999999
 20
222.785
 30
0.0
 11
60.838999999999992
 21
222.59899999999999
 31
0.0
  0
ARC
  5
2B9
  8
0
  6
AIGENLINE002
 62
     7
 10
61.977364999999999
 20
224.1995189999999
 30
0.0
 40
1.964440999999999
 50
234.5873629999999
 51
246.18804399999999
  0
ARC
  5
2BA
  8
0
  6
AIGENLINE002
 62
     7
 10
61.990256999999993
 20
224.258388
 30
0.0
 40
2.0235389999999991
 50
246.52706000000001
 51
294.08981799999998
  0
ARC
  5
2BB
  8
0
  6
AIGENLINE002
 62
     7
 10
61.98496999999999
 20
224.23087000000001
 30
0.0
 40
2.0006390000000001
 50
294.54971999999998
 51
314.72839599999992
  0
LINE
  5
2BC
  8
0
  6
AIGENLINE002
 62
     7
 10
63.392899999999997
 20
222.80999999999989
 30
0.0
 11
63.560299999999998
 21
222.976
 31
0.0
  0
LINE
  5
2BD
  8
0
  6
AIGENLINE002
 62
     7
 10
63.560299999999998
 20
222.976
 30
0.0
 11
67.563900000000004
 21
226.97999999999999
 31
0.0
  0
LINE
  5
2BE
  8
0
  6
AIGENLINE002
 62
     7
 10
67.563900000000004
 20
226.97999999999999
 30
0.0
 11
67.563599999999994
 21
226.97999999999999
 31
0.0
  0
ARC
  5
2BF
  8
0
  6
AIGENLINE002
 62
     7
 10
66.139197999999993
 20
228.38948500000001
 30
0.0
 40
2.0038680000000002
 50
315.30104999999992
 51
335.44402500000001
  0
ARC
  5
2C0
  8
0
  6
AIGENLINE002
 62
     7
 10
66.119916000000003
 20
228.382824
 30
0.0
 40
2.018686999999999
 50
335.84343999999999
 51
23.527607
  0
ARC
  5
2C1
  8
0
  6
AIGENLINE002
 62
     7
 10
66.104317000000009
 20
228.35594399999991
 30
0.0
 40
2.043803
 50
24.043939999999989
 51
35.199315999999989
  0
LINE
  5
2C2
  8
0
  6
AIGENLINE002
 62
     7
 10
67.7744
 20
229.53399999999999
 30
0.0
 11
67.587699999999998
 21
229.761
 31
0.0
  0
LINE
  5
2C3
  8
0
  6
AIGENLINE002
 62
     7
 10
67.587699999999998
 20
229.761
 30
0.0
 11
54.924500000000002
 21
243.1049999999999
 31
0.0
  0
LINE
  5
2C4
  8
0
  6
AIGENLINE001
 62
     7
 10
50.521599999999999
 20
239.85099999999991
 30
0.0
 11
66.577200000000005
 21
223.79599999999999
 31
0.0
  0
LINE
  5
2C5
  8
0
 62
     7
 10
45.107599999999998
 20
239.03899999999999
 30
0.0
 11
45.589199999999991
 21
220.649
 31
0.0
  0
LINE
  5
2C6
  8
0
 62
     7
 10
55.936000000000007
 20
239.03899999999999
 30
0.0
 11
55.454300000000003
 21
220.649
 31
0.0
  0
LINE
  5
2C7
  8
0
 62
     7
 10
53.2346
 20
218.69900000000001
 30
0.0
 11
53.471000000000011
 21
218.69900000000001
 31
0.0
  0
LINE
  5
2C8
  8
0
 62
     7
 10
53.2346
 20
218.69900000000001
 30
0.0
 11
50.521999999999998
 21
218.69900000000001
 31
0.0
  0
LINE
  5
2C9
  8
0
 62
     7
 10
50.521999999999998
 20
218.69900000000001
 30
0.0
 11
47.808900000000001
 21
218.69900000000001
 31
0.0
  0
LINE
  5
2CA
  8
0
 62
     7
 10
47.572899999999997
 20
218.69900000000001
 30
0.0
 11
47.808900000000001
 21
218.69900000000001
 31
0.0
  0
ARC
  5
2CB
  8
0
 62
     7
 10
47.58739099999999
 20
220.692499
 30
0.0
 40
1.998057
 50
189.688435
 51
201.09645
  0
ARC
  5
2CC
  8
0
 62
     7
 10
47.602907999999992
 20
220.71297100000001
 30
0.0
 40
2.019947999999999
 50
201.47978599999999
 51
249.12753799999999
  0
ARC
  5
2CD
  8
0
 62
     7
 10
47.580713000000003
 20
220.69142400000001
 30
0.0
 40
1.9919500000000001
 50
249.50324499999999
 51
269.77629000000002
  0
ARC
  5
2CE
  8
0
 62
     7
 10
53.456520999999988
 20
220.692499
 30
0.0
 40
1.998057
 50
338.90356999999989
 51
350.31158499999998
  0
ARC
  5
2CF
  8
0
 62
     7
 10
53.441331999999989
 20
220.71285399999991
 30
0.0
 40
2.0195989999999999
 50
290.85579799999988
 51
338.51990399999988
  0
ARC
  5
2D0
  8
0
 62
     7
 10
53.462846999999996
 20
220.69143700000001
 30
0.0
 40
1.991965
 50
270.23382199999998
 51
290.49681299999992
  0
ARC
  5
2D1
  8
0
 62
     7
 10
46.669938000000002
 20
220.65453199999999
 30
0.0
 40
1.080716
 50
180.2981309999999
 51
185.01227299999999
  0
ARC
  5
2D2
  8
0
 62
     7
 10
47.750636
 20
220.7157169999999
 30
0.0
 40
2.162885999999999
 50
184.12566499999991
 51
189.56695999999991
  0
ARC
  5
2D3
  8
0
 62
     7
 10
54.296322000000004
 20
220.5698439999999
 30
0.0
 40
1.149772999999999
 50
349.29372899999998
 51
353.85282899999987
  0
ARC
  5
2D4
  8
0
 62
     7
 10
53.413815999999997
 20
220.69710399999991
 30
0.0
 40
2.0410840000000001
 50
352.95374700000002
 51
358.64696400000003
  0
LINE
  5
2D5
  8
0
 62
     7
 10
45.107599999999998
 20
239.666
 30
0.0
 11
45.107599999999998
 21
239.32599999999999
 31
0.0
  0
LINE
  5
2D6
  8
0
 62
     7
 10
55.936000000000007
 20
239.666
 30
0.0
 11
55.936000000000007
 21
239.32599999999999
 31
0.0
  0
ARC
  5
2D7
  8
0
 62
     7
 10
51.903961000000002
 20
239.80677499999999
 30
0.0
 40
4.033987999999999
 50
359.33818100000002
 51
0.6618190000000001
  0
ARC
  5
2D8
  8
0
 62
     7
 10
49.640953000000003
 20
239.82816600000001
 30
0.0
 40
6.2970940000000004
 50
358.52392600000002
 51
359.38139799999999
  0
LINE
  5
2D9
  8
0
 62
     7
 10
55.936000000000007
 20
239.95500000000001
 30
0.0
 11
55.936999999999998
 21
239.904
 31
0.0
  0
ARC
  5
2DA
  8
0
 62
     7
 10
52.468223999999999
 20
239.83198399999989
 30
0.0
 40
3.4695219999999991
 50
0.3531709999999999
 51
1.1952689999999999
  0
ARC
  5
2DB
  8
0
 62
     7
 10
51.553578000000002
 20
239.837897
 30
0.0
 40
4.3839439999999996
 50
1.53067
 51
3.558937999999999
  0
ARC
  5
2DC
  8
0
 62
     7
 10
50.872333000000012
 20
239.80877899999999
 30
0.0
 40
5.0656989999999986
 50
3.409341
 51
15.991740999999999
  0
ARC
  5
2DD
  8
0
 62
     7
 10
50.854320000000001
 20
239.80325300000001
 30
0.0
 40
5.0845379999999993
 50
15.995673999999999
 51
28.580601000000001
  0
ARC
  5
2DE
  8
0
 62
     7
 10
50.73796699999999
 20
239.74239700000001
 30
0.0
 40
5.215825999999999
 50
28.556194000000001
 51
39.537002000000001
  0
ARC
  5
2DF
  8
0
 62
     7
 10
50.677442999999997
 20
239.6939689999999
 30
0.0
 40
5.2933309999999993
 50
39.524231
 51
50.420212999999997
  0
ARC
  5
2E0
  8
0
 62
     7
 10
50.626885999999999
 20
239.649123
 30
0.0
 40
5.3601190000000001
 50
50.309119000000003
 51
60.72397500000001
  0
ARC
  5
2E1
  8
0
 62
     7
 10
50.567659999999989
 20
239.55964499999999
 30
0.0
 40
5.4671370000000001
 50
60.64114
 51
70.905195000000006
  0
ARC
  5
2E2
  8
0
 62
     7
 10
50.515177000000001
 20
239.40168700000001
 30
0.0
 40
5.633572
 50
70.926318999999992
 51
80.415561999999994
  0
ARC
  5
2E3
  8
0
 62
     7
 10
50.522019999999998
 20
239.41514399999991
 30
0.0
 40
5.6191659999999999
 50
80.461523000000014
 51
90.000648999999996
  0
ARC
  5
2E4
  8
0
 62
     7
 10
50.518371000000002
 20
239.44982899999999
 30
0.0
 40
5.5844820000000004
 50
89.963210000000004
 51
100.23618399999999
  0
ARC
  5
2E5
  8
0
 62
     7
 10
50.534633999999997
 20
239.38552300000001
 30
0.0
 40
5.6506569999999989
 50
100.28259199999999
 51
110.372214
  0
ARC
  5
2E6
  8
0
 62
     7
 10
50.498671999999999
 20
239.51274399999991
 30
0.0
 40
5.518883999999999
 50
110.48200199999999
 51
120.84070299999991
  0
ARC
  5
2E7
  8
0
 62
     7
 10
50.489533000000002
 20
239.54280099999991
 30
0.0
 40
5.4883980000000001
 50
120.91964400000001
 51
131.282929
  0
ARC
  5
2E8
  8
0
 62
     7
 10
50.38353
 20
239.67985699999991
 30
0.0
 40
5.3154769999999987
 50
131.39902000000001
 51
142.95703499999999
  0
ARC
  5
2E9
  8
0
 62
     7
 10
50.263878999999989
 20
239.768427
 30
0.0
 40
5.166618999999999
 50
142.94167999999999
 51
154.74854899999991
  0
ARC
  5
2EA
  8
0
 62
     7
 10
50.221147999999999
 20
239.79101600000001
 30
0.0
 40
5.1183350000000001
 50
154.7732
 51
165.612877
  0
ARC
  5
2EB
  8
0
 62
     7
 10
50.160796999999988
 20
239.80974499999999
 30
0.0
 40
5.0552239999999991
 50
165.64853099999999
 51
176.594537
  0
ARC
  5
2EC
  8
0
 62
     7
 10
49.771546999999991
 20
239.8331619999999
 30
0.0
 40
4.6652699999999987
 50
176.597646
 51
178.630427
  0
ARC
  5
2ED
  8
0
 62
     7
 10
49.435985000000002
 20
239.81733399999999
 30
0.0
 40
4.3302480000000001
 50
178.3149469999999
 51
179.52316499999989
  0
ARC
  5
2EE
  8
0
 62
     7
 10
57.732272000000002
 20
239.94388199999989
 30
0.0
 40
12.627722
 50
180.83356000000001
 51
181.26115499999989
  0
LINE
  5
2EF
  8
0
 62
     7
 10
45.105899999999991
 20
239.75999999999999
 30
0.0
 11
45.105899999999991
 21
239.85300000000001
 31
0.0
  0
LINE
  5
2F0
  8
0
 62
     7
 10
51.144500000000001
 20
246.60499999999999
 30
0.0
 11
51.144500000000001
 21
247.57799999999989
 31
0.0
  0
LINE
  5
2F1
  8
0
 62
     7
 10
49.8994
 20
246.60499999999999
 30
0.0
 11
49.8994
 21
247.57799999999989
 31
0.0
  0
LINE
  5
2F2
  8
0
 62
     7
 10
51.144500000000001
 20
247.57799999999989
 30
0.0
 11
51.144500000000001
 21
248.81899999999999
 31
0.0
  0
LINE
  5
2F3
  8
0
 62
     7
 10
49.8994
 20
248.81899999999999
 30
0.0
 11
49.8994
 21
247.57799999999989
 31
0.0
  0
LINE
  5
2F4
  8
0
 62
     7
 10
51.144500000000001
 20
248.81899999999999
 30
0.0
 11
51.144500000000001
 21
251.309
 31
0.0
  0
LINE
  5
2F5
  8
0
 62
     7
 10
49.8994
 20
248.81899999999999
 30
0.0
 11
49.8994
 21
251.309
 31
0.0
  0
ARC
  5
2F6
  8
0
 62
     7
 10
50.756422000000001
 20
251.29463699999999
 30
0.0
 40
0.388335
 50
2.130533999999999
 51
87.843034000000003
  0
ARC
  5
2F7
  8
0
 62
     7
 10
50.286539000000012
 20
251.29558700000001
 30
0.0
 40
0.387351
 50
92.021803000000006
 51
178.0045889999999
  0
LINE
  5
2F8
  8
0
 62
     7
 10
50.2729
 20
251.68299999999999
 30
0.0
 11
50.771000000000001
 21
251.68299999999999
 31
0.0
  0
ARC
  5
2F9
  8
0
 62
     7
 10
50.550234000000003
 20
242.04235600000001
 30
0.0
 40
5.497488999999999
 50
96.798793000000032
 51
124.78255799999999
  0
ARC
  5
2FA
  8
0
 62
     7
 10
50.563127999999999
 20
242.08916400000001
 30
0.0
 40
5.4665280000000003
 50
125.17343700000001
 51
160.11613299999999
  0
ARC
  5
2FB
  8
0
 62
     7
 10
50.533568000000002
 20
242.1197149999999
 30
0.0
 40
5.4283710000000003
 50
160.31326100000001
 51
179.97971299999989
  0
LINE
  5
2FC
  8
0
 62
     7
 10
51.144500000000001
 20
247.50200000000001
 30
0.0
 11
51.388399999999997
 21
247.4679999999999
 31
0.0
  0
LINE
  5
2FD
  8
0
 62
     7
 10
51.388399999999997
 20
247.4679999999999
 30
0.0
 11
51.630899999999997
 21
247.42299999999989
 31
0.0
  0
LINE
  5
2FE
  8
0
 62
     7
 10
51.630899999999997
 20
247.42299999999989
 30
0.0
 11
51.870699999999999
 21
247.36699999999999
 31
0.0
  0
LINE
  5
2FF
  8
0
 62
     7
 10
51.870699999999999
 20
247.36699999999999
 30
0.0
 11
52.107700000000001
 21
247.3009999999999
 31
0.0
  0
LINE
  5
300
  8
0
 62
     7
 10
52.107700000000001
 20
247.3009999999999
 30
0.0
 11
52.341700000000003
 21
247.2229999999999
 31
0.0
  0
LINE
  5
301
  8
0
 62
     7
 10
52.341700000000003
 20
247.2229999999999
 30
0.0
 11
52.571800000000003
 21
247.13499999999999
 31
0.0
  0
LINE
  5
302
  8
0
 62
     7
 10
52.571800000000003
 20
247.13499999999999
 30
0.0
 11
52.797499999999992
 21
247.03699999999989
 31
0.0
  0
LINE
  5
303
  8
0
 62
     7
 10
52.797499999999992
 20
247.03699999999989
 30
0.0
 11
53.018599999999999
 21
246.92799999999991
 31
0.0
  0
LINE
  5
304
  8
0
 62
     7
 10
53.018599999999999
 20
246.92799999999991
 30
0.0
 11
53.2346
 21
246.81
 31
0.0
  0
LINE
  5
305
  8
0
 62
     7
 10
53.2346
 20
246.81
 30
0.0
 11
53.445099999999989
 21
246.6809999999999
 31
0.0
  0
LINE
  5
306
  8
0
 62
     7
 10
53.445099999999989
 20
246.6809999999999
 30
0.0
 11
53.649099999999997
 21
246.54400000000001
 31
0.0
  0
LINE
  5
307
  8
0
 62
     7
 10
53.649099999999997
 20
246.54400000000001
 30
0.0
 11
53.847200000000001
 21
246.39699999999999
 31
0.0
  0
LINE
  5
308
  8
0
 62
     7
 10
53.847200000000001
 20
246.39699999999999
 30
0.0
 11
54.037999999999997
 21
246.2409999999999
 31
0.0
  0
LINE
  5
309
  8
0
 62
     7
 10
54.037999999999997
 20
246.2409999999999
 30
0.0
 11
54.221699999999998
 21
246.077
 31
0.0
  0
LINE
  5
30A
  8
0
 62
     7
 10
54.221699999999998
 20
246.077
 30
0.0
 11
54.3977
 21
245.90499999999989
 31
0.0
  0
LINE
  5
30B
  8
0
 62
     7
 10
54.3977
 20
245.90499999999989
 30
0.0
 11
54.565800000000003
 21
245.72499999999999
 31
0.0
  0
LINE
  5
30C
  8
0
 62
     7
 10
54.565800000000003
 20
245.72499999999999
 30
0.0
 11
54.72529999999999
 21
245.53700000000001
 31
0.0
  0
LINE
  5
30D
  8
0
 62
     7
 10
54.72529999999999
 20
245.53700000000001
 30
0.0
 11
54.876600000000003
 21
245.34200000000001
 31
0.0
  0
LINE
  5
30E
  8
0
 62
     7
 10
54.876600000000003
 20
245.34200000000001
 30
0.0
 11
55.01850000000001
 21
245.14099999999999
 31
0.0
  0
LINE
  5
30F
  8
0
 62
     7
 10
55.01850000000001
 20
245.14099999999999
 30
0.0
 11
55.151200000000003
 21
244.93299999999991
 31
0.0
  0
LINE
  5
310
  8
0
 62
     7
 10
55.151200000000003
 20
244.93299999999991
 30
0.0
 11
55.274500000000003
 21
244.72
 31
0.0
  0
LINE
  5
311
  8
0
 62
     7
 10
55.274500000000003
 20
244.72
 30
0.0
 11
55.387500000000003
 21
244.50099999999989
 31
0.0
  0
LINE
  5
312
  8
0
 62
     7
 10
55.387500000000003
 20
244.50099999999989
 30
0.0
 11
55.4908
 21
244.27799999999991
 31
0.0
  0
LINE
  5
313
  8
0
 62
     7
 10
55.4908
 20
244.27799999999991
 30
0.0
 11
55.5839
 21
244.05000000000001
 31
0.0
  0
LINE
  5
314
  8
0
 62
     7
 10
55.5839
 20
244.05000000000001
 30
0.0
 11
55.666200000000003
 21
243.81699999999989
 31
0.0
  0
LINE
  5
315
  8
0
 62
     7
 10
55.666200000000003
 20
243.81699999999989
 30
0.0
 11
55.738199999999999
 21
243.58199999999999
 31
0.0
  0
LINE
  5
316
  8
0
 62
     7
 10
55.738199999999999
 20
243.58199999999999
 30
0.0
 11
55.799199999999999
 21
243.3429999999999
 31
0.0
  0
LINE
  5
317
  8
0
 62
     7
 10
55.799199999999999
 20
243.3429999999999
 30
0.0
 11
55.8491
 21
243.102
 31
0.0
  0
LINE
  5
318
  8
0
 62
     7
 10
55.8491
 20
243.102
 30
0.0
 11
55.888100000000001
 21
242.85900000000001
 31
0.0
  0
LINE
  5
319
  8
0
 62
     7
 10
55.888100000000001
 20
242.85900000000001
 30
0.0
 11
55.915999999999997
 21
242.614
 31
0.0
  0
LINE
  5
31A
  8
0
 62
     7
 10
55.915999999999997
 20
242.614
 30
0.0
 11
55.932899999999989
 21
242.36799999999999
 31
0.0
  0
LINE
  5
31B
  8
0
 62
     7
 10
55.932899999999989
 20
242.36799999999999
 30
0.0
 11
55.938400000000001
 21
242.12200000000001
 31
0.0
  0
ARC
  5
31C
  8
0
 62
     7
 10
48.231752
 20
212.31342599999991
 30
0.0
 40
2.5185390000000001
 50
251.42002500000001
 51
269.85643199999998
  0
ARC
  5
31D
  8
0
 62
     7
 10
48.216752999999997
 20
212.26562699999991
 30
0.0
 40
2.4684529999999989
 50
232.912522
 51
251.39649999999989
  0
ARC
  5
31E
  8
0
 62
     7
 10
48.216757999999999
 20
212.27709599999989
 30
0.0
 40
2.4776139999999991
 50
214.64105499999999
 51
233.07237299999991
  0
ARC
  5
31F
  8
0
 62
     7
 10
48.235300000000002
 20
212.290515
 30
0.0
 40
2.500497999999999
 50
196.37677699999989
 51
214.65252699999999
  0
ARC
  5
320
  8
0
 62
     7
 10
48.234753000000012
 20
212.28950599999999
 30
0.0
 40
2.499687999999999
 50
182.46458200000001
 51
196.35813200000001
  0
LINE
  5
321
  8
0
 62
     7
 10
48.343999999999987
 20
209.7949999999999
 30
0.0
 11
48.2254
 21
209.7949999999999
 31
0.0
  0
LINE
  5
322
  8
0
 62
     7
 10
52.699599999999997
 20
209.7949999999999
 30
0.0
 11
48.343999999999987
 21
209.7949999999999
 31
0.0
  0
LINE
  5
323
  8
0
 62
     7
 10
52.818100000000001
 20
209.7949999999999
 30
0.0
 11
52.699599999999997
 21
209.7949999999999
 31
0.0
  0
ARC
  5
324
  8
0
 62
     7
 10
52.791373
 20
212.293475
 30
0.0
 40
2.51763
 50
338.96103399999993
 51
357.462602
  0
ARC
  5
325
  8
0
 62
     7
 10
52.811582999999999
 20
212.2900369999999
 30
0.0
 40
2.4975360000000002
 50
320.56347399999999
 51
338.86822000000001
  0
ARC
  5
326
  8
0
 62
     7
 10
52.831221999999997
 20
212.26958999999999
 30
0.0
 40
2.4693819999999991
 50
302.119283
 51
320.640421
  0
ARC
  5
327
  8
0
 62
     7
 10
52.816522999999997
 20
212.2868609999999
 30
0.0
 40
2.4918269999999998
 50
283.86004400000002
 51
302.19438700000001
  0
ARC
  5
328
  8
0
 62
     7
 10
52.815984
 20
212.28648199999989
 30
0.0
 40
2.4915889999999989
 50
270.04928499999988
 51
283.87417900000003
  0
LINE
  5
329
  8
0
 62
     7
 10
45.737399999999987
 20
212.18199999999999
 30
0.0
 11
45.724600000000002
 21
212.476
 31
0.0
  0
LINE
  5
32A
  8
0
 62
     7
 10
55.3065
 20
212.18199999999999
 30
0.0
 11
55.319299999999998
 21
212.476
 31
0.0
  0
LINE
  5
32B
  8
0
 62
     7
 10
45.105200000000004
 20
239.91
 30
0.0
 11
45.105200000000004
 21
242.12200000000001
 31
0.0
  0
LINE
  5
32C
  8
0
 62
     7
 10
55.819200000000002
 20
234.5679999999999
 30
0.0
 11
55.320700000000002
 21
212.5259999999999
 31
0.0
  0
LINE
  5
32D
  8
0
 62
     7
 10
45.224699999999999
 20
234.5679999999999
 30
0.0
 11
45.722900000000003
 21
212.5259999999999
 31
0.0
  0
LINE
  5
32E
  8
0
 62
     7
 10
55.938400000000001
 20
239.91
 30
0.0
 11
55.938400000000001
 21
242.12200000000001
 31
0.0
  0
LINE
  5
32F
  8
0
 62
     7
 10
45.724600000000002
 20
212.476
 30
0.0
 11
45.724600000000002
 21
212.477
 31
0.0
  0
ARC
  5
330
  8
0
 62
     7
 10
49.144131000000002
 20
212.62131600000001
 30
0.0
 40
3.4225409999999998
 50
181.5899299999999
 51
182.415175
  0
ARC
  5
331
  8
0
 62
     7
 10
38.361018000000001
 20
212.96085199999999
 30
0.0
 40
16.965205999999991
 50
358.36075699999992
 51
358.53243700000002
  0
ARC
  5
332
  8
0
 62
     7
 10
55.836471000000003
 20
239.96595300000001
 30
0.0
 40
10.731417999999991
 50
180.29761199999999
 51
180.714247
  0
LINE
  5
333
  8
0
 62
     7
 10
55.938400000000001
 20
239.91
 30
0.0
 11
55.938000000000002
 21
239.84899999999999
 31
0.0
  0
LINE
  5
334
  8
0
 62
     7
 10
55.938000000000002
 20
239.84899999999999
 30
0.0
 11
55.938000000000002
 21
239.83199999999999
 31
0.0
  0
LINE
  5
335
  8
0
 62
     7
 10
49.8994
 20
246.7049999999999
 30
0.0
 11
49.898000000000003
 21
246.70400000000001
 31
0.0
  0
ARC
  5
336
  8
0
 62
     7
 10
49.983859999999993
 20
246.52330799999999
 30
0.0
 40
0.200021
 50
115.40580199999999
 51
134.382035
  0
ARC
  5
337
  8
0
 62
     7
 10
49.866132
 20
246.64926299999991
 30
0.0
 40
0.027941
 50
142.52828700000001
 51
213.83510699999999
  0
ARC
  5
338
  8
0
 62
     7
 10
49.882598999999999
 20
246.66713399999989
 30
0.0
 40
0.051881
 50
220.11517000000001
 51
243.830397
  0
ARC
  5
339
  8
0
 62
     7
 10
49.949243000000003
 20
246.792056
 30
0.0
 40
0.193447
 50
242.43292
 51
256.12950599999988
  0
ARC
  5
33A
  8
0
 62
     7
 10
50.04484999999999
 20
247.13451099999989
 30
0.0
 40
0.5489410000000001
 50
255.01022
 51
262.27250699999991
  0
ARC
  5
33B
  8
0
 62
     7
 10
50.187519999999999
 20
248.0941709999999
 30
0.0
 40
1.5191190000000001
 50
261.807188
 51
265.39202599999999
  0
ARC
  5
33C
  8
0
 62
     7
 10
50.361424999999997
 20
250.22883300000001
 30
0.0
 40
3.660852999999999
 50
265.36309199999988
 51
268.68946699999998
  0
LINE
  5
33D
  8
0
 62
     7
 10
50.277700000000003
 20
246.56899999999999
 30
0.0
 11
50.398299999999999
 21
246.56700000000001
 31
0.0
  0
LINE
  5
33E
  8
0
 62
     7
 10
50.398299999999999
 20
246.56700000000001
 30
0.0
 11
50.521999999999998
 21
246.56599999999989
 31
0.0
  0
LINE
  5
33F
  8
0
 62
     7
 10
50.521999999999998
 20
246.56599999999989
 30
0.0
 11
50.641500000000001
 21
246.56700000000001
 31
0.0
  0
LINE
  5
340
  8
0
 62
     7
 10
50.641500000000001
 20
246.56700000000001
 30
0.0
 11
50.772799999999997
 21
246.56899999999999
 31
0.0
  0
ARC
  5
341
  8
0
 62
     7
 10
50.642493000000002
 20
251.142235
 30
0.0
 40
4.57498
 50
271.631664
 51
273.71366599999988
  0
ARC
  5
342
  8
0
 62
     7
 10
50.836790999999998
 20
248.15781699999999
 30
0.0
 40
1.5842449999999999
 50
273.69237099999998
 51
280.26095099999992
  0
ARC
  5
343
  8
0
 62
     7
 10
51.070914000000002
 20
246.83855699999989
 30
0.0
 40
0.244422
 50
281.34468199999992
 51
300.45086400000002
  0
ARC
  5
344
  8
0
 62
     7
 10
51.173625000000001
 20
246.65511599999999
 30
0.0
 40
0.034515
 50
307.815225
 51
338.005785
  0
ARC
  5
345
  8
0
 62
     7
 10
51.183906999999991
 20
246.648719
 30
0.0
 40
0.022681
 50
343.26783299999988
 51
29.002936999999999
  0
ARC
  5
346
  8
0
 62
     7
 10
51.158250000000002
 20
246.63616200000001
 30
0.0
 40
0.05123
 50
27.372202000000001
 51
50.500847999999998
  0
ARC
  5
347
  8
0
 62
     7
 10
51.086203999999988
 20
246.55456000000001
 30
0.0
 40
0.160065
 50
49.180216999999999
 51
62.131806999999988
  0
ARC
  5
348
  8
0
 62
     7
 10
51.04342299999999
 20
246.4904479999999
 30
0.0
 40
0.23687
 50
60.232406999999988
 51
64.743573999999995
  0
LINE
  5
349
  8
0
  6
AIGENLINE002
 62
     7
 10
154.583
 20
184.82199999999989
 30
0.0
 11
156.28099999999989
 21
189.31
 31
0.0
  0
LINE
  5
34A
  8
0
  6
AIGENLINE002
 62
     7
 10
132.77000000000001
 20
200.22
 30
0.0
 11
132.75099999999989
 21
200.17500000000001
 31
0.0
  0
LINE
  5
34B
  8
0
  6
AIGENLINE002
 62
     7
 10
132.75099999999989
 20
200.17500000000001
 30
0.0
 11
132.73699999999991
 21
200.12899999999999
 31
0.0
  0
LINE
  5
34C
  8
0
  6
AIGENLINE002
 62
     7
 10
132.73699999999991
 20
200.12899999999999
 30
0.0
 11
132.727
 21
200.0809999999999
 31
0.0
  0
LINE
  5
34D
  8
0
  6
AIGENLINE002
 62
     7
 10
132.727
 20
200.0809999999999
 30
0.0
 11
132.72200000000001
 21
200.03200000000001
 31
0.0
  0
LINE
  5
34E
  8
0
  6
AIGENLINE002
 62
     7
 10
132.72200000000001
 20
200.03200000000001
 30
0.0
 11
132.72200000000001
 21
199.98400000000001
 31
0.0
  0
LINE
  5
34F
  8
0
  6
AIGENLINE002
 62
     7
 10
132.72200000000001
 20
199.98400000000001
 30
0.0
 11
132.727
 21
199.93499999999989
 31
0.0
  0
LINE
  5
350
  8
0
  6
AIGENLINE002
 62
     7
 10
132.727
 20
199.93499999999989
 30
0.0
 11
132.7359999999999
 21
199.887
 31
0.0
  0
LINE
  5
351
  8
0
  6
AIGENLINE002
 62
     7
 10
132.7359999999999
 20
199.887
 30
0.0
 11
132.75
 21
199.84
 31
0.0
  0
LINE
  5
352
  8
0
  6
AIGENLINE002
 62
     7
 10
132.75
 20
199.84
 30
0.0
 11
132.76799999999989
 21
199.7949999999999
 31
0.0
  0
LINE
  5
353
  8
0
  6
AIGENLINE002
 62
     7
 10
132.76799999999989
 20
199.7949999999999
 30
0.0
 11
132.79099999999991
 21
199.75200000000001
 31
0.0
  0
LINE
  5
354
  8
0
  6
AIGENLINE002
 62
     7
 10
132.79099999999991
 20
199.75200000000001
 30
0.0
 11
132.8179999999999
 21
199.71199999999999
 31
0.0
  0
LINE
  5
355
  8
0
  6
AIGENLINE002
 62
     7
 10
132.8179999999999
 20
199.71199999999999
 30
0.0
 11
132.8489999999999
 21
199.67400000000001
 31
0.0
  0
LINE
  5
356
  8
0
  6
AIGENLINE002
 62
     7
 10
132.8489999999999
 20
199.67400000000001
 30
0.0
 11
132.8829999999999
 21
199.63900000000001
 31
0.0
  0
LINE
  5
357
  8
0
  6
AIGENLINE002
 62
     7
 10
132.8829999999999
 20
199.63900000000001
 30
0.0
 11
132.9199999999999
 21
199.608
 31
0.0
  0
LINE
  5
358
  8
0
  6
AIGENLINE002
 62
     7
 10
132.9199999999999
 20
199.608
 30
0.0
 11
132.96100000000001
 21
199.5809999999999
 31
0.0
  0
LINE
  5
359
  8
0
  6
AIGENLINE002
 62
     7
 10
132.96100000000001
 20
199.5809999999999
 30
0.0
 11
133.00399999999991
 21
199.55699999999999
 31
0.0
  0
LINE
  5
35A
  8
0
  6
AIGENLINE002
 62
     7
 10
132.92099999999999
 20
200.53599999999989
 30
0.0
 11
132.93299999999991
 21
200.55799999999999
 31
0.0
  0
LINE
  5
35B
  8
0
  6
AIGENLINE002
 62
     7
 10
132.93299999999991
 20
200.55799999999999
 30
0.0
 11
132.947
 21
200.578
 31
0.0
  0
LINE
  5
35C
  8
0
  6
AIGENLINE002
 62
     7
 10
132.947
 20
200.578
 30
0.0
 11
132.96199999999999
 21
200.59700000000001
 31
0.0
  0
LINE
  5
35D
  8
0
  6
AIGENLINE002
 62
     7
 10
132.96199999999999
 20
200.59700000000001
 30
0.0
 11
132.9799999999999
 21
200.614
 31
0.0
  0
LINE
  5
35E
  8
0
  6
AIGENLINE002
 62
     7
 10
132.9799999999999
 20
200.614
 30
0.0
 11
132.999
 21
200.62899999999999
 31
0.0
  0
LINE
  5
35F
  8
0
  6
AIGENLINE002
 62
     7
 10
132.999
 20
200.62899999999999
 30
0.0
 11
133.01899999999989
 21
200.64299999999989
 31
0.0
  0
LINE
  5
360
  8
0
  6
AIGENLINE002
 62
     7
 10
133.01899999999989
 20
200.64299999999989
 30
0.0
 11
133.041
 21
200.654
 31
0.0
  0
LINE
  5
361
  8
0
  6
AIGENLINE002
 62
     7
 10
133.041
 20
200.654
 30
0.0
 11
133.06399999999999
 21
200.6629999999999
 31
0.0
  0
LINE
  5
362
  8
0
  6
AIGENLINE002
 62
     7
 10
133.06399999999999
 20
200.6629999999999
 30
0.0
 11
133.08699999999999
 21
200.6699999999999
 31
0.0
  0
LINE
  5
363
  8
0
  6
AIGENLINE002
 62
     7
 10
133.08699999999999
 20
200.6699999999999
 30
0.0
 11
133.11099999999999
 21
200.67500000000001
 31
0.0
  0
LINE
  5
364
  8
0
  6
AIGENLINE002
 62
     7
 10
133.11099999999999
 20
200.67500000000001
 30
0.0
 11
133.13499999999999
 21
200.67699999999999
 31
0.0
  0
LINE
  5
365
  8
0
  6
AIGENLINE002
 62
     7
 10
133.13499999999999
 20
200.67699999999999
 30
0.0
 11
133.15999999999991
 21
200.67699999999999
 31
0.0
  0
LINE
  5
366
  8
0
  6
AIGENLINE002
 62
     7
 10
133.15999999999991
 20
200.67699999999999
 30
0.0
 11
133.18399999999991
 21
200.67400000000001
 31
0.0
  0
LINE
  5
367
  8
0
  6
AIGENLINE002
 62
     7
 10
133.18399999999991
 20
200.67400000000001
 30
0.0
 11
133.20799999999991
 21
200.6699999999999
 31
0.0
  0
LINE
  5
368
  8
0
  6
AIGENLINE002
 62
     7
 10
133.20799999999991
 20
200.6699999999999
 30
0.0
 11
133.23199999999991
 21
200.66200000000001
 31
0.0
  0
LINE
  5
369
  8
0
  6
AIGENLINE002
 62
     7
 10
133.23199999999991
 20
200.66200000000001
 30
0.0
 11
133.25399999999991
 21
200.65299999999999
 31
0.0
  0
LINE
  5
36A
  8
0
  6
AIGENLINE002
 62
     7
 10
133.25399999999991
 20
200.65299999999999
 30
0.0
 11
156.15600000000001
 21
189.62299999999991
 31
0.0
  0
LINE
  5
36B
  8
0
  6
AIGENLINE002
 62
     7
 10
156.15600000000001
 20
189.62299999999991
 30
0.0
 11
156.17599999999999
 21
189.61199999999991
 31
0.0
  0
LINE
  5
36C
  8
0
  6
AIGENLINE002
 62
     7
 10
156.17599999999999
 20
189.61199999999991
 30
0.0
 11
156.196
 21
189.59899999999999
 31
0.0
  0
LINE
  5
36D
  8
0
  6
AIGENLINE002
 62
     7
 10
156.196
 20
189.59899999999999
 30
0.0
 11
156.214
 21
189.58500000000001
 31
0.0
  0
LINE
  5
36E
  8
0
  6
AIGENLINE002
 62
     7
 10
156.214
 20
189.58500000000001
 30
0.0
 11
156.22999999999999
 21
189.5679999999999
 31
0.0
  0
LINE
  5
36F
  8
0
  6
AIGENLINE002
 62
     7
 10
156.22999999999999
 20
189.5679999999999
 30
0.0
 11
156.245
 21
189.5509999999999
 31
0.0
  0
LINE
  5
370
  8
0
  6
AIGENLINE002
 62
     7
 10
156.245
 20
189.5509999999999
 30
0.0
 11
156.2579999999999
 21
189.53200000000001
 31
0.0
  0
LINE
  5
371
  8
0
  6
AIGENLINE002
 62
     7
 10
156.2579999999999
 20
189.53200000000001
 30
0.0
 11
156.26900000000001
 21
189.512
 31
0.0
  0
LINE
  5
372
  8
0
  6
AIGENLINE002
 62
     7
 10
156.26900000000001
 20
189.512
 30
0.0
 11
156.27899999999991
 21
189.4909999999999
 31
0.0
  0
LINE
  5
373
  8
0
  6
AIGENLINE002
 62
     7
 10
156.27899999999991
 20
189.4909999999999
 30
0.0
 11
156.28700000000001
 21
189.46899999999999
 31
0.0
  0
LINE
  5
374
  8
0
  6
AIGENLINE002
 62
     7
 10
156.28700000000001
 20
189.46899999999999
 30
0.0
 11
156.292
 21
189.446
 31
0.0
  0
LINE
  5
375
  8
0
  6
AIGENLINE002
 62
     7
 10
156.292
 20
189.446
 30
0.0
 11
156.29599999999991
 21
189.42400000000001
 31
0.0
  0
LINE
  5
376
  8
0
  6
AIGENLINE002
 62
     7
 10
156.29599999999991
 20
189.42400000000001
 30
0.0
 11
156.29699999999991
 21
189.4009999999999
 31
0.0
  0
LINE
  5
377
  8
0
  6
AIGENLINE002
 62
     7
 10
156.29699999999991
 20
189.4009999999999
 30
0.0
 11
156.29599999999991
 21
189.3779999999999
 31
0.0
  0
LINE
  5
378
  8
0
  6
AIGENLINE002
 62
     7
 10
156.29599999999991
 20
189.3779999999999
 30
0.0
 11
156.29300000000001
 21
189.3549999999999
 31
0.0
  0
LINE
  5
379
  8
0
  6
AIGENLINE002
 62
     7
 10
156.29300000000001
 20
189.3549999999999
 30
0.0
 11
156.2879999999999
 21
189.33199999999991
 31
0.0
  0
LINE
  5
37A
  8
0
  6
AIGENLINE002
 62
     7
 10
156.2879999999999
 20
189.33199999999991
 30
0.0
 11
156.28099999999989
 21
189.31
 31
0.0
  0
LINE
  5
37B
  8
0
  6
AIGENLINE002
 62
     7
 10
132.77000000000001
 20
200.22099999999989
 30
0.0
 11
132.92099999999999
 21
200.53599999999989
 31
0.0
  0
LINE
  5
37C
  8
0
  6
AIGENLINE002
 62
     7
 10
133.00399999999991
 20
199.55699999999999
 30
0.0
 11
143.09200000000001
 21
194.69799999999989
 31
0.0
  0
ARC
  5
37D
  8
0
  6
AIGENLINE002
 62
     7
 10
141.4599629999999
 20
191.31723199999999
 30
0.0
 40
3.7545459999999991
 50
43.616418000000003
 51
64.230529000000004
  0
ARC
  5
37E
  8
0
  6
AIGENLINE002
 62
     7
 10
141.59813299999999
 20
191.449343
 30
0.0
 40
3.5633809999999988
 50
40.107428999999989
 51
43.611083000000001
  0
ARC
  5
37F
  8
0
  6
AIGENLINE002
 62
     7
 10
141.483046
 20
191.33905799999991
 30
0.0
 40
3.7224659999999998
 50
21.747741000000001
 51
40.264552000000002
  0
ARC
  5
380
  8
0
  6
AIGENLINE002
 62
     7
 10
141.33300299999999
 20
191.28647900000001
 30
0.0
 40
3.8813169999999988
 50
15.55474499999999
 51
21.647998999999992
  0
ARC
  5
381
  8
0
  6
AIGENLINE002
 62
     7
 10
141.478161
 20
191.33410699999999
 30
0.0
 40
3.7287089999999989
 50
359.95164899999997
 51
15.447815
  0
ARC
  5
382
  8
0
  6
AIGENLINE002
 62
     7
 10
141.46201999999991
 20
191.33487999999991
 30
0.0
 40
3.744851999999999
 50
339.31072799999993
 51
359.94003099999998
  0
LINE
  5
383
  8
0
  6
AIGENLINE002
 62
     7
 10
144.965
 20
190.012
 30
0.0
 11
143.93000000000001
 21
187.27500000000001
 31
0.0
  0
ARC
  5
384
  8
0
  6
AIGENLINE002
 62
     7
 10
154.27625399999999
 20
160.33603199999999
 30
0.0
 40
24.487991000000001
 50
89.282026999999985
 51
89.511770999999996
  0
ARC
  5
385
  8
0
  6
AIGENLINE002
 62
     7
 10
152.2708889999999
 20
26.628465999999989
 30
0.0
 40
158.210161
 50
89.198155
 51
89.303090999999995
  0
LINE
  5
386
  8
0
  6
AIGENLINE002
 62
     7
 10
154.19499999999991
 20
184.827
 30
0.0
 11
149.15000000000001
 21
184.88999999999999
 31
0.0
  0
ARC
  5
387
  8
0
  6
AIGENLINE002
 62
     7
 10
149.16890399999991
 20
186.17081099999999
 30
0.0
 40
1.2809790000000001
 50
261.23748599999999
 51
269.16116599999998
  0
ARC
  5
388
  8
0
  6
AIGENLINE002
 62
     7
 10
149.09157699999989
 20
185.7470669999999
 30
0.0
 40
0.850483
 50
255.67072300000001
 51
262.03730599999989
  0
ARC
  5
389
  8
0
  6
AIGENLINE002
 62
     7
 10
149.1360939999999
 20
186.0527219999999
 30
0.0
 40
1.15771
 50
247.90147899999999
 51
252.59482299999991
  0
ARC
  5
38A
  8
0
  6
AIGENLINE002
 62
     7
 10
149.14764899999989
 20
186.07671199999999
 30
0.0
 40
1.184064
 50
252.40852799999999
 51
256.98980399999988
  0
ARC
  5
38B
  8
0
  6
AIGENLINE002
 62
     7
 10
149.00515899999999
 20
185.76961799999989
 30
0.0
 40
0.8462749999999999
 50
243.3415
 51
248.90436099999991
  0
LINE
  5
38C
  8
0
  6
AIGENLINE002
 62
     7
 10
148.625
 20
185.01300000000001
 30
0.0
 11
144.084
 21
187.1999999999999
 31
0.0
  0
ARC
  5
38D
  8
0
  6
AIGENLINE002
 62
     7
 10
156.088661
 20
212.25049899999999
 30
0.0
 40
27.777964999999998
 50
244.13253700000001
 51
244.39601400000001
  0
ARC
  5
38E
  8
0
  6
AIGENLINE002
 62
     7
 10
145.100987
 20
189.6514149999999
 30
0.0
 40
2.649494999999999
 50
243.7732399999999
 51
244.71624399999999
  0
LINE
  5
38F
  8
0
 62
     7
 10
153.5979999999999
 20
187.42099999999991
 30
0.0
 11
153.18000000000001
 21
192.202
 31
0.0
  0
LINE
  5
390
  8
0
 62
     7
 10
127.2639999999999
 20
191.82900000000001
 30
0.0
 11
127.26600000000001
 21
191.78099999999989
 31
0.0
  0
LINE
  5
391
  8
0
 62
     7
 10
127.26600000000001
 20
191.78099999999989
 30
0.0
 11
127.2739999999999
 21
191.732
 31
0.0
  0
LINE
  5
392
  8
0
 62
     7
 10
127.2739999999999
 20
191.732
 30
0.0
 11
127.286
 21
191.685
 31
0.0
  0
LINE
  5
393
  8
0
 62
     7
 10
127.286
 20
191.685
 30
0.0
 11
127.303
 21
191.6389999999999
 31
0.0
  0
LINE
  5
394
  8
0
 62
     7
 10
127.303
 20
191.6389999999999
 30
0.0
 11
127.3239999999999
 21
191.59599999999989
 31
0.0
  0
LINE
  5
395
  8
0
 62
     7
 10
127.3239999999999
 20
191.59599999999989
 30
0.0
 11
127.349
 21
191.554
 31
0.0
  0
LINE
  5
396
  8
0
 62
     7
 10
127.349
 20
191.554
 30
0.0
 11
127.3779999999999
 21
191.5149999999999
 31
0.0
  0
LINE
  5
397
  8
0
 62
     7
 10
127.3779999999999
 20
191.5149999999999
 30
0.0
 11
127.411
 21
191.47900000000001
 31
0.0
  0
LINE
  5
398
  8
0
 62
     7
 10
127.411
 20
191.47900000000001
 30
0.0
 11
127.4469999999999
 21
191.446
 31
0.0
  0
LINE
  5
399
  8
0
 62
     7
 10
127.4469999999999
 20
191.446
 30
0.0
 11
127.486
 21
191.417
 31
0.0
  0
LINE
  5
39A
  8
0
 62
     7
 10
127.486
 20
191.417
 30
0.0
 11
127.52799999999991
 21
191.392
 31
0.0
  0
LINE
  5
39B
  8
0
 62
     7
 10
127.52799999999991
 20
191.392
 30
0.0
 11
127.5719999999999
 21
191.3709999999999
 31
0.0
  0
LINE
  5
39C
  8
0
 62
     7
 10
127.5719999999999
 20
191.3709999999999
 30
0.0
 11
127.6179999999999
 21
191.3549999999999
 31
0.0
  0
LINE
  5
39D
  8
0
 62
     7
 10
127.6179999999999
 20
191.3549999999999
 30
0.0
 11
127.66500000000001
 21
191.3429999999999
 31
0.0
  0
LINE
  5
39E
  8
0
 62
     7
 10
127.66500000000001
 20
191.3429999999999
 30
0.0
 11
127.71299999999989
 21
191.3359999999999
 31
0.0
  0
LINE
  5
39F
  8
0
 62
     7
 10
127.71299999999989
 20
191.3359999999999
 30
0.0
 11
127.7619999999999
 21
191.33399999999989
 31
0.0
  0
LINE
  5
3A0
  8
0
 62
     7
 10
127.512
 20
192.429
 30
0.0
 11
127.488
 21
192.42799999999991
 31
0.0
  0
LINE
  5
3A1
  8
0
 62
     7
 10
127.488
 20
192.42799999999991
 30
0.0
 11
127.4639999999999
 21
192.42400000000001
 31
0.0
  0
LINE
  5
3A2
  8
0
 62
     7
 10
127.4639999999999
 20
192.42400000000001
 30
0.0
 11
127.4399999999999
 21
192.41900000000001
 31
0.0
  0
LINE
  5
3A3
  8
0
 62
     7
 10
127.4399999999999
 20
192.41900000000001
 30
0.0
 11
127.417
 21
192.40999999999991
 31
0.0
  0
LINE
  5
3A4
  8
0
 62
     7
 10
127.417
 20
192.40999999999991
 30
0.0
 11
127.3949999999999
 21
192.40000000000001
 31
0.0
  0
LINE
  5
3A5
  8
0
 62
     7
 10
127.3949999999999
 20
192.40000000000001
 30
0.0
 11
127.3739999999999
 21
192.38699999999989
 31
0.0
  0
LINE
  5
3A6
  8
0
 62
     7
 10
127.3739999999999
 20
192.38699999999989
 30
0.0
 11
127.354
 21
192.37200000000001
 31
0.0
  0
LINE
  5
3A7
  8
0
 62
     7
 10
127.354
 20
192.37200000000001
 30
0.0
 11
127.336
 21
192.35599999999991
 31
0.0
  0
LINE
  5
3A8
  8
0
 62
     7
 10
127.336
 20
192.35599999999991
 30
0.0
 11
127.31999999999989
 21
192.33799999999999
 31
0.0
  0
LINE
  5
3A9
  8
0
 62
     7
 10
127.31999999999989
 20
192.33799999999999
 30
0.0
 11
127.30500000000001
 21
192.3179999999999
 31
0.0
  0
LINE
  5
3AA
  8
0
 62
     7
 10
127.30500000000001
 20
192.3179999999999
 30
0.0
 11
127.29299999999991
 21
192.297
 31
0.0
  0
LINE
  5
3AB
  8
0
 62
     7
 10
127.29299999999991
 20
192.297
 30
0.0
 11
127.282
 21
192.27500000000001
 31
0.0
  0
LINE
  5
3AC
  8
0
 62
     7
 10
127.282
 20
192.27500000000001
 30
0.0
 11
127.2739999999999
 21
192.25200000000001
 31
0.0
  0
LINE
  5
3AD
  8
0
 62
     7
 10
127.2739999999999
 20
192.25200000000001
 30
0.0
 11
127.2679999999999
 21
192.22799999999989
 31
0.0
  0
LINE
  5
3AE
  8
0
 62
     7
 10
127.2679999999999
 20
192.22799999999989
 30
0.0
 11
127.2639999999999
 21
192.20400000000001
 31
0.0
  0
LINE
  5
3AF
  8
0
 62
     7
 10
127.2639999999999
 20
192.20400000000001
 30
0.0
 11
127.26299999999991
 21
192.18000000000001
 31
0.0
  0
LINE
  5
3B0
  8
0
 62
     7
 10
127.2639999999999
 20
191.8309999999999
 30
0.0
 11
127.26299999999991
 21
192.18000000000001
 31
0.0
  0
LINE
  5
3B1
  8
0
 62
     7
 10
129.24000000000001
 20
191.33399999999989
 30
0.0
 11
129.01400000000001
 21
191.33399999999989
 31
0.0
  0
LINE
  5
3B2
  8
0
 62
     7
 10
127.7619999999999
 20
191.33399999999989
 30
0.0
 11
127.952
 21
191.33399999999989
 31
0.0
  0
LINE
  5
3B3
  8
0
 62
     7
 10
127.952
 20
191.33399999999989
 30
0.0
 11
128.066
 21
191.33399999999989
 31
0.0
  0
LINE
  5
3B4
  8
0
 62
     7
 10
128.066
 20
191.33399999999989
 30
0.0
 11
128.46100000000001
 21
191.33399999999989
 31
0.0
  0
LINE
  5
3B5
  8
0
 62
     7
 10
128.46100000000001
 20
191.33399999999989
 30
0.0
 11
129.01400000000001
 21
191.33399999999989
 31
0.0
  0
LINE
  5
3B6
  8
0
 62
     7
 10
128.96199999999999
 20
192.429
 30
0.0
 11
128.90000000000001
 21
192.429
 31
0.0
  0
LINE
  5
3B7
  8
0
 62
     7
 10
128.90000000000001
 20
192.429
 30
0.0
 11
128.83799999999991
 21
192.429
 31
0.0
  0
LINE
  5
3B8
  8
0
 62
     7
 10
128.83799999999991
 20
192.429
 30
0.0
 11
128.1279999999999
 21
192.429
 31
0.0
  0
LINE
  5
3B9
  8
0
 62
     7
 10
128.1279999999999
 20
192.429
 30
0.0
 11
127.93000000000001
 21
192.429
 31
0.0
  0
LINE
  5
3BA
  8
0
 62
     7
 10
127.93000000000001
 20
192.429
 30
0.0
 11
127.726
 21
192.429
 31
0.0
  0
LINE
  5
3BB
  8
0
 62
     7
 10
127.726
 20
192.429
 30
0.0
 11
127.51299999999991
 21
192.429
 31
0.0
  0
LINE
  5
3BC
  8
0
 62
     7
 10
127.51299999999991
 20
192.429
 30
0.0
 11
127.512
 21
192.429
 31
0.0
  0
LINE
  5
3BD
  8
0
 62
     7
 10
128.96199999999999
 20
192.429
 30
0.0
 11
129.21899999999991
 21
192.429
 31
0.0
  0
LINE
  5
3BE
  8
0
 62
     7
 10
152.93199999999999
 20
192.429
 30
0.0
 11
152.95500000000001
 21
192.42799999999991
 31
0.0
  0
LINE
  5
3BF
  8
0
 62
     7
 10
152.95500000000001
 20
192.42799999999991
 30
0.0
 11
152.97799999999989
 21
192.42500000000001
 31
0.0
  0
LINE
  5
3C0
  8
0
 62
     7
 10
152.97799999999989
 20
192.42500000000001
 30
0.0
 11
153.0
 21
192.4199999999999
 31
0.0
  0
LINE
  5
3C1
  8
0
 62
     7
 10
153.0
 20
192.4199999999999
 30
0.0
 11
153.02199999999999
 21
192.41200000000001
 31
0.0
  0
LINE
  5
3C2
  8
0
 62
     7
 10
153.02199999999999
 20
192.41200000000001
 30
0.0
 11
153.04300000000001
 21
192.40299999999991
 31
0.0
  0
LINE
  5
3C3
  8
0
 62
     7
 10
153.04300000000001
 20
192.40299999999991
 30
0.0
 11
153.06399999999999
 21
192.392
 31
0.0
  0
LINE
  5
3C4
  8
0
 62
     7
 10
153.06399999999999
 20
192.392
 30
0.0
 11
153.08299999999991
 21
192.3779999999999
 31
0.0
  0
LINE
  5
3C5
  8
0
 62
     7
 10
153.08299999999991
 20
192.3779999999999
 30
0.0
 11
153.09999999999991
 21
192.36399999999989
 31
0.0
  0
LINE
  5
3C6
  8
0
 62
     7
 10
153.09999999999991
 20
192.36399999999989
 30
0.0
 11
153.11699999999999
 21
192.34700000000001
 31
0.0
  0
LINE
  5
3C7
  8
0
 62
     7
 10
153.11699999999999
 20
192.34700000000001
 30
0.0
 11
153.13099999999989
 21
192.33000000000001
 31
0.0
  0
LINE
  5
3C8
  8
0
 62
     7
 10
153.13099999999989
 20
192.33000000000001
 30
0.0
 11
153.14400000000001
 21
192.31099999999989
 31
0.0
  0
LINE
  5
3C9
  8
0
 62
     7
 10
153.14400000000001
 20
192.31099999999989
 30
0.0
 11
153.155
 21
192.28999999999999
 31
0.0
  0
LINE
  5
3CA
  8
0
 62
     7
 10
153.155
 20
192.28999999999999
 30
0.0
 11
153.16499999999991
 21
192.26900000000001
 31
0.0
  0
LINE
  5
3CB
  8
0
 62
     7
 10
153.16499999999991
 20
192.26900000000001
 30
0.0
 11
153.17199999999991
 21
192.24700000000001
 31
0.0
  0
LINE
  5
3CC
  8
0
 62
     7
 10
153.17199999999991
 20
192.24700000000001
 30
0.0
 11
153.17699999999999
 21
192.22499999999999
 31
0.0
  0
LINE
  5
3CD
  8
0
 62
     7
 10
153.17699999999999
 20
192.22499999999999
 30
0.0
 11
153.18000000000001
 21
192.202
 31
0.0
  0
LINE
  5
3CE
  8
0
 62
     7
 10
152.93199999999999
 20
192.429
 30
0.0
 11
152.15700000000001
 21
192.429
 31
0.0
  0
LINE
  5
3CF
  8
0
 62
     7
 10
152.15700000000001
 20
192.429
 30
0.0
 11
151.76899999999989
 21
192.429
 31
0.0
  0
LINE
  5
3D0
  8
0
 62
     7
 10
151.76899999999989
 20
192.429
 30
0.0
 11
149.768
 21
192.429
 31
0.0
  0
LINE
  5
3D1
  8
0
 62
     7
 10
149.768
 20
192.429
 30
0.0
 11
149.17199999999991
 21
192.429
 31
0.0
  0
LINE
  5
3D2
  8
0
 62
     7
 10
149.17199999999991
 20
192.429
 30
0.0
 11
147.60900000000001
 21
192.429
 31
0.0
  0
LINE
  5
3D3
  8
0
 62
     7
 10
129.21899999999991
 20
192.429
 30
0.0
 11
147.60900000000001
 21
192.429
 31
0.0
  0
LINE
  5
3D4
  8
0
 62
     7
 10
129.24000000000001
 20
191.33399999999989
 30
0.0
 11
138.96000000000001
 21
191.33399999999989
 31
0.0
  0
ARC
  5
3D5
  8
0
 62
     7
 10
138.96482199999991
 20
187.5996429999999
 30
0.0
 40
3.730208999999999
 50
4.9870449999999993
 51
25.698753
  0
ARC
  5
3D6
  8
0
 62
     7
 10
138.966869
 20
187.602912
 30
0.0
 40
3.726947
 50
25.667107999999988
 51
41.168412999999987
  0
ARC
  5
3D7
  8
0
 62
     7
 10
138.9554949999999
 20
187.59350599999999
 30
0.0
 40
3.7417009999999999
 50
41.16219199999999
 51
47.484950000000012
  0
ARC
  5
3D8
  8
0
 62
     7
 10
138.947596
 20
187.57937200000001
 30
0.0
 40
3.757458999999999
 50
47.541817999999999
 51
65.882557999999975
  0
ARC
  5
3D9
  8
0
 62
     7
 10
139.02228899999989
 20
187.75466099999991
 30
0.0
 40
3.5669529999999989
 50
65.827115000000006
 51
69.323808
  0
ARC
  5
3DA
  8
0
 62
     7
 10
138.95646099999999
 20
187.58173500000001
 30
0.0
 40
3.7519830000000001
 50
69.315717000000006
 51
89.943159999999992
  0
LINE
  5
3DB
  8
0
 62
     7
 10
142.93600000000001
 20
185.0079999999999
 30
0.0
 11
142.68100000000001
 21
187.92400000000001
 31
0.0
  0
ARC
  5
3DC
  8
0
 62
     7
 10
161.98254099999991
 20
169.353871
 30
0.0
 40
19.918213999999999
 50
114.8940179999999
 51
115.17621
  0
ARC
  5
3DD
  8
0
 62
     7
 10
205.34396699999991
 20
75.931720999999996
 30
0.0
 40
122.912733
 50
114.94318799999991
 51
115.07822400000001
  0
ARC
  5
3DE
  8
0
 62
     7
 10
107.388268
 20
285.08531899999991
 30
0.0
 40
108.043003
 50
294.86307699999992
 51
295.11563899999987
  0
LINE
  5
3DF
  8
0
 62
     7
 10
152.815
 20
187.0559999999999
 30
0.0
 11
152.23099999999999
 21
186.78399999999999
 31
0.0
  0
ARC
  5
3E0
  8
0
 62
     7
 10
365.91637099999991
 20
-272.38232199999999
 30
0.0
 40
506.4535259999999
 50
114.9561919999999
 51
115.05416
  0
ARC
  5
3E1
  8
0
 62
     7
 10
471.96441499999997
 20
-502.15260199999989
 30
0.0
 40
759.51390800000001
 50
114.96120499999989
 51
115.036908
  0
ARC
  5
3E2
  8
0
 62
     7
 10
359.12195299999991
 20
-262.68382100000002
 30
0.0
 40
494.79237999999992
 50
114.933207
 51
115.049494
  0
ARC
  5
3E3
  8
0
 62
     7
 10
-499.44210299999997
 20
1575.547
 30
0.0
 40
1534.0550000000001
 50
294.99159900000001
 51
295.03085800000008
  0
ARC
  5
3E4
  8
0
 62
     7
 10
148.14223699999999
 20
186.26539099999991
 30
0.0
 40
1.258057999999999
 50
286.93392999999992
 51
294.9887359999999
  0
ARC
  5
3E5
  8
0
 62
     7
 10
148.20527799999991
 20
186.04295500000001
 30
0.0
 40
1.026913999999999
 50
281.899902
 51
287.18397499999992
  0
ARC
  5
3E6
  8
0
 62
     7
 10
148.14899700000001
 20
186.22387499999991
 30
0.0
 40
1.215314
 50
273.80352399999998
 51
278.27981299999988
  0
ARC
  5
3E7
  8
0
 62
     7
 10
148.14274399999999
 20
186.2847669999999
 30
0.0
 40
1.276475
 50
278.16399199999989
 51
282.408368
  0
ARC
  5
3E8
  8
0
 62
     7
 10
148.15865099999991
 20
185.90138300000001
 30
0.0
 40
0.892969
 50
269.29228899999998
 51
274.55809799999992
  0
LINE
  5
3E9
  8
0
 62
     7
 10
143.90600000000001
 20
185.0079999999999
 30
0.0
 11
148.14799999999991
 21
185.0079999999999
 31
0.0
  0
LINE
  5
3EA
  8
0
 62
     7
 10
143.90600000000001
 20
185.0079999999999
 30
0.0
 11
143.4429999999999
 21
185.0079999999999
 31
0.0
  0
LINE
  5
3EB
  8
0
 62
     7
 10
143.4429999999999
 20
185.0079999999999
 30
0.0
 11
143.107
 21
185.0079999999999
 31
0.0
  0
LINE
  5
3EC
  8
0
 62
     7
 10
143.107
 20
185.0079999999999
 30
0.0
 11
142.97999999999999
 21
185.0079999999999
 31
0.0
  0
LINE
  5
3ED
  8
0
 62
     7
 10
142.97999999999999
 20
185.0079999999999
 30
0.0
 11
142.93600000000001
 21
185.0079999999999
 31
0.0
  0
ARC
  5
3EE
  8
0
 62
     7
 10
159.85864699999991
 20
171.3606879999999
 30
0.0
 40
0.38815
 50
2.130684
 51
87.869306000000009
  0
ARC
  5
3EF
  8
0
 62
     7
 10
159.85864699999991
 20
170.89138600000001
 30
0.0
 40
0.38815
 50
272.13069400000001
 51
357.86931600000003
  0
LINE
  5
3F0
  8
0
 62
     7
 10
160.24700000000001
 20
170.87700000000001
 30
0.0
 11
160.24700000000001
 21
171.375
 31
0.0
  0
ARC
  5
3F1
  8
0
 62
     7
 10
152.8978699999999
 20
156.47229899999991
 30
0.0
 40
0.60622
 50
180.43485000000001
 51
186.77865399999999
  0
ARC
  5
3F2
  8
0
 62
     7
 10
153.54997900000001
 20
156.4774219999999
 30
0.0
 40
1.2583500000000001
 50
158.966848
 51
180.442758
  0
LINE
  5
3F3
  8
0
 62
     7
 10
155.1339999999999
 20
169.648
 30
0.0
 11
155.577
 21
170.5979999999999
 31
0.0
  0
LINE
  5
3F4
  8
0
 62
     7
 10
155.35099999999991
 20
167.16699999999989
 30
0.0
 11
156.70599999999999
 21
170.072
 31
0.0
  0
ARC
  5
3F5
  8
0
 62
     7
 10
157.27122099999991
 20
169.83763200000001
 30
0.0
 40
0.6119680000000001
 50
133.57267200000001
 51
157.4641729999999
  0
ARC
  5
3F6
  8
0
 62
     7
 10
157.4024639999999
 20
169.71962500000001
 30
0.0
 40
0.788048
 50
97.511486000000019
 51
134.57217199999999
  0
ARC
  5
3F7
  8
0
 62
     7
 10
157.35894400000001
 20
169.93104600000001
 30
0.0
 40
0.5729610000000001
 50
87.599002999999996
 51
95.960502999999989
  0
ARC
  5
3F8
  8
0
 62
     7
 10
157.055385
 20
169.98409899999999
 30
0.0
 40
1.6005400000000001
 50
138.1642389999999
 51
157.43617900000001
  0
ARC
  5
3F9
  8
0
 62
     7
 10
157.426648
 20
169.67500999999999
 30
0.0
 40
2.0833870000000001
 50
96.865915999999984
 51
138.64116000000001
  0
ARC
  5
3FA
  8
0
 62
     7
 10
157.31838999999999
 20
170.21505300000001
 30
0.0
 40
1.5348749999999991
 50
87.589406999999994
 51
95.263508000000016
  0
LINE
  5
3FB
  8
0
 62
     7
 10
157.3829999999999
 20
171.749
 30
0.0
 11
159.87299999999991
 21
171.749
 31
0.0
  0
LINE
  5
3FC
  8
0
 62
     7
 10
157.3829999999999
 20
170.50399999999999
 30
0.0
 11
159.87299999999991
 21
170.50399999999999
 31
0.0
  0
LINE
  5
3FD
  8
0
 62
     7
 10
153.12100000000001
 20
145.67899999999989
 30
0.0
 11
152.29599999999991
 21
156.40100000000001
 31
0.0
  0
ARC
  5
3FE
  8
0
 62
     7
 10
156.47800099999989
 20
167.24512999999999
 30
0.0
 40
1.1256479999999991
 50
188.165109
 51
189.63836099999989
  0
ARC
  5
3FF
  8
0
 62
     7
 10
140.80409
 20
164.91949700000001
 30
0.0
 40
14.719872000000001
 50
8.4607479999999988
 51
8.8527579999999997
  0
ARC
  5
400
  8
0
 62
     7
 10
172.61524299999991
 20
169.79631299999991
 30
0.0
 40
17.463007999999999
 50
187.82507100000001
 51
188.60052799999991
  0
ARC
  5
401
  8
0
 62
     7
 10
168.92035300000001
 20
169.30977799999991
 30
0.0
 40
13.736299000000001
 50
186.33719899999991
 51
187.91287199999991
  0
ARC
  5
402
  8
0
 62
     7
 10
170.051286
 20
169.5410149999999
 30
0.0
 40
14.886214999999989
 50
185.35718600000001
 51
186.74131099999991
  0
ARC
  5
403
  8
0
 62
     7
 10
184.54538299999999
 20
170.90781299999989
 30
0.0
 40
29.444613
 50
184.65056699999991
 51
185.37197699999999
  0
ARC
  5
404
  8
0
 62
     7
 10
174.34863000000001
 20
170.08167399999999
 30
0.0
 40
19.214448999999998
 50
183.40400999999989
 51
184.6604549999999
  0
ARC
  5
405
  8
0
 62
     7
 10
182.118584
 20
170.57835900000001
 30
0.0
 40
27.000207
 50
182.49469500000001
 51
183.477137
  0
ARC
  5
406
  8
0
 62
     7
 10
175.28903299999999
 20
170.330748
 30
0.0
 40
20.166412999999999
 50
181.83319800000001
 51
182.63643899999991
  0
ARC
  5
407
  8
0
 62
     7
 10
141.52085299999999
 20
169.221236
 30
0.0
 40
13.62000799999999
 50
1.953978
 51
2.2686829999999998
  0
ARC
  5
408
  8
0
 62
     7
 10
152.968232
 20
169.71275
 30
0.0
 40
2.1624779999999988
 50
1.2624040000000001
 51
1.9198759999999999
  0
ARC
  5
409
  8
0
 62
     7
 10
137.7866709999999
 20
172.16465400000001
 30
0.0
 40
6.2486670000000002
 50
56.160618999999997
 51
74.620583999999994
  0
ARC
  5
40A
  8
0
 62
     7
 10
137.79256599999999
 20
172.18181699999991
 30
0.0
 40
6.2311300000000003
 50
37.883738000000001
 51
56.117761000000002
  0
ARC
  5
40B
  8
0
 62
     7
 10
137.7978159999999
 20
172.18670399999999
 30
0.0
 40
6.223986
 50
19.556041
 51
37.877906000000003
  0
ARC
  5
40C
  8
0
 62
     7
 10
137.79725300000001
 20
172.18478300000001
 30
0.0
 40
6.2251589999999988
 50
5.1845090000000003
 51
19.570969999999999
  0
LINE
  5
40D
  8
0
 62
     7
 10
118.88500000000001
 20
180.12599999999989
 30
0.0
 11
119.045
 21
180.11000000000001
 31
0.0
  0
LINE
  5
40E
  8
0
 62
     7
 10
119.045
 20
180.11000000000001
 30
0.0
 11
119.429
 21
180.07299999999989
 31
0.0
  0
LINE
  5
40F
  8
0
 62
     7
 10
119.429
 20
180.07299999999989
 30
0.0
 11
119.75999999999991
 21
180.041
 31
0.0
  0
LINE
  5
410
  8
0
 62
     7
 10
119.75999999999991
 20
180.041
 30
0.0
 11
120.56100000000001
 21
179.96299999999999
 31
0.0
  0
LINE
  5
411
  8
0
 62
     7
 10
118.8809999999999
 20
180.12599999999989
 30
0.0
 11
120.6169999999999
 21
179.95699999999991
 31
0.0
  0
LINE
  5
412
  8
0
 62
     7
 10
120.6169999999999
 20
179.95699999999991
 30
0.0
 11
122.352
 21
179.7879999999999
 31
0.0
  0
LINE
  5
413
  8
0
 62
     7
 10
122.352
 20
179.7879999999999
 30
0.0
 11
120.6169999999999
 21
179.95699999999991
 31
0.0
  0
LINE
  5
414
  8
0
 62
     7
 10
120.6169999999999
 20
179.95699999999991
 30
0.0
 11
118.8809999999999
 21
180.12599999999989
 31
0.0
  0
LINE
  5
415
  8
0
 62
     7
 10
118.20999999999989
 20
180.94200000000001
 30
0.0
 11
118.205
 21
180.86000000000001
 31
0.0
  0
LINE
  5
416
  8
0
 62
     7
 10
118.205
 20
180.86000000000001
 30
0.0
 11
118.205
 21
180.779
 31
0.0
  0
LINE
  5
417
  8
0
 62
     7
 10
118.205
 20
180.779
 30
0.0
 11
118.20999999999989
 21
180.70099999999999
 31
0.0
  0
LINE
  5
418
  8
0
 62
     7
 10
118.20999999999989
 20
180.70099999999999
 30
0.0
 11
118.22199999999999
 21
180.62599999999989
 31
0.0
  0
LINE
  5
419
  8
0
 62
     7
 10
118.22199999999999
 20
180.62599999999989
 30
0.0
 11
118.23099999999999
 21
180.589
 31
0.0
  0
LINE
  5
41A
  8
0
 62
     7
 10
118.23099999999999
 20
180.589
 30
0.0
 11
118.2409999999999
 21
180.554
 31
0.0
  0
LINE
  5
41B
  8
0
 62
     7
 10
118.2409999999999
 20
180.554
 30
0.0
 11
118.2529999999999
 21
180.51899999999989
 31
0.0
  0
LINE
  5
41C
  8
0
 62
     7
 10
118.2529999999999
 20
180.51899999999989
 30
0.0
 11
118.267
 21
180.4859999999999
 31
0.0
  0
LINE
  5
41D
  8
0
 62
     7
 10
118.267
 20
180.4859999999999
 30
0.0
 11
118.2829999999999
 21
180.45400000000001
 31
0.0
  0
LINE
  5
41E
  8
0
 62
     7
 10
118.2829999999999
 20
180.45400000000001
 30
0.0
 11
118.301
 21
180.423
 31
0.0
  0
LINE
  5
41F
  8
0
 62
     7
 10
118.301
 20
180.423
 30
0.0
 11
118.31999999999999
 21
180.39400000000001
 31
0.0
  0
LINE
  5
420
  8
0
 62
     7
 10
118.31999999999999
 20
180.39400000000001
 30
0.0
 11
118.342
 21
180.3659999999999
 31
0.0
  0
LINE
  5
421
  8
0
 62
     7
 10
118.342
 20
180.3659999999999
 30
0.0
 11
118.3649999999999
 21
180.34
 31
0.0
  0
LINE
  5
422
  8
0
 62
     7
 10
118.3649999999999
 20
180.34
 30
0.0
 11
118.3899999999999
 21
180.315
 31
0.0
  0
LINE
  5
423
  8
0
 62
     7
 10
118.3899999999999
 20
180.315
 30
0.0
 11
118.4169999999999
 21
180.292
 31
0.0
  0
LINE
  5
424
  8
0
 62
     7
 10
118.4169999999999
 20
180.292
 30
0.0
 11
118.44499999999999
 21
180.27000000000001
 31
0.0
  0
LINE
  5
425
  8
0
 62
     7
 10
118.44499999999999
 20
180.27000000000001
 30
0.0
 11
118.47499999999989
 21
180.25
 31
0.0
  0
LINE
  5
426
  8
0
 62
     7
 10
118.47499999999989
 20
180.25
 30
0.0
 11
118.50700000000001
 21
180.23099999999999
 31
0.0
  0
LINE
  5
427
  8
0
 62
     7
 10
118.50700000000001
 20
180.23099999999999
 30
0.0
 11
118.5389999999999
 21
180.214
 31
0.0
  0
LINE
  5
428
  8
0
 62
     7
 10
118.5389999999999
 20
180.214
 30
0.0
 11
118.57299999999989
 21
180.19900000000001
 31
0.0
  0
LINE
  5
429
  8
0
 62
     7
 10
118.57299999999989
 20
180.19900000000001
 30
0.0
 11
118.6449999999999
 21
180.17199999999991
 31
0.0
  0
LINE
  5
42A
  8
0
 62
     7
 10
118.6449999999999
 20
180.17199999999991
 30
0.0
 11
118.721
 21
180.15199999999999
 31
0.0
  0
LINE
  5
42B
  8
0
 62
     7
 10
118.721
 20
180.15199999999999
 30
0.0
 11
118.7999999999999
 21
180.136
 31
0.0
  0
LINE
  5
42C
  8
0
 62
     7
 10
118.7999999999999
 20
180.136
 30
0.0
 11
118.8809999999999
 21
180.12599999999989
 31
0.0
  0
LINE
  5
42D
  8
0
 62
     7
 10
120.67700000000001
 20
179.95099999999991
 30
0.0
 11
138.40000000000001
 21
178.38200000000001
 31
0.0
  0
ARC
  5
42E
  8
0
 62
     7
 10
124.839281
 20
223.58750699999999
 30
0.0
 40
43.834181000000001
 50
264.39918999999992
 51
264.55120099999999
  0
LINE
  5
42F
  8
0
 62
     7
 10
145.18399999999991
 20
158.429
 30
0.0
 11
144.001
 21
172.69799999999989
 31
0.0
  0
ARC
  5
430
  8
0
 62
     7
 10
144.28866099999999
 20
172.76427699999991
 30
0.0
 40
0.29221
 50
183.32880499999999
 51
187.06009199999991
  0
ARC
  5
431
  8
0
 62
     7
 10
137.794228
 20
172.17319699999999
 30
0.0
 40
6.2384269999999988
 50
74.66669499999999
 51
84.427536000000003
  0
LINE
  5
432
  8
0
 62
     7
 10
143.99899999999991
 20
172.72799999999989
 30
0.0
 11
144.001
 21
172.69799999999989
 31
0.0
  0
LINE
  5
433
  8
0
 62
     7
 10
118.49299999999999
 20
183.9859999999999
 30
0.0
 11
118.20999999999989
 21
180.94200000000001
 31
0.0
  0
ARC
  5
434
  8
0
 62
     7
 10
118.8735529999999
 20
183.94028
 30
0.0
 40
0.383584
 50
91.305432999999994
 51
173.107102
  0
LINE
  5
435
  8
0
 62
     7
 10
153.5149999999999
 20
184.32400000000001
 30
0.0
 11
153.55000000000001
 21
184.322
 31
0.0
  0
LINE
  5
436
  8
0
 62
     7
 10
153.55000000000001
 20
184.322
 30
0.0
 11
153.584
 21
184.31700000000001
 31
0.0
  0
LINE
  5
437
  8
0
 62
     7
 10
153.584
 20
184.31700000000001
 30
0.0
 11
153.61799999999991
 21
184.309
 31
0.0
  0
LINE
  5
438
  8
0
 62
     7
 10
153.61799999999991
 20
184.309
 30
0.0
 11
153.6509999999999
 21
184.298
 31
0.0
  0
LINE
  5
439
  8
0
 62
     7
 10
153.6509999999999
 20
184.298
 30
0.0
 11
153.68299999999991
 21
184.28399999999999
 31
0.0
  0
LINE
  5
43A
  8
0
 62
     7
 10
153.68299999999991
 20
184.28399999999999
 30
0.0
 11
153.71299999999991
 21
184.267
 31
0.0
  0
LINE
  5
43B
  8
0
 62
     7
 10
153.71299999999991
 20
184.267
 30
0.0
 11
153.74100000000001
 21
184.24799999999991
 31
0.0
  0
LINE
  5
43C
  8
0
 62
     7
 10
153.74100000000001
 20
184.24799999999991
 30
0.0
 11
153.76799999999989
 21
184.22599999999991
 31
0.0
  0
LINE
  5
43D
  8
0
 62
     7
 10
153.76799999999989
 20
184.22599999999991
 30
0.0
 11
153.79199999999989
 21
184.20099999999991
 31
0.0
  0
LINE
  5
43E
  8
0
 62
     7
 10
153.79199999999989
 20
184.20099999999991
 30
0.0
 11
153.81399999999999
 21
184.17400000000001
 31
0.0
  0
LINE
  5
43F
  8
0
 62
     7
 10
153.81399999999999
 20
184.17400000000001
 30
0.0
 11
153.833
 21
184.1459999999999
 31
0.0
  0
LINE
  5
440
  8
0
 62
     7
 10
153.833
 20
184.1459999999999
 30
0.0
 11
153.84999999999991
 21
184.1159999999999
 31
0.0
  0
LINE
  5
441
  8
0
 62
     7
 10
153.84999999999991
 20
184.1159999999999
 30
0.0
 11
153.864
 21
184.084
 31
0.0
  0
LINE
  5
442
  8
0
 62
     7
 10
153.864
 20
184.084
 30
0.0
 11
153.875
 21
184.0509999999999
 31
0.0
  0
LINE
  5
443
  8
0
 62
     7
 10
153.875
 20
184.0509999999999
 30
0.0
 11
153.8829999999999
 21
184.017
 31
0.0
  0
LINE
  5
444
  8
0
 62
     7
 10
153.8829999999999
 20
184.017
 30
0.0
 11
153.88799999999989
 21
183.983
 31
0.0
  0
LINE
  5
445
  8
0
 62
     7
 10
150.94599999999991
 20
184.32400000000001
 30
0.0
 11
152.7229999999999
 21
184.32400000000001
 31
0.0
  0
ARC
  5
446
  8
0
 62
     7
 10
153.11927
 20
-127.2395659999999
 30
0.0
 40
311.56358299999988
 50
89.927132
 51
90.072847999999979
  0
LINE
  5
447
  8
0
 62
     7
 10
120.944
 20
184.32400000000001
 30
0.0
 11
118.8649999999999
 21
184.32400000000001
 31
0.0
  0
LINE
  5
448
  8
0
 62
     7
 10
120.944
 20
184.32400000000001
 30
0.0
 11
147.80099999999999
 21
184.32400000000001
 31
0.0
  0
LINE
  5
449
  8
0
 62
     7
 10
155.36799999999991
 20
167.05699999999999
 30
0.0
 11
156.05799999999991
 21
158.429
 31
0.0
  0
LINE
  5
44A
  8
0
 62
     7
 10
153.88799999999989
 20
183.983
 30
0.0
 11
155.12899999999991
 21
169.785
 31
0.0
  0
ARC
  5
44B
  8
0
 62
     7
 10
142.7277389999999
 20
187.69956199999999
 30
0.0
 40
0.060092
 50
187.50662299999991
 51
248.49884299999999
  0
LINE
  5
44C
  8
0
 62
     7
 10
142.5079999999999
 20
188.76699999999991
 30
0.0
 11
142.5089999999999
 21
188.761
 31
0.0
  0
ARC
  5
44D
  8
0
 62
     7
 10
141.77928099999991
 20
188.66156599999999
 30
0.0
 40
0.736083
 50
7.120404999999999
 51
7.7424089999999994
  0
ARC
  5
44E
  8
0
 62
     7
 10
142.9343419999999
 20
188.82092399999991
 30
0.0
 40
0.430083
 50
189.1128699999999
 51
190.206954
  0
ARC
  5
44F
  8
0
 62
     7
 10
142.4008429999999
 20
188.72745499999991
 30
0.0
 40
0.111565
 50
4.2659729999999998
 51
8.8979149999999994
  0
ARC
  5
450
  8
0
 62
     7
 10
142.44710900000001
 20
188.721171
 30
0.0
 40
0.066606
 50
4.8451870000000001
 51
12.647136
  0
ARC
  5
451
  8
0
 62
     7
 10
142.46669299999991
 20
188.7151539999999
 30
0.0
 40
0.048211
 50
2.577551999999999
 51
13.974232000000001
  0
ARC
  5
452
  8
0
 62
     7
 10
142.4268689999999
 20
188.6968259999999
 30
0.0
 40
0.090342
 50
6.7879539999999983
 51
13.113296999999999
  0
ARC
  5
453
  8
0
 62
     7
 10
142.608036
 20
188.718129
 30
0.0
 40
0.092074
 50
186.62641400000001
 51
192.93843799999991
  0
ARC
  5
454
  8
0
 62
     7
 10
142.64058899999989
 20
188.70820699999999
 30
0.0
 40
0.122756
 50
184.997625
 51
189.94553099999999
  0
ARC
  5
455
  8
0
 62
     7
 10
142.4203959999999
 20
188.66888499999999
 30
0.0
 40
0.100922
 50
4.1301629999999987
 51
10.343679
  0
ARC
  5
456
  8
0
 62
     7
 10
141.13224600000001
 20
188.4139689999999
 30
0.0
 40
1.4133409999999991
 50
10.229120999999999
 51
10.690695
  0
ARC
  5
457
  8
0
 62
     7
 10
143.06220500000001
 20
188.72347199999999
 30
0.0
 40
0.542248
 50
186.19498799999991
 51
187.4231509999999
  0
ARC
  5
458
  8
0
 62
     7
 10
141.8112219999999
 20
188.5275169999999
 30
0.0
 40
0.7243050000000001
 50
8.1057620000000004
 51
10.010011999999991
  0
ARC
  5
459
  8
0
 62
     7
 10
142.66255599999991
 20
188.64197100000001
 30
0.0
 40
0.134829
 50
185.245723
 51
190.56863999999999
  0
ARC
  5
45A
  8
0
 62
     7
 10
142.36328499999999
 20
188.588221
 30
0.0
 40
0.169235
 50
5.5181259999999996
 51
9.8739759999999972
  0
ARC
  5
45B
  8
0
 62
     7
 10
140.529797
 20
188.27331499999991
 30
0.0
 40
2.0291480000000002
 50
9.0287109999999995
 51
9.3933400000000002
  0
LINE
  5
45C
  8
0
 62
     7
 10
142.53399999999999
 20
188.59200000000001
 30
0.0
 11
142.53599999999989
 21
188.57900000000001
 31
0.0
  0
ARC
  5
45D
  8
0
 62
     7
 10
141.00184299999989
 20
188.33867900000001
 30
0.0
 40
1.5526850000000001
 50
8.3831710000000008
 51
8.8910900000000002
  0
ARC
  5
45E
  8
0
 62
     7
 10
141.34365099999991
 20
188.376677
 30
0.0
 40
1.2090510000000001
 50
8.3109899999999985
 51
8.9632710000000007
  0
ARC
  5
45F
  8
0
 62
     7
 10
140.685395
 20
188.2662029999999
 30
0.0
 40
1.8764160000000001
 50
8.3180189999999996
 51
8.7435100000000006
  0
LINE
  5
460
  8
0
 62
     7
 10
142.542
 20
188.5379999999999
 30
0.0
 11
142.5439999999999
 21
188.52399999999989
 31
0.0
  0
LINE
  5
461
  8
0
 62
     7
 10
142.5439999999999
 20
188.52399999999989
 30
0.0
 11
142.54599999999991
 21
188.50899999999999
 31
0.0
  0
ARC
  5
462
  8
0
 62
     7
 10
146.948049
 20
189.13817800000001
 30
0.0
 40
4.446572999999999
 50
188.13367099999999
 51
188.31981200000001
  0
LINE
  5
463
  8
0
 62
     7
 10
142.548
 20
188.495
 30
0.0
 11
142.55099999999999
 21
188.47999999999999
 31
0.0
  0
ARC
  5
464
  8
0
 62
     7
 10
139.61049700000001
 20
188.0621439999999
 30
0.0
 40
2.9697249999999999
 50
7.799180999999999
 51
8.0877610000000004
  0
ARC
  5
465
  8
0
 62
     7
 10
128.9665029999999
 20
186.58353899999989
 30
0.0
 40
13.71592399999999
 50
7.8217149999999984
 51
7.8849100000000014
  0
LINE
  5
466
  8
0
 62
     7
 10
142.55500000000001
 20
188.4499999999999
 30
0.0
 11
142.55699999999999
 21
188.43499999999989
 31
0.0
  0
ARC
  5
467
  8
0
 62
     7
 10
142.35765599999991
 20
188.395747
 30
0.0
 40
0.203396
 50
6.7531789999999994
 51
11.125949
  0
ARC
  5
468
  8
0
 62
     7
 10
140.8444209999999
 20
188.1805939999999
 30
0.0
 40
1.731800999999999
 50
7.4230619999999989
 51
7.934864000000001
  0
LINE
  5
469
  8
0
 62
     7
 10
142.56200000000001
 20
188.404
 30
0.0
 11
142.56399999999999
 21
188.38900000000001
 31
0.0
  0
ARC
  5
46A
  8
0
 62
     7
 10
136.57968600000001
 20
187.59148300000001
 30
0.0
 40
6.0376370000000001
 50
7.4371219999999996
 51
7.5871649999999997
  0
ARC
  5
46B
  8
0
 62
     7
 10
142.8975649999999
 20
188.4152499999999
 30
0.0
 40
0.333721
 50
187.276353
 51
190.0287689999999
  0
ARC
  5
46C
  8
0
 62
     7
 10
144.19708099999991
 20
188.59959499999991
 30
0.0
 40
1.646091999999999
 50
188.47016499999989
 51
189.022198
  0
ARC
  5
46D
  8
0
 62
     7
 10
138.72086299999989
 20
187.83116399999989
 30
0.0
 40
3.884158999999999
 50
7.3135319999999986
 51
7.5492819999999998
  0
ARC
  5
46E
  8
0
 62
     7
 10
142.36461299999991
 20
188.28572999999989
 30
0.0
 40
0.212583
 50
6.491814999999999
 51
10.813266999999991
  0
ARC
  5
46F
  8
0
 62
     7
 10
142.36782899999989
 20
188.270261
 30
0.0
 40
0.211723
 50
6.3683149999999991
 51
10.753462000000001
  0
ARC
  5
470
  8
0
 62
     7
 10
142.37023999999991
 20
188.25424099999989
 30
0.0
 40
0.211723
 50
6.3683149999999991
 51
10.753462000000001
  0
ARC
  5
471
  8
0
 62
     7
 10
142.37184799999989
 20
188.23784299999991
 30
0.0
 40
0.212583
 50
6.491814999999999
 51
10.813266999999991
  0
ARC
  5
472
  8
0
 62
     7
 10
142.3750639999999
 20
188.222374
 30
0.0
 40
0.211723
 50
6.3683149999999991
 51
10.753462000000001
  0
ARC
  5
473
  8
0
 62
     7
 10
142.37747499999989
 20
188.206354
 30
0.0
 40
0.211723
 50
6.3683149999999991
 51
10.753462000000001
  0
LINE
  5
474
  8
0
 62
     7
 10
142.58799999999999
 20
188.2299999999999
 30
0.0
 11
142.59
 21
188.214
 31
0.0
  0
LINE
  5
475
  8
0
 62
     7
 10
142.59
 20
188.214
 30
0.0
 11
142.5929999999999
 21
188.19799999999989
 31
0.0
  0
ARC
  5
476
  8
0
 62
     7
 10
143.12266
 20
188.27050800000001
 30
0.0
 40
0.534887
 50
187.793982
 51
189.5111389999999
  0
ARC
  5
477
  8
0
 62
     7
 10
143.27785600000001
 20
188.27913599999999
 30
0.0
 40
0.689588
 50
188.087299
 51
189.4050629999999
  0
ARC
  5
478
  8
0
 62
     7
 10
144.67917600000001
 20
188.42990800000001
 30
0.0
 40
2.0982439999999989
 50
187.213223
 51
187.649631
  0
LINE
  5
479
  8
0
 62
     7
 10
142.59999999999991
 20
188.1509999999999
 30
0.0
 11
142.602
 21
188.13499999999991
 31
0.0
  0
ARC
  5
47A
  8
0
 62
     7
 10
142.40365600000001
 20
188.09612999999999
 30
0.0
 40
0.202118
 50
6.6174539999999986
 51
11.06617299999999
  0
LINE
  5
47B
  8
0
 62
     7
 10
142.6039999999999
 20
188.119
 30
0.0
 11
142.60599999999991
 21
188.10400000000001
 31
0.0
  0
ARC
  5
47C
  8
0
 62
     7
 10
142.097015
 20
188.004414
 30
0.0
 40
0.5191060000000001
 50
9.3318469999999998
 51
11.051154999999991
  0
ARC
  5
47D
  8
0
 62
     7
 10
129.02300299999999
 20
186.20698799999991
 30
0.0
 40
13.71592399999999
 50
7.8217149999999984
 51
7.8849100000000014
  0
LINE
  5
47E
  8
0
 62
     7
 10
142.6109999999999
 20
188.07400000000001
 30
0.0
 11
142.613
 21
188.05799999999991
 31
0.0
  0
LINE
  5
47F
  8
0
 62
     7
 10
142.613
 20
188.05799999999991
 30
0.0
 11
142.61600000000001
 21
188.04400000000001
 31
0.0
  0
ARC
  5
480
  8
0
 62
     7
 10
143.37433300000001
 20
188.15950900000001
 30
0.0
 40
0.7673360000000001
 50
188.68577300000001
 51
189.80648999999991
  0
ARC
  5
481
  8
0
 62
     7
 10
142.17398299999999
 20
187.96804199999991
 30
0.0
 40
0.4483640000000001
 50
5.9498340000000001
 51
7.7901490000000013
  0
ARC
  5
482
  8
0
 62
     7
 10
142.44660200000001
 20
187.97819499999989
 30
0.0
 40
0.177094
 50
7.088671999999999
 51
11.835971000000001
  0
ARC
  5
483
  8
0
 62
     7
 10
144.71372600000001
 20
188.30275399999999
 30
0.0
 40
2.113176999999999
 50
188.23576899999989
 51
188.61820700000001
  0
ARC
  5
484
  8
0
 62
     7
 10
143.84572
 20
188.1599019999999
 30
0.0
 40
1.233614999999999
 50
188.09943000000001
 51
188.754546
  0
LINE
  5
485
  8
0
 62
     7
 10
142.626
 20
187.97200000000001
 30
0.0
 11
142.62899999999991
 21
187.959
 31
0.0
  0
ARC
  5
486
  8
0
 62
     7
 10
143.95866599999991
 20
188.15629300000001
 30
0.0
 40
1.344743
 50
188.45657800000001
 51
189.035785
  0
ARC
  5
487
  8
0
 62
     7
 10
142.39337199999991
 20
187.90722500000001
 30
0.0
 40
0.240243
 50
5.9211079999999994
 51
9.0706050000000005
  0
ARC
  5
488
  8
0
 62
     7
 10
145.634702
 20
188.40576200000001
 30
0.0
 40
3.039517
 50
188.966982
 51
189.2136099999999
  0
ARC
  5
489
  8
0
 62
     7
 10
145.31570199999999
 20
188.347353
 30
0.0
 40
2.7152880000000001
 50
189.07480100000001
 51
189.34728999999999
  0
ARC
  5
48A
  8
0
 62
     7
 10
142.76106799999991
 20
187.917655
 30
0.0
 40
0.125113
 50
185.1879119999999
 51
190.84631200000001
  0
ARC
  5
48B
  8
0
 62
     7
 10
143.4156669999999
 20
187.99375900000001
 30
0.0
 40
0.783836
 50
187.30367699999991
 51
189.07196499999989
  0
ARC
  5
48C
  8
0
 62
     7
 10
142.47439700000001
 20
187.83930799999999
 30
0.0
 40
0.170062
 50
6.52285
 51
10.455035999999989
  0
ARC
  5
48D
  8
0
 62
     7
 10
142.74143000000001
 20
187.86830399999999
 30
0.0
 40
0.098548
 50
185.63527500000001
 51
192.126082
  0
ARC
  5
48E
  8
0
 62
     7
 10
142.5368159999999
 20
187.82834099999991
 30
0.0
 40
0.109964
 50
4.3858420000000002
 51
10.08800099999999
  0
ARC
  5
48F
  8
0
 62
     7
 10
142.52543600000001
 20
187.8115159999999
 30
0.0
 40
0.123625
 50
6.8417289999999982
 51
11.778149000000001
  0
ARC
  5
490
  8
0
 62
     7
 10
142.7369149999999
 20
187.83605499999999
 30
0.0
 40
0.089275
 50
186.31012200000001
 51
192.92937099999989
  0
ARC
  5
491
  8
0
 62
     7
 10
142.75525799999991
 20
187.82586000000001
 30
0.0
 40
0.105807
 50
185.3038709999999
 51
190.67482100000001
  0
ARC
  5
492
  8
0
 62
     7
 10
142.74801199999999
 20
187.8158389999999
 30
0.0
 40
0.097203
 50
185.65453199999999
 51
191.19944299999989
  0
ARC
  5
493
  8
0
 62
     7
 10
142.3728679999999
 20
187.75005799999991
 30
0.0
 40
0.283695
 50
7.6512229999999981
 51
9.5160180000000008
  0
ARC
  5
494
  8
0
 62
     7
 10
142.73479900000001
 20
187.79599799999991
 30
0.0
 40
0.081174
 50
185.77503200000001
 51
192.05485999999999
  0
ARC
  5
495
  8
0
 62
     7
 10
142.72831099999999
 20
187.786945
 30
0.0
 40
0.073322
 50
186.1854779999999
 51
192.73920399999989
  0
ARC
  5
496
  8
0
 62
     7
 10
142.70932500000001
 20
187.7735989999999
 30
0.0
 40
0.052607
 50
183.07566299999991
 51
191.78719099999989
  0
ARC
  5
497
  8
0
 62
     7
 10
146.3718639999999
 20
188.26545200000001
 30
0.0
 40
3.7478889999999989
 50
187.706715
 51
187.823655
  0
LINE
  5
498
  8
0
 62
     7
 10
142.65899999999999
 20
187.755
 30
0.0
 11
142.66
 21
187.74799999999999
 31
0.0
  0
ARC
  5
499
  8
0
 62
     7
 10
142.221631
 20
187.67548500000001
 30
0.0
 40
0.444228
 50
8.5452639999999995
 51
9.3999869999999994
  0
ARC
  5
49A
  8
0
 62
     7
 10
143.20064199999999
 20
187.8257439999999
 30
0.0
 40
0.5462500000000001
 50
188.872423
 51
189.54966799999991
  0
ARC
  5
49B
  8
0
 62
     7
 10
142.69043500000001
 20
187.73712499999991
 30
0.0
 40
0.028544
 50
184.02835999999999
 51
195.98763700000001
  0
ARC
  5
49C
  8
0
 62
     7
 10
144.58909199999991
 20
188.00272799999999
 30
0.0
 40
1.9454130000000001
 50
188.08080499999991
 51
188.77317099999999
  0
LINE
  5
49D
  8
0
 62
     7
 10
142.666
 20
187.7059999999999
 30
0.0
 11
142.667
 21
187.70299999999989
 31
0.0
  0
LINE
  5
49E
  8
0
 62
     7
 10
142.667
 20
187.70299999999989
 30
0.0
 11
142.667
 21
187.6999999999999
 31
0.0
  0
LINE
  5
49F
  8
0
 62
     7
 10
142.667
 20
187.6999999999999
 30
0.0
 11
142.667
 21
187.697
 31
0.0
  0
LINE
  5
4A0
  8
0
 62
     7
 10
142.667
 20
187.697
 30
0.0
 11
142.66800000000001
 21
187.69499999999991
 31
0.0
  0
LINE
  5
4A1
  8
0
 62
     7
 10
142.66800000000001
 20
187.69499999999991
 30
0.0
 11
142.66800000000001
 21
187.69399999999999
 31
0.0
  0
LINE
  5
4A2
  8
0
 62
     7
 10
142.66800000000001
 20
187.69399999999999
 30
0.0
 11
142.66800000000001
 21
187.6929999999999
 31
0.0
  0
LINE
  5
4A3
  8
0
 62
     7
 10
142.66800000000001
 20
187.6929999999999
 30
0.0
 11
142.66800000000001
 21
187.6929999999999
 31
0.0
  0
LINE
  5
4A4
  8
0
 62
     7
 10
142.66800000000001
 20
187.6929999999999
 30
0.0
 11
142.66800000000001
 21
187.69200000000001
 31
0.0
  0
LINE
  5
4A5
  8
0
 62
     7
 10
142.66800000000001
 20
187.69200000000001
 30
0.0
 11
142.66800000000001
 21
187.69200000000001
 31
0.0
  0
LINE
  5
4A6
  8
0
 62
     7
 10
124.7649999999999
 20
177.40199999999999
 30
0.0
 11
124.901
 21
177.51300000000001
 31
0.0
  0
LINE
  5
4A7
  8
0
 62
     7
 10
119.06399999999989
 20
177.95699999999991
 30
0.0
 11
118.9529999999999
 21
178.0929999999999
 31
0.0
  0
LINE
  5
4A8
  8
0
 62
     7
 10
120.821
 20
166.4499999999999
 30
0.0
 11
121.777
 21
176.262
 31
0.0
  0
LINE
  5
4A9
  8
0
  6
AIGENLINE001
 62
     7
 10
121.831
 20
176.8179999999999
 30
0.0
 11
122.2329999999999
 21
180.9499999999999
 31
0.0
  0
LINE
  5
4AA
  8
0
 62
     7
 10
118.9529999999999
 20
178.0929999999999
 30
0.0
 11
119.1459999999999
 21
180.0749999999999
 31
0.0
  0
LINE
  5
4AB
  8
0
 62
     7
 10
124.901
 20
177.51300000000001
 30
0.0
 11
125.09399999999989
 21
179.4959999999999
 31
0.0
  0
LINE
  5
4AC
  8
0
 62
     7
 10
119.3929999999999
 20
180.0509999999999
 30
0.0
 11
119.396
 21
180.07599999999999
 31
0.0
  0
LINE
  5
4AD
  8
0
 62
     7
 10
124.846
 20
179.52000000000001
 30
0.0
 11
124.848
 21
179.5449999999999
 31
0.0
  0
LINE
  5
4AE
  8
0
 62
     7
 10
123.1149999999999
 20
177.68700000000001
 30
0.0
 11
123.042
 21
177.667
 31
0.0
  0
LINE
  5
4AF
  8
0
 62
     7
 10
123.042
 20
177.667
 30
0.0
 11
122.96899999999989
 21
177.648
 31
0.0
  0
LINE
  5
4B0
  8
0
 62
     7
 10
122.96899999999989
 20
177.648
 30
0.0
 11
122.8949999999999
 21
177.62999999999991
 31
0.0
  0
LINE
  5
4B1
  8
0
 62
     7
 10
122.8949999999999
 20
177.62999999999991
 30
0.0
 11
122.81999999999989
 21
177.613
 31
0.0
  0
LINE
  5
4B2
  8
0
 62
     7
 10
122.81999999999989
 20
177.613
 30
0.0
 11
122.746
 21
177.5979999999999
 31
0.0
  0
LINE
  5
4B3
  8
0
 62
     7
 10
120.738
 20
177.91900000000001
 30
0.0
 11
120.8239999999999
 21
177.875
 31
0.0
  0
LINE
  5
4B4
  8
0
 62
     7
 10
120.8239999999999
 20
177.875
 30
0.0
 11
120.911
 21
177.834
 31
0.0
  0
LINE
  5
4B5
  8
0
 62
     7
 10
120.911
 20
177.834
 30
0.0
 11
120.997
 21
177.79599999999999
 31
0.0
  0
LINE
  5
4B6
  8
0
 62
     7
 10
120.997
 20
177.79599999999999
 30
0.0
 11
121.083
 21
177.75999999999991
 31
0.0
  0
LINE
  5
4B7
  8
0
 62
     7
 10
120.738
 20
177.91900000000001
 30
0.0
 11
118.9529999999999
 21
178.0929999999999
 31
0.0
  0
LINE
  5
4B8
  8
0
 62
     7
 10
120.818
 20
178.73699999999991
 30
0.0
 11
120.738
 21
177.91900000000001
 31
0.0
  0
LINE
  5
4B9
  8
0
 62
     7
 10
120.818
 20
178.73699999999991
 30
0.0
 11
123.19499999999989
 21
178.50599999999989
 31
0.0
  0
LINE
  5
4BA
  8
0
 62
     7
 10
123.19499999999989
 20
178.50599999999989
 30
0.0
 11
123.1149999999999
 21
177.68700000000001
 31
0.0
  0
LINE
  5
4BB
  8
0
 62
     7
 10
123.1149999999999
 20
177.68700000000001
 30
0.0
 11
124.901
 21
177.51300000000001
 31
0.0
  0
LINE
  5
4BC
  8
0
 62
     7
 10
124.7649999999999
 20
177.40199999999999
 30
0.0
 11
122.746
 21
177.5979999999999
 31
0.0
  0
LINE
  5
4BD
  8
0
 62
     7
 10
122.746
 20
177.5979999999999
 30
0.0
 11
121.083
 21
177.75999999999991
 31
0.0
  0
LINE
  5
4BE
  8
0
 62
     7
 10
121.083
 20
177.75999999999991
 30
0.0
 11
119.06399999999989
 21
177.95699999999991
 31
0.0
  0
LINE
  5
4BF
  8
0
 62
     7
 10
119.1459999999999
 20
180.0749999999999
 30
0.0
 11
125.09399999999989
 21
179.4959999999999
 31
0.0
  0
ARC
  5
4C0
  8
0
 62
     7
 10
145.76665199999991
 20
184.2078139999999
 30
0.0
 40
2.4132859999999998
 50
174.148731
 51
177.24604400000001
  0
ARC
  5
4C1
  8
0
 62
     7
 10
148.843366
 20
183.91879099999991
 30
0.0
 40
5.5034979999999996
 50
168.57997499999991
 51
174.42089300000001
  0
ARC
  5
4C2
  8
0
 62
     7
 10
150.50891200000001
 20
185.270736
 30
0.0
 40
2.639634
 50
30.194783999999999
 51
37.80186299999999
  0
ARC
  5
4C3
  8
0
 62
     7
 10
148.77725899999999
 20
184.221541
 30
0.0
 40
4.6641589999999988
 50
21.532613000000001
 51
30.636054999999999
  0
ARC
  5
4C4
  8
0
 62
     7
 10
147.769711
 20
183.761358
 30
0.0
 40
5.7705839999999986
 50
11.327449
 51
22.111133999999989
  0
ARC
  5
4C5
  8
0
 62
     7
 10
150.25395599999999
 20
184.2882909999999
 30
0.0
 40
3.2313610000000001
 50
2.8384119999999999
 51
10.818151
  0
LINE
  5
4C6
  8
0
 62
     7
 10
152.45500000000001
 20
186.88900000000001
 30
0.0
 11
152.59499999999991
 21
186.88900000000001
 31
0.0
  0
LINE
  5
4C7
  8
0
 62
     7
 10
147.80099999999999
 20
184.32400000000001
 30
0.0
 11
150.94599999999991
 21
184.32400000000001
 31
0.0
  0
ARC
  5
4C8
  8
0
 62
     7
 10
149.23292000000001
 20
184.05793299999999
 30
0.0
 40
4.2491760000000003
 50
3.586805
 51
5.271202999999999
  0
LINE
  5
4C9
  8
0
 62
     7
 10
153.464
 20
184.44799999999989
 30
0.0
 11
153.48099999999999
 21
184.44799999999989
 31
0.0
  0
ARC
  5
4CA
  8
0
 62
     7
 10
55.646264000000002
 20
192.16851199999999
 30
0.0
 40
0.26076
 50
71.76202099999999
 51
89.554731000000004
  0
ARC
  5
4CB
  8
0
 62
     7
 10
55.64228
 20
192.17096100000001
 30
0.0
 40
0.25972
 50
53.213996999999999
 51
70.758274000000014
  0
ARC
  5
4CC
  8
0
 62
     7
 10
55.648235999999997
 20
192.18087199999991
 30
0.0
 40
0.248219
 50
34.587255999999989
 51
52.944989999999997
  0
ARC
  5
4CD
  8
0
 62
     7
 10
55.649981999999987
 20
192.181727
 30
0.0
 40
0.246297
 50
16.038224
 51
34.654122999999998
  0
ARC
  5
4CE
  8
0
 62
     7
 10
55.661864999999999
 20
192.1808199999999
 30
0.0
 40
0.235163
 50
359.844537
 51
17.050515000000001
  0
ARC
  5
4CF
  8
0
 62
     7
 10
45.397778999999993
 20
192.17994999999991
 30
0.0
 40
0.250895
 50
161.40936099999999
 51
179.94701499999991
  0
ARC
  5
4D0
  8
0
 62
     7
 10
45.402865999999989
 20
192.17557899999991
 30
0.0
 40
0.257123
 50
143.1246459999999
 51
160.84760499999999
  0
ARC
  5
4D1
  8
0
 62
     7
 10
45.391199
 20
192.18518399999999
 30
0.0
 40
0.242027
 50
124.42585699999989
 51
143.28610699999999
  0
ARC
  5
4D2
  8
0
 62
     7
 10
45.396684
 20
192.18056200000001
 30
0.0
 40
0.248948
 50
106.487801
 51
124.865804
  0
ARC
  5
4D3
  8
0
 62
     7
 10
45.396048999999991
 20
192.17622099999991
 30
0.0
 40
0.252937
 50
97.138828000000004
 51
106.070674
  0
LINE
  5
4D4
  8
0
 62
     7
 10
45.364600000000003
 20
192.42699999999999
 30
0.0
 11
45.384300000000003
 21
192.429
 31
0.0
  0
LINE
  5
4D5
  8
0
 62
     7
 10
45.384300000000003
 20
192.429
 30
0.0
 11
45.391500000000001
 21
192.429
 31
0.0
  0
LINE
  5
4D6
  8
0
 62
     7
 10
45.391500000000001
 20
192.429
 30
0.0
 11
45.394199999999991
 21
192.429
 31
0.0
  0
LINE
  5
4D7
  8
0
 62
     7
 10
45.394199999999991
 20
192.429
 30
0.0
 11
45.395600000000002
 21
192.429
 31
0.0
  0
LINE
  5
4D8
  8
0
 62
     7
 10
45.395600000000002
 20
192.429
 30
0.0
 11
45.396000000000001
 21
192.429
 31
0.0
  0
LINE
  5
4D9
  8
0
 62
     7
 10
54.956200000000003
 20
191.33399999999989
 30
0.0
 11
55.043999999999997
 21
191.33399999999989
 31
0.0
  0
LINE
  5
4DA
  8
0
 62
     7
 10
55.896999999999998
 20
192.18000000000001
 30
0.0
 11
55.896700000000003
 21
185.029
 31
0.0
  0
LINE
  5
4DB
  8
0
 62
     7
 10
45.146900000000002
 20
185.029
 30
0.0
 11
45.146900000000002
 21
192.18000000000001
 31
0.0
  0
LINE
  5
4DC
  8
0
 62
     7
 10
46.087400000000002
 20
191.33399999999989
 30
0.0
 11
46.108800000000002
 21
191.33399999999989
 31
0.0
  0
LINE
  5
4DD
  8
0
 62
     7
 10
47.567399999999992
 20
191.33399999999989
 30
0.0
 11
46.85329999999999
 21
191.33399999999989
 31
0.0
  0
LINE
  5
4DE
  8
0
 62
     7
 10
46.85329999999999
 20
191.33399999999989
 30
0.0
 11
46.678899999999992
 21
191.33399999999989
 31
0.0
  0
LINE
  5
4DF
  8
0
 62
     7
 10
46.678899999999992
 20
191.33399999999989
 30
0.0
 11
46.317900000000002
 21
191.33399999999989
 31
0.0
  0
LINE
  5
4E0
  8
0
 62
     7
 10
46.317900000000002
 20
191.33399999999989
 30
0.0
 11
46.108800000000002
 21
191.33399999999989
 31
0.0
  0
LINE
  5
4E1
  8
0
 62
     7
 10
47.567399999999992
 20
191.33399999999989
 30
0.0
 11
47.798900000000003
 21
191.33399999999989
 31
0.0
  0
LINE
  5
4E2
  8
0
 62
     7
 10
47.798900000000003
 20
191.33399999999989
 30
0.0
 11
53.244999999999997
 21
191.33399999999989
 31
0.0
  0
LINE
  5
4E3
  8
0
 62
     7
 10
53.476100000000002
 20
191.33399999999989
 30
0.0
 11
53.244999999999997
 21
191.33399999999989
 31
0.0
  0
LINE
  5
4E4
  8
0
 62
     7
 10
53.476100000000002
 20
191.33399999999989
 30
0.0
 11
54.188899999999997
 21
191.33399999999989
 31
0.0
  0
LINE
  5
4E5
  8
0
 62
     7
 10
54.188899999999997
 20
191.33399999999989
 30
0.0
 11
54.305
 21
191.33399999999989
 31
0.0
  0
LINE
  5
4E6
  8
0
 62
     7
 10
54.305
 20
191.33399999999989
 30
0.0
 11
54.723999999999997
 21
191.33399999999989
 31
0.0
  0
LINE
  5
4E7
  8
0
 62
     7
 10
54.723999999999997
 20
191.33399999999989
 30
0.0
 11
54.902099999999997
 21
191.33399999999989
 31
0.0
  0
LINE
  5
4E8
  8
0
 62
     7
 10
54.902099999999997
 20
191.33399999999989
 30
0.0
 11
54.935200000000002
 21
191.33399999999989
 31
0.0
  0
LINE
  5
4E9
  8
0
 62
     7
 10
54.956200000000003
 20
191.33399999999989
 30
0.0
 11
54.935200000000002
 21
191.33399999999989
 31
0.0
  0
LINE
  5
4EA
  8
0
 62
     7
 10
55.180399999999999
 20
192.429
 30
0.0
 11
55.20559999999999
 21
192.429
 31
0.0
  0
LINE
  5
4EB
  8
0
 62
     7
 10
55.180399999999999
 20
192.429
 30
0.0
 11
54.869700000000002
 21
192.429
 31
0.0
  0
LINE
  5
4EC
  8
0
 62
     7
 10
54.869700000000002
 20
192.429
 30
0.0
 11
54.726700000000001
 21
192.429
 31
0.0
  0
LINE
  5
4ED
  8
0
 62
     7
 10
54.726700000000001
 20
192.429
 30
0.0
 11
54.40529999999999
 21
192.429
 31
0.0
  0
LINE
  5
4EE
  8
0
 62
     7
 10
54.40529999999999
 20
192.429
 30
0.0
 11
53.811700000000002
 21
192.429
 31
0.0
  0
LINE
  5
4EF
  8
0
 62
     7
 10
53.811700000000002
 20
192.429
 30
0.0
 11
53.495800000000003
 21
192.429
 31
0.0
  0
LINE
  5
4F0
  8
0
 62
     7
 10
53.495800000000003
 20
192.429
 30
0.0
 11
53.469900000000003
 21
192.429
 31
0.0
  0
LINE
  5
4F1
  8
0
 62
     7
 10
53.2346
 20
192.429
 30
0.0
 11
53.469900000000003
 21
192.429
 31
0.0
  0
LINE
  5
4F2
  8
0
 62
     7
 10
53.2346
 20
192.429
 30
0.0
 11
47.808900000000001
 21
192.429
 31
0.0
  0
LINE
  5
4F3
  8
0
 62
     7
 10
47.573999999999991
 20
192.429
 30
0.0
 11
47.804099999999991
 21
192.429
 31
0.0
  0
LINE
  5
4F4
  8
0
 62
     7
 10
47.804099999999991
 20
192.429
 30
0.0
 11
47.808900000000001
 21
192.429
 31
0.0
  0
LINE
  5
4F5
  8
0
 62
     7
 10
45.988199999999992
 20
192.429
 30
0.0
 11
45.8748
 21
192.429
 31
0.0
  0
LINE
  5
4F6
  8
0
 62
     7
 10
45.8748
 20
192.429
 30
0.0
 11
45.888999999999989
 21
192.429
 31
0.0
  0
LINE
  5
4F7
  8
0
 62
     7
 10
45.888999999999989
 20
192.429
 30
0.0
 11
46.251699999999992
 21
192.429
 31
0.0
  0
LINE
  5
4F8
  8
0
 62
     7
 10
46.251699999999992
 20
192.429
 30
0.0
 11
46.4495
 21
192.429
 31
0.0
  0
LINE
  5
4F9
  8
0
 62
     7
 10
46.4495
 20
192.429
 30
0.0
 11
46.745100000000001
 21
192.429
 31
0.0
  0
LINE
  5
4FA
  8
0
 62
     7
 10
46.745100000000001
 20
192.429
 30
0.0
 11
47.5154
 21
192.429
 31
0.0
  0
LINE
  5
4FB
  8
0
 62
     7
 10
47.5154
 20
192.429
 30
0.0
 11
47.573999999999991
 21
192.429
 31
0.0
  0
LINE
  5
4FC
  8
0
 62
     7
 10
45.988199999999992
 20
192.429
 30
0.0
 11
45.9634
 21
192.429
 31
0.0
  0
LINE
  5
4FD
  8
0
 62
     7
 10
45.9634
 20
192.429
 30
0.0
 11
45.397699999999993
 21
192.429
 31
0.0
  0
LINE
  5
4FE
  8
0
 62
     7
 10
46.087400000000002
 20
191.33399999999989
 30
0.0
 11
45.832799999999999
 21
191.33399999999989
 31
0.0
  0
LINE
  5
4FF
  8
0
 62
     7
 10
55.043999999999997
 20
191.33399999999989
 30
0.0
 11
55.210799999999999
 21
191.33399999999989
 31
0.0
  0
LINE
  5
500
  8
0
 62
     7
 10
55.6462
 20
192.429
 30
0.0
 11
55.20559999999999
 21
192.429
 31
0.0
  0
ARC
  5
501
  8
0
 62
     7
 10
45.175458999999996
 20
185.02095199999991
 30
0.0
 40
0.028232
 50
179.43864500000001
 51
200.1261659999999
  0
ARC
  5
502
  8
0
 62
     7
 10
45.198603999999989
 20
185.02736100000001
 30
0.0
 40
0.05174
 50
178.39791199999999
 51
186.80721199999999
  0
LINE
  5
503
  8
0
 62
     7
 10
45.220999999999997
 20
185.0079999999999
 30
0.0
 11
45.151000000000003
 21
185.0079999999999
 31
0.0
  0
LINE
  5
504
  8
0
 62
     7
 10
45.220999999999997
 20
185.0079999999999
 30
0.0
 11
45.348799999999997
 21
185.0079999999999
 31
0.0
  0
LINE
  5
505
  8
0
 62
     7
 10
45.348799999999997
 20
185.0079999999999
 30
0.0
 11
45.65809999999999
 21
185.0079999999999
 31
0.0
  0
LINE
  5
506
  8
0
 62
     7
 10
45.65809999999999
 20
185.0079999999999
 30
0.0
 11
45.924399999999991
 21
185.0079999999999
 31
0.0
  0
LINE
  5
507
  8
0
 62
     7
 10
45.924399999999991
 20
185.0079999999999
 30
0.0
 11
46.2166
 21
185.0079999999999
 31
0.0
  0
LINE
  5
508
  8
0
 62
     7
 10
55.896700000000003
 20
185.0079999999999
 30
0.0
 11
46.2166
 21
185.0079999999999
 31
0.0
  0
LINE
  5
509
  8
0
 62
     7
 10
47.357999999999997
 20
172.05000000000001
 30
0.0
 11
45.146900000000002
 21
171.45799999999991
 31
0.0
  0
LINE
  5
50A
  8
0
 62
     7
 10
45.146900000000002
 20
171.45799999999991
 30
0.0
 11
47.357999999999997
 21
170.86500000000001
 31
0.0
  0
LINE
  5
50B
  8
0
 62
     7
 10
47.357999999999997
 20
170.86500000000001
 30
0.0
 11
47.357999999999997
 21
172.05000000000001
 31
0.0
  0
LINE
  5
50C
  8
0
 62
     7
 10
53.686
 20
170.86500000000001
 30
0.0
 11
55.896999999999998
 21
171.45799999999991
 31
0.0
  0
LINE
  5
50D
  8
0
 62
     7
 10
55.896999999999998
 20
171.45799999999991
 30
0.0
 11
53.686
 21
172.05000000000001
 31
0.0
  0
LINE
  5
50E
  8
0
 62
     7
 10
53.686
 20
172.05000000000001
 30
0.0
 11
53.686
 21
170.86500000000001
 31
0.0
  0
LINE
  5
50F
  8
0
 62
     7
 10
45.146900000000002
 20
171.45799999999991
 30
0.0
 11
55.896999999999998
 21
171.45799999999991
 31
0.0
  0
LINE
  5
510
  8
0
 62
     7
 10
146.90700000000001
 20
165.34599999999989
 30
0.0
 11
144.69599999999991
 21
164.75399999999999
 31
0.0
  0
LINE
  5
511
  8
0
 62
     7
 10
144.69599999999991
 20
164.75399999999999
 30
0.0
 11
146.90700000000001
 21
164.16099999999989
 31
0.0
  0
LINE
  5
512
  8
0
 62
     7
 10
146.90700000000001
 20
164.16099999999989
 30
0.0
 11
146.90700000000001
 21
165.34599999999989
 31
0.0
  0
LINE
  5
513
  8
0
 62
     7
 10
153.358
 20
164.1759999999999
 30
0.0
 11
155.5679999999999
 21
164.768
 31
0.0
  0
LINE
  5
514
  8
0
 62
     7
 10
155.5679999999999
 20
164.768
 30
0.0
 11
153.358
 21
165.36000000000001
 31
0.0
  0
LINE
  5
515
  8
0
 62
     7
 10
153.358
 20
165.36000000000001
 30
0.0
 11
153.358
 21
164.1759999999999
 31
0.0
  0
LINE
  5
516
  8
0
 62
     7
 10
144.69599999999991
 20
164.761
 30
0.0
 11
159.67999999999989
 21
164.761
 31
0.0
  0
LINE
  5
517
  8
0
 62
     7
 10
146.501
 20
161.95699999999991
 30
0.0
 11
144.28899999999999
 21
161.3649999999999
 31
0.0
  0
LINE
  5
518
  8
0
 62
     7
 10
144.28899999999999
 20
161.3649999999999
 30
0.0
 11
146.501
 21
160.77199999999999
 31
0.0
  0
LINE
  5
519
  8
0
 62
     7
 10
146.501
 20
160.77199999999999
 30
0.0
 11
146.501
 21
161.95699999999991
 31
0.0
  0
LINE
  5
51A
  8
0
 62
     7
 10
154.82900000000001
 20
160.78700000000001
 30
0.0
 11
157.03999999999999
 21
161.37899999999991
 31
0.0
  0
LINE
  5
51B
  8
0
 62
     7
 10
157.03999999999999
 20
161.37899999999991
 30
0.0
 11
154.82900000000001
 21
161.97099999999989
 31
0.0
  0
LINE
  5
51C
  8
0
 62
     7
 10
154.82900000000001
 20
161.97099999999989
 30
0.0
 11
154.82900000000001
 21
160.78700000000001
 31
0.0
  0
LINE
  5
51D
  8
0
 62
     7
 10
140.57599999999991
 20
161.37200000000001
 30
0.0
 11
157.03999999999999
 21
161.37200000000001
 31
0.0
  0
LINE
  5
51E
  8
0
 62
     7
 10
144.28999999999991
 20
159.12899999999991
 30
0.0
 11
144.28999999999991
 21
162.07900000000001
 31
0.0
  0
LINE
  5
51F
  8
0
 62
     7
 10
157.03999999999999
 20
159.12899999999991
 30
0.0
 11
157.03999999999999
 21
162.07900000000001
 31
0.0
  0
LINE
  5
520
  8
0
 62
     7
 10
46.357500000000002
 20
165.154
 30
0.0
 11
44.1464
 21
164.56200000000001
 31
0.0
  0
LINE
  5
521
  8
0
 62
     7
 10
44.1464
 20
164.56200000000001
 30
0.0
 11
46.357500000000002
 21
163.96899999999999
 31
0.0
  0
LINE
  5
522
  8
0
 62
     7
 10
46.357500000000002
 20
163.96899999999999
 30
0.0
 11
46.357500000000002
 21
165.154
 31
0.0
  0
LINE
  5
523
  8
0
 62
     7
 10
54.686399999999999
 20
163.98400000000001
 30
0.0
 11
56.896799999999999
 21
164.57599999999991
 31
0.0
  0
LINE
  5
524
  8
0
 62
     7
 10
56.896799999999999
 20
164.57599999999991
 30
0.0
 11
54.686399999999999
 21
165.16799999999989
 31
0.0
  0
LINE
  5
525
  8
0
 62
     7
 10
54.686399999999999
 20
165.16799999999989
 30
0.0
 11
54.686399999999999
 21
163.98400000000001
 31
0.0
  0
LINE
  5
526
  8
0
 62
     7
 10
44.146799999999992
 20
164.56899999999999
 30
0.0
 11
56.896799999999999
 21
164.56899999999999
 31
0.0
  0
LINE
  5
527
  8
0
 62
     7
 10
126.56399999999989
 20
192.429
 30
0.0
 11
103.87299999999991
 21
192.429
 31
0.0
  0
LINE
  5
528
  8
0
 62
     7
 10
132.02799999999991
 20
177.40199999999999
 30
0.0
 11
125.5209999999999
 21
177.40199999999999
 31
0.0
  0
LINE
  5
529
  8
0
 62
     7
 10
119.386
 20
177.679
 30
0.0
 11
110.94799999999999
 21
177.679
 31
0.0
  0
LINE
  5
52A
  8
0
 62
     7
 10
132.24700000000001
 20
200.679
 30
0.0
 11
96.791899999999998
 21
200.679
 31
0.0
  0
LINE
  5
52B
  8
0
 62
     7
 10
143.5149999999999
 20
157.679
 30
0.0
 11
96.791899999999998
 21
157.679
 31
0.0
  0
LINE
  5
52C
  8
0
 62
     7
 10
158.03599999999989
 20
173.58799999999991
 30
0.0
 11
160.24700000000001
 21
174.18000000000001
 31
0.0
  0
LINE
  5
52D
  8
0
 62
     7
 10
160.24700000000001
 20
174.18000000000001
 30
0.0
 11
158.03599999999989
 21
174.77299999999991
 31
0.0
  0
LINE
  5
52E
  8
0
 62
     7
 10
158.03599999999989
 20
174.77299999999991
 30
0.0
 11
158.03599999999989
 21
173.58799999999991
 31
0.0
  0
LINE
  5
52F
  8
0
 62
     7
 10
156.95599999999999
 20
174.7579999999999
 30
0.0
 11
154.74499999999989
 21
174.16599999999991
 31
0.0
  0
LINE
  5
530
  8
0
 62
     7
 10
154.74499999999989
 20
174.16599999999991
 30
0.0
 11
156.95599999999999
 21
173.57400000000001
 31
0.0
  0
LINE
  5
531
  8
0
 62
     7
 10
156.95599999999999
 20
173.57400000000001
 30
0.0
 11
156.95599999999999
 21
174.7579999999999
 31
0.0
  0
LINE
  5
532
  8
0
 62
     7
 10
170.02799999999999
 20
174.173
 30
0.0
 11
154.74600000000001
 21
174.173
 31
0.0
  0
LINE
  5
533
  8
0
 62
     7
 10
48.310499999999998
 20
205.33600000000001
 30
0.0
 11
50.521599999999999
 21
205.92899999999989
 31
0.0
  0
LINE
  5
534
  8
0
 62
     7
 10
50.521599999999999
 20
205.92899999999989
 30
0.0
 11
48.310499999999998
 21
206.5209999999999
 31
0.0
  0
LINE
  5
535
  8
0
 62
     7
 10
48.310499999999998
 20
206.5209999999999
 30
0.0
 11
48.310499999999998
 21
205.33600000000001
 31
0.0
  0
LINE
  5
536
  8
0
 62
     7
 10
72.492800000000003
 20
214.78
 30
0.0
 11
74.508600000000001
 21
215.864
 31
0.0
  0
LINE
  5
537
  8
0
 62
     7
 10
74.508600000000001
 20
215.864
 30
0.0
 11
73.304900000000004
 21
213.917
 31
0.0
  0
LINE
  5
538
  8
0
 62
     7
 10
73.304900000000004
 20
213.917
 30
0.0
 11
72.492800000000003
 21
214.78
 31
0.0
  0
LINE
  5
539
  8
0
 62
     7
 10
28.550699999999988
 20
214.78
 30
0.0
 11
26.535
 21
215.864
 31
0.0
  0
LINE
  5
53A
  8
0
 62
     7
 10
26.535
 20
215.864
 30
0.0
 11
27.738700000000001
 21
213.917
 31
0.0
  0
LINE
  5
53B
  8
0
 62
     7
 10
27.738700000000001
 20
213.917
 30
0.0
 11
28.550699999999988
 21
214.78
 31
0.0
  0
LINE
  5
53C
  8
0
 62
     7
 10
52.732700000000001
 20
206.5209999999999
 30
0.0
 11
50.521599999999999
 21
205.92899999999989
 31
0.0
  0
LINE
  5
53D
  8
0
 62
     7
 10
50.521599999999999
 20
205.92899999999989
 30
0.0
 11
52.732700000000001
 21
205.33600000000001
 31
0.0
  0
LINE
  5
53E
  8
0
 62
     7
 10
52.732700000000001
 20
205.33600000000001
 30
0.0
 11
52.732700000000001
 21
206.5209999999999
 31
0.0
  0
LINE
  5
53F
  8
0
 62
     7
 10
148.45400000000001
 20
166.50599999999989
 30
0.0
 11
150.66499999999999
 21
167.0979999999999
 31
0.0
  0
LINE
  5
540
  8
0
 62
     7
 10
150.66499999999999
 20
167.0979999999999
 30
0.0
 11
148.45400000000001
 21
167.69
 31
0.0
  0
LINE
  5
541
  8
0
 62
     7
 10
148.45400000000001
 20
167.69
 30
0.0
 11
148.45400000000001
 21
166.50599999999989
 31
0.0
  0
LINE
  5
542
  8
0
 62
     7
 10
118.607
 20
166.93599999999989
 30
0.0
 11
120.887
 21
167.1329999999999
 31
0.0
  0
LINE
  5
543
  8
0
 62
     7
 10
120.887
 20
167.1329999999999
 30
0.0
 11
118.81399999999989
 21
168.102
 31
0.0
  0
LINE
  5
544
  8
0
 62
     7
 10
118.81399999999989
 20
168.102
 30
0.0
 11
118.607
 21
166.93599999999989
 31
0.0
  0
LINE
  5
545
  8
0
 62
     7
 10
124.1249999999999
 20
167.6759999999999
 30
0.0
 11
121.914
 21
167.084
 31
0.0
  0
LINE
  5
546
  8
0
 62
     7
 10
121.914
 20
167.084
 30
0.0
 11
124.1249999999999
 21
166.4909999999999
 31
0.0
  0
LINE
  5
547
  8
0
 62
     7
 10
124.1249999999999
 20
166.4909999999999
 30
0.0
 11
124.1249999999999
 21
167.6759999999999
 31
0.0
  0
LINE
  5
548
  8
0
 62
     7
 10
150.66499999999999
 20
167.09099999999989
 30
0.0
 11
121.914
 21
167.09099999999989
 31
0.0
  0
LINE
  5
549
  8
0
 62
     7
 10
44.146799999999992
 20
165.26899999999989
 30
0.0
 11
44.146799999999992
 21
159.12899999999991
 31
0.0
  0
LINE
  5
54A
  8
0
 62
     7
 10
56.896799999999999
 20
165.26899999999989
 30
0.0
 11
56.896799999999999
 21
159.12899999999991
 31
0.0
  0
LINE
  5
54B
  8
0
 62
     7
 10
160.24700000000001
 20
174.87299999999991
 30
0.0
 11
160.24700000000001
 21
172.44900000000001
 31
0.0
  0
LINE
  5
54C
  8
0
 62
     7
 10
150.66499999999999
 20
167.79799999999989
 30
0.0
 11
150.66499999999999
 21
165.55999999999989
 31
0.0
  0
LINE
  5
54D
  8
0
 62
     7
 10
98.077000000000027
 20
198.46899999999999
 30
0.0
 11
97.484800000000007
 21
200.679
 31
0.0
  0
LINE
  5
54E
  8
0
 62
     7
 10
97.484800000000007
 20
200.679
 30
0.0
 11
96.892500000000013
 21
198.46899999999999
 31
0.0
  0
LINE
  5
54F
  8
0
 62
     7
 10
96.892500000000013
 20
198.46899999999999
 30
0.0
 11
98.077000000000027
 21
198.46899999999999
 31
0.0
  0
LINE
  5
550
  8
0
 62
     7
 10
96.907000000000011
 20
159.8899999999999
 30
0.0
 11
97.499200000000016
 21
157.679
 31
0.0
  0
LINE
  5
551
  8
0
 62
     7
 10
97.499200000000016
 20
157.679
 30
0.0
 11
98.091399999999993
 21
159.8899999999999
 31
0.0
  0
LINE
  5
552
  8
0
 62
     7
 10
98.091399999999993
 20
159.8899999999999
 30
0.0
 11
96.907000000000011
 21
159.8899999999999
 31
0.0
  0
LINE
  5
553
  8
0
 62
     7
 10
97.492000000000004
 20
200.679
 30
0.0
 11
97.492000000000004
 21
157.679
 31
0.0
  0
LINE
  5
554
  8
0
 62
     7
 10
105.1579999999999
 20
190.21899999999999
 30
0.0
 11
104.566
 21
192.429
 31
0.0
  0
LINE
  5
555
  8
0
 62
     7
 10
104.566
 20
192.429
 30
0.0
 11
103.9739999999999
 21
190.21899999999999
 31
0.0
  0
LINE
  5
556
  8
0
 62
     7
 10
103.9739999999999
 20
190.21899999999999
 30
0.0
 11
105.1579999999999
 21
190.21899999999999
 31
0.0
  0
LINE
  5
557
  8
0
 62
     7
 10
103.9879999999999
 20
159.8899999999999
 30
0.0
 11
104.581
 21
157.679
 31
0.0
  0
LINE
  5
558
  8
0
 62
     7
 10
104.581
 20
157.679
 30
0.0
 11
105.1729999999999
 21
159.8899999999999
 31
0.0
  0
LINE
  5
559
  8
0
 62
     7
 10
105.1729999999999
 20
159.8899999999999
 30
0.0
 11
103.9879999999999
 21
159.8899999999999
 31
0.0
  0
LINE
  5
55A
  8
0
 62
     7
 10
104.57299999999999
 20
192.429
 30
0.0
 11
104.57299999999999
 21
157.679
 31
0.0
  0
LINE
  5
55B
  8
0
 62
     7
 10
131.9199999999999
 20
175.19099999999989
 30
0.0
 11
131.328
 21
177.40199999999999
 31
0.0
  0
LINE
  5
55C
  8
0
 62
     7
 10
131.328
 20
177.40199999999999
 30
0.0
 11
130.7359999999999
 21
175.19099999999989
 31
0.0
  0
LINE
  5
55D
  8
0
 62
     7
 10
130.7359999999999
 20
175.19099999999989
 30
0.0
 11
131.9199999999999
 21
175.19099999999989
 31
0.0
  0
LINE
  5
55E
  8
0
 62
     7
 10
130.75
 20
159.8899999999999
 30
0.0
 11
131.3429999999999
 21
157.679
 31
0.0
  0
LINE
  5
55F
  8
0
 62
     7
 10
131.3429999999999
 20
157.679
 30
0.0
 11
131.935
 21
159.8899999999999
 31
0.0
  0
LINE
  5
560
  8
0
 62
     7
 10
131.935
 20
159.8899999999999
 30
0.0
 11
130.75
 21
159.8899999999999
 31
0.0
  0
LINE
  5
561
  8
0
 62
     7
 10
131.33500000000001
 20
177.40199999999999
 30
0.0
 11
131.33500000000001
 21
157.679
 31
0.0
  0
LINE
  5
562
  8
0
 62
     7
 10
112.23999999999999
 20
175.46899999999999
 30
0.0
 11
111.6479999999999
 21
177.679
 31
0.0
  0
LINE
  5
563
  8
0
 62
     7
 10
111.6479999999999
 20
177.679
 30
0.0
 11
111.05500000000001
 21
175.46899999999999
 31
0.0
  0
LINE
  5
564
  8
0
 62
     7
 10
111.05500000000001
 20
175.46899999999999
 30
0.0
 11
112.23999999999999
 21
175.46899999999999
 31
0.0
  0
LINE
  5
565
  8
0
 62
     7
 10
111.06999999999999
 20
159.8899999999999
 30
0.0
 11
111.66200000000001
 21
157.679
 31
0.0
  0
LINE
  5
566
  8
0
 62
     7
 10
111.66200000000001
 20
157.679
 30
0.0
 11
112.25399999999991
 21
159.8899999999999
 31
0.0
  0
LINE
  5
567
  8
0
 62
     7
 10
112.25399999999991
 20
159.8899999999999
 30
0.0
 11
111.06999999999999
 21
159.8899999999999
 31
0.0
  0
LINE
  5
568
  8
0
 62
     7
 10
111.6549999999999
 20
177.679
 30
0.0
 11
111.6549999999999
 21
157.679
 31
0.0
  0
LINE
  5
569
  8
0
 62
     7
 10
66.577200000000005
 20
223.79599999999999
 30
0.0
 11
75.064300000000003
 21
215.309
 31
0.0
  0
LINE
  5
56A
  8
0
 62
     7
 10
50.521599999999999
 20
208.15599999999989
 30
0.0
 11
50.521599999999999
 21
205.24000000000001
 31
0.0
  0
LINE
  5
56B
  8
0
 62
     7
 10
121.914
 20
176.83799999999999
 30
0.0
 11
121.914
 21
166.3829999999999
 31
0.0
  0
LINE
  5
56C
  8
0
  6
AIGENLINE001
 62
     7
 10
150.66499999999999
 20
164.86000000000001
 30
0.0
 11
150.66499999999999
 21
155.506
 31
0.0
  0
LINE
  5
56D
  8
0
  6
AIGENLINE001
 62
     7
 10
50.521599999999999
 20
252.6879999999999
 30
0.0
 11
50.521599999999999
 21
208.15599999999989
 31
0.0
  0
LINE
  5
56E
  8
0
  6
AIGENLINE001
 62
     7
 10
43.129800000000003
 20
239.85099999999991
 30
0.0
 11
57.770099999999999
 21
239.85099999999991
 31
0.0
  0
LINE
  5
56F
  8
0
  6
AIGENLINE001
 62
     7
 10
50.521599999999999
 20
193.53299999999999
 30
0.0
 11
50.521599999999999
 21
175.53
 31
0.0
  0
LINE
  5
570
  8
0
  6
AIGENLINE001
 62
     7
 10
50.521599999999999
 20
170.78899999999999
 30
0.0
 11
50.521599999999999
 21
168.85900000000001
 31
0.0
  0
LINE
  5
571
  8
0
  6
AIGENLINE001
 62
     7
 10
50.521599999999999
 20
163.74000000000001
 30
0.0
 11
50.521599999999999
 21
83.741500000000002
 31
0.0
  0
ARC
  5
572
  8
0
 62
     7
 10
53.407749000000003
 20
180.1114649999999
 30
0.0
 40
0.241951
 50
294.97486099999992
 51
305.54798499999993
  0
ARC
  5
573
  8
0
 62
     7
 10
53.507305000000002
 20
179.97297800000001
 30
0.0
 40
0.071395
 50
305.15686599999998
 51
329.68984999999992
  0
ARC
  5
574
  8
0
 62
     7
 10
53.539051000000001
 20
179.952338
 30
0.0
 40
0.033621
 50
332.75352599999991
 51
48.04290000000001
  0
ARC
  5
575
  8
0
 62
     7
 10
53.475130999999998
 20
179.895048
 30
0.0
 40
0.119317
 50
43.60569799999999
 51
60.52876899999999
  0
ARC
  5
576
  8
0
 62
     7
 10
53.349758999999992
 20
179.67657299999991
 30
0.0
 40
0.371206
 50
60.272185
 51
70.769987999999998
  0
ARC
  5
577
  8
0
 62
     7
 10
53.106743000000002
 20
178.99536000000001
 30
0.0
 40
1.0944629999999991
 50
70.503441000000009
 51
76.812256000000005
  0
ARC
  5
578
  8
0
 62
     7
 10
52.74605600000001
 20
177.497804
 30
0.0
 40
2.63483
 50
76.605261999999996
 51
80.460207999999994
  0
ARC
  5
579
  8
0
 62
     7
 10
52.258687999999999
 20
174.65588199999999
 30
0.0
 40
5.5182320000000002
 50
80.360224999999986
 51
83.130733999999975
  0
ARC
  5
57A
  8
0
 62
     7
 10
51.696840000000002
 20
170.07866499999989
 30
0.0
 40
10.129796000000001
 50
83.072132999999994
 51
85.062348999999998
  0
ARC
  5
57B
  8
0
 62
     7
 10
50.881776000000002
 20
160.41072899999989
 30
0.0
 40
19.832017999999991
 50
85.120401000000001
 51
89.267853000000002
  0
ARC
  5
57C
  8
0
 62
     7
 10
50.544077999999999
 20
150.46461799999989
 30
0.0
 40
29.782377
 50
88.862731000000025
 51
93.275368999999984
  0
ARC
  5
57D
  8
0
 62
     7
 10
49.619756999999993
 20
167.5363649999999
 30
0.0
 40
12.685815
 50
93.512864000000008
 51
97.206417000000016
  0
ARC
  5
57E
  8
0
 62
     7
 10
48.586395000000003
 20
175.937341
 30
0.0
 40
4.2216690000000003
 50
97.595351000000022
 51
100.998396
  0
ARC
  5
57F
  8
0
 62
     7
 10
48.113703999999998
 20
178.34133199999999
 30
0.0
 40
1.7716599999999989
 50
100.824687
 51
106.0609169999999
  0
ARC
  5
580
  8
0
 62
     7
 10
47.794055
 20
179.43778499999999
 30
0.0
 40
0.6295830000000001
 50
105.71249400000001
 51
114.4309989999999
  0
ARC
  5
581
  8
0
 62
     7
 10
47.598703
 20
179.83894699999999
 30
0.0
 40
0.183931
 50
110.708837
 51
122.150409
  0
ARC
  5
582
  8
0
 62
     7
 10
47.541820999999999
 20
179.92931200000001
 30
0.0
 40
0.077154
 50
122.09676499999991
 51
146.51298899999989
  0
ARC
  5
583
  8
0
 62
     7
 10
47.510344000000003
 20
179.95150799999999
 30
0.0
 40
0.038673
 50
148.20888299999999
 51
216.93593199999989
  0
ARC
  5
584
  8
0
 62
     7
 10
47.545766
 20
179.97817000000001
 30
0.0
 40
0.083008
 50
216.95319499999999
 51
239.43789099999989
  0
ARC
  5
585
  8
0
 62
     7
 10
47.594783999999997
 20
180.05694700000001
 30
0.0
 40
0.175779
 50
238.736447
 51
249.65159299999999
  0
LINE
  5
586
  8
0
 62
     7
 10
45.146900000000002
 20
183.9499999999999
 30
0.0
 11
45.146900000000002
 21
158.429
 31
0.0
  0
ARC
  5
587
  8
0
 62
     7
 10
55.523797999999999
 20
183.96361200000001
 30
0.0
 40
0.360152
 50
80.120867000000004
 51
90.089906999999982
  0
ARC
  5
588
  8
0
 62
     7
 10
55.530349999999999
 20
183.97685899999999
 30
0.0
 40
0.346003
 50
70.797015000000002
 51
80.813493000000008
  0
ARC
  5
589
  8
0
 62
     7
 10
55.522013999999999
 20
183.9475239999999
 30
0.0
 40
0.3764530000000001
 50
54.500342000000011
 51
71.067420999999996
  0
ARC
  5
58A
  8
0
 62
     7
 10
55.519670999999988
 20
183.947034
 30
0.0
 40
0.378216
 50
37.810054999999998
 51
54.254424
  0
ARC
  5
58B
  8
0
 62
     7
 10
55.523304000000003
 20
183.9496169999999
 30
0.0
 40
0.373762
 50
21.154433999999991
 51
37.838670999999998
  0
ARC
  5
58C
  8
0
 62
     7
 10
55.511470999999993
 20
183.94750699999989
 30
0.0
 40
0.3855659999999999
 50
0.3915449999999999
 51
20.812280999999999
  0
ARC
  5
58D
  8
0
 62
     7
 10
45.521231
 20
183.95003500000001
 30
0.0
 40
0.374347
 50
161.35950099999999
 51
179.983679
  0
ARC
  5
58E
  8
0
 62
     7
 10
45.525092999999991
 20
183.947586
 30
0.0
 40
0.378791
 50
143.1484419999999
 51
161.19516999999991
  0
ARC
  5
58F
  8
0
 62
     7
 10
45.514175000000002
 20
183.95620600000001
 30
0.0
 40
0.364885
 50
124.4487649999999
 51
143.20334600000001
  0
ARC
  5
590
  8
0
 62
     7
 10
45.521833000000001
 20
183.94876799999989
 30
0.0
 40
0.375356
 50
106.440012
 51
124.77054099999999
  0
ARC
  5
591
  8
0
 62
     7
 10
45.517974000000002
 20
183.96360999999999
 30
0.0
 40
0.360029
 50
97.154094000000001
 51
106.519435
  0
LINE
  5
592
  8
0
 62
     7
 10
45.473100000000002
 20
184.321
 30
0.0
 11
45.502799999999993
 21
184.32299999999989
 31
0.0
  0
LINE
  5
593
  8
0
 62
     7
 10
45.502799999999993
 20
184.32299999999989
 30
0.0
 11
45.513800000000003
 21
184.32400000000001
 31
0.0
  0
LINE
  5
594
  8
0
 62
     7
 10
45.513800000000003
 20
184.32400000000001
 30
0.0
 11
45.518300000000004
 21
184.32400000000001
 31
0.0
  0
LINE
  5
595
  8
0
 62
     7
 10
45.518300000000004
 20
184.32400000000001
 30
0.0
 11
45.519599999999997
 21
184.32400000000001
 31
0.0
  0
LINE
  5
596
  8
0
 62
     7
 10
45.519599999999997
 20
184.32400000000001
 30
0.0
 11
45.520299999999999
 21
184.32400000000001
 31
0.0
  0
LINE
  5
597
  8
0
 62
     7
 10
55.896999999999998
 20
183.9499999999999
 30
0.0
 11
55.896999999999998
 21
158.429
 31
0.0
  0
LINE
  5
598
  8
0
 62
     7
 10
55.509500000000003
 20
184.32400000000001
 30
0.0
 11
54.947200000000002
 21
184.32400000000001
 31
0.0
  0
LINE
  5
599
  8
0
 62
     7
 10
52.830500000000001
 20
184.32400000000001
 30
0.0
 11
54.947200000000002
 21
184.32400000000001
 31
0.0
  0
LINE
  5
59A
  8
0
 62
     7
 10
52.830500000000001
 20
184.32400000000001
 30
0.0
 11
48.2134
 21
184.32400000000001
 31
0.0
  0
LINE
  5
59B
  8
0
 62
     7
 10
46.096400000000003
 20
184.32400000000001
 30
0.0
 11
48.2134
 21
184.32400000000001
 31
0.0
  0
LINE
  5
59C
  8
0
 62
     7
 10
46.096400000000003
 20
184.32400000000001
 30
0.0
 11
45.534500000000001
 21
184.32400000000001
 31
0.0
  0
LINE
  5
59D
  8
0
 62
     7
 10
53.509900000000002
 20
178.76199999999989
 30
0.0
 11
53.509900000000002
 21
179.92699999999999
 31
0.0
  0
LINE
  5
59E
  8
0
 62
     7
 10
47.533700000000003
 20
178.76199999999989
 30
0.0
 11
47.533700000000003
 21
179.92699999999999
 31
0.0
  0
LINE
  5
59F
  8
0
 62
     7
 10
53.261200000000002
 20
180.04300000000001
 30
0.0
 11
53.261200000000002
 21
180.08199999999991
 31
0.0
  0
LINE
  5
5A0
  8
0
 62
     7
 10
47.782699999999998
 20
180.04300000000001
 30
0.0
 11
47.782699999999998
 21
180.08199999999991
 31
0.0
  0
LINE
  5
5A1
  8
0
 62
     7
 10
47.782699999999998
 20
178.05999999999989
 30
0.0
 11
47.782699999999998
 21
177.9009999999999
 31
0.0
  0
LINE
  5
5A2
  8
0
 62
     7
 10
53.261200000000002
 20
178.05999999999989
 30
0.0
 11
53.261200000000002
 21
177.93000000000001
 31
0.0
  0
LINE
  5
5A3
  8
0
 62
     7
 10
53.261200000000002
 20
177.93000000000001
 30
0.0
 11
53.261200000000002
 21
177.9009999999999
 31
0.0
  0
ARC
  5
5A4
  8
0
 62
     7
 10
53.001863
 20
180.003963
 30
0.0
 40
1.3817839999999999
 50
280.816238
 51
284.94103699999999
  0
ARC
  5
5A5
  8
0
 62
     7
 10
53.209818999999989
 20
179.230737
 30
0.0
 40
0.5810850000000001
 50
284.78642000000002
 51
293.74848300000002
  0
ARC
  5
5A6
  8
0
 62
     7
 10
53.369454000000012
 20
178.87308400000001
 30
0.0
 40
0.18944
 50
293.118515
 51
309.64072199999998
  0
ARC
  5
5A7
  8
0
 62
     7
 10
53.46236600000001
 20
178.762348
 30
0.0
 40
0.044901
 50
308.49041899999992
 51
44.411144999999998
  0
ARC
  5
5A8
  8
0
 62
     7
 10
53.392777000000002
 20
178.68603200000001
 30
0.0
 40
0.148132
 50
46.661515000000001
 51
63.487340000000003
  0
ARC
  5
5A9
  8
0
 62
     7
 10
53.267538000000002
 20
178.44514699999999
 30
0.0
 40
0.4196140000000001
 50
62.867697999999997
 51
72.690942000000007
  0
ARC
  5
5AA
  8
0
 62
     7
 10
53.071494999999999
 20
177.83072200000001
 30
0.0
 40
1.0645519999999991
 50
72.456416000000004
 51
79.736701999999994
  0
LINE
  5
5AB
  8
0
 62
     7
 10
53.261200000000002
 20
178.8779999999999
 30
0.0
 11
53.261200000000002
 21
178.05999999999989
 31
0.0
  0
LINE
  5
5AC
  8
0
 62
     7
 10
50.521999999999998
 20
178.23400000000001
 30
0.0
 11
50.953600000000002
 21
178.23099999999999
 31
0.0
  0
LINE
  5
5AD
  8
0
 62
     7
 10
50.953600000000002
 20
178.23099999999999
 30
0.0
 11
51.375999999999998
 21
178.22200000000001
 31
0.0
  0
LINE
  5
5AE
  8
0
 62
     7
 10
51.375999999999998
 20
178.22200000000001
 30
0.0
 11
51.780799999999999
 21
178.20699999999999
 31
0.0
  0
LINE
  5
5AF
  8
0
 62
     7
 10
51.780799999999999
 20
178.20699999999999
 30
0.0
 11
52.159100000000002
 21
178.18599999999989
 31
0.0
  0
LINE
  5
5B0
  8
0
 62
     7
 10
52.159100000000002
 20
178.18599999999989
 30
0.0
 11
52.50289999999999
 21
178.16099999999989
 31
0.0
  0
LINE
  5
5B1
  8
0
 62
     7
 10
52.50289999999999
 20
178.16099999999989
 30
0.0
 11
52.805399999999999
 21
178.13099999999989
 31
0.0
  0
LINE
  5
5B2
  8
0
 62
     7
 10
52.805399999999999
 20
178.13099999999989
 30
0.0
 11
53.060000000000002
 21
178.09700000000001
 31
0.0
  0
LINE
  5
5B3
  8
0
 62
     7
 10
53.060000000000002
 20
178.09700000000001
 30
0.0
 11
53.261200000000002
 21
178.05999999999989
 31
0.0
  0
LINE
  5
5B4
  8
0
 62
     7
 10
47.782699999999998
 20
178.05999999999989
 30
0.0
 11
47.983899999999998
 21
178.09700000000001
 31
0.0
  0
LINE
  5
5B5
  8
0
 62
     7
 10
47.983899999999998
 20
178.09700000000001
 30
0.0
 11
48.238500000000002
 21
178.13099999999989
 31
0.0
  0
LINE
  5
5B6
  8
0
 62
     7
 10
48.238500000000002
 20
178.13099999999989
 30
0.0
 11
48.540700000000001
 21
178.16099999999989
 31
0.0
  0
LINE
  5
5B7
  8
0
 62
     7
 10
48.540700000000001
 20
178.16099999999989
 30
0.0
 11
48.884500000000003
 21
178.18599999999989
 31
0.0
  0
LINE
  5
5B8
  8
0
 62
     7
 10
48.884500000000003
 20
178.18599999999989
 30
0.0
 11
49.262799999999999
 21
178.20699999999999
 31
0.0
  0
LINE
  5
5B9
  8
0
 62
     7
 10
49.262799999999999
 20
178.20699999999999
 30
0.0
 11
49.6676
 21
178.22200000000001
 31
0.0
  0
LINE
  5
5BA
  8
0
 62
     7
 10
49.6676
 20
178.22200000000001
 30
0.0
 11
50.090299999999999
 21
178.23099999999999
 31
0.0
  0
LINE
  5
5BB
  8
0
 62
     7
 10
50.090299999999999
 20
178.23099999999999
 30
0.0
 11
50.521999999999998
 21
178.23400000000001
 31
0.0
  0
LINE
  5
5BC
  8
0
 62
     7
 10
47.782699999999998
 20
178.8779999999999
 30
0.0
 11
47.782699999999998
 21
178.05999999999989
 31
0.0
  0
ARC
  5
5BD
  8
0
 62
     7
 10
48.037622999999989
 20
177.54192699999999
 30
0.0
 40
1.360403
 50
100.79851600000001
 51
104.992879
  0
ARC
  5
5BE
  8
0
 62
     7
 10
47.834511999999997
 20
178.292734
 30
0.0
 40
0.5826140000000001
 50
104.79980999999999
 51
113.748234
  0
ARC
  5
5BF
  8
0
 62
     7
 10
47.674424999999999
 20
178.6514479999999
 30
0.0
 40
0.189815
 50
113.12335299999999
 51
129.62734499999991
  0
ARC
  5
5C0
  8
0
 62
     7
 10
47.58128099999999
 20
178.76249999999999
 30
0.0
 40
0.044885
 50
128.4624639999999
 51
224.429869
  0
ARC
  5
5C1
  8
0
 62
     7
 10
47.650969999999987
 20
178.83914499999989
 30
0.0
 40
0.148424
 50
226.72639100000001
 51
243.52616199999991
  0
ARC
  5
5C2
  8
0
 62
     7
 10
47.775734
 20
179.079455
 30
0.0
 40
0.419177
 50
242.90388599999989
 51
252.74461600000001
  0
ARC
  5
5C3
  8
0
 62
     7
 10
47.971851000000001
 20
179.695311
 30
0.0
 40
1.0654989999999991
 50
252.49682300000001
 51
259.77683300000001
  0
ARC
  5
5C4
  8
0
 62
     7
 10
50.598646000000002
 20
201.076697
 30
0.0
 40
23.534082000000001
 50
269.81330000000003
 51
274.665029
  0
ARC
  5
5C5
  8
0
 62
     7
 10
51.746476000000001
 20
186.12635199999991
 30
0.0
 40
8.5402140000000006
 50
275.14730299999991
 51
277.55981099999991
  0
ARC
  5
5C6
  8
0
 62
     7
 10
52.39913
 20
181.27850699999999
 30
0.0
 40
3.648652999999999
 50
277.415436
 51
281.310923
  0
ARC
  5
5C7
  8
0
 62
     7
 10
52.898105999999999
 20
178.82050699999999
 30
0.0
 40
1.1405510000000001
 50
280.949725
 51
288.56147099999998
  0
ARC
  5
5C8
  8
0
 62
     7
 10
48.021409000000013
 20
178.4063909999999
 30
0.0
 40
0.7085140000000001
 50
250.3146689999999
 51
256.17262799999997
  0
ARC
  5
5C9
  8
0
 62
     7
 10
48.343881000000003
 20
179.678573
 30
0.0
 40
2.0209199999999998
 50
255.91523900000001
 51
260.388037
  0
ARC
  5
5CA
  8
0
 62
     7
 10
48.823670999999997
 20
182.44096899999991
 30
0.0
 40
4.824662
 50
260.24786
 51
263.07661000000002
  0
ARC
  5
5CB
  8
0
 62
     7
 10
49.422902000000001
 20
187.302189
 30
0.0
 40
9.7226719999999993
 50
263.02428900000001
 51
265.11159800000001
  0
ARC
  5
5CC
  8
0
 62
     7
 10
50.150785999999989
 20
195.86215300000001
 30
0.0
 40
18.313525999999989
 50
265.124753
 51
268.28243800000001
  0
ARC
  5
5CD
  8
0
 62
     7
 10
50.448622
 20
202.75837899999991
 30
0.0
 40
25.215744999999998
 50
268.07565599999992
 51
270.16663899999998
  0
LINE
  5
5CE
  8
0
 62
     7
 10
47.782699999999998
 20
177.739
 30
0.0
 11
47.782699999999998
 21
177.9009999999999
 31
0.0
  0
ARC
  5
5CF
  8
0
 62
     7
 10
50.445225999999998
 20
154.5455429999999
 30
0.0
 40
23.552159
 50
89.813327999999998
 51
94.661928999999986
  0
ARC
  5
5D0
  8
0
 62
     7
 10
49.299405999999998
 20
169.48871199999999
 30
0.0
 40
8.5656059999999972
 50
95.146884
 51
97.551857000000012
  0
ARC
  5
5D1
  8
0
 62
     7
 10
48.644064
 20
174.3627699999999
 30
0.0
 40
3.6477080000000002
 50
97.409053000000014
 51
101.304104
  0
ARC
  5
5D2
  8
0
 62
     7
 10
48.145462999999992
 20
176.820324
 30
0.0
 40
1.1401179999999991
 50
100.94189399999991
 51
108.55060400000001
  0
ARC
  5
5D3
  8
0
 62
     7
 10
53.018048999999998
 20
177.21768099999991
 30
0.0
 40
0.725473
 50
70.420276000000001
 51
76.145341999999999
  0
ARC
  5
5D4
  8
0
 62
     7
 10
52.701982999999998
 20
175.96807899999999
 30
0.0
 40
2.0144189999999988
 50
75.927996999999991
 51
80.417085
  0
ARC
  5
5D5
  8
0
 62
     7
 10
52.221621999999989
 20
173.20417900000001
 30
0.0
 40
4.8197380000000001
 50
80.256136999999995
 51
83.088544999999996
  0
ARC
  5
5D6
  8
0
 62
     7
 10
51.61729600000001
 20
168.29490999999999
 30
0.0
 40
9.7660590000000003
 50
83.034706999999997
 51
85.112972999999997
  0
ARC
  5
5D7
  8
0
 62
     7
 10
50.892468999999998
 20
159.76154600000001
 30
0.0
 40
18.330149999999989
 50
85.127898000000002
 51
88.282527999999985
  0
ARC
  5
5D8
  8
0
 62
     7
 10
50.595227000000001
 20
152.889545
 30
0.0
 40
25.208138000000002
 50
88.075355999999985
 51
90.166530000000023
  0
LINE
  5
5D9
  8
0
 62
     7
 10
53.261200000000002
 20
177.739
 30
0.0
 11
53.261200000000002
 21
177.9009999999999
 31
0.0
  0
ARC
  5
5DA
  8
0
 62
     7
 10
53.478776000000003
 20
179.92676
 30
0.0
 40
0.031131
 50
0.319956
 51
28.938652999999999
  0
ARC
  5
5DB
  8
0
 62
     7
 10
53.445520000000002
 20
179.906621
 30
0.0
 40
0.069995
 50
30.192855000000002
 51
54.769526999999997
  0
ARC
  5
5DC
  8
0
 62
     7
 10
53.356811
 20
179.78644299999991
 30
0.0
 40
0.219357
 50
53.950861000000003
 51
67.283474999999996
  0
ARC
  5
5DD
  8
0
 62
     7
 10
53.175587
 20
179.3702669999999
 30
0.0
 40
0.6732630000000001
 50
66.734515999999985
 51
74.728796000000003
  0
ARC
  5
5DE
  8
0
 62
     7
 10
52.872644999999999
 20
178.30158700000001
 30
0.0
 40
1.784033
 50
74.382988999999995
 51
78.927736999999993
  0
ARC
  5
5DF
  8
0
 62
     7
 10
52.450140000000012
 20
176.1695409999999
 30
0.0
 40
3.9575369999999999
 50
78.852640000000008
 51
82.019126999999983
  0
ARC
  5
5E0
  8
0
 62
     7
 10
51.911504999999998
 20
172.3703889999999
 30
0.0
 40
7.7946789999999986
 50
81.975496000000007
 51
84.306097999999992
  0
ARC
  5
5E1
  8
0
 62
     7
 10
51.153325000000002
 20
164.66793000000001
 30
0.0
 40
15.53436
 50
84.342060000000004
 51
87.792773999999994
  0
ARC
  5
5E2
  8
0
 62
     7
 10
50.561844999999998
 20
152.542494
 30
0.0
 40
27.673857999999999
 50
87.53595
 51
90.082576999999986
  0
ARC
  5
5E3
  8
0
 62
     7
 10
50.518454999999989
 20
151.95710700000001
 30
0.0
 40
28.259215999999999
 50
89.992891999999983
 51
93.321730000000002
  0
ARC
  5
5E4
  8
0
 62
     7
 10
49.624054000000001
 20
167.95271
 30
0.0
 40
12.238711
 50
93.480587000000014
 51
97.321996999999996
  0
ARC
  5
5E5
  8
0
 62
     7
 10
48.607539000000003
 20
176.09249199999991
 30
0.0
 40
4.0358589999999994
 50
97.735879000000025
 51
101.13236000000001
  0
ARC
  5
5E6
  8
0
 62
     7
 10
48.150063000000003
 20
178.39285000000001
 30
0.0
 40
1.6904639999999991
 50
100.972272
 51
106.1761179999999
  0
ARC
  5
5E7
  8
0
 62
     7
 10
47.833403999999987
 20
179.46758600000001
 30
0.0
 40
0.570079
 50
105.70270600000001
 51
115.59516600000001
  0
ARC
  5
5E8
  8
0
 62
     7
 10
47.648406999999992
 20
179.84885399999999
 30
0.0
 40
0.146319
 50
114.760437
 51
134.6937749999999
  0
ARC
  5
5E9
  8
0
 62
     7
 10
47.573569999999997
 20
179.924387
 30
0.0
 40
0.03999
 50
134.58518000000001
 51
176.34959900000001
  0
ARC
  5
5EA
  8
0
 62
     7
 10
52.98490000000001
 20
177.819806
 30
0.0
 40
0.027188
 50
0.56148
 51
35.507922999999991
  0
ARC
  5
5EB
  8
0
 62
     7
 10
52.949646999999999
 20
177.79470299999991
 30
0.0
 40
0.070465
 50
35.474406999999999
 51
57.099498999999987
  0
ARC
  5
5EC
  8
0
 62
     7
 10
52.858082999999993
 20
177.65556599999991
 30
0.0
 40
0.237026
 50
56.784981999999992
 51
69.479578000000004
  0
ARC
  5
5ED
  8
0
 62
     7
 10
52.669946000000003
 20
177.16795400000001
 30
0.0
 40
0.759666
 50
69.081951000000004
 51
76.265653999999998
  0
ARC
  5
5EE
  8
0
 62
     7
 10
52.357894999999999
 20
175.92045100000001
 30
0.0
 40
2.045598
 50
76.071117000000001
 51
80.459434999999985
  0
ARC
  5
5EF
  8
0
 62
     7
 10
51.924781000000003
 20
173.3896969999999
 30
0.0
 40
4.6131409999999997
 50
80.364267999999996
 51
83.309280000000001
  0
ARC
  5
5F0
  8
0
 62
     7
 10
51.42005000000001
 20
169.16232600000001
 30
0.0
 40
8.8705320000000007
 50
83.252673000000016
 51
85.417686000000003
  0
ARC
  5
5F1
  8
0
 62
     7
 10
50.811149
 20
161.50721699999991
 30
0.0
 40
16.549817999999991
 50
85.43368199999999
 51
88.743923999999993
  0
ARC
  5
5F2
  8
0
 62
     7
 10
50.528829999999999
 20
153.121385
 30
0.0
 40
24.940018999999999
 50
88.517799999999994
 51
90.015781999999987
  0
ARC
  5
5F3
  8
0
 62
     7
 10
50.521507
 20
154.7719139999999
 30
0.0
 40
23.289487999999999
 50
89.998886999999996
 51
93.607713000000004
  0
ARC
  5
5F4
  8
0
 62
     7
 10
49.631408999999998
 20
169.39717899999991
 30
0.0
 40
8.6372569999999982
 50
93.819730000000007
 51
98.353258999999994
  0
ARC
  5
5F5
  8
0
 62
     7
 10
48.717398000000003
 20
175.77583200000001
 30
0.0
 40
2.1936040000000001
 50
98.937081999999975
 51
103.8237639999999
  0
ARC
  5
5F6
  8
0
 62
     7
 10
48.358120999999997
 20
177.21967799999999
 30
0.0
 40
0.705745
 50
103.50850699999999
 51
111.867043
  0
ARC
  5
5F7
  8
0
 62
     7
 10
48.160145999999997
 20
177.704072
 30
0.0
 40
0.182496
 50
110.8257999999999
 51
128.02757199999991
  0
ARC
  5
5F8
  8
0
 62
     7
 10
48.070692999999999
 20
177.81575599999991
 30
0.0
 40
0.03945
 50
125.614058
 51
173.718389
  0
ARC
  5
5F9
  8
0
 62
     7
 10
48.058543
 20
177.8203419999999
 30
0.0
 40
0.027064
 50
180.57148799999999
 51
215.59176400000001
  0
ARC
  5
5FA
  8
0
 62
     7
 10
48.093687000000003
 20
177.84534500000001
 30
0.0
 40
0.070195
 50
215.49216699999991
 51
237.18305099999989
  0
ARC
  5
5FB
  8
0
 62
     7
 10
48.185722999999989
 20
177.98563300000001
 30
0.0
 40
0.237977
 50
236.8659339999999
 51
249.50370699999991
  0
ARC
  5
5FC
  8
0
 62
     7
 10
48.374429999999997
 20
178.47635399999999
 30
0.0
 40
0.763724
 50
249.13339099999999
 51
256.27805599999988
  0
ARC
  5
5FD
  8
0
 62
     7
 10
48.686819
 20
179.72885500000001
 30
0.0
 40
2.0545879999999999
 50
256.10050200000001
 51
260.46944999999988
  0
ARC
  5
5FE
  8
0
 62
     7
 10
49.118398999999997
 20
182.25403099999991
 30
0.0
 40
4.6163739999999986
 50
260.37611299999992
 51
263.319185
  0
ARC
  5
5FF
  8
0
 62
     7
 10
49.626228999999988
 20
186.51453000000001
 30
0.0
 40
8.9070270000000011
 50
263.26307500000001
 51
265.41940099999988
  0
ARC
  5
600
  8
0
 62
     7
 10
50.232664
 20
194.14898500000001
 30
0.0
 40
16.565529000000002
 50
265.43739199999987
 51
268.74497100000002
  0
ARC
  5
601
  8
0
 62
     7
 10
50.515076000000001
 20
202.529932
 30
0.0
 40
24.950847
 50
268.51814200000001
 51
270.015807
  0
ARC
  5
602
  8
0
 62
     7
 10
50.522396999999998
 20
200.87109399999991
 30
0.0
 40
23.292007999999999
 50
269.99892399999999
 51
273.606695
  0
ARC
  5
603
  8
0
 62
     7
 10
51.410802000000011
 20
186.26577399999991
 30
0.0
 40
8.6597880000000007
 50
273.81928599999992
 51
278.34052700000001
  0
ARC
  5
604
  8
0
 62
     7
 10
52.325111999999997
 20
179.872895
 30
0.0
 40
2.2020149999999998
 50
278.93080499999991
 51
283.79839700000002
  0
ARC
  5
605
  8
0
 62
     7
 10
52.685819000000002
 20
178.42057699999989
 30
0.0
 40
0.705589
 50
283.48081300000001
 51
291.83945499999999
  0
ARC
  5
606
  8
0
 62
     7
 10
52.884032999999988
 20
177.93540400000001
 30
0.0
 40
0.181533
 50
290.73483199999998
 51
308.02010499999989
  0
ARC
  5
607
  8
0
 62
     7
 10
52.972996999999992
 20
177.8244029999999
 30
0.0
 40
0.039328
 50
305.51880899999992
 51
353.677774
  0
ARC
  5
608
  8
0
 62
     7
 10
49.162661
 20
180.752803
 30
0.0
 40
2.8248879999999992
 50
259.22871800000001
 51
262.36033700000002
  0
ARC
  5
609
  8
0
 62
     7
 10
49.596678999999988
 20
183.88898099999989
 30
0.0
 40
5.9909429999999988
 50
262.23377499999992
 51
264.86065600000001
  0
ARC
  5
60A
  8
0
 62
     7
 10
50.062142999999992
 20
188.959621
 30
0.0
 40
11.082897000000001
 50
264.8122029999999
 51
266.82726300000002
  0
ARC
  5
60B
  8
0
 62
     7
 10
50.521560000000001
 20
197.375407
 30
0.0
 40
19.511212
 50
266.84803099999999
 51
272.81679500000001
  0
ARC
  5
60C
  8
0
 62
     7
 10
51.108584
 20
186.565324
 30
0.0
 40
8.685516999999999
 50
272.45343300000002
 51
278.60981900000002
  0
ARC
  5
60D
  8
0
 62
     7
 10
49.124372999999999
 20
181.57589200000001
 30
0.0
 40
3.6684369999999999
 50
260.20074099999999
 51
262.72983799999992
  0
ARC
  5
60E
  8
0
 62
     7
 10
49.567298999999998
 20
184.9720199999999
 30
0.0
 40
7.0933190000000002
 50
262.65236599999997
 51
264.9879279999999
  0
ARC
  5
60F
  8
0
 62
     7
 10
50.040182999999999
 20
190.2949449999999
 30
0.0
 40
12.437207000000001
 50
264.96012899999999
 51
266.83836700000001
  0
ARC
  5
610
  8
0
 62
     7
 10
50.521409999999989
 20
199.201457
 30
0.0
 40
21.356705999999999
 50
266.86714799999987
 51
273.03352699999988
  0
ARC
  5
611
  8
0
 62
     7
 10
51.233426999999999
 20
186.8491379999999
 30
0.0
 40
8.9841979999999992
 50
272.66789199999988
 51
278.38508499999989
  0
ARC
  5
612
  8
0
 62
     7
 10
49.591062000000001
 20
183.91224800000001
 30
0.0
 40
5.9642400000000002
 50
262.65271999999999
 51
264.70986499999992
  0
ARC
  5
613
  8
0
 62
     7
 10
50.169268000000002
 20
190.1766199999999
 30
0.0
 40
12.255240000000001
 50
264.71841099999989
 51
268.51369899999997
  0
ARC
  5
614
  8
0
 62
     7
 10
50.501311999999999
 20
198.31804099999991
 30
0.0
 40
20.402892000000001
 50
268.17457999999988
 51
273.62550699999991
  0
ARC
  5
615
  8
0
 62
     7
 10
51.323476999999997
 20
185.01129199999991
 30
0.0
 40
7.0708149999999987
 50
273.79508299999998
 51
277.24811599999998
  0
LINE
  5
616
  8
0
 62
     7
 10
50.4069
 20
177.96199999999999
 30
0.0
 11
50.433100000000003
 21
177.93899999999999
 31
0.0
  0
LINE
  5
617
  8
0
 62
     7
 10
50.433100000000003
 20
177.93899999999999
 30
0.0
 11
50.248100000000001
 21
177.9259999999999
 31
0.0
  0
LINE
  5
618
  8
0
 62
     7
 10
50.248100000000001
 20
177.9259999999999
 30
0.0
 11
50.248100000000001
 21
177.9679999999999
 31
0.0
  0
LINE
  5
619
  8
0
 62
     7
 10
50.248100000000001
 20
177.9259999999999
 30
0.0
 11
50.036900000000003
 21
177.93499999999989
 31
0.0
  0
LINE
  5
61A
  8
0
 62
     7
 10
50.036900000000003
 20
177.93499999999989
 30
0.0
 11
50.036900000000003
 21
177.95899999999989
 31
0.0
  0
LINE
  5
61B
  8
0
 62
     7
 10
50.036900000000003
 20
177.93499999999989
 30
0.0
 11
50.011000000000003
 21
177.95699999999991
 31
0.0
  0
LINE
  5
61C
  8
0
 62
     7
 10
50.011000000000003
 20
177.95699999999991
 30
0.0
 11
50.195999999999998
 21
177.97099999999989
 31
0.0
  0
LINE
  5
61D
  8
0
 62
     7
 10
50.195999999999998
 20
177.97099999999989
 30
0.0
 11
50.4069
 21
177.96199999999999
 31
0.0
  0
LINE
  5
61E
  8
0
 62
     7
 10
50.690800000000003
 20
177.976
 30
0.0
 11
50.902000000000001
 21
177.96700000000001
 31
0.0
  0
LINE
  5
61F
  8
0
 62
     7
 10
50.902000000000001
 20
177.96700000000001
 30
0.0
 11
50.927799999999998
 21
177.94499999999991
 31
0.0
  0
LINE
  5
620
  8
0
 62
     7
 10
50.927799999999998
 20
177.94499999999991
 30
0.0
 11
50.742800000000003
 21
177.93199999999999
 31
0.0
  0
LINE
  5
621
  8
0
 62
     7
 10
50.742800000000003
 20
177.93199999999999
 30
0.0
 11
50.742800000000003
 21
177.97399999999999
 31
0.0
  0
LINE
  5
622
  8
0
 62
     7
 10
50.742800000000003
 20
177.93199999999999
 30
0.0
 11
50.5319
 21
177.94099999999989
 31
0.0
  0
LINE
  5
623
  8
0
 62
     7
 10
50.5319
 20
177.94099999999989
 30
0.0
 11
50.5319
 21
177.965
 31
0.0
  0
LINE
  5
624
  8
0
 62
     7
 10
50.5319
 20
177.94099999999989
 30
0.0
 11
50.505800000000001
 21
177.96299999999999
 31
0.0
  0
LINE
  5
625
  8
0
 62
     7
 10
50.505800000000001
 20
177.96299999999999
 30
0.0
 11
50.690800000000003
 21
177.976
 31
0.0
  0
LINE
  5
626
  8
0
 62
     7
 10
49.615900000000011
 20
177.995
 30
0.0
 11
49.6417
 21
177.9729999999999
 31
0.0
  0
LINE
  5
627
  8
0
 62
     7
 10
49.6417
 20
177.9729999999999
 30
0.0
 11
49.457099999999997
 21
177.96000000000001
 31
0.0
  0
LINE
  5
628
  8
0
 62
     7
 10
49.457099999999997
 20
177.96000000000001
 30
0.0
 11
49.457099999999997
 21
178.00200000000001
 31
0.0
  0
LINE
  5
629
  8
0
 62
     7
 10
49.457099999999997
 20
177.96000000000001
 30
0.0
 11
49.246200000000002
 21
177.96899999999999
 31
0.0
  0
LINE
  5
62A
  8
0
 62
     7
 10
49.246200000000002
 20
177.96899999999999
 30
0.0
 11
49.246200000000002
 21
177.99299999999999
 31
0.0
  0
LINE
  5
62B
  8
0
 62
     7
 10
49.246200000000002
 20
177.96899999999999
 30
0.0
 11
49.219999999999999
 21
177.9909999999999
 31
0.0
  0
LINE
  5
62C
  8
0
 62
     7
 10
49.219999999999999
 20
177.9909999999999
 30
0.0
 11
49.405000000000001
 21
178.00399999999999
 31
0.0
  0
LINE
  5
62D
  8
0
 62
     7
 10
49.405000000000001
 20
178.00399999999999
 30
0.0
 11
49.615900000000011
 21
177.995
 31
0.0
  0
LINE
  5
62E
  8
0
 62
     7
 10
51.1858
 20
177.98199999999991
 30
0.0
 11
51.396700000000003
 21
177.9729999999999
 31
0.0
  0
LINE
  5
62F
  8
0
 62
     7
 10
51.396700000000003
 20
177.9729999999999
 30
0.0
 11
51.422499999999999
 21
177.9499999999999
 31
0.0
  0
LINE
  5
630
  8
0
 62
     7
 10
51.422499999999999
 20
177.9499999999999
 30
0.0
 11
51.237499999999997
 21
177.93700000000001
 31
0.0
  0
LINE
  5
631
  8
0
 62
     7
 10
51.237499999999997
 20
177.93700000000001
 30
0.0
 11
51.237499999999997
 21
177.97900000000001
 31
0.0
  0
LINE
  5
632
  8
0
 62
     7
 10
51.237499999999997
 20
177.93700000000001
 30
0.0
 11
51.026699999999991
 21
177.946
 31
0.0
  0
LINE
  5
633
  8
0
 62
     7
 10
51.026699999999991
 20
177.946
 30
0.0
 11
51.026699999999991
 21
177.97
 31
0.0
  0
LINE
  5
634
  8
0
 62
     7
 10
51.026699999999991
 20
177.946
 30
0.0
 11
51.000500000000002
 21
177.9679999999999
 31
0.0
  0
LINE
  5
635
  8
0
 62
     7
 10
51.000500000000002
 20
177.9679999999999
 30
0.0
 11
51.1858
 21
177.98199999999991
 31
0.0
  0
LINE
  5
636
  8
0
 62
     7
 10
49.322400000000002
 20
178.03099999999989
 30
0.0
 11
49.345799999999997
 21
178.012
 31
0.0
  0
LINE
  5
637
  8
0
 62
     7
 10
49.345799999999997
 20
178.012
 30
0.0
 11
49.160800000000002
 21
177.99799999999991
 31
0.0
  0
LINE
  5
638
  8
0
 62
     7
 10
49.160800000000002
 20
177.99799999999991
 30
0.0
 11
49.160800000000002
 21
178.02199999999999
 31
0.0
  0
LINE
  5
639
  8
0
 62
     7
 10
49.160800000000002
 20
177.99799999999991
 30
0.0
 11
48.950600000000001
 21
178.00700000000001
 31
0.0
  0
LINE
  5
63A
  8
0
 62
     7
 10
49.418799999999997
 20
178.035
 30
0.0
 11
49.477400000000003
 21
178.03899999999999
 31
0.0
  0
LINE
  5
63B
  8
0
 62
     7
 10
49.651400000000002
 20
178.04599999999991
 30
0.0
 11
49.814700000000002
 21
178.03899999999999
 31
0.0
  0
LINE
  5
63C
  8
0
 62
     7
 10
49.814700000000002
 20
178.03899999999999
 30
0.0
 11
49.840499999999992
 21
178.017
 31
0.0
  0
LINE
  5
63D
  8
0
 62
     7
 10
49.840499999999992
 20
178.017
 30
0.0
 11
49.655500000000004
 21
178.00399999999999
 31
0.0
  0
LINE
  5
63E
  8
0
 62
     7
 10
49.655500000000004
 20
178.00399999999999
 30
0.0
 11
49.655500000000004
 21
178.04599999999991
 31
0.0
  0
LINE
  5
63F
  8
0
 62
     7
 10
49.655500000000004
 20
178.00399999999999
 30
0.0
 11
49.44469999999999
 21
178.01299999999989
 31
0.0
  0
LINE
  5
640
  8
0
 62
     7
 10
49.44469999999999
 20
178.01299999999989
 30
0.0
 11
49.44469999999999
 21
178.03700000000001
 31
0.0
  0
LINE
  5
641
  8
0
 62
     7
 10
49.44469999999999
 20
178.01299999999989
 30
0.0
 11
49.418799999999997
 21
178.035
 31
0.0
  0
LINE
  5
642
  8
0
 62
     7
 10
52.116
 20
178.0
 30
0.0
 11
51.931399999999989
 21
177.98699999999999
 31
0.0
  0
LINE
  5
643
  8
0
 62
     7
 10
51.931399999999989
 20
177.98699999999999
 30
0.0
 11
51.931399999999989
 21
178.01900000000001
 31
0.0
  0
LINE
  5
644
  8
0
 62
     7
 10
51.931399999999989
 20
177.98699999999999
 30
0.0
 11
51.720199999999991
 21
177.9959999999999
 31
0.0
  0
LINE
  5
645
  8
0
 62
     7
 10
51.720199999999991
 20
177.9959999999999
 30
0.0
 11
51.720199999999991
 21
178.02000000000001
 31
0.0
  0
LINE
  5
646
  8
0
 62
     7
 10
51.720199999999991
 20
177.9959999999999
 30
0.0
 11
51.694299999999998
 21
178.018
 31
0.0
  0
LINE
  5
647
  8
0
 62
     7
 10
51.694299999999998
 20
178.018
 30
0.0
 11
51.812800000000003
 21
178.02699999999999
 31
0.0
  0
LINE
  5
648
  8
0
 62
     7
 10
51.424199999999999
 20
178.035
 30
0.0
 11
51.411099999999998
 21
178.04599999999991
 31
0.0
  0
LINE
  5
649
  8
0
 62
     7
 10
51.718400000000003
 20
178.03200000000001
 30
0.0
 11
51.635100000000001
 21
178.0259999999999
 31
0.0
  0
LINE
  5
64A
  8
0
 62
     7
 10
51.635100000000001
 20
178.0259999999999
 30
0.0
 11
51.635100000000001
 21
178.03599999999989
 31
0.0
  0
LINE
  5
64B
  8
0
 62
     7
 10
51.635100000000001
 20
178.0259999999999
 30
0.0
 11
51.424199999999999
 21
178.035
 31
0.0
  0
LINE
  5
64C
  8
0
 62
     7
 10
51.424199999999999
 20
178.035
 30
0.0
 11
51.424199999999999
 21
178.0449999999999
 31
0.0
  0
LINE
  5
64D
  8
0
 62
     7
 10
50.209800000000001
 20
178.00200000000001
 30
0.0
 11
50.394799999999996
 21
178.0149999999999
 31
0.0
  0
LINE
  5
64E
  8
0
 62
     7
 10
50.394799999999996
 20
178.0149999999999
 30
0.0
 11
50.605699999999999
 21
178.00599999999989
 31
0.0
  0
LINE
  5
64F
  8
0
 62
     7
 10
50.605699999999999
 20
178.00599999999989
 30
0.0
 11
50.631500000000003
 21
177.98400000000001
 31
0.0
  0
LINE
  5
650
  8
0
 62
     7
 10
50.631500000000003
 20
177.98400000000001
 30
0.0
 11
50.4465
 21
177.97099999999989
 31
0.0
  0
LINE
  5
651
  8
0
 62
     7
 10
50.4465
 20
177.97099999999989
 30
0.0
 11
50.4465
 21
178.01299999999989
 31
0.0
  0
LINE
  5
652
  8
0
 62
     7
 10
50.4465
 20
177.97099999999989
 30
0.0
 11
50.235700000000001
 21
177.9799999999999
 31
0.0
  0
LINE
  5
653
  8
0
 62
     7
 10
50.235700000000001
 20
177.9799999999999
 30
0.0
 11
50.235700000000001
 21
178.00399999999999
 31
0.0
  0
LINE
  5
654
  8
0
 62
     7
 10
50.235700000000001
 20
177.9799999999999
 30
0.0
 11
50.209800000000001
 21
178.00200000000001
 31
0.0
  0
LINE
  5
655
  8
0
 62
     7
 10
51.384300000000003
 20
178.0259999999999
 30
0.0
 11
51.595100000000002
 21
178.017
 31
0.0
  0
LINE
  5
656
  8
0
 62
     7
 10
51.595100000000002
 20
178.017
 30
0.0
 11
51.621299999999998
 21
177.995
 31
0.0
  0
LINE
  5
657
  8
0
 62
     7
 10
51.621299999999998
 20
177.995
 30
0.0
 11
51.436300000000003
 21
177.98199999999991
 31
0.0
  0
LINE
  5
658
  8
0
 62
     7
 10
51.436300000000003
 20
177.98199999999991
 30
0.0
 11
51.436300000000003
 21
178.024
 31
0.0
  0
LINE
  5
659
  8
0
 62
     7
 10
51.436300000000003
 20
177.98199999999991
 30
0.0
 11
51.2254
 21
177.99000000000001
 31
0.0
  0
LINE
  5
65A
  8
0
 62
     7
 10
51.2254
 20
177.99000000000001
 30
0.0
 11
51.2254
 21
178.01400000000001
 31
0.0
  0
LINE
  5
65B
  8
0
 62
     7
 10
51.2254
 20
177.99000000000001
 30
0.0
 11
51.199300000000001
 21
178.012
 31
0.0
  0
LINE
  5
65C
  8
0
 62
     7
 10
51.199300000000001
 20
178.012
 30
0.0
 11
51.384300000000003
 21
178.0259999999999
 31
0.0
  0
LINE
  5
65D
  8
0
 62
     7
 10
50.730400000000003
 20
177.98500000000001
 30
0.0
 11
50.70450000000001
 21
178.00700000000001
 31
0.0
  0
LINE
  5
65E
  8
0
 62
     7
 10
50.70450000000001
 20
178.00700000000001
 30
0.0
 11
50.889499999999998
 21
178.02000000000001
 31
0.0
  0
LINE
  5
65F
  8
0
 62
     7
 10
50.889499999999998
 20
178.02000000000001
 30
0.0
 11
51.1004
 21
178.011
 31
0.0
  0
LINE
  5
660
  8
0
 62
     7
 10
51.1004
 20
178.011
 30
0.0
 11
51.126600000000003
 21
177.98899999999989
 31
0.0
  0
LINE
  5
661
  8
0
 62
     7
 10
51.126600000000003
 20
177.98899999999989
 30
0.0
 11
50.941600000000001
 21
177.976
 31
0.0
  0
LINE
  5
662
  8
0
 62
     7
 10
50.941600000000001
 20
177.976
 30
0.0
 11
50.941600000000001
 21
178.018
 31
0.0
  0
LINE
  5
663
  8
0
 62
     7
 10
50.941600000000001
 20
177.976
 30
0.0
 11
50.730400000000003
 21
177.98500000000001
 31
0.0
  0
LINE
  5
664
  8
0
 62
     7
 10
50.730400000000003
 20
177.98500000000001
 30
0.0
 11
50.730400000000003
 21
178.00899999999999
 31
0.0
  0
LINE
  5
665
  8
0
 62
     7
 10
51.306800000000003
 20
178.04900000000001
 30
0.0
 11
51.325000000000003
 21
178.03299999999999
 31
0.0
  0
LINE
  5
666
  8
0
 62
     7
 10
51.325000000000003
 20
178.03299999999999
 30
0.0
 11
51.1404
 21
178.02000000000001
 31
0.0
  0
LINE
  5
667
  8
0
 62
     7
 10
51.1404
 20
178.02000000000001
 30
0.0
 11
51.1404
 21
178.054
 31
0.0
  0
LINE
  5
668
  8
0
 62
     7
 10
51.1404
 20
178.02000000000001
 30
0.0
 11
50.929200000000002
 21
178.029
 31
0.0
  0
LINE
  5
669
  8
0
 62
     7
 10
50.929200000000002
 20
178.029
 30
0.0
 11
50.929200000000002
 21
178.05299999999991
 31
0.0
  0
LINE
  5
66A
  8
0
 62
     7
 10
50.929200000000002
 20
178.029
 30
0.0
 11
50.903300000000002
 21
178.0509999999999
 31
0.0
  0
LINE
  5
66B
  8
0
 62
     7
 10
50.903300000000002
 20
178.0509999999999
 30
0.0
 11
50.985300000000002
 21
178.05699999999999
 31
0.0
  0
LINE
  5
66C
  8
0
 62
     7
 10
50.110999999999997
 20
178.0
 30
0.0
 11
50.136800000000001
 21
177.97799999999989
 31
0.0
  0
LINE
  5
66D
  8
0
 62
     7
 10
50.136800000000001
 20
177.97799999999989
 30
0.0
 11
49.951799999999999
 21
177.965
 31
0.0
  0
LINE
  5
66E
  8
0
 62
     7
 10
49.951799999999999
 20
177.965
 30
0.0
 11
49.951799999999999
 21
178.00700000000001
 31
0.0
  0
LINE
  5
66F
  8
0
 62
     7
 10
49.951799999999999
 20
177.965
 30
0.0
 11
49.740900000000003
 21
177.97399999999999
 31
0.0
  0
LINE
  5
670
  8
0
 62
     7
 10
49.740900000000003
 20
177.97399999999999
 30
0.0
 11
49.740900000000003
 21
177.99799999999991
 31
0.0
  0
LINE
  5
671
  8
0
 62
     7
 10
49.740900000000003
 20
177.97399999999999
 30
0.0
 11
49.71479999999999
 21
177.9959999999999
 31
0.0
  0
LINE
  5
672
  8
0
 62
     7
 10
49.71479999999999
 20
177.9959999999999
 30
0.0
 11
49.899799999999999
 21
178.00899999999999
 31
0.0
  0
LINE
  5
673
  8
0
 62
     7
 10
49.899799999999999
 20
178.00899999999999
 30
0.0
 11
50.110999999999997
 21
178.0
 31
0.0
  0
LINE
  5
674
  8
0
 62
     7
 10
50.309399999999997
 20
178.0449999999999
 30
0.0
 11
50.335599999999999
 21
178.02299999999991
 31
0.0
  0
LINE
  5
675
  8
0
 62
     7
 10
50.335599999999999
 20
178.02299999999991
 30
0.0
 11
50.150599999999997
 21
178.00899999999999
 31
0.0
  0
LINE
  5
676
  8
0
 62
     7
 10
50.150599999999997
 20
178.00899999999999
 30
0.0
 11
50.150599999999997
 21
178.0509999999999
 31
0.0
  0
LINE
  5
677
  8
0
 62
     7
 10
50.150599999999997
 20
178.00899999999999
 30
0.0
 11
49.939700000000002
 21
178.018
 31
0.0
  0
LINE
  5
678
  8
0
 62
     7
 10
49.939700000000002
 20
178.018
 30
0.0
 11
49.939700000000002
 21
178.042
 31
0.0
  0
LINE
  5
679
  8
0
 62
     7
 10
49.939700000000002
 20
178.018
 30
0.0
 11
49.913499999999999
 21
178.03999999999999
 31
0.0
  0
LINE
  5
67A
  8
0
 62
     7
 10
49.913499999999999
 20
178.03999999999999
 30
0.0
 11
50.09859999999999
 21
178.054
 31
0.0
  0
LINE
  5
67B
  8
0
 62
     7
 10
50.09859999999999
 20
178.054
 30
0.0
 11
50.309399999999997
 21
178.0449999999999
 31
0.0
  0
LINE
  5
67C
  8
0
 62
     7
 10
50.593299999999999
 20
178.059
 30
0.0
 11
50.804099999999998
 21
178.05000000000001
 31
0.0
  0
LINE
  5
67D
  8
0
 62
     7
 10
50.804099999999998
 20
178.05000000000001
 30
0.0
 11
50.830300000000001
 21
178.02799999999991
 31
0.0
  0
LINE
  5
67E
  8
0
 62
     7
 10
50.830300000000001
 20
178.02799999999991
 30
0.0
 11
50.645299999999999
 21
178.0149999999999
 31
0.0
  0
LINE
  5
67F
  8
0
 62
     7
 10
50.645299999999999
 20
178.0149999999999
 30
0.0
 11
50.645299999999999
 21
178.05699999999999
 31
0.0
  0
LINE
  5
680
  8
0
 62
     7
 10
50.645299999999999
 20
178.0149999999999
 30
0.0
 11
50.434399999999997
 21
178.024
 31
0.0
  0
LINE
  5
681
  8
0
 62
     7
 10
50.434399999999997
 20
178.024
 30
0.0
 11
50.434399999999997
 21
178.048
 31
0.0
  0
LINE
  5
682
  8
0
 62
     7
 10
50.434399999999997
 20
178.024
 30
0.0
 11
50.4086
 21
178.04599999999991
 31
0.0
  0
LINE
  5
683
  8
0
 62
     7
 10
50.4086
 20
178.04599999999991
 30
0.0
 11
50.593299999999999
 21
178.059
 31
0.0
  0
LINE
  5
684
  8
0
 62
     7
 10
50.844099999999997
 20
178.059
 30
0.0
 11
50.8337
 21
178.05999999999989
 31
0.0
  0
LINE
  5
685
  8
0
 62
     7
 10
49.948700000000002
 20
178.05500000000001
 30
0.0
 11
49.854300000000002
 21
178.048
 31
0.0
  0
LINE
  5
686
  8
0
 62
     7
 10
49.854300000000002
 20
178.048
 30
0.0
 11
49.791899999999998
 21
178.0509999999999
 31
0.0
  0
LINE
  5
687
  8
0
 62
     7
 10
50.456800000000001
 20
178.06099999999989
 30
0.0
 11
50.349400000000003
 21
178.054
 31
0.0
  0
LINE
  5
688
  8
0
 62
     7
 10
50.349400000000003
 20
178.054
 30
0.0
 11
50.209499999999998
 21
178.05999999999989
 31
0.0
  0
ARC
  5
689
  8
0
 62
     7
 10
53.166527999999992
 20
184.216294
 30
0.0
 40
2.3003040000000001
 50
2.6778520000000001
 51
5.9273329999999991
  0
ARC
  5
68A
  8
0
 62
     7
 10
49.983398000000001
 20
183.91973100000001
 30
0.0
 40
5.4971449999999988
 50
5.5757089999999989
 51
11.423382999999999
  0
ARC
  5
68B
  8
0
 62
     7
 10
47.916204999999991
 20
184.4987889999999
 30
0.0
 40
2.3010989999999998
 50
167.20286299999989
 51
170.449997
  0
ARC
  5
68C
  8
0
 62
     7
 10
50.937179
 20
183.957651
 30
0.0
 40
5.3700839999999994
 50
170.103927
 51
176.09071900000001
  0
LINE
  5
68D
  8
0
 62
     7
 10
55.547699999999999
 20
184.32400000000001
 30
0.0
 11
55.509500000000003
 21
184.32400000000001
 31
0.0
  0
LINE
  5
68E
  8
0
 62
     7
 10
45.534500000000001
 20
184.32400000000001
 30
0.0
 11
45.496199999999988
 21
184.32400000000001
 31
0.0
  0
ARC
  5
68F
  8
0
 62
     7
 10
78.669211000000004
 20
73.416180000000011
 30
0.0
 40
0.6498960000000001
 50
272.13028300000002
 51
357.86972700000001
  0
ARC
  5
690
  8
0
 62
     7
 10
76.218089000000006
 20
73.416174999999996
 30
0.0
 40
0.64989
 50
182.12985599999999
 51
267.87017400000002
  0
ARC
  5
691
  8
0
 62
     7
 10
78.669651999999999
 20
75.117708999999991
 30
0.0
 40
0.649465
 50
2.155939
 51
87.907222000000004
  0
ARC
  5
692
  8
0
 62
     7
 10
76.216999999999999
 20
75.118363000000002
 30
0.0
 40
0.6487890000000001
 50
92.037249000000003
 51
177.899551
  0
LINE
  5
693
  8
0
 62
     7
 10
79.654600000000002
 20
49.205199999999991
 30
0.0
 11
77.4435
 21
48.612699999999997
 31
0.0
  0
LINE
  5
694
  8
0
 62
     7
 10
77.4435
 20
48.612699999999997
 30
0.0
 11
79.654600000000002
 21
48.02109999999999
 31
0.0
  0
LINE
  5
695
  8
0
 62
     7
 10
79.654600000000002
 20
48.02109999999999
 30
0.0
 11
79.654600000000002
 21
49.205199999999991
 31
0.0
  0
LINE
  5
696
  8
0
 62
     7
 10
120.2339999999999
 20
48.035600000000002
 30
0.0
 11
122.4439999999999
 21
48.627499999999998
 31
0.0
  0
LINE
  5
697
  8
0
 62
     7
 10
122.4439999999999
 20
48.627499999999998
 30
0.0
 11
120.2339999999999
 21
49.219999999999999
 31
0.0
  0
LINE
  5
698
  8
0
 62
     7
 10
120.2339999999999
 20
49.219999999999999
 30
0.0
 11
120.2339999999999
 21
48.035600000000002
 31
0.0
  0
LINE
  5
699
  8
0
 62
     7
 10
77.470399999999998
 20
48.620600000000003
 30
0.0
 11
122.4169999999999
 21
48.620600000000003
 31
0.0
  0
LINE
  5
69A
  8
0
 62
     7
 10
122.4439999999999
 20
61.97079999999999
 30
0.0
 11
122.4439999999999
 21
47.75139999999999
 31
0.0
  0
LINE
  5
69B
  8
0
 62
     7
 10
82.145399999999995
 20
53.903300000000002
 30
0.0
 11
91.328699999999998
 21
53.903300000000002
 31
0.0
  0
LINE
  5
69C
  8
0
 62
     7
 10
74.953699999999998
 20
54.488300000000002
 30
0.0
 11
72.743700000000004
 21
53.896399999999993
 31
0.0
  0
LINE
  5
69D
  8
0
 62
     7
 10
72.743700000000004
 20
53.896399999999993
 30
0.0
 11
74.953699999999998
 21
53.303899999999999
 31
0.0
  0
LINE
  5
69E
  8
0
 62
     7
 10
74.953699999999998
 20
53.303899999999999
 30
0.0
 11
74.953699999999998
 21
54.488300000000002
 31
0.0
  0
LINE
  5
69F
  8
0
 62
     7
 10
79.934299999999993
 20
53.3187
 30
0.0
 11
82.145399999999995
 21
53.911299999999997
 31
0.0
  0
LINE
  5
6A0
  8
0
 62
     7
 10
82.145399999999995
 20
53.911299999999997
 30
0.0
 11
79.934299999999993
 21
54.503799999999998
 31
0.0
  0
LINE
  5
6A1
  8
0
 62
     7
 10
79.934299999999993
 20
54.503799999999998
 30
0.0
 11
79.934299999999993
 21
53.3187
 31
0.0
  0
LINE
  5
6A2
  8
0
 62
     7
 10
72.770499999999998
 20
53.903300000000002
 30
0.0
 11
82.117800000000003
 21
53.903300000000002
 31
0.0
  0
LINE
  5
6A3
  8
0
 62
     7
 10
72.743700000000004
 20
58.128399999999999
 30
0.0
 11
72.743700000000004
 21
53.252200000000002
 31
0.0
  0
LINE
  5
6A4
  8
0
 62
     7
 10
82.145399999999995
 20
58.128399999999999
 30
0.0
 11
82.145399999999995
 21
53.323900000000002
 31
0.0
  0
LINE
  5
6A5
  8
0
 62
     7
 10
65.457899999999995
 20
78.907700000000006
 30
0.0
 11
64.865399999999994
 21
81.118700000000004
 31
0.0
  0
LINE
  5
6A6
  8
0
 62
     7
 10
64.865399999999994
 20
81.118700000000004
 30
0.0
 11
64.272800000000004
 21
78.907700000000006
 31
0.0
  0
LINE
  5
6A7
  8
0
 62
     7
 10
64.272800000000004
 20
78.907700000000006
 30
0.0
 11
65.457899999999995
 21
78.907700000000006
 31
0.0
  0
LINE
  5
6A8
  8
0
 62
     7
 10
64.287599999999998
 20
73.316199999999995
 30
0.0
 11
64.880200000000002
 21
71.106200000000001
 31
0.0
  0
LINE
  5
6A9
  8
0
 62
     7
 10
64.880200000000002
 20
71.106200000000001
 30
0.0
 11
65.472700000000003
 21
73.316199999999995
 31
0.0
  0
LINE
  5
6AA
  8
0
 62
     7
 10
65.472700000000003
 20
73.316199999999995
 30
0.0
 11
64.287599999999998
 21
73.316199999999995
 31
0.0
  0
LINE
  5
6AB
  8
0
 62
     7
 10
64.872200000000007
 20
81.118700000000004
 30
0.0
 11
64.872200000000007
 21
71.106200000000001
 31
0.0
  0
LINE
  5
6AC
  8
0
 62
     7
 10
65.457899999999995
 20
68.895499999999984
 30
0.0
 11
64.865399999999994
 21
71.106200000000001
 31
0.0
  0
LINE
  5
6AD
  8
0
 62
     7
 10
64.865399999999994
 20
71.106200000000001
 30
0.0
 11
64.272800000000004
 21
68.895499999999984
 31
0.0
  0
LINE
  5
6AE
  8
0
 62
     7
 10
64.272800000000004
 20
68.895499999999984
 30
0.0
 11
65.457899999999995
 21
68.895499999999984
 31
0.0
  0
LINE
  5
6AF
  8
0
 62
     7
 10
64.287599999999998
 20
60.732199999999999
 30
0.0
 11
64.880200000000002
 21
58.522199999999991
 31
0.0
  0
LINE
  5
6B0
  8
0
 62
     7
 10
64.880200000000002
 20
58.522199999999991
 30
0.0
 11
65.472700000000003
 21
60.732199999999999
 31
0.0
  0
LINE
  5
6B1
  8
0
 62
     7
 10
65.472700000000003
 20
60.732199999999999
 30
0.0
 11
64.287599999999998
 21
60.732199999999999
 31
0.0
  0
LINE
  5
6B2
  8
0
 62
     7
 10
64.872200000000007
 20
71.133099999999999
 30
0.0
 11
64.872200000000007
 21
58.522199999999991
 31
0.0
  0
LINE
  5
6B3
  8
0
 62
     7
 10
71.989199999999997
 20
58.522199999999991
 30
0.0
 11
64.444400000000002
 21
58.522199999999991
 31
0.0
  0
LINE
  5
6B4
  8
0
 62
     7
 10
69.304699999999997
 20
71.106200000000001
 30
0.0
 11
64.444400000000002
 21
71.106200000000001
 31
0.0
  0
LINE
  5
6B5
  8
0
 62
     7
 10
69.208299999999994
 20
81.118700000000004
 30
0.0
 11
64.440899999999999
 21
81.118700000000004
 31
0.0
  0
LINE
  5
6B6
  8
0
 62
     7
 10
85.306299999999993
 20
80.810399999999987
 30
0.0
 11
85.306299999999993
 21
80.684599999999989
 31
0.0
  0
ARC
  5
6B7
  8
0
 62
     7
 10
88.400231000000005
 20
64.650362999999999
 30
0.0
 40
6.5848319999999996
 50
197.84734999999989
 51
204.72869600000001
  0
ARC
  5
6B8
  8
0
 62
     7
 10
84.654247999999995
 20
62.935378999999998
 30
0.0
 40
2.4649610000000002
 50
204.94507799999991
 51
213.29257100000001
  0
ARC
  5
6B9
  8
0
 62
     7
 10
83.108788000000004
 20
61.930351000000002
 30
0.0
 40
0.6215250000000001
 50
214.05245600000001
 51
227.386146
  0
ARC
  5
6BA
  8
0
 62
     7
 10
85.015720999999999
 20
63.447155000000002
 30
0.0
 40
2.8273380000000001
 50
149.50572700000001
 51
156.609779
  0
ARC
  5
6BB
  8
0
 62
     7
 10
87.025036
 20
62.546030999999999
 30
0.0
 40
5.0293570000000001
 50
156.274933
 51
168.97324900000001
  0
LINE
  5
6BC
  8
0
 62
     7
 10
89.5655
 20
65.569199999999995
 30
0.0
 11
88.9846
 21
65.569199999999995
 31
0.0
  0
LINE
  5
6BD
  8
0
 62
     7
 10
87.628299999999996
 20
60.6158
 30
0.0
 11
86.742900000000006
 21
60.6158
 31
0.0
  0
LINE
  5
6BE
  8
0
 62
     7
 10
89.574799999999996
 20
60.6158
 30
0.0
 11
89.051100000000005
 21
60.6158
 31
0.0
  0
ARC
  5
6BF
  8
0
 62
     7
 10
88.315906000000012
 20
60.512933999999987
 30
0.0
 40
1.087485
 50
72.843935000000002
 51
90.017119999999991
  0
ARC
  5
6C0
  8
0
 62
     7
 10
88.411574999999985
 20
60.895901999999992
 30
0.0
 40
0.6936720000000001
 50
13.613713000000001
 51
71.063345999999996
  0
ARC
  5
6C1
  8
0
 62
     7
 10
87.967846999999992
 20
60.769792000000002
 30
0.0
 40
1.1547590000000001
 50
358.99189899999999
 51
14.513051000000001
  0
ARC
  5
6C2
  8
0
 62
     7
 10
89.029381999999984
 20
60.749817000000007
 30
0.0
 40
0.093046
 50
342.149472
 51
359.78951699999999
  0
ARC
  5
6C3
  8
0
 62
     7
 10
88.929293000000001
 20
60.780200000000001
 30
0.0
 40
0.197638
 50
328.49621000000002
 51
342.65988399999998
  0
ARC
  5
6C4
  8
0
 62
     7
 10
88.754703000000006
 20
60.884785999999998
 30
0.0
 40
0.401152
 50
318.40560399999998
 51
328.79078500000003
  0
ARC
  5
6C5
  8
0
 62
     7
 10
88.469646999999995
 20
61.137776999999993
 30
0.0
 40
0.782284
 50
303.42672999999991
 51
318.40798899999999
  0
ARC
  5
6C6
  8
0
 62
     7
 10
88.261367000000007
 20
61.420684999999999
 30
0.0
 40
1.133273999999999
 50
271.55672900000002
 51
304.33594099999988
  0
ARC
  5
6C7
  8
0
 62
     7
 10
88.293358999999995
 20
61.073209999999989
 30
0.0
 40
0.7853820000000001
 50
240.97805
 51
269.91209199999992
  0
ARC
  5
6C8
  8
0
 62
     7
 10
88.365406000000007
 20
61.234493999999991
 30
0.0
 40
0.9614879999999999
 50
215.09297699999991
 51
241.886596
  0
ARC
  5
6C9
  8
0
 62
     7
 10
87.902490999999998
 20
60.898707999999992
 30
0.0
 40
0.389772
 50
202.74064699999991
 51
213.82649799999999
  0
ARC
  5
6CA
  8
0
 62
     7
 10
87.663948000000005
 20
60.801707999999998
 30
0.0
 40
0.132304
 50
182.9274659999999
 51
203.9322149999999
  0
ARC
  5
6CB
  8
0
 62
     7
 10
88.958593999999991
 20
60.795777000000001
 30
0.0
 40
1.4267780000000001
 50
170.469897
 51
180.033186
  0
ARC
  5
6CC
  8
0
 62
     7
 10
88.347250999999986
 20
60.892423000000001
 30
0.0
 40
0.807891
 50
147.787646
 51
170.05112299999999
  0
ARC
  5
6CD
  8
0
 62
     7
 10
88.140096
 20
60.999077999999997
 30
0.0
 40
0.5761230000000001
 50
110.460961
 51
145.7796219999999
  0
ARC
  5
6CE
  8
0
 62
     7
 10
88.245568999999989
 20
60.74494399999999
 30
0.0
 40
0.8511530000000001
 50
96.075027000000006
 51
111.132841
  0
ARC
  5
6CF
  8
0
 62
     7
 10
88.310153
 20
60.283563999999991
 30
0.0
 40
1.316867
 50
89.763811000000004
 51
96.744772999999995
  0
ARC
  5
6D0
  8
0
 62
     7
 10
88.246921999999984
 20
63.465364000000001
 30
0.0
 40
2.2595499999999991
 50
78.400961999999993
 51
90.006146000000015
  0
ARC
  5
6D1
  8
0
 62
     7
 10
88.473410999999984
 20
64.614696999999992
 30
0.0
 40
1.088188999999999
 50
65.049903999999998
 51
77.915385999999984
  0
ARC
  5
6D2
  8
0
 62
     7
 10
88.774432000000004
 20
65.273407999999989
 30
0.0
 40
0.364006
 50
42.648367999999998
 51
64.273073999999994
  0
ARC
  5
6D3
  8
0
 62
     7
 10
88.944846999999996
 20
65.438315000000003
 30
0.0
 40
0.127071
 50
2.6257860000000002
 51
40.015194999999991
  0
ARC
  5
6D4
  8
0
 62
     7
 10
87.499859999999984
 20
65.443477000000001
 30
0.0
 40
1.571925
 50
346.05372699999992
 51
0.024032
  0
ARC
  5
6D5
  8
0
 62
     7
 10
88.092192999999995
 20
65.31331800000001
 30
0.0
 40
0.965822
 50
325.63290999999992
 51
345.07856800000002
  0
ARC
  5
6D6
  8
0
 62
     7
 10
88.325851999999998
 20
65.176350999999997
 30
0.0
 40
0.6958890000000001
 50
269.15435599999989
 51
324.08148699999998
  0
ARC
  5
6D7
  8
0
 62
     7
 10
88.324352000000005
 20
65.257776000000007
 30
0.0
 40
0.777288
 50
211.06153499999999
 51
269.35343699999999
  0
ARC
  5
6D8
  8
0
 62
     7
 10
88.547923999999995
 20
65.403871999999993
 30
0.0
 40
1.0442279999999999
 50
184.71370200000001
 51
211.5989689999999
  0
ARC
  5
6D9
  8
0
 62
     7
 10
88.938006999999985
 20
65.470900999999998
 30
0.0
 40
1.4389199999999991
 50
179.92712900000001
 51
186.097399
  0
ARC
  5
6DA
  8
0
 62
     7
 10
87.581193999999996
 20
65.472215000000006
 30
0.0
 40
0.082107
 50
139.46668799999989
 51
179.64008699999999
  0
ARC
  5
6DB
  8
0
 62
     7
 10
87.677789000000004
 20
65.405563000000001
 30
0.0
 40
0.199208
 50
128.46028599999991
 51
142.9543229999999
  0
ARC
  5
6DC
  8
0
 62
     7
 10
87.793349000000006
 20
65.262787000000003
 30
0.0
 40
0.382886
 50
118.629464
 51
128.71251000000001
  0
ARC
  5
6DD
  8
0
 62
     7
 10
87.933428000000006
 20
65.008147999999991
 30
0.0
 40
0.673511
 50
110.70306100000001
 51
118.70975900000001
  0
ARC
  5
6DE
  8
0
 62
     7
 10
88.111624000000006
 20
64.532809
 30
0.0
 40
1.1811519999999991
 50
98.166961000000015
 51
110.63730700000001
  0
ARC
  5
6DF
  8
0
 62
     7
 10
88.237261000000004
 20
63.838039999999999
 30
0.0
 40
1.886897
 50
89.71400899999999
 51
98.946302000000017
  0
ARC
  5
6E0
  8
0
 62
     7
 10
88.314363
 20
63.610289999999999
 30
0.0
 40
0.5936060000000002
 50
57.288503000000013
 51
89.882454000000024
  0
ARC
  5
6E1
  8
0
 62
     7
 10
88.201948999999999
 20
63.417962000000003
 30
0.0
 40
0.816234
 50
34.711866000000001
 51
57.944851000000007
  0
ARC
  5
6E2
  8
0
 62
     7
 10
87.887082000000007
 20
63.176367000000013
 30
0.0
 40
1.212793
 50
11.776557
 51
35.623506999999996
  0
ARC
  5
6E3
  8
0
 62
     7
 10
87.563289999999995
 20
63.079338
 30
0.0
 40
1.5498419999999991
 50
359.83702199999999
 51
12.845105999999991
  0
ARC
  5
6E4
  8
0
 62
     7
 10
87.578781999999975
 20
63.075619999999986
 30
0.0
 40
1.5343439999999999
 50
335.68739099999999
 51
359.97420099999988
  0
ARC
  5
6E5
  8
0
 62
     7
 10
88.026395999999991
 20
62.893816999999999
 30
0.0
 40
1.051741
 50
309.54056299999991
 51
334.673541
  0
ARC
  5
6E6
  8
0
 62
     7
 10
88.296420999999995
 20
62.599851999999998
 30
0.0
 40
0.653479
 50
271.680204
 51
307.69103699999999
  0
ARC
  5
6E7
  8
0
 62
     7
 10
88.316815000000005
 20
62.540491000000003
 30
0.0
 40
0.593838
 50
237.315291
 51
269.88098100000002
  0
ARC
  5
6E8
  8
0
 62
     7
 10
88.429594999999992
 20
62.734291000000013
 30
0.0
 40
0.8179119999999999
 50
214.80469199999999
 51
237.997139
  0
ARC
  5
6E9
  8
0
 62
     7
 10
88.741909000000007
 20
62.974759999999989
 30
0.0
 40
1.2117610000000001
 50
191.84462600000001
 51
215.71194799999989
  0
ARC
  5
6EA
  8
0
 62
     7
 10
89.059588999999988
 20
63.070503000000002
 30
0.0
 40
1.5425930000000001
 50
179.83558699999989
 51
192.9032
  0
ARC
  5
6EB
  8
0
 62
     7
 10
89.047139999999999
 20
63.074249000000002
 30
0.0
 40
1.5301370000000001
 50
155.607541
 51
179.97450499999999
  0
ARC
  5
6EC
  8
0
 62
     7
 10
88.606977999999998
 20
63.253720999999999
 30
0.0
 40
1.055304999999999
 50
129.53195500000001
 51
154.61238700000001
  0
ARC
  5
6ED
  8
0
 62
     7
 10
88.335312000000016
 20
63.549906999999997
 30
0.0
 40
0.654285
 50
91.728068999999977
 51
127.69243400000001
  0
LINE
  5
6EE
  8
0
 62
     7
 10
98.489000000000004
 20
60.210999999999999
 30
0.0
 11
97.897099999999995
 21
62.420999999999999
 31
0.0
  0
LINE
  5
6EF
  8
0
 62
     7
 10
97.897099999999995
 20
62.420999999999999
 30
0.0
 11
97.304599999999994
 21
60.210999999999999
 31
0.0
  0
LINE
  5
6F0
  8
0
 62
     7
 10
97.304599999999994
 20
60.210999999999999
 30
0.0
 11
98.489000000000004
 21
60.210999999999999
 31
0.0
  0
LINE
  5
6F1
  8
0
 62
     7
 10
97.319400000000016
 20
65.879900000000006
 30
0.0
 11
97.912000000000006
 21
63.669899999999998
 31
0.0
  0
LINE
  5
6F2
  8
0
 62
     7
 10
97.912000000000006
 20
63.669899999999998
 30
0.0
 11
98.503500000000003
 21
65.879900000000006
 31
0.0
  0
LINE
  5
6F3
  8
0
 62
     7
 10
98.503500000000003
 20
65.879900000000006
 30
0.0
 11
97.319400000000016
 21
65.879900000000006
 31
0.0
  0
LINE
  5
6F4
  8
0
 62
     7
 10
97.903999999999996
 20
69.691299999999984
 30
0.0
 11
97.903999999999996
 21
58.628
 31
0.0
  0
LINE
  5
6F5
  8
0
 62
     7
 10
120.035
 20
62.596699999999991
 30
0.0
 11
119.3689999999999
 21
62.596699999999991
 31
0.0
  0
LINE
  5
6F6
  8
0
 62
     7
 10
120.035
 20
63.478700000000003
 30
0.0
 11
119.3689999999999
 21
63.478700000000003
 31
0.0
  0
LINE
  5
6F7
  8
0
 62
     7
 10
120.1459999999999
 20
62.458300000000001
 30
0.0
 11
120.151
 21
62.458300000000001
 31
0.0
  0
LINE
  5
6F8
  8
0
 62
     7
 10
119.3689999999999
 20
62.446199999999997
 30
0.0
 11
120.035
 21
62.446199999999997
 31
0.0
  0
LINE
  5
6F9
  8
0
 62
     7
 10
119.3689999999999
 20
63.627899999999997
 30
0.0
 11
120.035
 21
63.627899999999997
 31
0.0
  0
ARC
  5
6FA
  8
0
 62
     7
 10
120.35845
 20
62.241501999999997
 30
0.0
 40
0.321954
 50
159.50275999999999
 51
179.745135
  0
ARC
  5
6FB
  8
0
 62
     7
 10
120.266852
 20
62.267031999999993
 30
0.0
 40
0.227362
 50
114.8183919999999
 51
157.44597999999991
  0
ARC
  5
6FC
  8
0
 62
     7
 10
120.34390500000001
 20
62.11453800000001
 30
0.0
 40
0.39816
 50
93.976231999999996
 51
115.6715549999999
  0
ARC
  5
6FD
  8
0
 62
     7
 10
120.385161
 20
61.807647000000003
 30
0.0
 40
0.7074510000000001
 50
89.917620999999997
 51
95.586143000000007
  0
ARC
  5
6FE
  8
0
 62
     7
 10
120.393609
 20
61.997669999999992
 30
0.0
 40
0.5174820000000001
 50
75.184700000000007
 51
90.822815999999989
  0
ARC
  5
6FF
  8
0
 62
     7
 10
120.44561899999989
 20
62.215832999999989
 30
0.0
 40
0.2933239999999999
 50
25.658054
 51
74.109378000000007
  0
ARC
  5
700
  8
0
 62
     7
 10
120.33908599999999
 20
63.814182999999993
 30
0.0
 40
0.304031
 50
182.97489699999991
 51
203.62608599999999
  0
ARC
  5
701
  8
0
 62
     7
 10
120.26323600000001
 20
63.790304000000013
 30
0.0
 40
0.22513
 50
205.795187
 51
249.434819
  0
ARC
  5
702
  8
0
 62
     7
 10
120.361169
 20
64.019081999999997
 30
0.0
 40
0.4738660000000001
 50
248.064964
 51
273.02526799999998
  0
ARC
  5
703
  8
0
 62
     7
 10
120.386062
 20
64.110174999999984
 30
0.0
 40
0.564298
 50
270.01176299999992
 51
284.68425000000002
  0
ARC
  5
704
  8
0
 62
     7
 10
120.449545
 20
63.850889000000002
 30
0.0
 40
0.29742
 50
285.51594799999998
 51
321.40963699999998
  0
ARC
  5
705
  8
0
 62
     7
 10
120.4813139999999
 20
63.809904000000003
 30
0.0
 40
0.247327
 50
324.24150200000003
 51
338.04736700000001
  0
ARC
  5
706
  8
0
 62
     7
 10
120.4082499999999
 20
63.174484999999997
 30
0.0
 40
0.372048
 50
93.401216000000005
 51
177.71668500000001
  0
ARC
  5
707
  8
0
 62
     7
 10
120.3871649999999
 20
63.22527199999999
 30
0.0
 40
0.320606
 50
33.737900000000003
 51
90.176470999999992
  0
ARC
  5
708
  8
0
 62
     7
 10
120.3000659999999
 20
63.154101000000011
 30
0.0
 40
0.4327
 50
8.5713509999999982
 51
35.169558000000002
  0
ARC
  5
709
  8
0
 62
     7
 10
120.405325
 20
62.88579
 30
0.0
 40
0.371186
 50
184.84461999999999
 51
267.04316799999998
  0
ARC
  5
70A
  8
0
 62
     7
 10
120.386582
 20
63.062151
 30
0.0
 40
0.5470540000000002
 50
269.95771500000001
 51
284.97209500000002
  0
ARC
  5
70B
  8
0
 62
     7
 10
120.44595799999991
 20
62.824854999999999
 30
0.0
 40
0.302499
 50
285.719131
 51
321.38492200000002
  0
ARC
  5
70C
  8
0
 62
     7
 10
120.4705289999999
 20
62.787768999999997
 30
0.0
 40
0.260513
 50
324.38696099999993
 51
351.13975599999998
  0
LINE
  5
70D
  8
0
 62
     7
 10
120.482
 20
62.191299999999991
 30
0.0
 11
120.035
 21
62.191299999999991
 31
0.0
  0
LINE
  5
70E
  8
0
 62
     7
 10
120.72799999999989
 20
63.627899999999997
 30
0.0
 11
120.72799999999989
 21
62.438299999999991
 31
0.0
  0
ARC
  5
70F
  8
0
 62
     7
 10
120.471397
 20
62.447750999999997
 30
0.0
 40
0.256711
 50
272.35642499999989
 51
357.88381800000002
  0
LINE
  5
710
  8
0
 62
     7
 10
120.482
 20
63.874200000000002
 30
0.0
 11
120.035
 21
63.874200000000002
 31
0.0
  0
ARC
  5
711
  8
0
 62
     7
 10
120.472396
 20
63.618671999999989
 30
0.0
 40
0.255703
 50
2.061567999999999
 51
87.858232000000015
  0
LINE
  5
712
  8
0
 62
     7
 10
120.035
 20
63.874200000000002
 30
0.0
 11
120.035
 21
62.191299999999991
 31
0.0
  0
LINE
  5
713
  8
0
 62
     7
 10
119.26000000000001
 20
62.480600000000003
 30
0.0
 11
119.26000000000001
 21
62.480600000000003
 31
0.0
  0
LINE
  5
714
  8
0
 62
     7
 10
119.3689999999999
 20
63.893799999999999
 30
0.0
 11
119.117
 21
64.110200000000006
 31
0.0
  0
LINE
  5
715
  8
0
 62
     7
 10
119.3689999999999
 20
62.2102
 30
0.0
 11
119.117
 21
61.995600000000003
 31
0.0
  0
LINE
  5
716
  8
0
 62
     7
 10
115.9499999999999
 20
61.995600000000003
 30
0.0
 11
115.697
 21
62.2102
 31
0.0
  0
LINE
  5
717
  8
0
 62
     7
 10
115.9499999999999
 20
64.108500000000006
 30
0.0
 11
115.697
 21
63.893099999999997
 31
0.0
  0
LINE
  5
718
  8
0
 62
     7
 10
115.697
 20
63.893099999999997
 30
0.0
 11
115.697
 21
62.2102
 31
0.0
  0
ARC
  5
719
  8
0
 62
     7
 10
116.4533269999999
 20
62.433337000000002
 30
0.0
 40
0.4377640000000001
 50
241.83982499999999
 51
269.89738599999993
  0
ARC
  5
71A
  8
0
 62
     7
 10
116.5301429999999
 20
62.591107999999998
 30
0.0
 40
0.6131490000000001
 50
224.62671199999991
 51
242.469097
  0
ARC
  5
71B
  8
0
 62
     7
 10
116.7663719999999
 20
62.835006999999997
 30
0.0
 40
0.9526379999999999
 50
204.325627
 51
225.08596399999999
  0
ARC
  5
71C
  8
0
 62
     7
 10
117.178881
 20
63.051085999999998
 30
0.0
 40
1.4177889999999991
 50
179.73252099999991
 51
205.41575499999999
  0
ARC
  5
71D
  8
0
 62
     7
 10
117.2332139999999
 20
63.055374999999991
 30
0.0
 40
1.4721079999999991
 50
149.16989599999991
 51
179.90933399999989
  0
ARC
  5
71E
  8
0
 62
     7
 10
116.67923500000001
 20
63.362778000000013
 30
0.0
 40
0.8391059999999999
 50
126.061887
 51
147.8077989999999
  0
ARC
  5
71F
  8
0
 62
     7
 10
116.46063599999999
 20
63.63495799999999
 30
0.0
 40
0.490679
 50
105.20264999999991
 51
124.13593999999991
  0
ARC
  5
720
  8
0
 62
     7
 10
118.66427999999991
 20
63.66006999999999
 30
0.0
 40
0.4538210000000001
 50
53.096536
 51
81.131478999999985
  0
ARC
  5
721
  8
0
 62
     7
 10
118.5287519999999
 20
63.454627000000002
 30
0.0
 40
0.6996430000000001
 50
38.25958099999999
 51
54.323936999999987
  0
ARC
  5
722
  8
0
 62
     7
 10
118.226669
 20
63.204300000000003
 30
0.0
 40
1.0918929999999989
 50
19.422148
 51
38.75828099999999
  0
ARC
  5
723
  8
0
 62
     7
 10
117.85634499999991
 20
63.044358000000003
 30
0.0
 40
1.494583999999999
 50
0.20787
 51
20.48402999999999
  0
ARC
  5
724
  8
0
 62
     7
 10
117.88929899999999
 20
63.051623999999997
 30
0.0
 40
1.461622
 50
329.93816299999992
 51
359.92771099999999
  0
ARC
  5
725
  8
0
 62
     7
 10
118.39988099999999
 20
62.775381999999993
 30
0.0
 40
0.8815
 50
308.05605700000001
 51
328.8536279999999
  0
ARC
  5
726
  8
0
 62
     7
 10
118.644257
 20
62.487228000000002
 30
0.0
 40
0.504181
 50
282.79898600000001
 51
306.37443300000001
  0
LINE
  5
727
  8
0
 62
     7
 10
115.93600000000001
 20
63.159300000000002
 30
0.0
 11
117.4309999999999
 21
63.159300000000002
 31
0.0
  0
LINE
  5
728
  8
0
 62
     7
 10
115.93600000000001
 20
62.943999999999988
 30
0.0
 11
117.4309999999999
 21
62.943999999999988
 31
0.0
  0
ARC
  5
729
  8
0
 62
     7
 10
116.8203249999999
 20
63.033599000000002
 30
0.0
 40
0.892276
 50
112.02715499999999
 51
178.96089900000001
  0
ARC
  5
72A
  8
0
 62
     7
 10
116.68516200000001
 20
63.262914000000002
 30
0.0
 40
0.6302330000000002
 50
90.163266999999976
 51
108.452556
  0
ARC
  5
72B
  8
0
 62
     7
 10
116.68113
 20
63.240737000000003
 30
0.0
 40
0.652411
 50
51.112712999999992
 51
89.803679000000002
  0
ARC
  5
72C
  8
0
 62
     7
 10
116.533047
 20
63.033234
 30
0.0
 40
0.907018
 50
1.0452520000000001
 51
52.060479000000001
  0
ARC
  5
72D
  8
0
 62
     7
 10
116.55377799999999
 20
63.066122999999997
 30
0.0
 40
0.8862859999999999
 50
291.67693300000002
 51
358.94341700000001
  0
ARC
  5
72E
  8
0
 62
     7
 10
116.681504
 20
62.843128999999998
 30
0.0
 40
0.6329270000000001
 50
270.16852699999998
 51
288.38673799999992
  0
ARC
  5
72F
  8
0
 62
     7
 10
116.685593
 20
62.862965000000003
 30
0.0
 40
0.652764
 50
231.184696
 51
269.804483
  0
ARC
  5
730
  8
0
 62
     7
 10
116.83114500000001
 20
63.067028000000001
 30
0.0
 40
0.9031129999999999
 50
181.094325
 51
232.10462200000001
  0
LINE
  5
731
  8
0
 62
     7
 10
115.94499999999989
 20
61.995600000000003
 30
0.0
 11
119.121
 21
61.995600000000003
 31
0.0
  0
LINE
  5
732
  8
0
 62
     7
 10
115.9499999999999
 20
64.108500000000006
 30
0.0
 11
119.1189999999999
 21
64.108500000000006
 31
0.0
  0
LINE
  5
733
  8
0
 62
     7
 10
119.3689999999999
 20
63.893799999999999
 30
0.0
 11
119.3689999999999
 21
62.2102
 31
0.0
  0
LINE
  5
734
  8
0
 62
     7
 10
69.581699999999984
 20
81.592399999999998
 30
0.0
 11
69.581699999999984
 21
86.732500000000016
 31
0.0
  0
LINE
  5
735
  8
0
 62
     7
 10
69.8904
 20
81.118700000000004
 30
0.0
 11
84.997200000000007
 21
81.118700000000004
 31
0.0
  0
ARC
  5
736
  8
0
 62
     7
 10
84.985341999999989
 20
80.797775000000001
 30
0.0
 40
0.321177
 50
2.251595
 51
87.876287000000005
  0
ARC
  5
737
  8
0
 62
     7
 10
69.900947000000002
 20
80.798421999999988
 30
0.0
 40
0.319449
 50
91.891212999999993
 51
177.85240099999999
  0
LINE
  5
738
  8
0
 62
     7
 10
69.581699999999984
 20
80.684599999999989
 30
0.0
 11
69.581699999999984
 21
80.810399999999987
 31
0.0
  0
LINE
  5
739
  8
0
 62
     7
 10
82.3459
 20
72.7667
 30
0.0
 11
82.4375
 21
72.7667
 31
0.0
  0
LINE
  5
73A
  8
0
 62
     7
 10
81.944900000000004
 20
73.169799999999995
 30
0.0
 11
81.944900000000004
 21
75.365399999999994
 31
0.0
  0
ARC
  5
73B
  8
0
 62
     7
 10
82.361346999999995
 20
73.183136000000005
 30
0.0
 40
0.41669
 50
181.83243899999999
 51
267.87301200000002
  0
LINE
  5
73C
  8
0
 62
     7
 10
72.955500000000001
 20
73.169799999999995
 30
0.0
 11
72.955500000000001
 21
75.365399999999994
 31
0.0
  0
LINE
  5
73D
  8
0
 62
     7
 10
72.450800000000001
 20
72.7667
 30
0.0
 11
72.554199999999994
 21
72.7667
 31
0.0
  0
ARC
  5
73E
  8
0
 62
     7
 10
72.537074000000004
 20
73.185115999999994
 30
0.0
 40
0.418732
 50
272.339923
 51
357.90546399999988
  0
LINE
  5
73F
  8
0
 62
     7
 10
82.3459
 20
75.7667
 30
0.0
 11
82.4375
 21
75.7667
 31
0.0
  0
ARC
  5
740
  8
0
 62
     7
 10
82.361544999999992
 20
75.350080000000005
 30
0.0
 40
0.416955
 50
92.152773000000025
 51
177.896399
  0
LINE
  5
741
  8
0
 62
     7
 10
72.450800000000001
 20
75.7667
 30
0.0
 11
72.554199999999994
 21
75.7667
 31
0.0
  0
ARC
  5
742
  8
0
 62
     7
 10
72.538840000000008
 20
75.350056000000009
 30
0.0
 40
0.416967
 50
2.1068849999999988
 51
87.893105000000006
  0
LINE
  5
743
  8
0
 62
     7
 10
72.450800000000001
 20
75.7667
 30
0.0
 11
72.450800000000001
 21
78.354699999999994
 31
0.0
  0
LINE
  5
744
  8
0
 62
     7
 10
72.450800000000001
 20
72.267200000000003
 30
0.0
 11
72.450800000000001
 21
72.7667
 31
0.0
  0
LINE
  5
745
  8
0
 62
     7
 10
72.450800000000001
 20
78.354699999999994
 30
0.0
 11
72.264799999999994
 21
78.549400000000006
 31
0.0
  0
LINE
  5
746
  8
0
 62
     7
 10
82.577699999999979
 20
78.549400000000006
 30
0.0
 11
82.4375
 21
78.354699999999994
 31
0.0
  0
LINE
  5
747
  8
0
 62
     7
 10
82.4375
 20
72.7667
 30
0.0
 11
82.4375
 21
72.267200000000003
 31
0.0
  0
LINE
  5
748
  8
0
 62
     7
 10
82.4375
 20
78.354699999999994
 30
0.0
 11
82.4375
 21
75.7667
 31
0.0
  0
LINE
  5
749
  8
0
 62
     7
 10
69.581699999999984
 20
80.684599999999989
 30
0.0
 11
85.332099999999997
 21
80.684599999999989
 31
0.0
  0
LINE
  5
74A
  8
0
 62
     7
 10
89.873500000000007
 20
60.924100000000003
 30
0.0
 11
89.873500000000007
 21
65.263300000000001
 31
0.0
  0
ARC
  5
74B
  8
0
 62
     7
 10
89.562836000000004
 20
60.936078000000002
 30
0.0
 40
0.320495
 50
272.13418499999989
 51
357.86582499999992
  0
ARC
  5
74C
  8
0
 62
     7
 10
89.553690000000003
 20
65.249335000000002
 30
0.0
 40
0.320076
 50
2.4948799999999989
 51
87.890939000000003
  0
LINE
  5
74D
  8
0
 62
     7
 10
82.653499999999994
 20
60.778799999999997
 30
0.0
 11
72.234499999999997
 21
60.778799999999997
 31
0.0
  0
LINE
  5
74E
  8
0
 62
     7
 10
84.974500000000006
 20
71.118200000000002
 30
0.0
 11
69.912499999999994
 21
71.118200000000002
 31
0.0
  0
LINE
  5
74F
  8
0
 62
     7
 10
85.673900000000003
 20
65.097200000000001
 30
0.0
 11
85.673900000000003
 21
60.994100000000003
 31
0.0
  0
LINE
  5
750
  8
0
 62
     7
 10
85.306299999999993
 20
81.346800000000016
 30
0.0
 11
85.306299999999993
 21
86.732500000000016
 31
0.0
  0
LINE
  5
751
  8
0
 62
     7
 10
83.096199999999996
 20
85.716200000000015
 30
0.0
 11
85.306299999999993
 21
86.307799999999986
 31
0.0
  0
LINE
  5
752
  8
0
 62
     7
 10
85.306299999999993
 20
86.307799999999986
 30
0.0
 11
83.096199999999996
 21
86.900300000000001
 31
0.0
  0
LINE
  5
753
  8
0
 62
     7
 10
83.096199999999996
 20
86.900300000000001
 30
0.0
 11
83.096199999999996
 21
85.716200000000015
 31
0.0
  0
LINE
  5
754
  8
0
 62
     7
 10
71.7928
 20
86.886499999999998
 30
0.0
 11
69.581699999999984
 21
86.293999999999997
 31
0.0
  0
LINE
  5
755
  8
0
 62
     7
 10
69.581699999999984
 20
86.293999999999997
 30
0.0
 11
71.7928
 21
85.701400000000007
 31
0.0
  0
LINE
  5
756
  8
0
 62
     7
 10
71.7928
 20
85.701400000000007
 30
0.0
 11
71.7928
 21
86.886499999999998
 31
0.0
  0
LINE
  5
757
  8
0
 62
     7
 10
85.279700000000005
 20
86.300899999999999
 30
0.0
 11
69.681600000000003
 21
86.300899999999999
 31
0.0
  0
LINE
  5
758
  8
0
 62
     7
 10
77.4435
 20
56.254300000000001
 30
0.0
 11
77.4435
 21
47.604300000000002
 31
0.0
  0
LINE
  5
759
  8
0
 62
     7
 10
120.73099999999999
 20
62.403100000000002
 30
0.0
 11
122.178
 21
62.403100000000002
 31
0.0
  0
LINE
  5
75A
  8
0
 62
     7
 10
89.874499999999998
 20
62.420999999999999
 30
0.0
 11
117.137
 21
62.420999999999999
 31
0.0
  0
LINE
  5
75B
  8
0
  6
AIGENLINE001
 62
     7
 10
80.565799999999996
 20
63.0456
 30
0.0
 11
124.55500000000001
 21
63.0456
 31
0.0
  0
LINE
  5
75C
  8
0
 62
     7
 10
120.73099999999999
 20
63.652700000000003
 30
0.0
 11
122.178
 21
63.652700000000003
 31
0.0
  0
LINE
  5
75D
  8
0
 62
     7
 10
89.874499999999998
 20
63.669899999999998
 30
0.0
 11
117.137
 21
63.669899999999998
 31
0.0
  0
ARC
  5
75E
  8
0
 62
     7
 10
83.032820999999998
 20
60.552424999999999
 30
0.0
 40
0.4416870000000001
 50
90.712804000000006
 51
149.174227
  0
LINE
  5
75F
  8
0
 62
     7
 10
86.635099999999994
 20
60.724299999999999
 30
0.0
 11
86.635099999999994
 21
65.366600000000005
 31
0.0
  0
ARC
  5
760
  8
0
 62
     7
 10
83.101837000000003
 20
65.545560999999992
 30
0.0
 40
0.4486560000000001
 50
182.262002
 51
267.87537300000002
  0
LINE
  5
761
  8
0
 62
     7
 10
86.635099999999994
 20
60.724299999999999
 30
0.0
 11
86.742900000000006
 21
60.6158
 31
0.0
  0
LINE
  5
762
  8
0
 62
     7
 10
86.742900000000006
 20
65.472700000000003
 30
0.0
 11
86.635099999999994
 21
65.366600000000005
 31
0.0
  0
LINE
  5
763
  8
0
 62
     7
 10
83.085199999999986
 20
65.097200000000001
 30
0.0
 11
86.635099999999994
 21
65.097200000000001
 31
0.0
  0
LINE
  5
764
  8
0
 62
     7
 10
86.635099999999994
 20
60.994100000000003
 30
0.0
 11
83.027299999999997
 21
60.994100000000003
 31
0.0
  0
LINE
  5
765
  8
0
 62
     7
 10
86.108999999999995
 20
64.844700000000003
 30
0.0
 11
86.635099999999994
 21
64.844700000000003
 31
0.0
  0
LINE
  5
766
  8
0
 62
     7
 10
86.635099999999994
 20
61.2438
 30
0.0
 11
86.108999999999995
 21
61.2438
 31
0.0
  0
LINE
  5
767
  8
0
 62
     7
 10
122.178
 20
63.652700000000003
 30
0.0
 11
122.178
 21
62.403100000000002
 31
0.0
  0
ARC
  5
768
  8
0
 62
     7
 10
84.147200999999995
 20
78.547175999999993
 30
0.0
 40
1.5694639999999991
 50
154.056206
 51
179.9201679999999
  0
ARC
  5
769
  8
0
 62
     7
 10
84.619999000000007
 20
78.345292999999984
 30
0.0
 40
2.083091
 50
136.86764099999991
 51
154.75224700000001
  0
ARC
  5
76A
  8
0
 62
     7
 10
85.271400999999997
 20
77.767723000000004
 30
0.0
 40
2.953441999999999
 50
98.355668000000023
 51
137.33047999999991
  0
ARC
  5
76B
  8
0
 62
     7
 10
69.658065000000008
 20
78.09450799999999
 30
0.0
 40
2.61755
 50
66.301447999999993
 51
82.525202000000007
  0
ARC
  5
76C
  8
0
 62
     7
 10
69.525874999999985
 20
77.719325999999995
 30
0.0
 40
3.0143699999999991
 50
39.610785
 51
66.866967000000002
  0
ARC
  5
76D
  8
0
 62
     7
 10
70.224519000000001
 20
78.352145999999991
 30
0.0
 40
2.073100999999999
 50
17.287051000000002
 51
38.447544000000001
  0
ARC
  5
76E
  8
0
 62
     7
 10
70.705190000000002
 20
78.536761999999996
 30
0.0
 40
1.559639999999999
 50
0.4629060000000001
 51
16.058457999999991
  0
LINE
  5
76F
  8
0
 62
     7
 10
79.318700000000007
 20
73.391999999999996
 30
0.0
 11
79.318700000000007
 21
75.142099999999999
 31
0.0
  0
LINE
  5
770
  8
0
 62
     7
 10
75.568600000000004
 20
73.391999999999996
 30
0.0
 11
75.568600000000004
 21
75.142099999999999
 31
0.0
  0
LINE
  5
771
  8
0
  6
AIGENLINE001
 62
     7
 10
77.4435
 20
57.282699999999998
 30
0.0
 11
77.4435
 21
82.525000000000006
 31
0.0
  0
ARC
  5
772
  8
0
 62
     7
 10
70.946611000000004
 20
71.623893999999993
 30
0.0
 40
0.6566010000000001
 50
180.53297499999991
 51
230.363069
  0
ARC
  5
773
  8
0
 62
     7
 10
70.964332999999996
 20
71.592937000000006
 30
0.0
 40
0.674752
 50
92.201770999999994
 51
177.88945899999999
  0
ARC
  5
774
  8
0
 62
     7
 10
83.925543999999988
 20
71.596281999999988
 30
0.0
 40
0.6713779999999999
 50
1.8355399999999999
 51
87.859685999999996
  0
ARC
  5
775
  8
0
 62
     7
 10
83.941594999999978
 20
71.622272999999993
 30
0.0
 40
0.6549970000000001
 50
309.68990899999989
 51
359.60755399999999
  0
LINE
  5
776
  8
0
 62
     7
 10
82.653499999999994
 20
68.9375
 30
0.0
 11
82.653499999999994
 21
65.527900000000002
 31
0.0
  0
ARC
  5
777
  8
0
 62
     7
 10
71.132549999999995
 20
68.926013999999995
 30
0.0
 40
1.1019719999999991
 50
0.5964699999999999
 51
59.332732
  0
ARC
  5
778
  8
0
 62
     7
 10
83.756933000000004
 20
68.925155000000004
 30
0.0
 40
1.103470999999999
 50
120.7110389999999
 51
179.3597199999999
  0
LINE
  5
779
  8
0
 62
     7
 10
72.234499999999997
 20
60.778799999999997
 30
0.0
 11
72.234499999999997
 21
68.9375
 31
0.0
  0
LINE
  5
77A
  8
0
 62
     7
 10
86.108999999999995
 20
61.2438
 30
0.0
 11
85.673900000000003
 21
60.994100000000003
 31
0.0
  0
LINE
  5
77B
  8
0
 62
     7
 10
82.145399999999995
 20
58.617600000000003
 30
0.0
 11
82.145399999999995
 21
60.130000000000003
 31
0.0
  0
LINE
  5
77C
  8
0
 62
     7
 10
72.450800000000001
 20
58.910499999999992
 30
0.0
 11
82.4375
 21
58.910499999999992
 31
0.0
  0
LINE
  5
77D
  8
0
 62
     7
 10
84.974500000000006
 20
70.901200000000003
 30
0.0
 11
83.193399999999997
 21
69.873900000000006
 31
0.0
  0
LINE
  5
77E
  8
0
 62
     7
 10
84.974500000000006
 20
70.901200000000003
 30
0.0
 11
84.974500000000006
 21
71.118200000000002
 31
0.0
  0
LINE
  5
77F
  8
0
 62
     7
 10
82.4375
 20
60.130000000000003
 30
0.0
 11
72.504199999999997
 21
60.130000000000003
 31
0.0
  0
LINE
  5
780
  8
0
 62
     7
 10
82.383099999999999
 20
60.130000000000003
 30
0.0
 11
82.383099999999999
 21
60.778799999999997
 31
0.0
  0
LINE
  5
781
  8
0
 62
     7
 10
72.504199999999997
 20
60.130000000000003
 30
0.0
 11
72.504199999999997
 21
60.778799999999997
 31
0.0
  0
LINE
  5
782
  8
0
 62
     7
 10
72.450800000000001
 20
58.910499999999992
 30
0.0
 11
72.743700000000004
 21
58.617600000000003
 31
0.0
  0
LINE
  5
783
  8
0
 62
     7
 10
82.4375
 20
58.910499999999992
 30
0.0
 11
82.145399999999995
 21
58.617600000000003
 31
0.0
  0
LINE
  5
784
  8
0
 62
     7
 10
82.4375
 20
60.130000000000003
 30
0.0
 11
82.4375
 21
58.910499999999992
 31
0.0
  0
LINE
  5
785
  8
0
 62
     7
 10
72.450800000000001
 20
58.910499999999992
 30
0.0
 11
72.450800000000001
 21
60.130000000000003
 31
0.0
  0
LINE
  5
786
  8
0
 62
     7
 10
82.145399999999995
 20
58.617600000000003
 30
0.0
 11
72.743700000000004
 21
58.617600000000003
 31
0.0
  0
LINE
  5
787
  8
0
 62
     7
 10
69.912499999999994
 20
70.901200000000003
 30
0.0
 11
71.694599999999994
 21
69.873900000000006
 31
0.0
  0
LINE
  5
788
  8
0
 62
     7
 10
69.912499999999994
 20
70.901200000000003
 30
0.0
 11
69.912499999999994
 21
71.118200000000002
 31
0.0
  0
LINE
  5
789
  8
0
 62
     7
 10
122.392
 20
62.617400000000004
 30
0.0
 11
122.178
 21
62.403100000000002
 31
0.0
  0
LINE
  5
78A
  8
0
 62
     7
 10
122.178
 20
63.652700000000003
 30
0.0
 11
122.392
 21
63.434899999999999
 31
0.0
  0
LINE
  5
78B
  8
0
 62
     7
 10
122.392
 20
62.617400000000004
 30
0.0
 11
122.392
 21
63.434899999999999
 31
0.0
  0
LINE
  5
78C
  8
0
 62
     7
 10
72.743700000000004
 20
58.617600000000003
 30
0.0
 11
72.743700000000004
 21
60.130000000000003
 31
0.0
  0
LINE
  5
78D
  8
0
 62
     7
 10
76.193899999999999
 20
75.7667
 30
0.0
 11
78.693399999999997
 21
75.7667
 31
0.0
  0
LINE
  5
78E
  8
0
 62
     7
 10
76.193899999999999
 20
72.7667
 30
0.0
 11
78.693399999999997
 21
72.7667
 31
0.0
  0
LINE
  5
78F
  8
0
 62
     7
 10
70.938400000000001
 20
72.267200000000003
 30
0.0
 11
83.950599999999994
 21
72.267200000000003
 31
0.0
  0
LINE
  5
790
  8
0
 62
     7
 10
86.108999999999995
 20
60.994100000000003
 30
0.0
 11
86.108999999999995
 21
65.097200000000001
 31
0.0
  0
LINE
  5
791
  8
0
 62
     7
 10
85.673900000000003
 20
65.097200000000001
 30
0.0
 11
86.108999999999995
 21
64.844700000000003
 31
0.0
  0
LINE
  5
792
  8
0
 62
     7
 10
87.499099999999984
 20
65.472700000000003
 30
0.0
 11
86.742900000000006
 21
65.472700000000003
 31
0.0
  0
ARC
  5
793
  8
0
 62
     7
 10
51.137096999999997
 20
85.179789000000014
 30
0.0
 40
0.009551
 50
290.83310899999992
 51
351.98607299999998
  0
ARC
  5
794
  8
0
 62
     7
 10
51.088867
 20
85.267927999999998
 30
0.0
 40
0.109942
 50
280.36000999999999
 51
298.0077839999999
  0
ARC
  5
795
  8
0
 62
     7
 10
50.934538000000003
 20
85.961996999999997
 30
0.0
 40
0.820893
 50
275.50428099999988
 51
282.24462299999999
  0
ARC
  5
796
  8
0
 62
     7
 10
50.68533
 20
88.273933
 30
0.0
 40
3.1461830000000002
 50
272.44456400000001
 51
275.98321199999998
  0
ARC
  5
797
  8
0
 62
     7
 10
50.530091999999989
 20
91.478843999999995
 30
0.0
 40
6.3548249999999991
 50
269.92354199999988
 51
272.61044299999998
  0
ARC
  5
798
  8
0
 62
     7
 10
50.521594999999998
 20
91.120063000000002
 30
0.0
 40
5.9960379999999986
 50
265.57520299999987
 51
270.00016199999999
  0
ARC
  5
799
  8
0
 62
     7
 10
50.130457
 20
86.07730699999999
 30
0.0
 40
0.938136
 50
257.786902
 51
265.63141400000001
  0
ARC
  5
79A
  8
0
 62
     7
 10
49.932959999999987
 20
85.205883
 30
0.0
 40
0.04549
 50
217.07683700000001
 51
268.784873
  0
LINE
  5
79B
  8
0
 62
     7
 10
49.896700000000003
 20
85.178500000000014
 30
0.0
 11
49.896700000000003
 21
138.179
 31
0.0
  0
LINE
  5
79C
  8
0
 62
     7
 10
51.146599999999999
 20
85.178500000000014
 30
0.0
 11
51.146599999999999
 21
138.179
 31
0.0
  0
LINE
  5
79D
  8
0
 62
     7
 10
51.459400000000002
 20
138.179
 30
0.0
 11
51.459400000000002
 21
72.681299999999993
 31
0.0
  0
LINE
  5
79E
  8
0
 62
     7
 10
53.959099999999999
 20
156.929
 30
0.0
 11
53.959099999999999
 21
145.67899999999989
 31
0.0
  0
LINE
  5
79F
  8
0
 62
     7
 10
53.959099999999999
 20
144.179
 30
0.0
 11
53.959099999999999
 21
72.681299999999993
 31
0.0
  0
LINE
  5
7A0
  8
0
 62
     7
 10
49.584200000000003
 20
138.179
 30
0.0
 11
49.584200000000003
 21
72.681299999999993
 31
0.0
  0
LINE
  5
7A1
  8
0
 62
     7
 10
47.084099999999992
 20
156.929
 30
0.0
 11
47.084099999999992
 21
145.67899999999989
 31
0.0
  0
LINE
  5
7A2
  8
0
 62
     7
 10
47.084099999999992
 20
144.179
 30
0.0
 11
47.084099999999992
 21
72.681299999999993
 31
0.0
  0
LINE
  5
7A3
  8
0
  6
AIGENLINE001
 62
     7
 10
52.709299999999992
 20
61.8688
 30
0.0
 11
52.709299999999992
 21
159.5329999999999
 31
0.0
  0
LINE
  5
7A4
  8
0
 62
     7
 10
55.462600000000002
 20
67.805099999999996
 30
0.0
 11
55.462600000000002
 21
65.179199999999994
 31
0.0
  0
LINE
  5
7A5
  8
0
 62
     7
 10
54.087299999999999
 20
67.805099999999996
 30
0.0
 11
54.087299999999999
 21
65.179199999999994
 31
0.0
  0
ARC
  5
7A6
  8
0
 62
     7
 10
52.09742
 20
72.996516999999997
 30
0.0
 40
8.5108619999999995
 50
291.64301499999999
 51
293.29081500000001
  0
ARC
  5
7A7
  8
0
 62
     7
 10
54.548651999999997
 20
66.853037999999984
 30
0.0
 40
1.896471
 50
281.78779100000003
 51
291.26332000000002
  0
ARC
  5
7A8
  8
0
 62
     7
 10
54.754709999999989
 20
65.943973
 30
0.0
 40
0.9646139999999999
 50
270.46569699999998
 51
280.83723800000001
  0
ARC
  5
7A9
  8
0
 62
     7
 10
54.76268799999999
 20
65.885310000000004
 30
0.0
 40
0.90592
 50
257.53026799999998
 51
269.991333
  0
ARC
  5
7AA
  8
0
 62
     7
 10
54.885210000000001
 20
66.508554000000004
 30
0.0
 40
1.5409889999999991
 50
247.169749
 51
258.085823
  0
ARC
  5
7AB
  8
0
 62
     7
 10
55.339613
 20
67.668485000000004
 30
0.0
 40
2.7865349999999989
 50
243.29396499999999
 51
247.812341
  0
ARC
  5
7AC
  8
0
 62
     7
 10
54.840085999999999
 20
66.695623999999995
 30
0.0
 40
1.3407299999999991
 50
97.317863000000017
 51
124.157433
  0
ARC
  5
7AD
  8
0
 62
     7
 10
54.763671000000002
 20
67.129098999999997
 30
0.0
 40
0.9012870000000001
 50
90.071229999999986
 51
96.009534000000016
  0
ARC
  5
7AE
  8
0
 62
     7
 10
54.761756000000013
 20
67.111080999999999
 30
0.0
 40
0.9193049999999999
 50
77.812441000000007
 51
89.950447999999994
  0
ARC
  5
7AF
  8
0
 62
     7
 10
54.671774999999997
 20
66.645443999999998
 30
0.0
 40
1.393481999999999
 50
66.825141999999985
 51
78.237994
  0
ARC
  5
7B0
  8
0
 62
     7
 10
54.449306999999997
 20
66.084439000000003
 30
0.0
 40
1.9968339999999991
 50
59.505949999999999
 51
67.291696000000002
  0
LINE
  5
7B1
  8
0
 62
     7
 10
49.9621
 20
67.805099999999996
 30
0.0
 11
49.9621
 21
65.179199999999994
 31
0.0
  0
LINE
  5
7B2
  8
0
 62
     7
 10
51.3367
 20
67.805099999999996
 30
0.0
 11
51.3367
 21
65.179199999999994
 31
0.0
  0
ARC
  5
7B3
  8
0
 62
     7
 10
47.911486999999987
 20
73.143068
 30
0.0
 40
8.6692179999999972
 50
291.694098
 51
293.27244000000002
  0
ARC
  5
7B4
  8
0
 62
     7
 10
50.380763000000002
 20
66.962307999999993
 30
0.0
 40
2.01349
 50
282.24405200000001
 51
291.41933199999988
  0
ARC
  5
7B5
  8
0
 62
     7
 10
50.651722999999997
 20
65.782997999999992
 30
0.0
 40
0.8036760000000001
 50
270.74496599999998
 51
281.19653699999998
  0
ARC
  5
7B6
  8
0
 62
     7
 10
50.662981000000002
 20
65.886921999999998
 30
0.0
 40
0.9075319999999999
 50
257.81198299999988
 51
269.94892599999991
  0
ARC
  5
7B7
  8
0
 62
     7
 10
50.761985000000003
 20
66.419875000000005
 30
0.0
 40
1.44946
 50
252.9407139999999
 51
258.43437299999999
  0
ARC
  5
7B8
  8
0
 62
     7
 10
51.009982999999998
 20
67.224857
 30
0.0
 40
2.2917770000000002
 50
248.54088300000001
 51
252.91730599999991
  0
ARC
  5
7B9
  8
0
 62
     7
 10
52.432328000000012
 20
70.813321999999999
 30
0.0
 40
6.1518420000000003
 50
246.32558999999989
 51
248.43888699999999
  0
ARC
  5
7BA
  8
0
 62
     7
 10
50.964061000000001
 20
66.092006999999995
 30
0.0
 40
1.984561
 50
107.8799179999999
 51
120.3224249999999
  0
ARC
  5
7BB
  8
0
 62
     7
 10
50.686624000000002
 20
66.902854000000005
 30
0.0
 40
1.1277969999999991
 50
91.242338000000004
 51
107.113371
  0
ARC
  5
7BC
  8
0
 62
     7
 10
50.661446000000012
 20
67.263714000000007
 30
0.0
 40
0.766672
 50
76.139626000000007
 51
89.945769999999996
  0
ARC
  5
7BD
  8
0
 62
     7
 10
50.518042999999999
 20
66.586832999999984
 30
0.0
 40
1.458377
 50
65.825644999999994
 51
77.040245999999996
  0
ARC
  5
7BE
  8
0
 62
     7
 10
50.271615999999987
 20
65.978156000000013
 30
0.0
 40
2.1147320000000001
 50
59.757435000000001
 51
66.488002000000009
  0
ARC
  5
7BF
  8
0
 62
     7
 10
55.397227000000001
 20
58.615765000000003
 30
0.0
 40
6.692880999999999
 50
101.286674
 51
103.1978889999999
  0
ARC
  5
7C0
  8
0
 62
     7
 10
52.397607000000001
 20
70.710032999999996
 30
0.0
 40
5.7689959999999987
 50
278.57858599999992
 51
284.77810199999988
  0
ARC
  5
7C1
  8
0
 62
     7
 10
52.911836999999998
 20
67.270467000000011
 30
0.0
 40
2.2912110000000001
 50
270.62022400000001
 51
278.69332400000002
  0
LINE
  5
7C2
  8
0
 62
     7
 10
52.936599999999999
 20
64.979399999999984
 30
0.0
 11
52.487400000000001
 21
64.979399999999984
 31
0.0
  0
ARC
  5
7C3
  8
0
 62
     7
 10
52.487713999999997
 20
66.939540000000008
 30
0.0
 40
1.9601489999999999
 50
261.53812999999991
 51
269.990679
  0
ARC
  5
7C4
  8
0
 62
     7
 10
52.70203399999999
 20
68.595999000000006
 30
0.0
 40
3.6302529999999988
 50
258.55251800000002
 51
262.03944999999987
  0
ARC
  5
7C5
  8
0
 62
     7
 10
54.121793999999987
 20
75.490847000000002
 30
0.0
 40
10.669745999999989
 50
256.53940499999999
 51
258.42848900000001
  0
ARC
  5
7C6
  8
0
 62
     7
 10
50.205016999999998
 20
59.201240000000013
 30
0.0
 40
6.084147999999999
 50
76.376069000000001
 51
79.280000000000001
  0
ARC
  5
7C7
  8
0
 62
     7
 10
52.575806
 20
64.153227000000001
 30
0.0
 40
3.8563349999999992
 50
102.8027419999999
 51
108.74217400000001
  0
ARC
  5
7C8
  8
0
 62
     7
 10
52.817979000000001
 20
63.28307800000001
 30
0.0
 40
4.7587120000000001
 50
94.332845999999975
 51
103.3244709999999
  0
ARC
  5
7C9
  8
0
 62
     7
 10
52.605004999999998
 20
65.746988000000002
 30
0.0
 40
2.2859050000000001
 50
87.316779999999994
 51
93.675730999999985
  0
ARC
  5
7CA
  8
0
 62
     7
 10
52.795273999999999
 20
66.614558000000002
 30
0.0
 40
1.418274
 50
88.960406000000006
 51
93.365382999999994
  0
ARC
  5
7CB
  8
0
 62
     7
 10
52.781622999999989
 20
65.457778000000005
 30
0.0
 40
2.5751209999999989
 50
85.185413999999994
 51
89.123698999999988
  0
ARC
  5
7CC
  8
0
 62
     7
 10
52.583480000000002
 20
63.137334000000003
 30
0.0
 40
4.9040089999999994
 50
72.142374000000004
 51
85.154031999999987
  0
LINE
  5
7CD
  8
0
 62
     7
 10
53.962600000000002
 20
68.206100000000006
 30
0.0
 11
52.712000000000003
 21
68.206100000000006
 31
0.0
  0
LINE
  5
7CE
  8
0
 62
     7
 10
51.462099999999992
 20
68.206100000000006
 30
0.0
 11
52.712000000000003
 21
68.206100000000006
 31
0.0
  0
LINE
  5
7CF
  8
0
 62
     7
 10
50.4114
 20
64.9298
 30
0.0
 11
52.712000000000003
 21
64.9298
 31
0.0
  0
LINE
  5
7D0
  8
0
 62
     7
 10
52.712000000000003
 20
64.9298
 30
0.0
 11
55.012700000000002
 21
64.9298
 31
0.0
  0
LINE
  5
7D1
  8
0
 62
     7
 10
55.313099999999999
 20
65.129599999999996
 30
0.0
 11
55.012700000000002
 21
64.954599999999999
 31
0.0
  0
LINE
  5
7D2
  8
0
 62
     7
 10
55.012700000000002
 20
64.954599999999999
 30
0.0
 11
55.012700000000002
 21
64.9298
 31
0.0
  0
LINE
  5
7D3
  8
0
 62
     7
 10
55.462600000000002
 20
65.179199999999994
 30
0.0
 11
55.012700000000002
 21
64.954599999999999
 31
0.0
  0
LINE
  5
7D4
  8
0
 62
     7
 10
49.9621
 20
65.179199999999994
 30
0.0
 11
50.4114
 21
64.9298
 31
0.0
  0
LINE
  5
7D5
  8
0
 62
     7
 10
50.4114
 20
68.055199999999999
 30
0.0
 11
55.012700000000002
 21
68.055199999999999
 31
0.0
  0
LINE
  5
7D6
  8
0
 62
     7
 10
51.161700000000003
 20
68.179900000000004
 30
0.0
 11
54.262300000000003
 21
68.179900000000004
 31
0.0
  0
ARC
  5
7D7
  8
0
 62
     7
 10
53.710607999999993
 20
68.876822000000004
 30
0.0
 40
0.716507
 50
290.59053399999988
 51
326.53321899999992
  0
ARC
  5
7D8
  8
0
 62
     7
 10
53.878512000000001
 20
68.740622999999999
 30
0.0
 40
0.5017740000000001
 50
328.93488500000001
 51
341.35771599999998
  0
LINE
  5
7D9
  8
0
 62
     7
 10
54.353999999999999
 20
68.580200000000005
 30
0.0
 11
54.387
 21
68.680099999999996
 31
0.0
  0
LINE
  5
7DA
  8
0
 62
     7
 10
54.387
 20
68.680099999999996
 30
0.0
 11
54.387
 21
68.830299999999994
 31
0.0
  0
LINE
  5
7DB
  8
0
 62
     7
 10
54.387
 20
68.830299999999994
 30
0.0
 11
54.337400000000002
 21
69.005399999999995
 31
0.0
  0
LINE
  5
7DC
  8
0
 62
     7
 10
51.061799999999998
 20
69.005399999999995
 30
0.0
 11
51.086599999999997
 21
69.005399999999995
 31
0.0
  0
ARC
  5
7DD
  8
0
 62
     7
 10
158.2501419999999
 20
53.724043000000002
 30
0.0
 40
108.272147
 50
171.88628
 51
171.97981899999991
  0
LINE
  5
7DE
  8
0
 62
     7
 10
51.036999999999992
 20
68.830299999999994
 30
0.0
 11
51.036999999999992
 21
68.680099999999996
 31
0.0
  0
LINE
  5
7DF
  8
0
 62
     7
 10
51.036999999999992
 20
68.680099999999996
 30
0.0
 11
51.069400000000002
 21
68.580200000000005
 31
0.0
  0
ARC
  5
7E0
  8
0
 62
     7
 10
52.13416500000001
 20
68.936678000000001
 30
0.0
 40
1.1228599999999991
 50
198.508769
 51
203.306194
  0
ARC
  5
7E1
  8
0
 62
     7
 10
51.540644
 20
68.680002999999999
 30
0.0
 40
0.4762170000000001
 50
203.19695899999999
 51
222.350945
  0
ARC
  5
7E2
  8
0
 62
     7
 10
51.472726999999999
 20
68.636893000000001
 30
0.0
 40
0.397225
 50
224.35538399999999
 51
234.70535699999991
  0
ARC
  5
7E3
  8
0
 62
     7
 10
51.665312
 20
68.914775000000006
 30
0.0
 40
0.7353100000000001
 50
234.967907
 51
242.37642099999999
  0
ARC
  5
7E4
  8
0
 62
     7
 10
53.437026000000003
 20
72.295170999999996
 30
0.0
 40
4.5518589999999994
 50
242.34616299999999
 51
243.93979300000001
  0
LINE
  5
7E5
  8
0
 62
     7
 10
51.4373
 20
68.206100000000006
 30
0.0
 11
51.462099999999992
 21
68.206100000000006
 31
0.0
  0
LINE
  5
7E6
  8
0
 62
     7
 10
51.262300000000003
 20
69.430499999999995
 30
0.0
 11
54.137599999999992
 21
69.430499999999995
 31
0.0
  0
LINE
  5
7E7
  8
0
 62
     7
 10
51.262300000000003
 20
71.430700000000002
 30
0.0
 11
52.712000000000003
 21
71.430700000000002
 31
0.0
  0
LINE
  5
7E8
  8
0
 62
     7
 10
52.712000000000003
 20
71.430700000000002
 30
0.0
 11
54.137599999999992
 21
71.430700000000002
 31
0.0
  0
LINE
  5
7E9
  8
0
 62
     7
 10
54.387
 20
71.980599999999995
 30
0.0
 11
54.387
 21
71.855800000000002
 31
0.0
  0
LINE
  5
7EA
  8
0
 62
     7
 10
54.387
 20
71.855800000000002
 30
0.0
 11
54.312600000000003
 21
71.730400000000003
 31
0.0
  0
LINE
  5
7EB
  8
0
 62
     7
 10
51.0122
 20
71.980599999999995
 30
0.0
 11
51.036999999999992
 21
71.855800000000002
 31
0.0
  0
LINE
  5
7EC
  8
0
 62
     7
 10
51.036999999999992
 20
71.855800000000002
 30
0.0
 11
51.086599999999997
 21
71.730400000000003
 31
0.0
  0
LINE
  5
7ED
  8
0
 62
     7
 10
51.0122
 20
72.681299999999993
 30
0.0
 11
54.387
 21
72.681299999999993
 31
0.0
  0
LINE
  5
7EE
  8
0
 62
     7
 10
51.0122
 20
72.681299999999993
 30
0.0
 11
51.0122
 21
71.980599999999995
 31
0.0
  0
LINE
  5
7EF
  8
0
 62
     7
 10
54.387
 20
72.681299999999993
 30
0.0
 11
54.387
 21
71.980599999999995
 31
0.0
  0
LINE
  5
7F0
  8
0
 62
     7
 10
55.012700000000002
 20
68.055199999999999
 30
0.0
 11
55.462600000000002
 21
67.805099999999996
 31
0.0
  0
LINE
  5
7F1
  8
0
 62
     7
 10
50.4114
 20
68.055199999999999
 30
0.0
 11
49.9621
 21
67.805099999999996
 31
0.0
  0
LINE
  5
7F2
  8
0
 62
     7
 10
51.086599999999997
 20
71.730400000000003
 30
0.0
 11
51.262300000000003
 21
71.430700000000002
 31
0.0
  0
LINE
  5
7F3
  8
0
 62
     7
 10
51.262300000000003
 20
69.430499999999995
 30
0.0
 11
51.086599999999997
 21
69.005399999999995
 31
0.0
  0
LINE
  5
7F4
  8
0
 62
     7
 10
54.312600000000003
 20
71.730400000000003
 30
0.0
 11
54.137599999999992
 21
71.430700000000002
 31
0.0
  0
LINE
  5
7F5
  8
0
 62
     7
 10
54.137599999999992
 20
69.430499999999995
 30
0.0
 11
54.337400000000002
 21
69.005399999999995
 31
0.0
  0
LINE
  5
7F6
  8
0
 62
     7
 10
51.262300000000003
 20
71.430700000000002
 30
0.0
 11
51.262300000000003
 21
69.430499999999995
 31
0.0
  0
LINE
  5
7F7
  8
0
 62
     7
 10
54.137599999999992
 20
71.430700000000002
 30
0.0
 11
54.137599999999992
 21
69.430499999999995
 31
0.0
  0
LINE
  5
7F8
  8
0
 62
     7
 10
51.161700000000003
 20
68.179900000000004
 30
0.0
 11
51.161700000000003
 21
68.055199999999999
 31
0.0
  0
LINE
  5
7F9
  8
0
 62
     7
 10
54.262300000000003
 20
68.179900000000004
 30
0.0
 11
54.262300000000003
 21
68.055199999999999
 31
0.0
  0
LINE
  5
7FA
  8
0
 62
     7
 10
49.9621
 20
65.179199999999994
 30
0.0
 11
50.4114
 21
64.9298
 31
0.0
  0
LINE
  5
7FB
  8
0
 62
     7
 10
55.462600000000002
 20
65.179199999999994
 30
0.0
 11
55.012700000000002
 21
64.9298
 31
0.0
  0
LINE
  5
7FC
  8
0
 62
     7
 10
159.34999999999991
 20
93.683099999999996
 30
0.0
 11
157.19
 21
92.922399999999996
 31
0.0
  0
LINE
  5
7FD
  8
0
 62
     7
 10
157.19
 20
92.922399999999996
 30
0.0
 11
159.441
 21
92.501400000000004
 31
0.0
  0
LINE
  5
7FE
  8
0
 62
     7
 10
159.441
 20
92.501400000000004
 30
0.0
 11
159.34999999999991
 21
93.683099999999996
 31
0.0
  0
LINE
  5
7FF
  8
0
 62
     7
 10
153.78499999999991
 20
92.065200000000004
 30
0.0
 11
155.9439999999999
 21
92.826300000000003
 31
0.0
  0
LINE
  5
800
  8
0
 62
     7
 10
155.9439999999999
 20
92.826300000000003
 30
0.0
 11
153.6939999999999
 21
93.246899999999997
 31
0.0
  0
LINE
  5
801
  8
0
 62
     7
 10
153.6939999999999
 20
93.246899999999997
 30
0.0
 11
153.78499999999991
 21
92.065200000000004
 31
0.0
  0
LINE
  5
802
  8
0
 62
     7
 10
152.53
 20
92.563100000000006
 30
0.0
 11
165.05199999999999
 21
93.528400000000005
 31
0.0
  0
LINE
  5
803
  8
0
 62
     7
 10
156.5379999999999
 20
85.130200000000002
 30
0.0
 11
157.78399999999991
 21
85.226299999999995
 31
0.0
  0
LINE
  5
804
  8
0
 62
     7
 10
153.238
 20
144.179
 30
0.0
 11
157.78399999999991
 21
85.226299999999995
 31
0.0
  0
LINE
  5
805
  8
0
 62
     7
 10
151.16499999999991
 20
154.881
 30
0.0
 11
151.874
 21
145.67899999999989
 31
0.0
  0
LINE
  5
806
  8
0
 62
     7
 10
151.989
 20
144.179
 30
0.0
 11
156.5379999999999
 21
85.130200000000002
 31
0.0
  0
LINE
  5
807
  8
0
  6
AIGENLINE001
 62
     7
 10
151.834
 20
154.25200000000001
 30
0.0
 11
157.227
 21
84.322999999999993
 31
0.0
  0
LINE
  5
808
  8
0
 62
     7
 10
168.65199999999999
 20
155.46700000000001
 30
0.0
 11
168.059
 21
157.679
 31
0.0
  0
LINE
  5
809
  8
0
 62
     7
 10
168.059
 20
157.679
 30
0.0
 11
167.46700000000001
 21
155.46700000000001
 31
0.0
  0
LINE
  5
80A
  8
0
 62
     7
 10
167.46700000000001
 20
155.46700000000001
 30
0.0
 11
168.65199999999999
 21
155.46700000000001
 31
0.0
  0
LINE
  5
80B
  8
0
 62
     7
 10
167.48099999999991
 20
87.390199999999993
 30
0.0
 11
168.07400000000001
 21
85.178500000000014
 31
0.0
  0
LINE
  5
80C
  8
0
 62
     7
 10
168.07400000000001
 20
85.178500000000014
 30
0.0
 11
168.666
 21
87.390199999999993
 31
0.0
  0
LINE
  5
80D
  8
0
 62
     7
 10
168.666
 20
87.390199999999993
 30
0.0
 11
167.48099999999991
 21
87.390199999999993
 31
0.0
  0
LINE
  5
80E
  8
0
 62
     7
 10
168.059
 20
157.679
 30
0.0
 11
168.059
 21
85.178799999999995
 31
0.0
  0
LINE
  5
80F
  8
0
 62
     7
 10
131.935
 20
155.46700000000001
 30
0.0
 11
131.3429999999999
 21
157.679
 31
0.0
  0
LINE
  5
810
  8
0
 62
     7
 10
131.3429999999999
 20
157.679
 30
0.0
 11
130.75
 21
155.46700000000001
 31
0.0
  0
LINE
  5
811
  8
0
 62
     7
 10
130.75
 20
155.46700000000001
 30
0.0
 11
131.935
 21
155.46700000000001
 31
0.0
  0
LINE
  5
812
  8
0
 62
     7
 10
130.7649999999999
 20
68.140299999999996
 30
0.0
 11
131.357
 21
65.9285
 31
0.0
  0
LINE
  5
813
  8
0
 62
     7
 10
131.357
 20
65.9285
 30
0.0
 11
131.9499999999999
 21
68.140299999999996
 31
0.0
  0
LINE
  5
814
  8
0
 62
     7
 10
131.9499999999999
 20
68.140299999999996
 30
0.0
 11
130.7649999999999
 21
68.140299999999996
 31
0.0
  0
LINE
  5
815
  8
0
 62
     7
 10
131.3429999999999
 20
157.679
 30
0.0
 11
131.3429999999999
 21
65.928899999999999
 31
0.0
  0
LINE
  5
816
  8
0
 62
     7
 10
138.565
 20
155.46700000000001
 30
0.0
 11
137.97200000000001
 21
157.679
 31
0.0
  0
LINE
  5
817
  8
0
 62
     7
 10
137.97200000000001
 20
157.679
 30
0.0
 11
137.37999999999991
 21
155.46700000000001
 31
0.0
  0
LINE
  5
818
  8
0
 62
     7
 10
137.37999999999991
 20
155.46700000000001
 30
0.0
 11
138.565
 21
155.46700000000001
 31
0.0
  0
LINE
  5
819
  8
0
 62
     7
 10
137.39400000000001
 20
147.8899999999999
 30
0.0
 11
137.98699999999991
 21
145.67899999999989
 31
0.0
  0
LINE
  5
81A
  8
0
 62
     7
 10
137.98699999999991
 20
145.67899999999989
 30
0.0
 11
138.57900000000001
 21
147.8899999999999
 31
0.0
  0
LINE
  5
81B
  8
0
 62
     7
 10
138.57900000000001
 20
147.8899999999999
 30
0.0
 11
137.39400000000001
 21
147.8899999999999
 31
0.0
  0
LINE
  5
81C
  8
0
 62
     7
 10
137.97200000000001
 20
157.679
 30
0.0
 11
137.97200000000001
 21
145.67899999999989
 31
0.0
  0
LINE
  5
81D
  8
0
 62
     7
 10
143.43600000000001
 20
145.67899999999989
 30
0.0
 11
137.27199999999999
 21
145.67899999999989
 31
0.0
  0
LINE
  5
81E
  8
0
 62
     7
 10
168.75899999999999
 20
85.178500000000014
 30
0.0
 11
158.81399999999991
 21
85.178500000000014
 31
0.0
  0
LINE
  5
81F
  8
0
 62
     7
 10
168.75899999999999
 20
157.679
 30
0.0
 11
157.98699999999991
 21
157.679
 31
0.0
  0
LINE
  5
820
  8
0
 62
     7
 10
151.16499999999991
 20
72.681299999999993
 30
0.0
 11
151.16499999999991
 21
144.179
 31
0.0
  0
LINE
  5
821
  8
0
 62
     7
 10
151.16499999999991
 20
145.67899999999989
 30
0.0
 11
151.16499999999991
 21
156.929
 31
0.0
  0
LINE
  5
822
  8
0
 62
     7
 10
151.16499999999991
 20
152.15600000000001
 30
0.0
 11
151.16499999999991
 21
150.88499999999991
 31
0.0
  0
LINE
  5
823
  8
0
 62
     7
 10
148.66499999999999
 20
72.681299999999993
 30
0.0
 11
148.66499999999999
 21
144.179
 31
0.0
  0
LINE
  5
824
  8
0
 62
     7
 10
148.66499999999999
 20
145.67899999999989
 30
0.0
 11
148.66499999999999
 21
156.929
 31
0.0
  0
LINE
  5
825
  8
0
 62
     7
 10
154.1879999999999
 20
58.648600000000002
 30
0.0
 11
151.977
 21
58.056100000000001
 31
0.0
  0
LINE
  5
826
  8
0
 62
     7
 10
151.977
 20
58.056100000000001
 30
0.0
 11
154.1879999999999
 21
57.464199999999998
 31
0.0
  0
LINE
  5
827
  8
0
 62
     7
 10
154.1879999999999
 20
57.464199999999998
 30
0.0
 11
154.1879999999999
 21
58.648600000000002
 31
0.0
  0
LINE
  5
828
  8
0
 62
     7
 10
145.642
 20
57.478000000000002
 30
0.0
 11
147.852
 21
58.070599999999992
 31
0.0
  0
LINE
  5
829
  8
0
 62
     7
 10
147.852
 20
58.070599999999992
 30
0.0
 11
145.642
 21
58.6631
 31
0.0
  0
LINE
  5
82A
  8
0
 62
     7
 10
145.642
 20
58.6631
 30
0.0
 11
145.642
 21
57.478000000000002
 31
0.0
  0
LINE
  5
82B
  8
0
 62
     7
 10
137.34200000000001
 20
58.063699999999997
 30
0.0
 11
155.6929999999999
 21
58.063699999999997
 31
0.0
  0
LINE
  5
82C
  8
0
 62
     7
 10
149.91499999999999
 20
65.179199999999994
 30
0.0
 11
149.91499999999999
 21
67.804400000000001
 31
0.0
  0
LINE
  5
82D
  8
0
 62
     7
 10
147.5389999999999
 20
65.179199999999994
 30
0.0
 11
147.5389999999999
 21
67.804400000000001
 31
0.0
  0
ARC
  5
82E
  8
0
 62
     7
 10
153.162879
 20
87.628038999999987
 30
0.0
 40
23.142506999999998
 50
255.936249
 51
256.95002199999999
  0
ARC
  5
82F
  8
0
 62
     7
 10
149.03380100000001
 20
69.932896999999997
 30
0.0
 40
4.9720930000000001
 50
257.25949700000001
 51
263.09643
  0
ARC
  5
830
  8
0
 62
     7
 10
148.75020299999991
 20
67.808888999999994
 30
0.0
 40
2.8295180000000002
 50
263.62774799999988
 51
269.79011099999991
  0
ARC
  5
831
  8
0
 62
     7
 10
148.738517
 20
67.500365000000002
 30
0.0
 40
2.5209749999999991
 50
270.03002299999991
 51
277.20703900000001
  0
ARC
  5
832
  8
0
 62
     7
 10
148.5266409999999
 20
69.295302000000007
 30
0.0
 40
4.3283379999999987
 50
277.008714
 51
283.59966600000001
  0
ARC
  5
833
  8
0
 62
     7
 10
145.74451999999991
 20
81.366846999999993
 30
0.0
 40
16.716142999999992
 50
283.13919599999991
 51
284.445897
  0
ARC
  5
834
  8
0
 62
     7
 10
148.29572899999991
 20
63.070259999999998
 30
0.0
 40
5.0032759999999996
 50
71.121235999999996
 51
78.868915000000001
  0
ARC
  5
835
  8
0
 62
     7
 10
148.70881
 20
65.016465999999994
 30
0.0
 40
3.014079999999999
 50
79.431341000000003
 51
89.410163999999995
  0
ARC
  5
836
  8
0
 62
     7
 10
148.740182
 20
65.147521999999995
 30
0.0
 40
2.8828640000000001
 50
90.006844999999998
 51
100.852923
  0
ARC
  5
837
  8
0
 62
     7
 10
148.98490200000001
 20
63.678569999999993
 30
0.0
 40
4.3717699999999988
 50
100.3779049999999
 51
109.3104749999999
  0
ARC
  5
838
  8
0
 62
     7
 10
155.492377
 20
87.444613000000004
 30
0.0
 40
22.953423999999998
 50
255.9361529999999
 51
256.95859000000002
  0
ARC
  5
839
  8
0
 62
     7
 10
151.411293
 20
69.943289000000007
 30
0.0
 40
4.9826600000000001
 50
257.2639299999999
 51
263.08700699999991
  0
ARC
  5
83A
  8
0
 62
     7
 10
151.12514699999991
 20
67.800402000000005
 30
0.0
 40
2.8210309999999992
 50
263.617998
 51
269.78492499999987
  0
ARC
  5
83B
  8
0
 62
     7
 10
151.1132429999999
 20
67.502826999999996
 30
0.0
 40
2.523436999999999
 50
270.02984600000002
 51
277.20351699999992
  0
ARC
  5
83C
  8
0
 62
     7
 10
150.90126399999991
 20
69.298201000000006
 30
0.0
 40
4.3312460000000002
 50
277.00742700000001
 51
283.59563300000002
  0
ARC
  5
83D
  8
0
 62
     7
 10
148.0558179999999
 20
81.644940000000005
 30
0.0
 40
17.001439000000001
 50
283.13524999999993
 51
284.42132700000002
  0
LINE
  5
83E
  8
0
 62
     7
 10
152.28999999999991
 20
65.179199999999994
 30
0.0
 11
152.28999999999991
 21
67.804400000000001
 31
0.0
  0
ARC
  5
83F
  8
0
 62
     7
 10
150.6653629999999
 20
63.047460999999998
 30
0.0
 40
5.0267169999999988
 50
71.143041000000011
 51
78.857030000000009
  0
ARC
  5
840
  8
0
 62
     7
 10
151.08376000000001
 20
65.013807
 30
0.0
 40
3.016735999999999
 50
79.436267999999998
 51
89.415066000000024
  0
ARC
  5
841
  8
0
 62
     7
 10
151.114903
 20
65.153169999999989
 30
0.0
 40
2.877216999999999
 50
90.006888999999987
 51
100.863602
  0
ARC
  5
842
  8
0
 62
     7
 10
151.36219700000001
 20
63.672134999999997
 30
0.0
 40
4.3784669999999988
 50
100.388957
 51
109.305924
  0
LINE
  5
843
  8
0
 62
     7
 10
152.28999999999991
 20
64.979399999999984
 30
0.0
 11
152.28999999999991
 21
65.179199999999994
 31
0.0
  0
LINE
  5
844
  8
0
 62
     7
 10
152.28999999999991
 20
67.804400000000001
 30
0.0
 11
152.28999999999991
 21
68.0304
 31
0.0
  0
LINE
  5
845
  8
0
 62
     7
 10
147.5389999999999
 20
64.979399999999984
 30
0.0
 11
147.5389999999999
 21
65.179199999999994
 31
0.0
  0
LINE
  5
846
  8
0
 62
     7
 10
147.5389999999999
 20
67.804400000000001
 30
0.0
 11
147.5389999999999
 21
68.0304
 31
0.0
  0
LINE
  5
847
  8
0
 62
     7
 10
151.16499999999991
 20
68.204700000000003
 30
0.0
 11
149.91499999999999
 21
68.204700000000003
 31
0.0
  0
LINE
  5
848
  8
0
 62
     7
 10
149.91499999999999
 20
68.204700000000003
 30
0.0
 11
148.66499999999999
 21
68.204700000000003
 31
0.0
  0
LINE
  5
849
  8
0
 62
     7
 10
152.28999999999991
 20
64.979399999999984
 30
0.0
 11
152.215
 21
64.9298
 31
0.0
  0
LINE
  5
84A
  8
0
 62
     7
 10
152.215
 20
64.9298
 30
0.0
 11
147.614
 21
64.9298
 31
0.0
  0
LINE
  5
84B
  8
0
 62
     7
 10
147.614
 20
64.9298
 30
0.0
 11
147.5389999999999
 21
64.979399999999984
 31
0.0
  0
ARC
  5
84C
  8
0
 62
     7
 10
152.27153399999989
 20
67.996643999999989
 30
0.0
 40
0.038479
 50
61.269488000000003
 51
90.14337900000001
  0
ARC
  5
84D
  8
0
 62
     7
 10
152.1099449999999
 20
66.677604999999986
 30
0.0
 40
1.3670910000000001
 50
83.215862000000001
 51
88.382508000000001
  0
ARC
  5
84E
  8
0
 62
     7
 10
151.6020399999999
 20
54.459854000000007
 30
0.0
 40
13.595285000000001
 50
87.696236999999996
 51
89.304100000000005
  0
ARC
  5
84F
  8
0
 62
     7
 10
150.68892199999991
 20
-7.2266949999999994
 30
0.0
 40
75.288551999999996
 50
89.179406999999998
 51
89.888685999999993
  0
ARC
  5
850
  8
0
 62
     7
 10
149.99063299999989
 20
-310.043453
 30
0.0
 40
378.106111
 50
89.872012999999995
 51
90.360083999999986
  0
LINE
  5
851
  8
0
 62
     7
 10
147.614
 20
68.055199999999999
 30
0.0
 11
147.5389999999999
 21
68.0304
 31
0.0
  0
LINE
  5
852
  8
0
 62
     7
 10
151.465
 20
68.055199999999999
 30
0.0
 11
151.465
 21
68.179900000000004
 31
0.0
  0
LINE
  5
853
  8
0
 62
     7
 10
151.465
 20
68.179900000000004
 30
0.0
 11
148.364
 21
68.179900000000004
 31
0.0
  0
LINE
  5
854
  8
0
 62
     7
 10
148.364
 20
68.055199999999999
 30
0.0
 11
148.364
 21
68.179900000000004
 31
0.0
  0
LINE
  5
855
  8
0
 62
     7
 10
148.66499999999999
 20
68.204700000000003
 30
0.0
 11
148.28999999999991
 21
68.505799999999994
 31
0.0
  0
LINE
  5
856
  8
0
 62
     7
 10
148.28999999999991
 20
68.505799999999994
 30
0.0
 11
148.26400000000001
 21
69.005399999999995
 31
0.0
  0
LINE
  5
857
  8
0
 62
     7
 10
151.566
 20
69.005399999999995
 30
0.0
 11
151.53999999999991
 21
68.505799999999994
 31
0.0
  0
LINE
  5
858
  8
0
 62
     7
 10
151.53999999999991
 20
68.505799999999994
 30
0.0
 11
151.16499999999991
 21
68.204700000000003
 31
0.0
  0
LINE
  5
859
  8
0
 62
     7
 10
151.36500000000001
 20
69.430499999999995
 30
0.0
 11
148.465
 21
69.430499999999995
 31
0.0
  0
LINE
  5
85A
  8
0
 62
     7
 10
148.465
 20
69.430499999999995
 30
0.0
 11
148.26400000000001
 21
69.005399999999995
 31
0.0
  0
LINE
  5
85B
  8
0
 62
     7
 10
151.566
 20
69.005399999999995
 30
0.0
 11
151.36500000000001
 21
69.430499999999995
 31
0.0
  0
LINE
  5
85C
  8
0
 62
     7
 10
151.36500000000001
 20
71.430700000000002
 30
0.0
 11
148.465
 21
71.430700000000002
 31
0.0
  0
LINE
  5
85D
  8
0
 62
     7
 10
147.852
 20
57.674399999999999
 30
0.0
 11
147.852
 21
64.489500000000007
 31
0.0
  0
LINE
  5
85E
  8
0
 62
     7
 10
151.977
 20
57.674399999999999
 30
0.0
 11
151.977
 21
64.489500000000007
 31
0.0
  0
LINE
  5
85F
  8
0
 62
     7
 10
148.465
 20
69.430499999999995
 30
0.0
 11
148.465
 21
71.430700000000002
 31
0.0
  0
LINE
  5
860
  8
0
 62
     7
 10
151.36500000000001
 20
69.430499999999995
 30
0.0
 11
151.36500000000001
 21
71.430700000000002
 31
0.0
  0
LINE
  5
861
  8
0
 62
     7
 10
148.465
 20
71.430700000000002
 30
0.0
 11
148.28999999999991
 21
71.731099999999998
 31
0.0
  0
LINE
  5
862
  8
0
 62
     7
 10
151.53999999999991
 20
71.731099999999998
 30
0.0
 11
151.36500000000001
 21
71.430700000000002
 31
0.0
  0
LINE
  5
863
  8
0
 62
     7
 10
148.28999999999991
 20
71.731099999999998
 30
0.0
 11
148.239
 21
71.855800000000002
 31
0.0
  0
LINE
  5
864
  8
0
 62
     7
 10
148.239
 20
71.855800000000002
 30
0.0
 11
148.239
 21
71.980599999999995
 31
0.0
  0
ARC
  5
865
  8
0
 62
     7
 10
150.997018
 20
72.039384999999996
 30
0.0
 40
0.620564
 50
339.65870099999989
 51
354.56034
  0
ARC
  5
866
  8
0
 62
     7
 10
150.91976199999999
 20
72.048298000000003
 30
0.0
 40
0.6963460000000001
 50
332.90463599999993
 51
341.18094600000001
  0
LINE
  5
867
  8
0
 62
     7
 10
151.61500000000001
 20
71.980599999999995
 30
0.0
 11
151.61500000000001
 21
72.681299999999993
 31
0.0
  0
LINE
  5
868
  8
0
 62
     7
 10
151.61500000000001
 20
72.681299999999993
 30
0.0
 11
148.239
 21
72.681299999999993
 31
0.0
  0
LINE
  5
869
  8
0
 62
     7
 10
148.239
 20
71.980599999999995
 30
0.0
 11
148.239
 21
72.681299999999993
 31
0.0
  0
LINE
  5
86A
  8
0
  6
AIGENLINE001
 62
     7
 10
149.91499999999999
 20
63.148699999999991
 30
0.0
 11
149.91499999999999
 21
159.56999999999991
 31
0.0
  0
LINE
  5
86B
  8
0
 62
     7
 10
146.32199999999989
 20
65.928899999999999
 30
0.0
 11
130.64299999999989
 21
65.928899999999999
 31
0.0
  0
LINE
  5
86C
  8
0
 62
     7
 10
144.62
 20
233.80600000000001
 30
0.0
 11
138.2529999999999
 21
233.80600000000001
 31
0.0
  0
ARC
  5
86D
  8
0
 62
     7
 10
150.664624
 20
239.85113199999989
 30
0.0
 40
3.5002399999999998
 50
270.00002000000001
 51
359.99998999999991
  0
ARC
  5
86E
  8
0
 62
     7
 10
150.6649679999999
 20
239.850786
 30
0.0
 40
3.4998939999999998
 50
179.99432999999991
 51
269.99437999999992
  0
ARC
  5
86F
  8
0
 62
     7
 10
150.66479699999991
 20
239.85130299999989
 30
0.0
 40
3.4997229999999999
 50
90.002820000000014
 51
180.00282999999999
  0
ARC
  5
870
  8
0
 62
     7
 10
150.664796
 20
239.85095799999999
 30
0.0
 40
3.500067
 50
0.00283
 51
90.002800000000008
  0
LINE
  5
871
  8
0
  6
AIGENLINE001
 62
     7
 10
156.76699999999991
 20
239.85099999999991
 30
0.0
 11
144.58699999999999
 21
239.85099999999991
 31
0.0
  0
LINE
  5
872
  8
0
 62
     7
 10
149.1089999999999
 20
238.958
 30
0.0
 11
148.1939999999999
 21
237.37200000000001
 31
0.0
  0
LINE
  5
873
  8
0
 62
     7
 10
148.1939999999999
 20
237.37200000000001
 30
0.0
 11
149.77999999999989
 21
238.2879999999999
 31
0.0
  0
LINE
  5
874
  8
0
 62
     7
 10
149.77999999999989
 20
238.2879999999999
 30
0.0
 11
149.1089999999999
 21
238.958
 31
0.0
  0
LINE
  5
875
  8
0
 62
     7
 10
152.22499999999991
 20
240.7399999999999
 30
0.0
 11
153.1399999999999
 21
242.32599999999991
 31
0.0
  0
LINE
  5
876
  8
0
 62
     7
 10
153.1399999999999
 20
242.32599999999991
 30
0.0
 11
151.554
 21
241.41099999999989
 31
0.0
  0
LINE
  5
877
  8
0
 62
     7
 10
151.554
 20
241.41099999999989
 30
0.0
 11
152.22499999999991
 21
240.7399999999999
 31
0.0
  0
LINE
  5
878
  8
0
 62
     7
 10
144.62
 20
233.80600000000001
 30
0.0
 11
153.1399999999999
 21
242.32599999999991
 31
0.0
  0
LINE
  5
879
  8
0
  6
AIGENLINE001
 62
     7
 10
150.66499999999999
 20
233.70299999999989
 30
0.0
 11
150.66499999999999
 21
246.20299999999989
 31
0.0
  0
TEXT
  5
87A
  8
_________2
 62
     7
 10
20.360600000000002
 20
38.9681
 30
0.0
 40
4.2168199999999993
  1
・国産洗面器とのセットの場合は、国産の排水ヘッド部を別途準備してください。
 41
0.5
  0
TEXT
  5
87B
  8
_________2
 62
     7
 10
24.586400000000001
 20
0.707627
 30
0.0
 40
3.9357000000000002
  1
（社）日本水道協会認証品
 41
0.5
  0
TEXT
  5
87C
  8
_________2
 62
     7
 10
109.179
 20
24.226099999999999
 30
0.0
 40
3.9357000000000002
  1
ウィンド　湯水混合水栓
 41
0.5
  0
LINE
  5
87D
  8
_________2
 62
     7
 10
205.30099999999999
 20
127.411
 30
0.0
 11
183.55099999999999
 21
127.411
 31
0.0
  0
LINE
  5
87E
  8
_________2
 62
     7
 10
100.2999999999999
 20
-4.0910799999999998
 30
0.0
 11
100.2999999999999
 21
-21.070999999999991
 31
0.0
  0
LINE
  5
87F
  8
_________2
 62
     7
 10
100.2999999999999
 20
275.93099999999993
 30
0.0
 11
100.2999999999999
 21
258.911
 31
0.0
  0
LINE
  5
880
  8
_________2
 62
     7
 10
17.049199999999988
 20
127.411
 30
0.0
 11
-4.7012099999999988
 21
127.411
 31
0.0
  0
LINE
  5
881
  8
_________2
 62
     7
 10
76.740700000000004
 20
29.8047
 30
0.0
 11
74.554400000000001
 21
29.8047
 31
0.0
  0
LINE
  5
882
  8
_________2
 62
     7
 10
77.2333
 20
29.8047
 30
0.0
 11
76.981099999999984
 21
29.8047
 31
0.0
  0
LINE
  5
883
  8
_________2
 62
     7
 10
77.725999999999999
 20
29.8047
 30
0.0
 11
80.650899999999993
 21
29.8047
 31
0.0
  0
LINE
  5
884
  8
_________2
 62
     7
 10
77.2333
 20
29.8047
 30
0.0
 11
77.485500000000002
 21
29.8047
 31
0.0
  0
LINE
  5
885
  8
_________2
 62
     7
 10
70.837100000000007
 20
29.8047
 30
0.0
 11
68.650199999999998
 21
29.8047
 31
0.0
  0
LINE
  5
886
  8
_________2
 62
     7
 10
71.329099999999997
 20
29.8047
 30
0.0
 11
71.077600000000004
 21
29.8047
 31
0.0
  0
LINE
  5
887
  8
_________2
 62
     7
 10
71.329099999999997
 20
30.2974
 30
0.0
 11
71.329099999999997
 21
32.484400000000001
 31
0.0
  0
LINE
  5
888
  8
_________2
 62
     7
 10
71.329099999999997
 20
29.8047
 30
0.0
 11
71.329099999999997
 21
30.057300000000001
 31
0.0
  0
LINE
  5
889
  8
_________2
 62
     7
 10
71.821700000000007
 20
29.8047
 30
0.0
 11
74.008700000000005
 21
29.8047
 31
0.0
  0
LINE
  5
88A
  8
_________2
 62
     7
 10
71.329099999999997
 20
29.8047
 30
0.0
 11
71.581299999999985
 21
29.8047
 31
0.0
  0
LINE
  5
88B
  8
_________2
 62
     7
 10
71.329099999999997
 20
29.312799999999999
 30
0.0
 11
71.329099999999997
 21
27.126200000000001
 31
0.0
  0
LINE
  5
88C
  8
_________2
 62
     7
 10
71.329099999999997
 20
29.8047
 30
0.0
 11
71.329099999999997
 21
29.5532
 31
0.0
  0
LINE
  5
88D
  8
_________2
 62
     7
 10
75.040199999999999
 20
28.5852
 30
0.0
 11
80.218199999999996
 21
27.720400000000001
 31
0.0
  0
LINE
  5
88E
  8
_________2
 62
     7
 10
75.040199999999999
 20
31.024699999999999
 30
0.0
 11
80.218199999999996
 21
31.8901
 31
0.0
  0
LINE
  5
88F
  8
_________2
 62
     7
 10
80.218199999999996
 20
27.720400000000001
 30
0.0
 11
80.218199999999996
 21
31.8901
 31
0.0
  0
LINE
  5
890
  8
_________2
 62
     7
 10
75.040199999999999
 20
28.5852
 30
0.0
 11
75.040199999999999
 21
31.024699999999999
 31
0.0
  0
ARC
  5
891
  8
_________2
 62
     7
 10
71.282501999999994
 20
29.757801000000001
 30
0.0
 40
1.267714
 50
2.1220840000000001
 51
87.894083999999992
  0
ARC
  5
892
  8
_________2
 62
     7
 10
71.375640000000004
 20
29.758545999999999
 30
0.0
 40
1.2669680000000001
 50
92.105782999999988
 51
177.91037
  0
ARC
  5
893
  8
_________2
 62
     7
 10
71.376013999999998
 20
29.851671
 30
0.0
 40
1.2673680000000001
 50
182.12203600000001
 51
267.877993
  0
ARC
  5
894
  8
_________2
 62
     7
 10
71.282195999999999
 20
29.852347999999999
 30
0.0
 40
1.2680439999999991
 50
272.11916400000001
 51
357.84848499999993
  0
ARC
  5
895
  8
_________2
 62
     7
 10
71.248716999999985
 20
29.724731999999989
 30
0.0
 40
2.1668310000000002
 50
2.1161439999999989
 51
87.874379000000005
  0
ARC
  5
896
  8
_________2
 62
     7
 10
71.408756000000011
 20
29.726146
 30
0.0
 40
2.165392999999999
 50
92.108508999999998
 51
177.91986499999999
  0
ARC
  5
897
  8
_________2
 62
     7
 10
71.409094999999994
 20
29.884751999999999
 30
0.0
 40
2.1657829999999998
 50
182.117133
 51
267.88289700000001
  0
ARC
  5
898
  8
_________2
 62
     7
 10
71.249115000000003
 20
29.885429999999989
 30
0.0
 40
2.1664590000000001
 50
272.11546800000002
 51
357.86560400000002
  0
TEXT
  5
899
  8
_________2
 62
     7
 10
104.605
 20
1.6794899999999999
 30
0.0
 40
3.0923400000000001
  1
図番
 41
0.5
  0
LINE
  5
89A
  8
_________2
 62
     7
 10
103.55
 20
5.9087199999999989
 30
0.0
 11
183.55099999999999
 21
5.9087199999999989
 31
0.0
  0
TEXT
  5
89B
  8
_________2
 62
     7
 10
104.605
 20
11.679299999999991
 30
0.0
 40
3.0923400000000001
  1
品番
 41
0.5
  0
TEXT
  5
89C
  8
_________2
 62
     7
 10
104.605
 20
31.8184
 30
0.0
 40
3.0923400000000001
  1
名称
 41
0.5
  0
TEXT
  5
89D
  8
_________2
 62
     7
 10
91.844758333333345
 20
26.822299999999998
 30
0.0
 40
3.6545800000000002
  1
mm
 41
0.5
 72
     1
 11
93.367500000000007
 21
26.822299999999998
 31
0.0
  0
TEXT
  5
89E
  8
_________2
 62
     7
 10
85.642899999999983
 20
31.8184
 30
0.0
 40
3.0923400000000001
  1
単位
 41
0.5
  0
TEXT
  5
89F
  8
_________2
 62
     7
 10
85.642899999999983
 20
19.410799999999991
 30
0.0
 40
3.0923400000000001
  1
尺度
 41
0.5
  0
TEXT
  5
8A0
  8
_________2
 62
     7
 10
90.548458666666676
 20
13.218199999999991
 30
0.0
 40
3.6545800000000002
  1
1 ： 4
 41
0.5
 72
     1
 11
93.959400000000016
 21
13.218199999999991
 31
0.0
  0
TEXT
  5
8A1
  8
_________2
 62
     7
 10
138.30240000000001
 20
9.1082000000000001
 30
0.0
 40
3.9357000000000002
  1
ZU0590
 41
0.5
 72
     1
 11
143.55000000000001
 21
9.1082000000000001
 31
0.0
  0
TEXT
  5
8A2
  8
_________2
 62
     7
 10
138.30240000000001
 20
-0.8926299999999999
 30
0.0
 40
3.9357000000000002
  1
ZU0590
 41
0.5
 72
     1
 11
143.55000000000001
 21
-0.8926299999999999
 31
0.0
  0
TEXT
  5
8A3
  8
_________2
 62
     7
 10
39.42500033333333
 20
13.603400000000001
 30
0.0
 40
3.6545800000000002
  1
早川
 41
0.5
 72
     1
 11
41.313200000000002
 21
13.603400000000001
 31
0.0
  0
TEXT
  5
8A4
  8
_________2
 62
     7
 10
20.790090666666661
 20
13.603400000000001
 30
0.0
 40
3.6545800000000002
  1
菅原
 41
0.5
 72
     1
 11
22.73919999999999
 21
13.603400000000001
 31
0.0
  0
TEXT
  5
8A5
  8
_________2
 62
     7
 10
67.785399999999996
 20
13.218199999999991
 30
0.0
 40
3.6545800000000002
  1
14.01.14
 41
0.5
  0
TEXT
  5
8A6
  8
_________2
 62
     7
 10
66.592699999999994
 20
19.410799999999991
 30
0.0
 40
3.0923400000000001
  1
日付
 41
0.5
  0
TEXT
  5
8A7
  8
_________2
 62
     7
 10
29.638999999999999
 20
19.410799999999991
 30
0.0
 40
3.0923400000000001
  1
検図
 41
0.5
  0
TEXT
  5
8A8
  8
_________2
 62
     7
 10
18.020700000000001
 20
5.21143
 30
0.0
 40
3.0923400000000001
  1
備考
 41
0.5
  0
TEXT
  5
8A9
  8
_________2
 62
     7
 10
18.020700000000001
 20
19.410799999999991
 30
0.0
 40
3.0923400000000001
  1
製図
 41
0.5
  0
TEXT
  5
8AA
  8
_________2
 62
     7
 10
23.788165333333328
 20
27.936800000000002
 30
0.0
 40
4.4979399999999989
  1
セラトレーディング株式会社
 41
0.5
 72
     1
 11
41.180199999999999
 21
27.936800000000002
 31
0.0
  0
LINE
  5
8AB
  8
_________2
 62
     7
 10
183.55099999999999
 20
-4.0910799999999998
 30
0.0
 11
17.049199999999988
 21
-4.0910799999999998
 31
0.0
  0
LINE
  5
8AC
  8
_________2
 62
     7
 10
17.049199999999988
 20
-4.0910799999999998
 30
0.0
 11
17.049199999999988
 21
258.911
 31
0.0
  0
LINE
  5
8AD
  8
_________2
 62
     7
 10
17.049199999999988
 20
258.911
 30
0.0
 11
183.55099999999999
 21
258.911
 31
0.0
  0
LINE
  5
8AE
  8
_________2
 62
     7
 10
183.55099999999999
 20
258.911
 30
0.0
 11
183.55099999999999
 21
-4.0910799999999998
 31
0.0
  0
LINE
  5
8AF
  8
_________2
 62
     7
 10
65.549599999999998
 20
9.4092999999999982
 30
0.0
 11
65.549599999999998
 21
35.909100000000002
 31
0.0
  0
LINE
  5
8B0
  8
_________2
 62
     7
 10
84.549400000000006
 20
9.4092999999999982
 30
0.0
 11
84.549400000000006
 21
35.909100000000002
 31
0.0
  0
LINE
  5
8B1
  8
_________2
 62
     7
 10
103.55
 20
-4.0910799999999998
 30
0.0
 11
103.55
 21
35.909100000000002
 31
0.0
  0
LINE
  5
8B2
  8
_________2
 62
     7
 10
28.548999999999999
 20
9.4092999999999982
 30
0.0
 11
28.548999999999999
 21
23.409199999999998
 31
0.0
  0
LINE
  5
8B3
  8
_________2
 62
     7
 10
17.049199999999988
 20
9.4092999999999982
 30
0.0
 11
103.55
 21
9.4092999999999982
 31
0.0
  0
LINE
  5
8B4
  8
_________2
 62
     7
 10
17.049199999999988
 20
23.409199999999998
 30
0.0
 11
103.55
 21
23.409199999999998
 31
0.0
  0
LINE
  5
8B5
  8
_________2
 62
     7
 10
103.55
 20
15.9085
 30
0.0
 11
183.55099999999999
 21
15.9085
 31
0.0
  0
LINE
  5
8B6
  8
_________2
 62
     7
 10
17.049199999999988
 20
35.909100000000002
 30
0.0
 11
183.55099999999999
 21
35.909100000000002
 31
0.0
  0
ENDSEC
  0
EOF
