  0
SECTION
  2
HEADER
  9
$ACADVER
  1
AC1009
  9
$INSBASE
 10
0.0
 20
0.0
 30
0.0
  9
$EXTMIN
 10
-4.7012099999999988
 20
-21.071000000000002
 30
0.0
  9
$EXTMAX
 10
205.30099999999999
 20
275.93099999999998
 30
0.0
  9
$LIMMIN
 10
0.0
 20
0.0
  9
$LIMMAX
 10
12.0
 20
9.0
  9
$ORTHOMODE
 70
     0
  9
$REGENMODE
 70
     1
  9
$FILLMODE
 70
     1
  9
$QTEXTMODE
 70
     0
  9
$MIRRTEXT
 70
     1
  9
$DRAGMODE
 70
     2
  9
$LTSCALE
 40
1.0
  9
$OSMODE
 70
    37
  9
$ATTMODE
 70
     1
  9
$TEXTSIZE
 40
0.0
  9
$TRACEWID
 40
0.05
  9
$TEXTSTYLE
  7
STANDARD
  9
$CLAYER
  8
0
  9
$CELTYPE
  6
CONTINUOUS
  9
$CECOLOR
 62
   256
  9
$DIMSCALE
 40
1.0
  9
$DIMASZ
 40
0.18
  9
$DIMEXO
 40
0.0625
  9
$DIMDLI
 40
0.38
  9
$DIMRND
 40
0.0
  9
$DIMDLE
 40
0.0
  9
$DIMEXE
 40
0.18
  9
$DIMTP
 40
0.0
  9
$DIMTM
 40
0.0
  9
$DIMTXT
 40
0.18
  9
$DIMCEN
 40
0.09
  9
$DIMTSZ
 40
0.0
  9
$DIMTOL
 70
     0
  9
$DIMLIM
 70
     0
  9
$DIMTIH
 70
     1
  9
$DIMTOH
 70
     1
  9
$DIMSE1
 70
     0
  9
$DIMSE2
 70
     0
  9
$DIMTAD
 70
     0
  9
$DIMZIN
 70
     0
  9
$DIMBLK
  1

  9
$DIMASO
 70
     1
  9
$DIMSHO
 70
     1
  9
$DIMPOST
  1

  9
$DIMAPOST
  1

  9
$DIMALT
 70
     0
  9
$DIMALTD
 70
     2
  9
$DIMALTF
 40
25.399999999999999
  9
$DIMLFAC
 40
1.0
  9
$DIMTOFL
 70
     0
  9
$DIMTVP
 40
0.0
  9
$DIMTIX
 70
     0
  9
$DIMSOXD
 70
     0
  9
$DIMSAH
 70
     0
  9
$DIMBLK1
  1

  9
$DIMBLK2
  1

  9
$DIMSTYLE
  2
STANDARD
  9
$DIMCLRD
 70
     0
  9
$DIMCLRE
 70
     0
  9
$DIMCLRT
 70
     0
  9
$DIMTFAC
 40
1.0
  9
$DIMGAP
 40
0.09
  9
$LUNITS
 70
     2
  9
$LUPREC
 70
     4
  9
$SKETCHINC
 40
0.1
  9
$FILLETRAD
 40
0.0
  9
$AUNITS
 70
     0
  9
$AUPREC
 70
     0
  9
$MENU
  1
.
  9
$ELEVATION
 40
0.0
  9
$PELEVATION
 40
0.0
  9
$THICKNESS
 40
0.0
  9
$LIMCHECK
 70
     0
  9
$BLIPMODE
 70
     0
  9
$CHAMFERA
 40
0.0
  9
$CHAMFERB
 40
0.0
  9
$SKPOLY
 70
     0
  9
$TDCREATE
 40
2444972.375
  9
$TDUPDATE
 40
2457436.2668183679
  9
$TDINDWG
 40
0.0000297454
  9
$TDUSRTIMER
 40
0.0000297454
  9
$USRTIMER
 70
     1
  9
$ANGBASE
 50
0.0
  9
$ANGDIR
 70
     0
  9
$PDMODE
 70
     0
  9
$PDSIZE
 40
0.0
  9
$PLINEWID
 40
0.0
  9
$COORDS
 70
     1
  9
$SPLFRAME
 70
     0
  9
$SPLINETYPE
 70
     6
  9
$SPLINESEGS
 70
     8
  9
$ATTDIA
 70
     1
  9
$ATTREQ
 70
     1
  9
$HANDLING
 70
     1
  9
$HANDSEED
  5
43F
  9
$SURFTAB1
 70
     6
  9
$SURFTAB2
 70
     6
  9
$SURFTYPE
 70
     6
  9
$SURFU
 70
     6
  9
$SURFV
 70
     6
  9
$UCSNAME
  2

  9
$UCSORG
 10
0.0
 20
0.0
 30
0.0
  9
$UCSXDIR
 10
1.0
 20
0.0
 30
0.0
  9
$UCSYDIR
 10
0.0
 20
1.0
 30
0.0
  9
$PUCSNAME
  2

  9
$PUCSORG
 10
0.0
 20
0.0
 30
0.0
  9
$PUCSXDIR
 10
1.0
 20
0.0
 30
0.0
  9
$PUCSYDIR
 10
0.0
 20
1.0
 30
0.0
  9
$USERI1
 70
     0
  9
$USERI2
 70
     0
  9
$USERI3
 70
     0
  9
$USERI4
 70
     0
  9
$USERI5
 70
     0
  9
$USERR1
 40
0.0
  9
$USERR2
 40
0.0
  9
$USERR3
 40
0.0
  9
$USERR4
 40
0.0
  9
$USERR5
 40
0.0
  9
$WORLDVIEW
 70
     1
  9
$SHADEDGE
 70
     3
  9
$SHADEDIF
 70
    70
  9
$TILEMODE
 70
     1
  9
$MAXACTVP
 70
    48
  9
$PLIMCHECK
 70
     0
  9
$PEXTMIN
 10
1.0000000000000000E+020
 20
1.0000000000000000E+020
 30
1.0000000000000000E+020
  9
$PEXTMAX
 10
-1.0000000000000000E+020
 20
-1.0000000000000000E+020
 30
-1.0000000000000000E+020
  9
$PLIMMIN
 10
0.0
 20
0.0
  9
$PLIMMAX
 10
12.0
 20
9.0
  9
$UNITMODE
 70
     0
  9
$VISRETAIN
 70
     1
  9
$PLINEGEN
 70
     0
  9
$PSLTSCALE
 70
     1
  0
ENDSEC
  0
SECTION
  2
TABLES
  0
TABLE
  2
VPORT
 70
     1
  0
VPORT
  2
*ACTIVE
 70
     0
 10
0.0
 20
0.0
 11
1.0
 21
1.0
 12
165.7276238025147
 22
127.42999999999989
 13
0.0
 23
0.0
 14
1.0
 24
1.0
 15
0.0
 25
0.0
 16
0.0
 26
0.0
 36
1.0
 17
0.0
 27
0.0
 37
0.0
 40
283.528435666853
 41
2.1001926782273599
 42
50.0
 43
0.0
 44
0.0
 50
0.0
 51
0.0
 71
     0
 72
   100
 73
     1
 74
     1
 75
     0
 76
     0
 77
     0
 78
     0
  0
ENDTAB
  0
TABLE
  2
LTYPE
 70
     3
  0
LTYPE
  2
CONTINUOUS
 70
     0
  3
Solid line
 72
    65
 73
     0
 40
0.0
  0
LTYPE
  2
AIGENLINE001
 70
     0
  3
generate AI->DXF Converter
 72
    65
 73
     4
 40
5.8561449999999988
 49
3.5278
 49
-0.776115
 49
0.776115
 49
-0.776115
  0
LTYPE
  2
AIGENLINE002
 70
     0
  3
generate AI->DXF Converter
 72
    65
 73
     6
 40
7.4083750000000004
 49
3.5278
 49
-0.776115
 49
0.776115
 49
-0.776115
 49
0.776115
 49
-0.776115
  0
ENDTAB
  0
TABLE
  2
LAYER
 70
     3
  0
LAYER
  2
0
 70
     0
 62
     7
  6
CONTINUOUS
  0
LAYER
  2
_________4
 70
     0
 62
     7
  6
CONTINUOUS
  0
LAYER
  2
_________2
 70
     0
 62
     7
  6
CONTINUOUS
  0
ENDTAB
  0
TABLE
  2
STYLE
 70
     1
  0
STYLE
  2
STANDARD
 70
     0
 40
0.0
 41
0.0
 50
0.0
 71
     0
 42
0.0
  3
TXT
  4
EXTFONT.SHX
  0
ENDTAB
  0
TABLE
  2
VIEW
 70
     0
  0
ENDTAB
  0
TABLE
  2
UCS
 70
     0
  0
ENDTAB
  0
TABLE
  2
APPID
 70
     3
  0
APPID
  2
ACAD
 70
     0
  0
APPID
  2
ACAD_NAV_VCDISPLAY
 70
     0
  0
APPID
  2
ACAD_MLEADERVER
 70
     0
  0
ENDTAB
  0
TABLE
  2
DIMSTYLE
 70
     1
  0
DIMSTYLE
  2
STANDARD
 70
     0
  3

  4

  5

  6

  7

 40
1.0
 41
0.18
 42
0.0625
 43
0.38
 44
0.18
 45
0.0
 46
0.0
 47
0.0
 48
0.0
140
0.18
141
0.09
142
0.0
143
25.399999999999999
144
1.0
145
0.0
146
1.0
147
0.09
 71
     0
 72
     0
 73
     1
 74
     1
 75
     0
 76
     0
 77
     0
 78
     0
170
     0
171
     2
172
     0
173
     0
174
     0
175
     0
176
     0
177
     0
178
     0
  0
ENDTAB
  0
ENDSEC
  0
SECTION
  2
BLOCKS
  0
BLOCK
  8
0
  2
$MODEL_SPACE
 70
     0
 10
0.0
 20
0.0
 30
0.0
  3
$MODEL_SPACE
  1

  0
ENDBLK
  5
1A
  8
0
  0
BLOCK
 67
     1
  8
0
  2
$PAPER_SPACE
 70
     0
 10
0.0
 20
0.0
 30
0.0
  3
$PAPER_SPACE
  1

  0
ENDBLK
  5
17
 67
     1
  8
0
  0
ENDSEC
  0
SECTION
  2
ENTITIES
  0
TEXT
  5
24
  8
0
 62
     7
 10
144.84399999999999
 20
43.134900000000002
 30
0.0
 40
3.865419999999999
  1
G 3/8
 41
0.5
  0
TEXT
  5
25
  8
0
 62
     7
 10
144.51499999999999
 20
94.350774999999999
 30
0.0
 40
3.0923400000000001
  1
max.45
 50
90.0
 41
0.5
 72
     1
 11
144.51499999999999
 21
98.216200000000015
 31
0.0
  0
TEXT
  5
26
  8
0
 62
     7
 10
136.36199999999999
 20
74.978887500000013
 30
0.0
 40
3.0923400000000001
  1
480
 50
90.0
 41
0.5
 72
     1
 11
136.36199999999999
 21
76.911600000000007
 31
0.0
  0
TEXT
  5
27
  8
0
 62
     7
 10
145.60300000000001
 20
238.86500000000001
 30
0.0
 40
3.0923400000000001
  1
%%c35
 41
0.5
  0
TEXT
  5
28
  8
0
 62
     7
 10
153.58264600000001
 20
230.82499999999999
 30
0.0
 40
3.0923400000000001
  1
水栓取付穴
 41
0.5
 72
     1
 11
158.01499999999999
 21
230.82499999999999
 31
0.0
  0
TEXT
  5
29
  8
0
 62
     7
 10
146.792
 20
174.34999999999999
 30
0.0
 40
3.0923400000000001
  1
%%c40
 41
0.5
  0
TEXT
  5
2A
  8
0
 62
     7
 10
146.34399999999999
 20
110.70999999999999
 30
0.0
 40
3.0923400000000001
  1
%%c49
 41
0.5
  0
TEXT
  5
2B
  8
0
 62
     7
 10
70.008582500000003
 20
210.99799999999999
 30
0.0
 40
3.0923400000000001
  1
40%%d
 41
0.5
 72
     1
 11
71.683599999999984
 21
210.99799999999999
 31
0.0
  0
TEXT
  5
2C
  8
0
 62
     7
 10
45.479482500000003
 20
210.99799999999999
 30
0.0
 40
3.0923400000000001
  1
40%%d
 41
0.5
 72
     1
 11
47.154499999999992
 21
210.99799999999999
 31
0.0
  0
TEXT
  5
2D
  8
0
 62
     7
 10
110.349135
 20
150.059
 30
0.0
 40
3.0923400000000001
  1
35%%d
 41
0.5
 72
     1
 11
112.15300000000001
 21
150.059
 31
0.0
  0
TEXT
  5
2E
  8
0
 62
     7
 10
73.038899999999984
 20
229.726
 30
0.0
 40
3.0923400000000001
  1
水
 41
0.5
  0
TEXT
  5
2F
  8
0
 62
     7
 10
40.970907999999987
 20
229.726
 30
0.0
 40
3.0923400000000001
  1
湯
 41
0.5
 72
     2
 11
42.413999999999987
 21
229.726
 31
0.0
  0
TEXT
  5
30
  8
0
 62
     7
 10
143.26998599999999
 20
193.69
 30
0.0
 40
3.0923400000000001
  1
開
 41
0.5
 72
     2
 11
144.61000000000001
 21
193.69
 31
0.0
  0
TEXT
  5
31
  8
0
 62
     7
 10
136.860986
 20
181.34200000000001
 30
0.0
 40
3.0923400000000001
  1
閉
 41
0.5
 72
     2
 11
138.20099999999999
 21
181.34200000000001
 31
0.0
  0
TEXT
  5
32
  8
0
 62
     7
 10
134.21113500000001
 20
154.74199999999999
 30
0.0
 40
3.0923400000000001
  1
176
 41
0.5
 72
     1
 11
136.01499999999999
 21
154.74199999999999
 31
0.0
  0
TEXT
  5
33
  8
0
 62
     7
 10
88.440500000000014
 20
146.03044
 30
0.0
 40
3.0923400000000001
  1
354
 50
90.0
 41
0.5
 72
     1
 11
88.440500000000014
 21
148.09200000000001
 31
0.0
  0
TEXT
  5
34
  8
0
 62
     7
 10
95.861900000000006
 20
143.1582875
 30
0.0
 40
3.0923400000000001
  1
330
 50
90.0
 41
0.5
 72
     1
 11
95.861900000000006
 21
145.09100000000001
 31
0.0
  0
TEXT
  5
35
  8
0
 62
     7
 10
124.19499999999999
 20
131.07744
 30
0.0
 40
3.0923400000000001
  1
236
 50
90.0
 41
0.5
 72
     1
 11
124.19499999999999
 21
133.13900000000001
 31
0.0
  0
TEXT
  5
36
  8
0
 62
     7
 10
102.60299999999999
 20
131.92228750000001
 30
0.0
 40
3.0923400000000001
  1
240
 50
90.0
 41
0.5
 72
     1
 11
102.60299999999999
 21
133.85499999999999
 31
0.0
  0
LINE
  5
37
  8
_________4
  6
AIGENLINE001
 62
     7
 10
55.6845
 20
45.921999999999997
 30
0.0
 11
55.6845
 21
105.69499999999999
 31
0.0
  0
LINE
  5
38
  8
_________4
 62
     7
 10
57.0625
 20
51.857999999999997
 30
0.0
 11
57.0625
 21
49.232100000000003
 31
0.0
  0
ARC
  5
39
  8
_________4
 62
     7
 10
57.754266999999999
 20
50.093434999999992
 30
0.0
 40
1.061342999999999
 50
253.971206
 51
265.25333000000001
  0
ARC
  5
3A
  8
_________4
 62
     7
 10
58.000241000000003
 20
51.007157999999997
 30
0.0
 40
2.0075240000000001
 50
242.153302
 51
254.42460800000001
  0
ARC
  5
3B
  8
_________4
 62
     7
 10
57.803817000000002
 20
50.768084999999999
 30
0.0
 40
1.3181009999999991
 50
93.802899999999994
 51
124.22223700000001
  0
LINE
  5
3C
  8
_________4
 62
     7
 10
52.9373
 20
51.857999999999997
 30
0.0
 11
52.9373
 21
49.232100000000003
 31
0.0
  0
LINE
  5
3D
  8
_________4
 62
     7
 10
54.311900000000001
 20
51.857999999999997
 30
0.0
 11
54.311900000000001
 21
49.232100000000003
 31
0.0
  0
ARC
  5
3E
  8
_________4
 62
     7
 10
50.886690000000002
 20
57.195963999999996
 30
0.0
 40
8.6692179999999972
 50
291.694098
 51
293.27244000000002
  0
ARC
  5
3F
  8
_________4
 62
     7
 10
53.355967
 20
51.015205000000002
 30
0.0
 40
2.01349
 50
282.24405200000001
 51
291.419332
  0
ARC
  5
40
  8
_________4
 62
     7
 10
53.62692599999999
 20
49.835895000000001
 30
0.0
 40
0.8036760000000001
 50
270.74496599999998
 51
281.19653699999998
  0
ARC
  5
41
  8
_________4
 62
     7
 10
53.638183999999988
 20
49.939819
 30
0.0
 40
0.9075319999999999
 50
257.811983
 51
269.94892599999997
  0
ARC
  5
42
  8
_________4
 62
     7
 10
53.737188000000003
 20
50.472771999999992
 30
0.0
 40
1.44946
 50
252.94071400000001
 51
258.43437299999999
  0
ARC
  5
43
  8
_________4
 62
     7
 10
53.985187000000003
 20
51.277752999999997
 30
0.0
 40
2.2917770000000002
 50
248.54088300000001
 51
252.917306
  0
ARC
  5
44
  8
_________4
 62
     7
 10
55.407532000000003
 20
54.866218999999987
 30
0.0
 40
6.1518420000000003
 50
246.32559000000001
 51
248.43888699999999
  0
ARC
  5
45
  8
_________4
 62
     7
 10
53.939264000000001
 20
50.14490399999999
 30
0.0
 40
1.984561
 50
107.879918
 51
120.322425
  0
ARC
  5
46
  8
_________4
 62
     7
 10
53.661827000000002
 20
50.955750000000002
 30
0.0
 40
1.1277969999999991
 50
91.242338000000004
 51
107.113371
  0
ARC
  5
47
  8
_________4
 62
     7
 10
53.63665000000001
 20
51.316611000000002
 30
0.0
 40
0.766672
 50
76.139626000000007
 51
89.945769999999996
  0
ARC
  5
48
  8
_________4
 62
     7
 10
53.493245999999999
 20
50.63973
 30
0.0
 40
1.458377
 50
65.825644999999994
 51
77.040245999999996
  0
ARC
  5
49
  8
_________4
 62
     7
 10
53.246818999999988
 20
50.031053
 30
0.0
 40
2.1147320000000001
 50
59.757435000000001
 51
66.488002000000009
  0
ARC
  5
4A
  8
_________4
 62
     7
 10
58.372430000000001
 20
42.668661999999991
 30
0.0
 40
6.692880999999999
 50
101.286674
 51
103.197889
  0
ARC
  5
4B
  8
_________4
 62
     7
 10
55.372810000000001
 20
54.762929
 30
0.0
 40
5.7689959999999987
 50
278.57858599999997
 51
284.77810199999999
  0
ARC
  5
4C
  8
_________4
 62
     7
 10
55.887039999999992
 20
51.323363000000001
 30
0.0
 40
2.2912110000000001
 50
270.62022400000001
 51
278.69332400000002
  0
LINE
  5
4D
  8
_________4
 62
     7
 10
55.911799999999999
 20
49.032299999999999
 30
0.0
 11
55.462600000000002
 21
49.032299999999999
 31
0.0
  0
ARC
  5
4E
  8
_________4
 62
     7
 10
55.462918000000002
 20
50.992435999999998
 30
0.0
 40
1.9601489999999999
 50
261.53813000000002
 51
269.990679
  0
ARC
  5
4F
  8
_________4
 62
     7
 10
55.677238000000003
 20
52.648896000000001
 30
0.0
 40
3.6302529999999988
 50
258.55251800000002
 51
262.03944999999999
  0
ARC
  5
50
  8
_________4
 62
     7
 10
57.096996999999988
 20
59.54374399999999
 30
0.0
 40
10.669746
 50
256.53940499999999
 51
258.42848900000001
  0
ARC
  5
51
  8
_________4
 62
     7
 10
53.180219999999998
 20
43.254137
 30
0.0
 40
6.084147999999999
 50
76.376069000000001
 51
79.280000000000001
  0
ARC
  5
52
  8
_________4
 62
     7
 10
55.551008999999993
 20
48.206123999999988
 30
0.0
 40
3.8563349999999992
 50
102.80274199999999
 51
108.74217400000001
  0
ARC
  5
53
  8
_________4
 62
     7
 10
55.793182999999999
 20
47.335974999999998
 30
0.0
 40
4.7587120000000001
 50
94.332845999999975
 51
103.324471
  0
ARC
  5
54
  8
_________4
 62
     7
 10
55.580207999999999
 20
49.799883999999999
 30
0.0
 40
2.2859050000000001
 50
87.316779999999994
 51
93.675730999999985
  0
ARC
  5
55
  8
_________4
 62
     7
 10
55.770477999999997
 20
50.66745499999999
 30
0.0
 40
1.418274
 50
88.960406000000006
 51
93.365382999999994
  0
ARC
  5
56
  8
_________4
 62
     7
 10
55.756827000000001
 20
49.510674999999999
 30
0.0
 40
2.5751209999999989
 50
85.185413999999994
 51
89.123698999999988
  0
ARC
  5
57
  8
_________4
 62
     7
 10
55.558684
 20
47.190230999999997
 30
0.0
 40
4.9040089999999994
 50
72.142374000000004
 51
85.154031999999987
  0
LINE
  5
58
  8
_________4
 62
     7
 10
56.937800000000003
 20
52.258999999999993
 30
0.0
 11
55.68719999999999
 21
52.258999999999993
 31
0.0
  0
LINE
  5
59
  8
_________4
 62
     7
 10
54.4373
 20
52.258999999999993
 30
0.0
 11
55.68719999999999
 21
52.258999999999993
 31
0.0
  0
LINE
  5
5A
  8
_________4
 62
     7
 10
53.386600000000001
 20
48.982700000000001
 30
0.0
 11
55.68719999999999
 21
48.982700000000001
 31
0.0
  0
LINE
  5
5B
  8
_________4
 62
     7
 10
55.68719999999999
 20
48.982700000000001
 30
0.0
 11
57.987900000000003
 21
48.982700000000001
 31
0.0
  0
LINE
  5
5C
  8
_________4
 62
     7
 10
52.9373
 20
49.232100000000003
 30
0.0
 11
53.386600000000001
 21
48.982700000000001
 31
0.0
  0
LINE
  5
5D
  8
_________4
 62
     7
 10
53.386600000000001
 20
52.1081
 30
0.0
 11
57.987900000000003
 21
52.1081
 31
0.0
  0
LINE
  5
5E
  8
_________4
 62
     7
 10
54.13689999999999
 20
52.23279999999999
 30
0.0
 11
57.23749999999999
 21
52.23279999999999
 31
0.0
  0
ARC
  5
5F
  8
_________4
 62
     7
 10
56.685811000000001
 20
52.929718999999992
 30
0.0
 40
0.716507
 50
290.59053399999999
 51
326.53321899999997
  0
ARC
  5
60
  8
_________4
 62
     7
 10
56.853715000000001
 20
52.793519999999987
 30
0.0
 40
0.5017740000000001
 50
328.93488500000001
 51
341.35771599999998
  0
LINE
  5
61
  8
_________4
 62
     7
 10
57.3292
 20
52.633099999999999
 30
0.0
 11
57.362200000000001
 21
52.732999999999997
 31
0.0
  0
LINE
  5
62
  8
_________4
 62
     7
 10
57.362200000000001
 20
52.732999999999997
 30
0.0
 11
57.362200000000001
 21
52.883200000000002
 31
0.0
  0
LINE
  5
63
  8
_________4
 62
     7
 10
57.362200000000001
 20
52.883200000000002
 30
0.0
 11
57.312600000000003
 21
53.058300000000003
 31
0.0
  0
LINE
  5
64
  8
_________4
 62
     7
 10
54.036999999999999
 20
53.058300000000003
 30
0.0
 11
54.061799999999991
 21
53.058300000000003
 31
0.0
  0
ARC
  5
65
  8
_________4
 62
     7
 10
161.225345
 20
37.776940000000003
 30
0.0
 40
108.272147
 50
171.88628
 51
171.97981899999999
  0
LINE
  5
66
  8
_________4
 62
     7
 10
54.0122
 20
52.883200000000002
 30
0.0
 11
54.0122
 21
52.732999999999997
 31
0.0
  0
LINE
  5
67
  8
_________4
 62
     7
 10
54.0122
 20
52.732999999999997
 30
0.0
 11
54.044600000000003
 21
52.633099999999999
 31
0.0
  0
ARC
  5
68
  8
_________4
 62
     7
 10
55.109368000000003
 20
52.989575000000002
 30
0.0
 40
1.1228599999999991
 50
198.508769
 51
203.306194
  0
ARC
  5
69
  8
_________4
 62
     7
 10
54.515846999999987
 20
52.732900000000001
 30
0.0
 40
0.4762170000000001
 50
203.19695899999999
 51
222.350945
  0
ARC
  5
6A
  8
_________4
 62
     7
 10
54.447930999999997
 20
52.689790000000002
 30
0.0
 40
0.397225
 50
224.35538399999999
 51
234.70535699999999
  0
ARC
  5
6B
  8
_________4
 62
     7
 10
54.640515000000001
 20
52.967672
 30
0.0
 40
0.7353100000000001
 50
234.967907
 51
242.37642099999999
  0
ARC
  5
6C
  8
_________4
 62
     7
 10
56.412229000000004
 20
56.348067999999998
 30
0.0
 40
4.5518589999999994
 50
242.34616299999999
 51
243.93979300000001
  0
LINE
  5
6D
  8
_________4
 62
     7
 10
54.412500000000001
 20
52.258999999999993
 30
0.0
 11
54.4373
 21
52.258999999999993
 31
0.0
  0
LINE
  5
6E
  8
_________4
 62
     7
 10
54.237499999999997
 20
53.483400000000003
 30
0.0
 11
57.1128
 21
53.483400000000003
 31
0.0
  0
LINE
  5
6F
  8
_________4
 62
     7
 10
54.237499999999997
 20
55.483600000000003
 30
0.0
 11
55.68719999999999
 21
55.483600000000003
 31
0.0
  0
LINE
  5
70
  8
_________4
 62
     7
 10
55.68719999999999
 20
55.483600000000003
 30
0.0
 11
57.1128
 21
55.483600000000003
 31
0.0
  0
LINE
  5
71
  8
_________4
 62
     7
 10
57.362200000000001
 20
56.033499999999989
 30
0.0
 11
57.362200000000001
 21
55.908700000000003
 31
0.0
  0
LINE
  5
72
  8
_________4
 62
     7
 10
57.362200000000001
 20
55.908700000000003
 30
0.0
 11
57.287799999999997
 21
55.783299999999997
 31
0.0
  0
LINE
  5
73
  8
_________4
 62
     7
 10
53.987400000000001
 20
56.033499999999989
 30
0.0
 11
54.0122
 21
55.908700000000003
 31
0.0
  0
LINE
  5
74
  8
_________4
 62
     7
 10
54.0122
 20
55.908700000000003
 30
0.0
 11
54.061799999999991
 21
55.783299999999997
 31
0.0
  0
LINE
  5
75
  8
_________4
 62
     7
 10
53.987400000000001
 20
56.734200000000001
 30
0.0
 11
57.362200000000001
 21
56.734200000000001
 31
0.0
  0
LINE
  5
76
  8
_________4
 62
     7
 10
53.987400000000001
 20
56.734200000000001
 30
0.0
 11
53.987400000000001
 21
56.033499999999989
 31
0.0
  0
LINE
  5
77
  8
_________4
 62
     7
 10
57.362200000000001
 20
56.734200000000001
 30
0.0
 11
57.362200000000001
 21
56.033499999999989
 31
0.0
  0
LINE
  5
78
  8
_________4
 62
     7
 10
53.386600000000001
 20
52.1081
 30
0.0
 11
52.9373
 21
51.857999999999997
 31
0.0
  0
LINE
  5
79
  8
_________4
 62
     7
 10
54.061799999999991
 20
55.783299999999997
 30
0.0
 11
54.237499999999997
 21
55.483600000000003
 31
0.0
  0
LINE
  5
7A
  8
_________4
 62
     7
 10
54.237499999999997
 20
53.483400000000003
 30
0.0
 11
54.061799999999991
 21
53.058300000000003
 31
0.0
  0
LINE
  5
7B
  8
_________4
 62
     7
 10
57.287799999999997
 20
55.783299999999997
 30
0.0
 11
57.1128
 21
55.483600000000003
 31
0.0
  0
LINE
  5
7C
  8
_________4
 62
     7
 10
57.1128
 20
53.483400000000003
 30
0.0
 11
57.312600000000003
 21
53.058300000000003
 31
0.0
  0
LINE
  5
7D
  8
_________4
 62
     7
 10
54.237499999999997
 20
55.483600000000003
 30
0.0
 11
54.237499999999997
 21
53.483400000000003
 31
0.0
  0
LINE
  5
7E
  8
_________4
 62
     7
 10
57.1128
 20
55.483600000000003
 30
0.0
 11
57.1128
 21
53.483400000000003
 31
0.0
  0
LINE
  5
7F
  8
_________4
 62
     7
 10
54.13689999999999
 20
52.23279999999999
 30
0.0
 11
54.13689999999999
 21
52.1081
 31
0.0
  0
LINE
  5
80
  8
_________4
 62
     7
 10
57.23749999999999
 20
52.23279999999999
 30
0.0
 11
57.23749999999999
 21
52.1081
 31
0.0
  0
LINE
  5
81
  8
_________4
 62
     7
 10
52.9373
 20
49.232100000000003
 30
0.0
 11
53.386600000000001
 21
48.982700000000001
 31
0.0
  0
ARC
  5
82
  8
0
 62
     7
 10
57.766078
 20
244.505078
 30
0.0
 40
36.800834000000002
 50
270.165098
 51
309.83219500000001
  0
ARC
  5
83
  8
0
 62
     7
 10
57.997374999999991
 20
244.557942
 30
0.0
 40
36.853757999999999
 50
230.15568300000001
 51
269.80526800000001
  0
ARC
  5
84
  8
0
 62
     7
 10
155.897773
 20
74.72462800000001
 30
0.0
 40
1.0969569999999991
 50
111.96448700000001
 51
116.60683
  0
ARC
  5
85
  8
0
 62
     7
 10
156.33287899999999
 20
73.701786999999996
 30
0.0
 40
2.208399
 50
91.040863999999985
 51
112.507988
  0
ARC
  5
86
  8
0
 62
     7
 10
156.30081100000001
 20
74.358721000000003
 30
0.0
 40
1.551121
 50
60.251156999999978
 51
90.297308999999984
  0
ARC
  5
87
  8
0
 62
     7
 10
157.859072
 20
77.028285999999994
 30
0.0
 40
1.540084999999999
 50
239.199693
 51
276.04841699999997
  0
ARC
  5
88
  8
0
 62
     7
 10
157.84611100000001
 20
77.387131000000011
 30
0.0
 40
1.898461999999999
 50
275.2962609999999
 51
303.728295
  0
ARC
  5
89
  8
0
 62
     7
 10
158.29074499999999
 20
76.691909999999993
 30
0.0
 40
1.0734980000000001
 50
304.59465299999999
 51
314.36972400000002
  0
ARC
  5
8A
  8
0
 62
     7
 10
155.897773
 20
75.638272999999984
 30
0.0
 40
1.0969569999999991
 50
111.96448700000001
 51
116.60683
  0
ARC
  5
8B
  8
0
 62
     7
 10
156.33287899999999
 20
74.615431999999998
 30
0.0
 40
2.208399
 50
91.040863999999985
 51
112.507988
  0
ARC
  5
8C
  8
0
 62
     7
 10
156.30081100000001
 20
75.272366000000005
 30
0.0
 40
1.551121
 50
60.251156999999978
 51
90.297308999999984
  0
ARC
  5
8D
  8
0
 62
     7
 10
157.859072
 20
77.941931000000011
 30
0.0
 40
1.540084999999999
 50
239.199693
 51
276.04841699999997
  0
ARC
  5
8E
  8
0
 62
     7
 10
157.84611100000001
 20
78.300775999999999
 30
0.0
 40
1.898461999999999
 50
275.2962609999999
 51
303.728295
  0
ARC
  5
8F
  8
0
 62
     7
 10
158.29074499999999
 20
77.60555500000001
 30
0.0
 40
1.0734980000000001
 50
304.59465299999999
 51
314.36972400000002
  0
ARC
  5
90
  8
0
 62
     7
 10
58.683433999999998
 20
74.726401999999993
 30
0.0
 40
1.0949759999999991
 50
111.955617
 51
116.607135
  0
ARC
  5
91
  8
0
 62
     7
 10
59.119616000000001
 20
73.700890000000001
 30
0.0
 40
2.2092959999999988
 50
91.040745999999999
 51
112.50336299999999
  0
ARC
  5
92
  8
0
 62
     7
 10
59.087532999999993
 20
74.358099999999993
 30
0.0
 40
1.5517430000000001
 50
60.257253000000013
 51
90.297062000000011
  0
ARC
  5
93
  8
0
 62
     7
 10
60.645771999999987
 20
77.02758
 30
0.0
 40
1.5393840000000001
 50
239.19222400000001
 51
276.051131
  0
ARC
  5
94
  8
0
 62
     7
 10
60.632888999999992
 20
77.385170000000002
 30
0.0
 40
1.8965029999999989
 50
275.29934300000002
 51
304.13861700000001
  0
ARC
  5
95
  8
0
 62
     7
 10
61.08403599999999
 20
76.684795999999992
 30
0.0
 40
1.063814
 50
305.19655
 51
314.384479
  0
ARC
  5
96
  8
0
 62
     7
 10
58.683433999999998
 20
75.640046999999996
 30
0.0
 40
1.0949759999999991
 50
111.955617
 51
116.607135
  0
ARC
  5
97
  8
0
 62
     7
 10
59.119616000000001
 20
74.614535000000004
 30
0.0
 40
2.2092959999999988
 50
91.040745999999999
 51
112.50336299999999
  0
ARC
  5
98
  8
0
 62
     7
 10
59.087532999999993
 20
75.271744999999996
 30
0.0
 40
1.5517430000000001
 50
60.257253000000013
 51
90.297062000000011
  0
ARC
  5
99
  8
0
 62
     7
 10
60.645771999999987
 20
77.941225000000003
 30
0.0
 40
1.5393840000000001
 50
239.19222400000001
 51
276.051131
  0
ARC
  5
9A
  8
0
 62
     7
 10
60.632888999999992
 20
78.298816000000002
 30
0.0
 40
1.8965029999999989
 50
275.29934300000002
 51
304.13861700000001
  0
ARC
  5
9B
  8
0
 62
     7
 10
61.08403599999999
 20
77.598441000000008
 30
0.0
 40
1.063814
 50
305.19655
 51
314.384479
  0
ARC
  5
9C
  8
0
 62
     7
 10
54.278333999999987
 20
74.726401999999993
 30
0.0
 40
1.0949759999999991
 50
111.955617
 51
116.607135
  0
ARC
  5
9D
  8
0
 62
     7
 10
54.714517000000001
 20
73.700890000000001
 30
0.0
 40
2.2092959999999988
 50
91.040745999999999
 51
112.50336299999999
  0
ARC
  5
9E
  8
0
 62
     7
 10
54.682433000000003
 20
74.358099999999993
 30
0.0
 40
1.5517430000000001
 50
60.257253000000013
 51
90.297062000000011
  0
ARC
  5
9F
  8
0
 62
     7
 10
56.240673000000001
 20
77.02758
 30
0.0
 40
1.5393840000000001
 50
239.19222400000001
 51
276.051131
  0
ARC
  5
A0
  8
0
 62
     7
 10
56.227789000000001
 20
77.385170000000002
 30
0.0
 40
1.8965029999999989
 50
275.29934300000002
 51
304.13861700000001
  0
ARC
  5
A1
  8
0
 62
     7
 10
56.678936
 20
76.684795999999992
 30
0.0
 40
1.063814
 50
305.19655
 51
314.384479
  0
ARC
  5
A2
  8
0
 62
     7
 10
54.278333999999987
 20
75.640046999999996
 30
0.0
 40
1.0949759999999991
 50
111.955617
 51
116.607135
  0
ARC
  5
A3
  8
0
 62
     7
 10
54.714517000000001
 20
74.614535000000004
 30
0.0
 40
2.2092959999999988
 50
91.040745999999999
 51
112.50336299999999
  0
ARC
  5
A4
  8
0
 62
     7
 10
54.682433000000003
 20
75.271744999999996
 30
0.0
 40
1.5517430000000001
 50
60.257253000000013
 51
90.297062000000011
  0
ARC
  5
A5
  8
0
 62
     7
 10
56.240673000000001
 20
77.941225000000003
 30
0.0
 40
1.5393840000000001
 50
239.19222400000001
 51
276.051131
  0
ARC
  5
A6
  8
0
 62
     7
 10
56.227789000000001
 20
78.298816000000002
 30
0.0
 40
1.8965029999999989
 50
275.29934300000002
 51
304.13861700000001
  0
ARC
  5
A7
  8
0
 62
     7
 10
56.678936
 20
77.598441000000008
 30
0.0
 40
1.063814
 50
305.19655
 51
314.384479
  0
LINE
  5
A8
  8
0
 62
     7
 10
33.767299999999999
 20
215.48400000000001
 30
0.0
 11
44.085599999999999
 21
227.78100000000001
 31
0.0
  0
LINE
  5
A9
  8
0
  6
AIGENLINE001
 62
     7
 10
44.529299999999999
 20
228.309
 30
0.0
 11
57.872100000000003
 21
244.21100000000001
 31
0.0
  0
LINE
  5
AA
  8
0
 62
     7
 10
153.02099999999999
 20
145.941
 30
0.0
 11
162.96799999999999
 21
145.941
 31
0.0
  0
LINE
  5
AB
  8
0
 62
     7
 10
52.878100000000003
 20
145.941
 30
0.0
 11
62.866199999999999
 21
145.941
 31
0.0
  0
LINE
  5
AC
  8
0
 62
     7
 10
79.984899999999996
 20
214.40000000000001
 30
0.0
 11
81.338499999999996
 21
216.245
 31
0.0
  0
LINE
  5
AD
  8
0
 62
     7
 10
81.338499999999996
 20
216.245
 30
0.0
 11
79.243700000000004
 21
215.32300000000001
 31
0.0
  0
LINE
  5
AE
  8
0
 62
     7
 10
79.243700000000004
 20
215.32300000000001
 30
0.0
 11
79.984899999999996
 21
214.40000000000001
 31
0.0
  0
LINE
  5
AF
  8
0
 62
     7
 10
60.0548
 20
208.39400000000001
 30
0.0
 11
57.872500000000002
 21
207.70400000000001
 31
0.0
  0
LINE
  5
B0
  8
0
 62
     7
 10
57.872500000000002
 20
207.70400000000001
 30
0.0
 11
60.107100000000003
 21
207.21100000000001
 31
0.0
  0
LINE
  5
B1
  8
0
 62
     7
 10
60.107100000000003
 20
207.21100000000001
 30
0.0
 11
60.0548
 21
208.39400000000001
 31
0.0
  0
LINE
  5
B2
  8
0
 62
     7
 10
35.759599999999999
 20
214.40000000000001
 30
0.0
 11
34.405999999999999
 21
216.245
 31
0.0
  0
LINE
  5
B3
  8
0
 62
     7
 10
34.405999999999999
 20
216.245
 30
0.0
 11
36.500799999999998
 21
215.32400000000001
 31
0.0
  0
LINE
  5
B4
  8
0
 62
     7
 10
36.500799999999998
 20
215.32400000000001
 30
0.0
 11
35.759599999999999
 21
214.40000000000001
 31
0.0
  0
LINE
  5
B5
  8
0
 62
     7
 10
55.689799999999991
 20
208.39400000000001
 30
0.0
 11
57.872100000000003
 21
207.70400000000001
 31
0.0
  0
LINE
  5
B6
  8
0
 62
     7
 10
57.872100000000003
 20
207.70400000000001
 30
0.0
 11
55.6374
 21
207.21100000000001
 31
0.0
  0
LINE
  5
B7
  8
0
 62
     7
 10
55.6374
 20
207.21100000000001
 30
0.0
 11
55.689799999999991
 21
208.39400000000001
 31
0.0
  0
ARC
  5
B8
  8
0
 62
     7
 10
114.036742
 20
163.94489899999999
 30
0.0
 40
9.9025350000000003
 50
235.14332200000001
 51
269.87093299999998
  0
ARC
  5
B9
  8
0
 62
     7
 10
59.76591899999999
 20
163.92948899999999
 30
0.0
 40
0.228733
 50
0.269519
 51
38.036481000000002
  0
ARC
  5
BA
  8
0
 62
     7
 10
59.555467999999998
 20
163.78678099999999
 30
0.0
 40
0.4827290000000001
 50
35.985908999999999
 51
55.646795999999988
  0
ARC
  5
BB
  8
0
 62
     7
 10
59.198707999999989
 20
163.30842200000001
 30
0.0
 40
1.0792479999999991
 50
54.340825000000002
 51
67.152391000000009
  0
ARC
  5
BC
  8
0
 62
     7
 10
58.710377999999999
 20
162.23702299999999
 30
0.0
 40
2.256451999999999
 50
66.288740000000004
 51
75.368544999999997
  0
ARC
  5
BD
  8
0
 62
     7
 10
58.24375100000001
 20
160.59957
 30
0.0
 40
3.9588540000000001
 50
74.820401000000004
 51
81.360200000000006
  0
ARC
  5
BE
  8
0
 62
     7
 10
57.912807999999998
 20
158.58052000000001
 30
0.0
 40
6.0047559999999987
 50
81.13232099999999
 51
90.388285999999994
  0
ARC
  5
BF
  8
0
 62
     7
 10
57.871345999999988
 20
158.159502
 30
0.0
 40
6.4256349999999989
 50
89.993145999999996
 51
99.853856999999977
  0
ARC
  5
C0
  8
0
 62
     7
 10
57.456254999999999
 20
160.796266
 30
0.0
 40
3.7569720000000002
 50
100.4986209999999
 51
107.06712400000001
  0
ARC
  5
C1
  8
0
 62
     7
 10
56.964148999999999
 20
162.424117
 30
0.0
 40
2.0563919999999989
 50
107.271269
 51
116.5806899999999
  0
ARC
  5
C2
  8
0
 62
     7
 10
56.469570999999988
 20
163.43276
 30
0.0
 40
0.9330989999999999
 50
117.134692
 51
130.67318
  0
ARC
  5
C3
  8
0
 62
     7
 10
56.124743000000002
 20
163.844112
 30
0.0
 40
0.396428
 50
131.622029
 51
153.32390699999999
  0
ARC
  5
C4
  8
0
 62
     7
 10
55.97479100000001
 20
163.92805200000001
 30
0.0
 40
0.224884
 50
155.282321
 51
179.35976199999999
  0
ARC
  5
C5
  8
0
 62
     7
 10
55.978652000000011
 20
163.93164100000001
 30
0.0
 40
0.228733
 50
180.26953900000001
 51
218.03650099999999
  0
ARC
  5
C6
  8
0
 62
     7
 10
56.189156000000011
 20
164.07439099999999
 30
0.0
 40
0.4827970000000001
 50
215.986256
 51
235.64388099999999
  0
ARC
  5
C7
  8
0
 62
     7
 10
56.54569699999999
 20
164.55236400000001
 30
0.0
 40
1.078875
 50
234.33711600000001
 51
247.15238400000001
  0
ARC
  5
C8
  8
0
 62
     7
 10
57.034204000000003
 20
165.624043
 30
0.0
 40
2.2564049999999991
 50
246.28735399999999
 51
255.366569
  0
ARC
  5
C9
  8
0
 62
     7
 10
57.500545999999993
 20
167.26010299999999
 30
0.0
 40
3.9573909999999999
 50
254.81797700000001
 51
261.35928100000001
  0
ARC
  5
CA
  8
0
 62
     7
 10
57.831465000000001
 20
169.27831399999999
 30
0.0
 40
6.0024589999999991
 50
261.13065799999998
 51
270.388013
  0
ARC
  5
CB
  8
0
 62
     7
 10
57.872886000000001
 20
169.704444
 30
0.0
 40
6.428450999999999
 50
269.99312600000002
 51
279.85171300000002
  0
ARC
  5
CC
  8
0
 62
     7
 10
58.288173999999998
 20
167.065686
 30
0.0
 40
3.757787
 50
280.49703799999997
 51
287.06499200000002
  0
ARC
  5
CD
  8
0
 62
     7
 10
58.780247000000003
 20
165.437555
 30
0.0
 40
2.0569509999999989
 50
287.27048300000001
 51
296.57806599999998
  0
ARC
  5
CE
  8
0
 62
     7
 10
59.274826000000012
 20
164.42866699999999
 30
0.0
 40
0.9334379999999999
 50
297.13534499999997
 51
310.66943800000001
  0
ARC
  5
CF
  8
0
 62
     7
 10
59.619828000000012
 20
164.01701800000001
 30
0.0
 40
0.396428
 50
311.622049
 51
333.32392700000003
  0
ARC
  5
D0
  8
0
 62
     7
 10
59.769779999999997
 20
163.93307799999999
 30
0.0
 40
0.224884
 50
335.28234099999997
 51
359.359782
  0
LINE
  5
D1
  8
0
 62
     7
 10
55.999299999999998
 20
183.94399999999999
 30
0.0
 11
55.999299999999998
 21
186.34200000000001
 31
0.0
  0
LINE
  5
D2
  8
0
 62
     7
 10
59.744900000000001
 20
183.94399999999999
 30
0.0
 11
59.744900000000001
 21
186.34200000000001
 31
0.0
  0
ARC
  5
D3
  8
0
 62
     7
 10
59.615431999999998
 20
183.802423
 30
0.0
 40
0.129528
 50
272.09464200000002
 51
357.98445099999998
  0
ARC
  5
D4
  8
0
 62
     7
 10
56.129086999999998
 20
183.802728
 30
0.0
 40
0.129831
 50
182.14564200000001
 51
267.93336199999999
  0
ARC
  5
D5
  8
0
 62
     7
 10
56.259098999999992
 20
183.934291
 30
0.0
 40
0.259943
 50
92.124339000000006
 51
177.79665700000001
  0
ARC
  5
D6
  8
0
 62
     7
 10
59.485469000000002
 20
183.93465900000001
 30
0.0
 40
0.259588
 50
2.1249889999999989
 51
87.795918
  0
LINE
  5
D7
  8
0
 62
     7
 10
56.249499999999998
 20
184.19399999999999
 30
0.0
 11
59.4955
 21
184.19399999999999
 31
0.0
  0
LINE
  5
D8
  8
0
 62
     7
 10
59.744900000000001
 20
183.798
 30
0.0
 11
59.744900000000001
 21
183.94399999999999
 31
0.0
  0
LINE
  5
D9
  8
0
 62
     7
 10
56.124400000000001
 20
183.673
 30
0.0
 11
59.62019999999999
 21
183.673
 31
0.0
  0
LINE
  5
DA
  8
0
 62
     7
 10
55.999299999999998
 20
183.94399999999999
 30
0.0
 11
55.999299999999998
 21
183.798
 31
0.0
  0
LINE
  5
DB
  8
0
 62
     7
 10
61.61760000000001
 20
164.55199999999999
 30
0.0
 11
61.61760000000001
 21
170.73599999999999
 31
0.0
  0
LINE
  5
DC
  8
0
 62
     7
 10
54.126600000000003
 20
164.55199999999999
 30
0.0
 11
54.126600000000003
 21
170.73599999999999
 31
0.0
  0
ARC
  5
DD
  8
0
 62
     7
 10
60.840123999999989
 20
164.52351200000001
 30
0.0
 40
0.778045
 50
2.1030599999999988
 51
87.896929999999983
  0
ARC
  5
DE
  8
0
 62
     7
 10
60.839737
 20
163.21467000000001
 30
0.0
 40
0.778446
 50
272.13049100000001
 51
357.86951900000003
  0
ARC
  5
DF
  8
0
 62
     7
 10
54.904113000000002
 20
163.21430699999999
 30
0.0
 40
0.7780560000000002
 50
182.10482500000001
 51
267.92155400000001
  0
ARC
  5
E0
  8
0
 62
     7
 10
54.904825000000002
 20
164.52277599999999
 30
0.0
 40
0.778794
 50
92.128861000000001
 51
177.84476100000001
  0
ARC
  5
E1
  8
0
 62
     7
 10
54.904825000000002
 20
170.70641699999999
 30
0.0
 40
0.778794
 50
92.128861000000001
 51
177.84476100000001
  0
ARC
  5
E2
  8
0
 62
     7
 10
60.840123999999989
 20
170.70715300000001
 30
0.0
 40
0.778045
 50
2.1030599999999988
 51
87.896929999999983
  0
LINE
  5
E3
  8
0
 62
     7
 10
60.868699999999997
 20
165.30099999999999
 30
0.0
 11
54.875900000000001
 21
165.30099999999999
 31
0.0
  0
LINE
  5
E4
  8
0
 62
     7
 10
54.875900000000001
 20
162.43700000000001
 30
0.0
 11
60.868699999999997
 21
162.43700000000001
 31
0.0
  0
LINE
  5
E5
  8
0
 62
     7
 10
61.61760000000001
 20
164.55199999999999
 30
0.0
 11
61.61760000000001
 21
163.18600000000001
 31
0.0
  0
LINE
  5
E6
  8
0
 62
     7
 10
54.126600000000003
 20
164.55199999999999
 30
0.0
 11
54.126600000000003
 21
163.18600000000001
 31
0.0
  0
LINE
  5
E7
  8
0
 62
     7
 10
62.866199999999999
 20
180.59899999999999
 30
0.0
 11
62.866199999999999
 21
184.09399999999999
 31
0.0
  0
LINE
  5
E8
  8
0
 62
     7
 10
52.878100000000003
 20
183.70699999999999
 30
0.0
 11
52.878100000000003
 21
186.09200000000001
 31
0.0
  0
ARC
  5
E9
  8
0
 62
     7
 10
53.137809999999988
 20
186.08198200000001
 30
0.0
 40
0.259938
 50
92.121705000000006
 51
177.75976299999999
  0
LINE
  5
EA
  8
0
 62
     7
 10
63.990000000000002
 20
103.84099999999999
 30
0.0
 11
63.990000000000002
 21
104.715
 31
0.0
  0
LINE
  5
EB
  8
0
 62
     7
 10
51.754600000000011
 20
103.84099999999999
 30
0.0
 11
51.754600000000011
 21
104.715
 31
0.0
  0
LINE
  5
EC
  8
0
 62
     7
 10
63.990000000000002
 20
104.715
 30
0.0
 11
51.754600000000011
 21
104.715
 31
0.0
  0
LINE
  5
ED
  8
0
 62
     7
 10
63.990000000000002
 20
103.84099999999999
 30
0.0
 11
51.754600000000011
 21
103.84099999999999
 31
0.0
  0
LINE
  5
EE
  8
0
 62
     7
 10
62.866199999999999
 20
183.70699999999999
 30
0.0
 11
62.866199999999999
 21
186.09200000000001
 31
0.0
  0
ARC
  5
EF
  8
0
 62
     7
 10
62.606919999999988
 20
186.08251300000001
 30
0.0
 40
0.259414
 50
2.127402
 51
87.833033
  0
LINE
  5
F0
  8
0
 62
     7
 10
53.1282
 20
186.34200000000001
 30
0.0
 11
62.616700000000002
 21
186.34200000000001
 31
0.0
  0
LINE
  5
F1
  8
0
 62
     7
 10
52.878100000000003
 20
180.59899999999999
 30
0.0
 11
52.878100000000003
 21
184.09399999999999
 31
0.0
  0
LINE
  5
F2
  8
0
 62
     7
 10
52.878100000000003
 20
180.59899999999999
 30
0.0
 11
62.866199999999999
 21
180.59899999999999
 31
0.0
  0
ARC
  5
F3
  8
0
 62
     7
 10
60.762548000000002
 20
179.53530599999999
 30
0.0
 40
2.1030809999999991
 50
7.225185999999999
 51
10.603413
  0
ARC
  5
F4
  8
0
 62
     7
 10
57.97428
 20
179.03113400000001
 30
0.0
 40
4.9365420000000002
 50
10.400219
 51
18.514799
  0
ARC
  5
F5
  8
0
 62
     7
 10
55.030846999999987
 20
179.885257
 30
0.0
 40
2.0685299999999991
 50
159.82316599999999
 51
163.20627099999999
  0
ARC
  5
F6
  8
0
 62
     7
 10
57.723253
 20
179.06324499999999
 30
0.0
 40
4.8836180000000002
 50
163.10013499999999
 51
172.80676399999999
  0
LINE
  5
F7
  8
0
 62
     7
 10
62.848599999999998
 20
179.80000000000001
 30
0.0
 11
62.866199999999999
 21
179.67500000000001
 31
0.0
  0
LINE
  5
F8
  8
0
 62
     7
 10
54.875900000000001
 20
171.48500000000001
 30
0.0
 11
60.868699999999997
 21
171.48500000000001
 31
0.0
  0
LINE
  5
F9
  8
0
 62
     7
 10
52.878100000000003
 20
130.23400000000001
 30
0.0
 11
52.878100000000003
 21
104.715
 31
0.0
  0
LINE
  5
FA
  8
0
 62
     7
 10
52.878100000000003
 20
179.67500000000001
 30
0.0
 11
52.878100000000003
 21
130.23400000000001
 31
0.0
  0
LINE
  5
FB
  8
0
 62
     7
 10
62.866199999999999
 20
111.833
 30
0.0
 11
62.866199999999999
 21
104.715
 31
0.0
  0
LINE
  5
FC
  8
0
 62
     7
 10
62.866199999999999
 20
179.67500000000001
 30
0.0
 11
62.866199999999999
 21
111.833
 31
0.0
  0
LINE
  5
FD
  8
0
 62
     7
 10
62.866199999999999
 20
179.67500000000001
 30
0.0
 11
52.878100000000003
 21
179.67500000000001
 31
0.0
  0
LINE
  5
FE
  8
0
 62
     7
 10
81.775899999999993
 20
215.72300000000001
 30
0.0
 11
71.871200000000002
 21
227.52699999999999
 31
0.0
  0
LINE
  5
FF
  8
0
  6
AIGENLINE002
 62
     7
 10
44.257499999999993
 20
230.511
 30
0.0
 11
46.744199999999999
 21
228.42500000000001
 31
0.0
  0
ARC
  5
100
  8
0
  6
AIGENLINE002
 62
     7
 10
46.903766999999988
 20
228.629131
 30
0.0
 40
0.2594530000000001
 50
232.05058199999999
 51
317.85261200000002
  0
ARC
  5
101
  8
0
  6
AIGENLINE002
 62
     7
 10
44.431545
 20
230.703374
 30
0.0
 40
0.259349
 50
142.11142899999999
 51
227.857124
  0
LINE
  5
102
  8
0
  6
AIGENLINE002
 62
     7
 10
44.226900000000001
 20
230.863
 30
0.0
 11
51.968000000000004
 21
240.08799999999999
 31
0.0
  0
LINE
  5
103
  8
0
  6
AIGENLINE002
 62
     7
 10
47.0961
 20
228.45500000000001
 30
0.0
 11
54.837299999999999
 21
237.68000000000001
 31
0.0
  0
LINE
  5
104
  8
0
  6
AIGENLINE001
 62
     7
 10
71.427400000000006
 20
228.05600000000001
 30
0.0
 11
57.872100000000003
 21
244.21100000000001
 31
0.0
  0
LINE
  5
105
  8
0
  6
AIGENLINE001
 62
     7
 10
49.191099999999992
 20
244.21100000000001
 30
0.0
 11
66.234800000000007
 21
244.21100000000001
 31
0.0
  0
LINE
  5
106
  8
0
  6
AIGENLINE001
 62
     7
 10
57.872100000000003
 20
195.53700000000001
 30
0.0
 11
57.872100000000003
 21
252.15700000000001
 31
0.0
  0
LINE
  5
107
  8
0
 62
     7
 10
107.968
 20
155.233
 30
0.0
 11
112.926
 21
162.31399999999999
 31
0.0
  0
LINE
  5
108
  8
0
  6
AIGENLINE001
 62
     7
 10
113.223
 20
162.739
 30
0.0
 11
115.69199999999999
 21
166.26499999999999
 31
0.0
  0
ARC
  5
109
  8
0
 62
     7
 10
56.013573000000001
 20
244.06718599999999
 30
0.0
 40
4.273528999999999
 50
174.30132399999999
 51
187.22095699999991
  0
ARC
  5
10A
  8
0
 62
     7
 10
57.661434999999997
 20
244.22249199999999
 30
0.0
 40
5.9280799999999996
 50
186.70816500000001
 51
202.99366699999999
  0
ARC
  5
10B
  8
0
 62
     7
 10
58.345592000000011
 20
244.436758
 30
0.0
 40
6.641947
 50
202.38972999999999
 51
219.512246
  0
ARC
  5
10C
  8
0
 62
     7
 10
56.979877999999992
 20
243.366443
 30
0.0
 40
4.9075239999999987
 50
220.01649900000001
 51
234.45005699999999
  0
ARC
  5
10D
  8
0
 62
     7
 10
57.872284999999998
 20
244.21056100000001
 30
0.0
 40
6.1174790000000003
 50
307.75159200000002
 51
37.753872000000001
  0
ARC
  5
10E
  8
0
 62
     7
 10
57.872014999999998
 20
244.21057200000001
 30
0.0
 40
6.1176849999999989
 50
37.752239000000003
 51
127.75094199999999
  0
ARC
  5
10F
  8
0
 62
     7
 10
56.427776999999992
 20
245.700954
 30
0.0
 40
4.0615509999999997
 50
124.51208699999999
 51
137.24461099999999
  0
ARC
  5
110
  8
0
 62
     7
 10
57.736739
 20
244.399505
 30
0.0
 40
5.9065629999999993
 50
136.59481
 51
150.19729899999999
  0
ARC
  5
111
  8
0
 62
     7
 10
58.388827999999997
 20
243.954238
 30
0.0
 40
6.6940020000000002
 50
149.664221
 51
166.92997399999999
  0
ARC
  5
112
  8
0
 62
     7
 10
56.372183999999997
 20
244.480051
 30
0.0
 40
4.6110340000000001
 50
167.62764100000001
 51
179.85732100000001
  0
LINE
  5
113
  8
0
  6
AIGENLINE002
 62
     7
 10
71.486699999999999
 20
230.511
 30
0.0
 11
69.0
 21
228.42500000000001
 31
0.0
  0
ARC
  5
114
  8
0
  6
AIGENLINE002
 62
     7
 10
68.840459999999993
 20
228.629131
 30
0.0
 40
0.2594530000000001
 50
222.1474080000001
 51
307.94943799999999
  0
ARC
  5
115
  8
0
  6
AIGENLINE002
 62
     7
 10
71.31304200000001
 20
230.70334299999999
 30
0.0
 40
0.259084
 50
312.08850099999989
 51
37.942945999999999
  0
LINE
  5
116
  8
0
  6
AIGENLINE002
 62
     7
 10
71.517399999999995
 20
230.863
 30
0.0
 11
63.776200000000003
 21
240.08799999999999
 31
0.0
  0
LINE
  5
117
  8
0
  6
AIGENLINE002
 62
     7
 10
68.648099999999999
 20
228.45500000000001
 30
0.0
 11
60.9069
 21
237.68000000000001
 31
0.0
  0
LINE
  5
118
  8
0
 62
     7
 10
59.4955
 20
224.965
 30
0.0
 11
56.249499999999998
 21
224.965
 31
0.0
  0
ARC
  5
119
  8
0
 62
     7
 10
56.258605000000003
 20
225.22422900000001
 30
0.0
 40
0.259438
 50
182.13798399999999
 51
267.980548
  0
ARC
  5
11A
  8
0
 62
     7
 10
59.485801000000002
 20
225.22402299999999
 30
0.0
 40
0.259251
 50
272.13356599999997
 51
357.90599900000001
  0
LINE
  5
11B
  8
0
 62
     7
 10
59.744900000000001
 20
225.215
 30
0.0
 11
59.744900000000001
 21
229.22900000000001
 31
0.0
  0
LINE
  5
11C
  8
0
 62
     7
 10
55.999299999999998
 20
225.215
 30
0.0
 11
55.999299999999998
 21
229.22900000000001
 31
0.0
  0
LINE
  5
11D
  8
0
 62
     7
 10
59.744900000000001
 20
229.22900000000001
 30
0.0
 11
59.744900000000001
 21
238.80500000000001
 31
0.0
  0
ARC
  5
11E
  8
0
 62
     7
 10
60.809020999999987
 20
239.031373
 30
0.0
 40
0.9609719999999999
 50
117.242109
 51
136.290108
  0
ARC
  5
11F
  8
0
 62
     7
 10
61.050719999999991
 20
238.77820700000001
 30
0.0
 40
1.3107209999999989
 50
135.59133299999999
 51
175.01616899999999
  0
ARC
  5
120
  8
0
 62
     7
 10
60.627529000000003
 20
238.84753000000001
 30
0.0
 40
0.883698
 50
177.11062999999999
 51
182.79075499999999
  0
LINE
  5
121
  8
0
 62
     7
 10
55.999299999999998
 20
229.22900000000001
 30
0.0
 11
55.999299999999998
 21
238.80500000000001
 31
0.0
  0
ARC
  5
122
  8
0
 62
     7
 10
55.044293999999987
 20
238.85161199999999
 30
0.0
 40
0.9562149999999999
 50
357.17622699999998
 51
16.320274999999999
  0
ARC
  5
123
  8
0
 62
     7
 10
54.700144999999992
 20
238.768439
 30
0.0
 40
1.3099769999999991
 50
15.581659999999999
 51
55.032600000000002
  0
ARC
  5
124
  8
0
 62
     7
 10
54.971632999999997
 20
239.10018400000001
 30
0.0
 40
0.88312
 50
57.132018000000002
 51
62.815510999999987
  0
ARC
  5
125
  8
0
 62
     7
 10
57.872411
 20
244.210612
 30
0.0
 40
4.9937979999999991
 50
299.99767700000001
 51
30.001225000000002
  0
ARC
  5
126
  8
0
 62
     7
 10
57.872083999999987
 20
244.210475
 30
0.0
 40
4.9941490000000002
 50
30.000712
 51
119.998893
  0
ARC
  5
127
  8
0
 62
     7
 10
57.87219799999999
 20
244.21084099999999
 30
0.0
 40
4.9938890000000002
 50
120.002126
 51
210.00217499999999
  0
ARC
  5
128
  8
0
 62
     7
 10
55.863486000000002
 20
242.88750899999999
 30
0.0
 40
2.596484999999999
 50
206.87615400000001
 51
214.58693400000001
  0
ARC
  5
129
  8
0
 62
     7
 10
57.508634000000001
 20
243.97902500000001
 30
0.0
 40
4.570621
 50
214.144792
 51
223.39404999999999
  0
ARC
  5
12A
  8
0
 62
     7
 10
58.327520999999997
 20
244.67494400000001
 30
0.0
 40
5.6440529999999987
 50
222.81643700000001
 51
233.79161400000001
  0
ARC
  5
12B
  8
0
 62
     7
 10
56.844171000000003
 20
242.69734800000001
 30
0.0
 40
3.1722630000000001
 50
234.309314
 51
242.41260500000001
  0
LINE
  5
12C
  8
0
 62
     7
 10
54.126600000000003
 20
199.21299999999999
 30
0.0
 11
54.126600000000003
 21
240.90700000000001
 31
0.0
  0
LINE
  5
12D
  8
0
 62
     7
 10
61.61760000000001
 20
199.21299999999999
 30
0.0
 11
61.61760000000001
 21
240.90700000000001
 31
0.0
  0
ARC
  5
12E
  8
0
 62
     7
 10
60.366802
 20
199.67021800000001
 30
0.0
 40
1.479687
 50
270.09032400000001
 51
301.50392900000003
  0
ARC
  5
12F
  8
0
 62
     7
 10
60.535247999999989
 20
199.351069
 30
0.0
 40
1.1197950000000001
 50
302.68882200000002
 51
333.40617400000002
  0
ARC
  5
130
  8
0
 62
     7
 10
60.74632600000001
 20
199.216824
 30
0.0
 40
0.8713270000000001
 50
335.08650699999998
 51
359.751441
  0
ARC
  5
131
  8
0
 62
     7
 10
55.377432999999989
 20
199.66973300000001
 30
0.0
 40
1.4792009999999991
 50
238.49078800000001
 51
269.90933799999999
  0
ARC
  5
132
  8
0
 62
     7
 10
55.209215
 20
199.351382
 30
0.0
 40
1.1201080000000001
 50
206.603768
 51
237.315969
  0
ARC
  5
133
  8
0
 62
     7
 10
54.997553000000003
 20
199.21684099999999
 30
0.0
 40
0.8709799999999999
 50
180.24973700000001
 51
204.92529400000001
  0
LINE
  5
134
  8
0
 62
     7
 10
60.369100000000003
 20
198.191
 30
0.0
 11
55.37510000000001
 21
198.191
 31
0.0
  0
LINE
  5
135
  8
0
 62
     7
 10
153.02099999999999
 20
166.49100000000001
 30
0.0
 11
153.69
 21
166.49100000000001
 31
0.0
  0
LINE
  5
136
  8
0
 62
     7
 10
164.13300000000001
 20
103.84099999999999
 30
0.0
 11
164.13300000000001
 21
104.715
 31
0.0
  0
LINE
  5
137
  8
0
 62
     7
 10
151.89699999999999
 20
103.84099999999999
 30
0.0
 11
151.89699999999999
 21
104.715
 31
0.0
  0
LINE
  5
138
  8
0
 62
     7
 10
164.13300000000001
 20
104.715
 30
0.0
 11
151.89699999999999
 21
104.715
 31
0.0
  0
LINE
  5
139
  8
0
 62
     7
 10
164.13300000000001
 20
103.84099999999999
 30
0.0
 11
151.89699999999999
 21
103.84099999999999
 31
0.0
  0
ARC
  5
13A
  8
0
  6
AIGENLINE002
 62
     7
 10
141.91988900000001
 20
191.44433599999999
 30
0.0
 40
0.248231
 50
208.02893
 51
211.091812
  0
ARC
  5
13B
  8
0
  6
AIGENLINE002
 62
     7
 10
141.933528
 20
191.44399300000001
 30
0.0
 40
0.2601949999999999
 50
121.143496
 51
206.55086499999999
  0
ARC
  5
13C
  8
0
  6
AIGENLINE002
 62
     7
 10
143.74805000000001
 20
188.556645
 30
0.0
 40
3.6703290000000002
 50
109.327911
 51
122.075704
  0
ARC
  5
13D
  8
0
  6
AIGENLINE002
 62
     7
 10
144.35932700000001
 20
186.98059000000001
 30
0.0
 40
5.3601589999999986
 50
95.528816999999975
 51
109.91787600000001
  0
ARC
  5
13E
  8
0
  6
AIGENLINE002
 62
     7
 10
144.478173
 20
186.35877500000001
 30
0.0
 40
5.9908159999999997
 50
79.761082000000002
 51
96.087208000000004
  0
ARC
  5
13F
  8
0
  6
AIGENLINE002
 62
     7
 10
144.754942
 20
188.13863000000001
 30
0.0
 40
4.1903389999999989
 50
66.475557999999992
 51
79.159261000000001
  0
LINE
  5
140
  8
0
  6
AIGENLINE002
 62
     7
 10
146.42699999999999
 20
191.98099999999999
 30
0.0
 11
164.83099999999999
 21
184.881
 31
0.0
  0
ARC
  5
141
  8
0
  6
AIGENLINE002
 62
     7
 10
164.728917
 20
184.64203599999999
 30
0.0
 40
0.259981
 50
341.14859799999999
 51
66.810393000000005
  0
LINE
  5
142
  8
0
  6
AIGENLINE002
 62
     7
 10
164.97499999999999
 20
184.55799999999999
 30
0.0
 11
164.11699999999999
 21
182.333
 31
0.0
  0
LINE
  5
143
  8
0
  6
AIGENLINE002
 62
     7
 10
164.11699999999999
 20
182.333
 30
0.0
 11
164.11600000000001
 21
182.333
 31
0.0
  0
ARC
  5
144
  8
0
  6
AIGENLINE002
 62
     7
 10
166.136076
 20
181.20696799999999
 30
0.0
 40
2.3125110000000002
 50
150.85108700000001
 51
154.19547499999999
  0
ARC
  5
145
  8
0
  6
AIGENLINE002
 62
     7
 10
168.95940300000001
 20
179.78748200000001
 30
0.0
 40
5.4724320000000004
 50
153.68305100000001
 51
158.68961100000001
  0
ARC
  5
146
  8
0
  6
AIGENLINE002
 62
     7
 10
165.929002
 20
180.93543700000001
 30
0.0
 40
2.232270999999999
 50
157.87224800000001
 51
161.21311600000001
  0
ARC
  5
147
  8
0
  6
AIGENLINE002
 62
     7
 10
169.15731
 20
179.7867
 30
0.0
 40
5.6587360000000002
 50
160.72848200000001
 51
165.622581
  0
LINE
  5
149
  8
0
  6
AIGENLINE002
 62
     7
 10
163.67599999999999
 20
181.19200000000001
 30
0.0
 11
163.21899999999999
 21
180.005
 31
0.0
  0
LINE
  5
14A
  8
0
  6
AIGENLINE002
 62
     7
 10
163.21899999999999
 20
180.005
 30
0.0
 11
158.33799999999999
 21
181.22999999999999
 31
0.0
  0
LINE
  5
14B
  8
0
  6
AIGENLINE002
 62
     7
 10
158.33799999999999
 20
181.22999999999999
 30
0.0
 11
153.679
 21
183.02799999999999
 31
0.0
  0
LINE
  5
14C
  8
0
  6
AIGENLINE002
 62
     7
 10
153.679
 20
183.02799999999999
 30
0.0
 11
154.93799999999999
 21
186.28899999999999
 31
0.0
  0
ARC
  5
14D
  8
0
  6
AIGENLINE002
 62
     7
 10
153.71037200000001
 20
186.71095700000001
 30
0.0
 40
1.2976229999999991
 50
341.04126100000002
 51
66.792912999999999
  0
LINE
  5
14E
  8
0
  6
AIGENLINE002
 62
     7
 10
154.22200000000001
 20
187.904
 30
0.0
 11
146.0679999999999
 21
191.04900000000001
 31
0.0
  0
ARC
  5
14F
  8
0
  6
AIGENLINE002
 62
     7
 10
144.868369
 20
188.399428
 30
0.0
 40
2.908536999999999
 50
65.637831999999989
 51
76.352260000000001
  0
ARC
  5
150
  8
0
  6
AIGENLINE002
 62
     7
 10
144.54317699999999
 20
187.19118700000001
 30
0.0
 40
4.1595079999999989
 50
75.926297000000005
 51
89.568421000000015
  0
ARC
  5
151
  8
0
  6
AIGENLINE002
 62
     7
 10
144.48774900000001
 20
186.38503800000001
 30
0.0
 40
4.9662959999999989
 50
88.999014000000003
 51
106.54373099999999
  0
ARC
  5
152
  8
0
  6
AIGENLINE002
 62
     7
 10
144.10074399999999
 20
187.789534
 30
0.0
 40
3.509863999999999
 50
107.016193
 51
120.810689
  0
ARC
  5
153
  8
0
  6
AIGENLINE002
 62
     7
 10
142.18640199999999
 20
191.0333
 30
0.0
 40
0.257206
 50
213.4931509999999
 51
296.95225900000003
  0
LINE
  5
154
  8
0
  6
AIGENLINE002
 62
     7
 10
141.97200000000001
 20
190.89099999999999
 30
0.0
 11
141.70699999999999
 21
191.31599999999989
 31
0.0
  0
LINE
  5
155
  8
0
 62
     7
 10
163.00899999999999
 20
183.70699999999999
 30
0.0
 11
163.00899999999999
 21
186.09200000000001
 31
0.0
  0
LINE
  5
156
  8
0
 62
     7
 10
163.00899999999999
 20
181.21199999999999
 30
0.0
 11
163.00899999999999
 21
182.48400000000001
 31
0.0
  0
ARC
  5
157
  8
0
 62
     7
 10
162.749911
 20
186.0824649999999
 30
0.0
 40
0.259438
 50
2.1379639999999989
 51
87.980528000000007
  0
ARC
  5
158
  8
0
 62
     7
 10
142.86716699999999
 20
182.436251
 30
0.0
 40
2.9114779999999989
 50
86.734729999999985
 51
97.437150000000017
  0
ARC
  5
159
  8
0
 62
     7
 10
143.00015200000001
 20
181.18975499999999
 30
0.0
 40
4.1648059999999987
 50
97.031616000000014
 51
110.655621
  0
ARC
  5
15A
  8
0
 62
     7
 10
143.23636999999999
 20
180.42463699999999
 30
0.0
 40
4.9643059999999988
 50
110.09166
 51
127.643118
  0
ARC
  5
15B
  8
0
 62
     7
 10
142.369304
 20
181.595361
 30
0.0
 40
3.507854
 50
128.10765900000001
 51
141.907836
  0
ARC
  5
15C
  8
0
 62
     7
 10
139.417316
 20
183.93051399999999
 30
0.0
 40
0.25658
 50
234.46075500000001
 51
318.1878220000001
  0
LINE
  5
15D
  8
0
 62
     7
 10
139.268
 20
183.72200000000001
 30
0.0
 11
138.869
 21
184.023
 31
0.0
  0
ARC
  5
15E
  8
0
 62
     7
 10
139.031576
 20
184.22322399999999
 30
0.0
 40
0.258781
 50
141.91486800000001
 51
227.93743000000001
  0
ARC
  5
15F
  8
0
 62
     7
 10
139.025158
 20
184.229196
 30
0.0
 40
0.259063
 50
229.876409
 51
232.80400299999991
  0
ARC
  5
160
  8
0
 62
     7
 10
142.82623899999999
 20
182.68704500000001
 30
0.0
 40
3.6605409999999998
 50
86.761981999999989
 51
99.542563999999999
  0
ARC
  5
161
  8
0
 62
     7
 10
143.04651000000001
 20
181.02316099999999
 30
0.0
 40
5.338239999999999
 50
98.913415000000015
 51
113.36132499999999
  0
ARC
  5
162
  8
0
 62
     7
 10
143.25969599999999
 20
180.37872999999999
 30
0.0
 40
6.0146739999999994
 50
112.791416
 51
128.697509
  0
ARC
  5
163
  8
0
 62
     7
 10
142.178754
 20
181.794421
 30
0.0
 40
4.2341749999999987
 50
129.25873000000001
 51
142.315134
  0
LINE
  5
164
  8
0
 62
     7
 10
151.773
 20
185.34299999999999
 30
0.0
 11
143.03299999999999
 21
185.34299999999999
 31
0.0
  0
LINE
  5
165
  8
0
 62
     7
 10
143.03299999999999
 20
186.34200000000001
 30
0.0
 11
162.75899999999999
 21
186.34200000000001
 31
0.0
  0
ARC
  5
166
  8
0
 62
     7
 10
151.72510500000001
 20
184.047023
 30
0.0
 40
1.296848999999999
 50
2.0977019999999991
 51
87.902287999999984
  0
LINE
  5
167
  8
0
 62
     7
 10
153.02099999999999
 20
180.59899999999999
 30
0.0
 11
153.02099999999999
 21
184.09399999999999
 31
0.0
  0
ARC
  5
168
  8
0
 62
     7
 10
165.24602999999999
 20
183.05422799999999
 30
0.0
 40
2.2751369999999991
 50
178.954195
 51
182.23112699999999
  0
ARC
  5
169
  8
0
 62
     7
 10
168.46149700000001
 20
183.13593
 30
0.0
 40
5.4915190000000003
 50
181.77685299999999
 51
186.819063
  0
ARC
  5
16A
  8
0
 62
     7
 10
165.48447200000001
 20
183.36335
 30
0.0
 40
2.4994450000000001
 50
172.08730800000001
 51
175.181802
  0
ARC
  5
16B
  8
0
 62
     7
 10
168.43980400000001
 20
183.07639800000001
 30
0.0
 40
5.468566
 50
174.78671900000001
 51
179.79719700000001
  0
LINE
  5
16C
  8
0
 62
     7
 10
163.00899999999999
 20
181.21199999999999
 30
0.0
 11
158.01499999999999
 21
180.59899999999999
 31
0.0
  0
LINE
  5
16D
  8
0
 62
     7
 10
153.02099999999999
 20
180.59899999999999
 30
0.0
 11
158.01499999999999
 21
180.59899999999999
 31
0.0
  0
ARC
  5
16E
  8
0
 62
     7
 10
161.00838200000001
 20
179.577776
 30
0.0
 40
1.995606
 50
6.3879919999999988
 51
9.9371439999999982
  0
ARC
  5
16F
  8
0
 62
     7
 10
159.05325099999999
 20
179.237987
 30
0.0
 40
3.9800430000000002
 50
9.8982600000000005
 51
16.453638999999999
  0
ARC
  5
170
  8
0
 62
     7
 10
157.52759499999999
 20
178.843965
 30
0.0
 40
5.555091
 50
15.894202999999999
 51
21.490034000000001
  0
ARC
  5
171
  8
0
 62
     7
 10
159.965035
 20
179.80403000000001
 30
0.0
 40
2.9353880000000001
 50
21.482375000000001
 51
27.465512
  0
ARC
  5
172
  8
0
 62
     7
 10
155.111907
 20
179.90594299999989
 30
0.0
 40
2.003568
 50
159.770724
 51
163.26350400000001
  0
ARC
  5
173
  8
0
 62
     7
 10
157.84404699999999
 20
179.06993799999989
 30
0.0
 40
4.8607370000000003
 50
163.10065
 51
172.8522449999999
  0
LINE
  5
174
  8
0
 62
     7
 10
162.99100000000001
 20
179.80000000000001
 30
0.0
 11
163.0079999999999
 21
179.67500000000001
 31
0.0
  0
LINE
  5
175
  8
0
 62
     7
 10
154.71199999999999
 20
167.739
 30
0.0
 11
154.71199999999999
 21
170.23599999999999
 31
0.0
  0
LINE
  5
176
  8
0
 62
     7
 10
153.69
 20
171.48500000000001
 30
0.0
 11
153.762
 21
171.47900000000001
 31
0.0
  0
LINE
  5
177
  8
0
 62
     7
 10
153.762
 20
171.47900000000001
 30
0.0
 11
153.83600000000001
 21
171.46199999999999
 31
0.0
  0
LINE
  5
178
  8
0
 62
     7
 10
153.83600000000001
 20
171.46199999999999
 30
0.0
 11
153.91300000000001
 21
171.434
 31
0.0
  0
LINE
  5
179
  8
0
 62
     7
 10
153.91300000000001
 20
171.434
 30
0.0
 11
153.99100000000001
 21
171.39599999999999
 31
0.0
  0
LINE
  5
17A
  8
0
 62
     7
 10
153.99100000000001
 20
171.39599999999999
 30
0.0
 11
154.06999999999999
 21
171.34899999999999
 31
0.0
  0
LINE
  5
17B
  8
0
 62
     7
 10
154.06999999999999
 20
171.34899999999999
 30
0.0
 11
154.15000000000001
 21
171.292
 31
0.0
  0
LINE
  5
17C
  8
0
 62
     7
 10
154.15000000000001
 20
171.292
 30
0.0
 11
154.22999999999999
 21
171.226
 31
0.0
  0
LINE
  5
17D
  8
0
 62
     7
 10
154.22999999999999
 20
171.226
 30
0.0
 11
154.30799999999999
 21
171.15199999999999
 31
0.0
  0
LINE
  5
17E
  8
0
 62
     7
 10
154.30799999999999
 20
171.15199999999999
 30
0.0
 11
154.38399999999999
 21
171.06700000000001
 31
0.0
  0
LINE
  5
17F
  8
0
 62
     7
 10
154.38399999999999
 20
171.06700000000001
 30
0.0
 11
154.45699999999999
 21
170.97399999999999
 31
0.0
  0
LINE
  5
180
  8
0
 62
     7
 10
154.45699999999999
 20
170.97399999999999
 30
0.0
 11
154.524
 21
170.87200000000001
 31
0.0
  0
LINE
  5
181
  8
0
 62
     7
 10
154.524
 20
170.87200000000001
 30
0.0
 11
154.58500000000001
 21
170.761
 31
0.0
  0
LINE
  5
182
  8
0
 62
     7
 10
154.58500000000001
 20
170.761
 30
0.0
 11
154.637
 21
170.63999999999999
 31
0.0
  0
LINE
  5
183
  8
0
 62
     7
 10
154.637
 20
170.63999999999999
 30
0.0
 11
154.67699999999999
 21
170.511
 31
0.0
  0
LINE
  5
184
  8
0
 62
     7
 10
154.67699999999999
 20
170.511
 30
0.0
 11
154.703
 21
170.37599999999989
 31
0.0
  0
LINE
  5
185
  8
0
 62
     7
 10
154.703
 20
170.37599999999989
 30
0.0
 11
154.71199999999999
 21
170.23599999999999
 31
0.0
  0
LINE
  5
186
  8
0
 62
     7
 10
153.69
 20
166.49100000000001
 30
0.0
 11
153.762
 21
166.4959999999999
 31
0.0
  0
LINE
  5
187
  8
0
 62
     7
 10
153.762
 20
166.4959999999999
 30
0.0
 11
153.83600000000001
 21
166.51400000000001
 31
0.0
  0
LINE
  5
188
  8
0
 62
     7
 10
153.83600000000001
 20
166.51400000000001
 30
0.0
 11
153.91300000000001
 21
166.541
 31
0.0
  0
LINE
  5
189
  8
0
 62
     7
 10
153.91300000000001
 20
166.541
 30
0.0
 11
153.99100000000001
 21
166.57900000000001
 31
0.0
  0
LINE
  5
18A
  8
0
 62
     7
 10
153.99100000000001
 20
166.57900000000001
 30
0.0
 11
154.06999999999999
 21
166.626
 31
0.0
  0
LINE
  5
18B
  8
0
 62
     7
 10
154.06999999999999
 20
166.626
 30
0.0
 11
154.15000000000001
 21
166.68299999999999
 31
0.0
  0
LINE
  5
18C
  8
0
 62
     7
 10
154.15000000000001
 20
166.68299999999999
 30
0.0
 11
154.22999999999999
 21
166.749
 31
0.0
  0
LINE
  5
18D
  8
0
 62
     7
 10
154.22999999999999
 20
166.749
 30
0.0
 11
154.30799999999999
 21
166.82400000000001
 31
0.0
  0
LINE
  5
18E
  8
0
 62
     7
 10
154.30799999999999
 20
166.82400000000001
 30
0.0
 11
154.38399999999999
 21
166.90799999999999
 31
0.0
  0
LINE
  5
18F
  8
0
 62
     7
 10
154.38399999999999
 20
166.90799999999999
 30
0.0
 11
154.45699999999999
 21
167.00099999999989
 31
0.0
  0
LINE
  5
190
  8
0
 62
     7
 10
154.45699999999999
 20
167.00099999999989
 30
0.0
 11
154.524
 21
167.10400000000001
 31
0.0
  0
LINE
  5
191
  8
0
 62
     7
 10
154.524
 20
167.10400000000001
 30
0.0
 11
154.58500000000001
 21
167.215
 31
0.0
  0
LINE
  5
192
  8
0
 62
     7
 10
154.58500000000001
 20
167.215
 30
0.0
 11
154.637
 21
167.33500000000001
 31
0.0
  0
LINE
  5
193
  8
0
 62
     7
 10
154.637
 20
167.33500000000001
 30
0.0
 11
154.67699999999999
 21
167.464
 31
0.0
  0
LINE
  5
194
  8
0
 62
     7
 10
154.67699999999999
 20
167.464
 30
0.0
 11
154.703
 21
167.59999999999999
 31
0.0
  0
LINE
  5
195
  8
0
 62
     7
 10
154.703
 20
167.59999999999999
 30
0.0
 11
154.71199999999999
 21
167.739
 31
0.0
  0
LINE
  5
196
  8
0
 62
     7
 10
120.849
 20
171.48500000000001
 30
0.0
 11
153.69
 21
171.48500000000001
 31
0.0
  0
LINE
  5
197
  8
0
 62
     7
 10
120.849
 20
166.49100000000001
 30
0.0
 11
153.02099999999999
 21
166.49100000000001
 31
0.0
  0
LINE
  5
198
  8
0
 62
     7
 10
116.06
 20
162.43700000000001
 30
0.0
 11
115.03700000000001
 21
163.15299999999999
 31
0.0
  0
LINE
  5
199
  8
0
 62
     7
 10
111.96899999999999
 20
165.30099999999999
 30
0.0
 11
112.992
 21
164.58500000000001
 31
0.0
  0
LINE
  5
19A
  8
0
 62
     7
 10
115.03700000000001
 20
163.15299999999999
 30
0.0
 11
112.992
 21
164.58500000000001
 31
0.0
  0
LINE
  5
19B
  8
0
 62
     7
 10
117.78
 20
164.89400000000001
 30
0.0
 11
116.06
 21
162.43700000000001
 31
0.0
  0
ARC
  5
19C
  8
0
 62
     7
 10
120.710526
 20
163.90868599999999
 30
0.0
 40
2.5859740000000002
 50
86.941262000000009
 51
98.209118000000004
  0
ARC
  5
19D
  8
0
 62
     7
 10
120.83311500000001
 20
162.92240100000001
 30
0.0
 40
3.5797110000000001
 50
97.897085000000033
 51
116.242705
  0
ARC
  5
19E
  8
0
 62
     7
 10
120.971932
 20
162.51841099999999
 30
0.0
 40
4.0038080000000003
 50
115.468127
 51
135.26664700000001
  0
ARC
  5
19F
  8
0
 62
     7
 10
120.15870700000001
 20
163.38431
 30
0.0
 40
2.816997999999999
 50
136.13663
 51
147.59790699999999
  0
ARC
  5
1A0
  8
0
 62
     7
 10
120.52305
 20
165.405957
 30
0.0
 40
6.0874230000000003
 50
86.935230000000004
 51
99.315356999999992
  0
ARC
  5
1A1
  8
0
 62
     7
 10
120.799182
 20
163.282287
 30
0.0
 40
8.2280929999999994
 50
98.819102000000001
 51
112.736699
  0
ARC
  5
1A2
  8
0
 62
     7
 10
121.22510699999999
 20
162.05578
 30
0.0
 40
9.5242529999999999
 50
112.248121
 51
132.61021099999999
  0
ARC
  5
1A3
  8
0
 62
     7
 10
119.56564
 20
163.97578899999999
 30
0.0
 40
6.9881429999999991
 50
133.25410500000001
 51
147.23150999999999
  0
LINE
  5
1A4
  8
0
 62
     7
 10
111.96899999999999
 20
165.30099999999999
 30
0.0
 11
113.69
 21
167.75800000000001
 31
0.0
  0
LINE
  5
1A5
  8
0
 62
     7
 10
153.02099999999999
 20
166.49100000000001
 30
0.0
 11
153.02099999999999
 21
104.715
 31
0.0
  0
LINE
  5
1A6
  8
0
 62
     7
 10
153.02099999999999
 20
179.67500000000001
 30
0.0
 11
153.02099999999999
 21
171.48500000000001
 31
0.0
  0
LINE
  5
1A7
  8
0
 62
     7
 10
163.00899999999999
 20
153.084
 30
0.0
 11
163.0079999999999
 21
153.071
 31
0.0
  0
LINE
  5
1A8
  8
0
 62
     7
 10
163.0079999999999
 20
153.071
 30
0.0
 11
163.006
 21
153.03399999999999
 31
0.0
  0
LINE
  5
1A9
  8
0
 62
     7
 10
163.006
 20
153.03399999999999
 30
0.0
 11
163.00399999999999
 21
152.983
 31
0.0
  0
LINE
  5
1AA
  8
0
 62
     7
 10
163.00399999999999
 20
152.983
 30
0.0
 11
163.001
 21
152.922
 31
0.0
  0
LINE
  5
1AB
  8
0
 62
     7
 10
163.001
 20
152.922
 30
0.0
 11
162.99799999999999
 21
152.85499999999999
 31
0.0
  0
LINE
  5
1AC
  8
0
 62
     7
 10
162.99799999999999
 20
152.85499999999999
 30
0.0
 11
162.995
 21
152.78399999999999
 31
0.0
  0
LINE
  5
1AD
  8
0
 62
     7
 10
162.995
 20
152.78399999999999
 30
0.0
 11
162.99100000000001
 21
152.71000000000001
 31
0.0
  0
LINE
  5
1AE
  8
0
 62
     7
 10
162.99100000000001
 20
152.71000000000001
 30
0.0
 11
162.988
 21
152.63399999999999
 31
0.0
  0
LINE
  5
1AF
  8
0
 62
     7
 10
162.988
 20
152.63399999999999
 30
0.0
 11
162.98500000000001
 21
152.55600000000001
 31
0.0
  0
LINE
  5
1B0
  8
0
 62
     7
 10
162.98500000000001
 20
152.55600000000001
 30
0.0
 11
162.982
 21
152.477
 31
0.0
  0
LINE
  5
1B1
  8
0
 62
     7
 10
162.982
 20
152.477
 30
0.0
 11
162.97999999999999
 21
152.39699999999999
 31
0.0
  0
LINE
  5
1B2
  8
0
 62
     7
 10
162.97999999999999
 20
152.39699999999999
 30
0.0
 11
162.977
 21
152.31700000000001
 31
0.0
  0
LINE
  5
1B3
  8
0
 62
     7
 10
162.977
 20
152.31700000000001
 30
0.0
 11
162.97499999999999
 21
152.23500000000001
 31
0.0
  0
LINE
  5
1B4
  8
0
 62
     7
 10
162.97499999999999
 20
152.23500000000001
 30
0.0
 11
162.97200000000001
 21
152.15299999999999
 31
0.0
  0
LINE
  5
1B5
  8
0
 62
     7
 10
162.97200000000001
 20
152.15299999999999
 30
0.0
 11
162.97
 21
152.071
 31
0.0
  0
LINE
  5
1B6
  8
0
 62
     7
 10
162.97
 20
152.071
 30
0.0
 11
162.96899999999999
 21
151.988
 31
0.0
  0
LINE
  5
1B7
  8
0
 62
     7
 10
162.96899999999999
 20
151.988
 30
0.0
 11
162.96700000000001
 21
110.655
 31
0.0
  0
LINE
  5
1B8
  8
0
 62
     7
 10
162.96700000000001
 20
110.655
 30
0.0
 11
162.965
 21
110.571
 31
0.0
  0
LINE
  5
1B9
  8
0
 62
     7
 10
162.965
 20
110.571
 30
0.0
 11
162.964
 21
110.488
 31
0.0
  0
LINE
  5
1BA
  8
0
 62
     7
 10
162.964
 20
110.488
 30
0.0
 11
162.96299999999999
 21
110.404
 31
0.0
  0
LINE
  5
1BB
  8
0
 62
     7
 10
162.96299999999999
 20
110.404
 30
0.0
 11
162.96199999999999
 21
110.31999999999999
 31
0.0
  0
LINE
  5
1BC
  8
0
 62
     7
 10
162.96199999999999
 20
110.31999999999999
 30
0.0
 11
162.96199999999999
 21
110.236
 31
0.0
  0
LINE
  5
1BD
  8
0
 62
     7
 10
162.96199999999999
 20
110.236
 30
0.0
 11
162.96199999999999
 21
110.152
 31
0.0
  0
LINE
  5
1BE
  8
0
 62
     7
 10
162.96199999999999
 20
110.152
 30
0.0
 11
162.96199999999999
 21
110.068
 31
0.0
  0
LINE
  5
1BF
  8
0
 62
     7
 10
162.96199999999999
 20
110.068
 30
0.0
 11
162.96199999999999
 21
109.98399999999999
 31
0.0
  0
LINE
  5
1C0
  8
0
 62
     7
 10
162.96199999999999
 20
109.98399999999999
 30
0.0
 11
162.96199999999999
 21
109.90000000000001
 31
0.0
  0
LINE
  5
1C1
  8
0
 62
     7
 10
162.96199999999999
 20
109.90000000000001
 30
0.0
 11
162.96299999999999
 21
109.816
 31
0.0
  0
LINE
  5
1C2
  8
0
 62
     7
 10
162.96299999999999
 20
109.816
 30
0.0
 11
162.964
 21
109.732
 31
0.0
  0
LINE
  5
1C3
  8
0
 62
     7
 10
162.964
 20
109.732
 30
0.0
 11
162.965
 21
109.648
 31
0.0
  0
LINE
  5
1C4
  8
0
 62
     7
 10
162.965
 20
109.648
 30
0.0
 11
162.96700000000001
 21
109.565
 31
0.0
  0
LINE
  5
1C5
  8
0
 62
     7
 10
162.96700000000001
 20
109.565
 30
0.0
 11
162.96899999999999
 21
109.482
 31
0.0
  0
LINE
  5
1C6
  8
0
 62
     7
 10
162.96899999999999
 20
109.482
 30
0.0
 11
162.971
 21
109.40000000000001
 31
0.0
  0
LINE
  5
1C7
  8
0
 62
     7
 10
162.971
 20
109.40000000000001
 30
0.0
 11
162.97300000000001
 21
109.318
 31
0.0
  0
LINE
  5
1C8
  8
0
 62
     7
 10
162.97300000000001
 20
109.318
 30
0.0
 11
162.976
 21
109.23699999999999
 31
0.0
  0
LINE
  5
1C9
  8
0
 62
     7
 10
162.976
 20
109.23699999999999
 30
0.0
 11
162.97900000000001
 21
109.158
 31
0.0
  0
LINE
  5
1CA
  8
0
 62
     7
 10
162.97900000000001
 20
109.158
 30
0.0
 11
162.982
 21
109.07899999999999
 31
0.0
  0
LINE
  5
1CB
  8
0
 62
     7
 10
162.982
 20
109.07899999999999
 30
0.0
 11
162.98599999999999
 21
109.002
 31
0.0
  0
LINE
  5
1CC
  8
0
 62
     7
 10
162.98599999999999
 20
109.002
 30
0.0
 11
162.989
 21
108.92700000000001
 31
0.0
  0
LINE
  5
1CD
  8
0
 62
     7
 10
162.989
 20
108.92700000000001
 30
0.0
 11
162.99299999999999
 21
108.855
 31
0.0
  0
LINE
  5
1CE
  8
0
 62
     7
 10
162.99299999999999
 20
108.855
 30
0.0
 11
162.99600000000001
 21
108.78700000000001
 31
0.0
  0
LINE
  5
1CF
  8
0
 62
     7
 10
162.99600000000001
 20
108.78700000000001
 30
0.0
 11
163.0
 21
108.724
 31
0.0
  0
LINE
  5
1D0
  8
0
 62
     7
 10
163.0
 20
108.724
 30
0.0
 11
163.00399999999999
 21
108.669
 31
0.0
  0
LINE
  5
1D1
  8
0
 62
     7
 10
163.00399999999999
 20
108.669
 30
0.0
 11
163.006
 21
108.624
 31
0.0
  0
LINE
  5
1D2
  8
0
 62
     7
 10
163.006
 20
108.624
 30
0.0
 11
163.0079999999999
 21
108.59399999999999
 31
0.0
  0
LINE
  5
1D3
  8
0
 62
     7
 10
163.0079999999999
 20
108.59399999999999
 30
0.0
 11
163.00899999999999
 21
108.584
 31
0.0
  0
LINE
  5
1D4
  8
0
 62
     7
 10
163.00899999999999
 20
110.93600000000001
 30
0.0
 11
163.00899999999999
 21
104.715
 31
0.0
  0
LINE
  5
1D5
  8
0
 62
     7
 10
163.00899999999999
 20
179.67500000000001
 30
0.0
 11
163.00899999999999
 21
153.084
 31
0.0
  0
LINE
  5
1D6
  8
0
 62
     7
 10
163.00899999999999
 20
179.67500000000001
 30
0.0
 11
153.02099999999999
 21
179.67500000000001
 31
0.0
  0
LINE
  5
1D7
  8
0
 62
     7
 10
153.78200000000001
 20
87.841199999999986
 30
0.0
 11
153.78200000000001
 21
91.091300000000004
 31
0.0
  0
ARC
  5
1D8
  8
0
 62
     7
 10
156.024159
 20
87.343261999999996
 30
0.0
 40
2.141378
 50
255.38937899999999
 51
269.97326500000003
  0
ARC
  5
1D9
  8
0
 62
     7
 10
154.52901199999999
 20
87.377108000000007
 30
0.0
 40
2.1738129999999991
 50
255.64868999999999
 51
284.35133000000002
  0
LINE
  5
1DA
  8
0
 62
     7
 10
153.78200000000001
 20
85.271100000000004
 30
0.0
 11
153.78200000000001
 21
85.211200000000005
 31
0.0
  0
ARC
  5
1DB
  8
0
 62
     7
 10
160.99108000000001
 20
97.643687999999983
 30
0.0
 40
14.371371999999999
 50
239.8927710000001
 51
240.859757
  0
LINE
  5
1DC
  8
0
 62
     7
 10
156.01499999999999
 20
85.091300000000004
 30
0.0
 11
153.99299999999999
 21
85.091300000000004
 31
0.0
  0
LINE
  5
1DD
  8
0
 62
     7
 10
155.06800000000001
 20
87.717200000000005
 30
0.0
 11
155.06800000000001
 21
85.271100000000004
 31
0.0
  0
LINE
  5
1DE
  8
0
 62
     7
 10
155.48400000000001
 20
85.271100000000004
 30
0.0
 11
155.06800000000001
 21
85.271100000000004
 31
0.0
  0
LINE
  5
1DF
  8
0
 62
     7
 10
155.48400000000001
 20
85.271100000000004
 30
0.0
 11
155.48400000000001
 21
87.717200000000005
 31
0.0
  0
LINE
  5
1E0
  8
0
 62
     7
 10
153.78200000000001
 20
87.717200000000005
 30
0.0
 11
153.78200000000001
 21
85.271100000000004
 31
0.0
  0
LINE
  5
1E1
  8
0
 62
     7
 10
153.99000000000001
 20
85.271100000000004
 30
0.0
 11
153.78200000000001
 21
85.271100000000004
 31
0.0
  0
LINE
  5
1E2
  8
0
 62
     7
 10
153.99000000000001
 20
85.271100000000004
 30
0.0
 11
153.99000000000001
 21
87.717200000000005
 31
0.0
  0
LINE
  5
1E3
  8
0
 62
     7
 10
156.024
 20
87.841199999999986
 30
0.0
 11
154.529
 21
87.841199999999986
 31
0.0
  0
ARC
  5
1E4
  8
0
 62
     7
 10
154.529167
 20
86.679878000000002
 30
0.0
 40
1.1613100000000001
 50
72.973367999999994
 51
90.007643000000002
  0
ARC
  5
1E5
  8
0
 62
     7
 10
154.42597499999999
 20
86.28009200000001
 30
0.0
 40
1.5738979999999989
 50
65.932569999999998
 51
73.643028999999999
  0
LINE
  5
1E6
  8
0
 62
     7
 10
155.48400000000001
 20
87.717200000000005
 30
0.0
 11
155.06800000000001
 21
87.717200000000005
 31
0.0
  0
ARC
  5
1E7
  8
0
 62
     7
 10
156.10853
 20
86.309875000000005
 30
0.0
 40
1.539644
 50
99.627629000000013
 51
113.930813
  0
ARC
  5
1E8
  8
0
 62
     7
 10
156.02549999999999
 20
86.695072999999994
 30
0.0
 40
1.1461170000000001
 50
90.099781000000007
 51
98.755861999999993
  0
LINE
  5
1E9
  8
0
 62
     7
 10
154.529
 20
87.841199999999986
 30
0.0
 11
153.78200000000001
 21
87.841199999999986
 31
0.0
  0
LINE
  5
1EA
  8
0
 62
     7
 10
153.78200000000001
 20
87.841199999999986
 30
0.0
 11
153.78200000000001
 21
87.717200000000005
 31
0.0
  0
LINE
  5
1EB
  8
0
 62
     7
 10
153.99000000000001
 20
87.717200000000005
 30
0.0
 11
153.78200000000001
 21
87.717200000000005
 31
0.0
  0
ARC
  5
1EC
  8
0
 62
     7
 10
154.6151769999999
 20
86.308856999999975
 30
0.0
 40
1.540756
 50
99.645319999999984
 51
113.93078300000001
  0
ARC
  5
1ED
  8
0
 62
     7
 10
154.531136
 20
86.699747000000002
 30
0.0
 40
1.1414439999999999
 50
90.106605999999985
 51
98.773882999999984
  0
LINE
  5
1EE
  8
0
 62
     7
 10
154.28
 20
103.09099999999999
 30
0.0
 11
154.28
 21
92.591300000000004
 31
0.0
  0
LINE
  5
1EF
  8
0
 62
     7
 10
151.727
 20
91.140900000000002
 30
0.0
 11
151.727
 21
92.041499999999999
 31
0.0
  0
LINE
  5
1F0
  8
0
 62
     7
 10
161.25299999999999
 20
91.140900000000002
 30
0.0
 11
161.25299999999999
 21
92.041499999999999
 31
0.0
  0
ARC
  5
1F1
  8
0
 62
     7
 10
161.20115699999999
 20
92.039738999999983
 30
0.0
 40
0.051375
 50
1.936531
 51
88.063458999999995
  0
ARC
  5
1F2
  8
0
 62
     7
 10
151.779043
 20
92.039462
 30
0.0
 40
0.051639
 50
91.443960999999987
 51
177.76573500000001
  0
ARC
  5
1F3
  8
0
 62
     7
 10
161.20108999999999
 20
91.142724999999999
 30
0.0
 40
0.051445
 50
272.00930599999998
 51
357.99070399999999
  0
ARC
  5
1F4
  8
0
 62
     7
 10
151.77954399999999
 20
91.143442000000007
 30
0.0
 40
0.052161
 50
182.76987500000001
 51
268.02042799999998
  0
LINE
  5
1F5
  8
0
 62
     7
 10
151.77799999999999
 20
91.091300000000004
 30
0.0
 11
161.203
 21
91.091300000000004
 31
0.0
  0
LINE
  5
1F6
  8
0
 62
     7
 10
151.727
 20
92.591300000000004
 30
0.0
 11
151.727
 21
92.091099999999997
 31
0.0
  0
LINE
  5
1F7
  8
0
 62
     7
 10
161.25299999999999
 20
92.591300000000004
 30
0.0
 11
161.25299999999999
 21
92.091099999999997
 31
0.0
  0
LINE
  5
1F8
  8
0
 62
     7
 10
151.727
 20
92.591300000000004
 30
0.0
 11
161.25299999999999
 21
92.591300000000004
 31
0.0
  0
LINE
  5
1F9
  8
0
 62
     7
 10
151.727
 20
92.091099999999997
 30
0.0
 11
161.25299999999999
 21
92.091099999999997
 31
0.0
  0
LINE
  5
1FA
  8
0
 62
     7
 10
59.366300000000003
 20
87.841199999999986
 30
0.0
 11
59.366300000000003
 21
91.091300000000004
 31
0.0
  0
LINE
  5
1FB
  8
0
 62
     7
 10
56.378
 20
87.841199999999986
 30
0.0
 11
56.378
 21
91.091300000000004
 31
0.0
  0
LINE
  5
1FC
  8
0
 62
     7
 10
57.622999999999998
 20
85.211200000000005
 30
0.0
 11
57.622999999999998
 21
85.962900000000005
 31
0.0
  0
LINE
  5
1FD
  8
0
 62
     7
 10
57.622999999999998
 20
85.962900000000005
 30
0.0
 11
58.121200000000002
 21
85.962900000000005
 31
0.0
  0
LINE
  5
1FE
  8
0
 62
     7
 10
58.121200000000002
 20
85.962900000000005
 30
0.0
 11
58.121200000000002
 21
85.211200000000005
 31
0.0
  0
LINE
  5
1FF
  8
0
 62
     7
 10
56.564700000000002
 20
85.091300000000004
 30
0.0
 11
56.253300000000003
 21
85.271100000000004
 31
0.0
  0
LINE
  5
200
  8
0
 62
     7
 10
59.179499999999997
 20
85.091300000000004
 30
0.0
 11
59.490600000000001
 21
85.271100000000004
 31
0.0
  0
LINE
  5
201
  8
0
 62
     7
 10
56.253300000000003
 20
87.717200000000005
 30
0.0
 11
56.253300000000003
 21
85.271100000000004
 31
0.0
  0
LINE
  5
202
  8
0
 62
     7
 10
59.490600000000001
 20
87.717200000000005
 30
0.0
 11
59.490600000000001
 21
85.271100000000004
 31
0.0
  0
LINE
  5
203
  8
0
 62
     7
 10
56.378
 20
87.841199999999986
 30
0.0
 11
56.253300000000003
 21
87.717200000000005
 31
0.0
  0
LINE
  5
204
  8
0
 62
     7
 10
59.366300000000003
 20
87.841199999999986
 30
0.0
 11
59.490600000000001
 21
87.717200000000005
 31
0.0
  0
ARC
  5
205
  8
0
 62
     7
 10
56.577955000000003
 20
85.981160000000003
 30
0.0
 40
0.7752600000000001
 50
246.328058
 51
293.67196200000001
  0
ARC
  5
206
  8
0
 62
     7
 10
57.911192999999997
 20
88.199652
 30
0.0
 40
3.0023270000000002
 50
257.26944300000002
 51
264.49230899999998
  0
LINE
  5
207
  8
0
 62
     7
 10
57.622999999999998
 20
85.211200000000005
 30
0.0
 11
57.622999999999998
 21
85.091300000000004
 31
0.0
  0
LINE
  5
208
  8
0
 62
     7
 10
56.564700000000002
 20
85.091300000000004
 30
0.0
 11
57.622999999999998
 21
85.091300000000004
 31
0.0
  0
LINE
  5
209
  8
0
 62
     7
 10
58.121200000000002
 20
85.091300000000004
 30
0.0
 11
59.179499999999997
 21
85.091300000000004
 31
0.0
  0
LINE
  5
20A
  8
0
 62
     7
 10
58.121200000000002
 20
85.091300000000004
 30
0.0
 11
58.121200000000002
 21
85.211200000000005
 31
0.0
  0
ARC
  5
20B
  8
0
 62
     7
 10
57.869737000000001
 20
87.970993000000007
 30
0.0
 40
2.771239
 50
275.20611000000002
 51
283.03217799999999
  0
ARC
  5
20C
  8
0
 62
     7
 10
59.165927000000003
 20
85.980403999999993
 30
0.0
 40
0.7745670000000001
 50
246.305611
 51
293.69440900000001
  0
LINE
  5
20D
  8
0
 62
     7
 10
56.2667
 20
87.717200000000005
 30
0.0
 11
56.2667
 21
85.271100000000004
 31
0.0
  0
LINE
  5
20E
  8
0
 62
     7
 10
56.253300000000003
 20
85.271100000000004
 30
0.0
 11
56.2667
 21
85.271100000000004
 31
0.0
  0
LINE
  5
20F
  8
0
 62
     7
 10
59.477200000000003
 20
85.271100000000004
 30
0.0
 11
59.490600000000001
 21
85.271100000000004
 31
0.0
  0
LINE
  5
210
  8
0
 62
     7
 10
59.477200000000003
 20
85.271100000000004
 30
0.0
 11
59.477200000000003
 21
87.717200000000005
 31
0.0
  0
LINE
  5
211
  8
0
 62
     7
 10
57.249600000000001
 20
87.717200000000005
 30
0.0
 11
57.249600000000001
 21
85.271100000000004
 31
0.0
  0
LINE
  5
212
  8
0
 62
     7
 10
56.889200000000002
 20
85.271100000000004
 30
0.0
 11
57.249600000000001
 21
85.271100000000004
 31
0.0
  0
LINE
  5
213
  8
0
 62
     7
 10
56.889200000000002
 20
85.271100000000004
 30
0.0
 11
56.889200000000002
 21
87.717200000000005
 31
0.0
  0
LINE
  5
214
  8
0
 62
     7
 10
58.854700000000001
 20
87.717200000000005
 30
0.0
 11
58.854700000000001
 21
85.271100000000004
 31
0.0
  0
LINE
  5
215
  8
0
 62
     7
 10
58.494599999999998
 20
85.271100000000004
 30
0.0
 11
58.854700000000001
 21
85.271100000000004
 31
0.0
  0
LINE
  5
216
  8
0
 62
     7
 10
58.494599999999998
 20
85.271100000000004
 30
0.0
 11
58.494599999999998
 21
87.717200000000005
 31
0.0
  0
LINE
  5
217
  8
0
 62
     7
 10
56.378
 20
87.841199999999986
 30
0.0
 11
56.578099999999999
 21
87.841199999999986
 31
0.0
  0
ARC
  5
218
  8
0
 62
     7
 10
56.578460999999997
 20
87.433608999999976
 30
0.0
 40
0.407579
 50
90.046904999999995
 51
119.302476
  0
ARC
  5
219
  8
0
 62
     7
 10
56.709095999999988
 20
87.149613000000002
 30
0.0
 40
0.7196100000000002
 50
117.3057129999999
 51
127.936487
  0
LINE
  5
21A
  8
0
 62
     7
 10
56.253300000000003
 20
87.717200000000005
 30
0.0
 11
56.2667
 21
87.717200000000005
 31
0.0
  0
LINE
  5
21B
  8
0
 62
     7
 10
56.578099999999999
 20
87.841199999999986
 30
0.0
 11
57.8718
 21
87.841199999999986
 31
0.0
  0
ARC
  5
21C
  8
0
 62
     7
 10
57.871483999999988
 20
86.301745999999994
 30
0.0
 40
1.5394429999999999
 50
89.989388000000005
 51
104.774928
  0
ARC
  5
21D
  8
0
 62
     7
 10
57.973663999999999
 20
85.842578000000003
 30
0.0
 40
2.0095689999999991
 50
104.253248
 51
111.1196879999999
  0
LINE
  5
21E
  8
0
 62
     7
 10
56.889200000000002
 20
87.717200000000005
 30
0.0
 11
57.249600000000001
 21
87.717200000000005
 31
0.0
  0
ARC
  5
21F
  8
0
 62
     7
 10
56.431854000000001
 20
87.122128000000004
 30
0.0
 40
0.750502
 50
52.452736000000002
 51
65.323571999999984
  0
ARC
  5
220
  8
0
 62
     7
 10
56.569130999999999
 20
87.405951000000002
 30
0.0
 40
0.43533
 50
66.145717000000005
 51
88.815808000000004
  0
LINE
  5
221
  8
0
 62
     7
 10
59.477200000000003
 20
87.717200000000005
 30
0.0
 11
59.490600000000001
 21
87.717200000000005
 31
0.0
  0
ARC
  5
222
  8
0
 62
     7
 10
59.014321000000002
 20
87.112375999999998
 30
0.0
 40
0.76159
 50
52.571522000000002
 51
65.265356999999995
  0
ARC
  5
223
  8
0
 62
     7
 10
59.156950999999999
 20
87.406002000000015
 30
0.0
 40
0.4352750000000001
 50
66.145477999999997
 51
88.841026999999997
  0
LINE
  5
224
  8
0
 62
     7
 10
59.16579999999999
 20
87.841199999999986
 30
0.0
 11
59.366300000000003
 21
87.841199999999986
 31
0.0
  0
LINE
  5
225
  8
0
 62
     7
 10
57.8718
 20
87.841199999999986
 30
0.0
 11
59.16579999999999
 21
87.841199999999986
 31
0.0
  0
ARC
  5
226
  8
0
 62
     7
 10
59.166096000000003
 20
87.434834999999993
 30
0.0
 40
0.406354
 50
90.048140999999987
 51
119.347616
  0
ARC
  5
227
  8
0
 62
     7
 10
59.297398999999999
 20
87.149170999999996
 30
0.0
 40
0.7201620000000001
 50
117.314089
 51
127.93559399999999
  0
LINE
  5
228
  8
0
 62
     7
 10
58.494599999999998
 20
87.717200000000005
 30
0.0
 11
58.854700000000001
 21
87.717200000000005
 31
0.0
  0
ARC
  5
229
  8
0
 62
     7
 10
57.820448999999989
 20
85.957321999999976
 30
0.0
 40
1.884565
 50
69.038106999999997
 51
88.439534999999992
  0
LINE
  5
22A
  8
0
 62
     7
 10
154.53
 20
103.09099999999999
 30
0.0
 11
154.53
 21
92.591300000000004
 31
0.0
  0
LINE
  5
22B
  8
0
 62
     7
 10
58.618200000000002
 20
103.09099999999999
 30
0.0
 11
58.618200000000002
 21
92.591300000000004
 31
0.0
  0
LINE
  5
22C
  8
0
 62
     7
 10
57.125700000000002
 20
103.09099999999999
 30
0.0
 11
57.125700000000002
 21
92.591300000000004
 31
0.0
  0
LINE
  5
22D
  8
0
 62
     7
 10
56.875799999999998
 20
103.09099999999999
 30
0.0
 11
56.875799999999998
 21
92.591300000000004
 31
0.0
  0
LINE
  5
22E
  8
0
 62
     7
 10
58.868099999999998
 20
103.09099999999999
 30
0.0
 11
58.868099999999998
 21
92.591300000000004
 31
0.0
  0
LINE
  5
22F
  8
0
 62
     7
 10
64.0351
 20
91.140900000000002
 30
0.0
 11
64.0351
 21
92.041499999999999
 31
0.0
  0
LINE
  5
230
  8
0
 62
     7
 10
51.708799999999997
 20
91.140900000000002
 30
0.0
 11
51.708799999999997
 21
92.041499999999999
 31
0.0
  0
ARC
  5
231
  8
0
 62
     7
 10
63.98359
 20
92.039591999999985
 30
0.0
 40
0.051528
 50
2.0951580000000001
 51
87.904831999999999
  0
ARC
  5
232
  8
0
 62
     7
 10
51.760559999999991
 20
92.039309000000003
 30
0.0
 40
0.051807
 50
91.999636999999993
 51
177.603825
  0
ARC
  5
233
  8
0
 62
     7
 10
63.983738000000002
 20
91.142657999999997
 30
0.0
 40
0.051375
 50
271.93654099999998
 51
358.063469
  0
ARC
  5
234
  8
0
 62
     7
 10
51.760304999999988
 20
91.142830000000004
 30
0.0
 40
0.051541
 50
182.121826
 51
268.27471300000002
  0
LINE
  5
235
  8
0
 62
     7
 10
63.985500000000002
 20
91.091300000000004
 30
0.0
 11
51.758800000000001
 21
91.091300000000004
 31
0.0
  0
LINE
  5
236
  8
0
 62
     7
 10
51.708799999999997
 20
92.591300000000004
 30
0.0
 11
51.708799999999997
 21
92.091099999999997
 31
0.0
  0
LINE
  5
237
  8
0
 62
     7
 10
64.0351
 20
92.591300000000004
 30
0.0
 11
64.0351
 21
92.091099999999997
 31
0.0
  0
LINE
  5
238
  8
0
 62
     7
 10
64.0351
 20
92.591300000000004
 30
0.0
 11
51.708799999999997
 21
92.591300000000004
 31
0.0
  0
LINE
  5
239
  8
0
 62
     7
 10
64.0351
 20
92.091099999999997
 30
0.0
 11
51.708799999999997
 21
92.091099999999997
 31
0.0
  0
LINE
  5
23A
  8
0
 62
     7
 10
163.76499999999999
 20
103.84099999999999
 30
0.0
 11
152.26499999999999
 21
103.84099999999999
 31
0.0
  0
LINE
  5
23B
  8
0
 62
     7
 10
152.26499999999999
 20
103.84099999999999
 30
0.0
 11
152.26499999999999
 21
103.09099999999999
 31
0.0
  0
LINE
  5
23C
  8
0
 62
     7
 10
152.26499999999999
 20
103.09099999999999
 30
0.0
 11
163.76499999999999
 21
103.09099999999999
 31
0.0
  0
LINE
  5
23D
  8
0
 62
     7
 10
163.76499999999999
 20
103.09099999999999
 30
0.0
 11
163.76499999999999
 21
103.84099999999999
 31
0.0
  0
LINE
  5
23E
  8
0
 62
     7
 10
52.122199999999999
 20
103.84099999999999
 30
0.0
 11
63.622399999999992
 21
103.84099999999999
 31
0.0
  0
LINE
  5
23F
  8
0
 62
     7
 10
63.622399999999992
 20
103.84099999999999
 30
0.0
 11
63.622399999999992
 21
103.09099999999999
 31
0.0
  0
LINE
  5
240
  8
0
 62
     7
 10
63.622399999999992
 20
103.09099999999999
 30
0.0
 11
52.122199999999999
 21
103.09099999999999
 31
0.0
  0
LINE
  5
241
  8
0
 62
     7
 10
52.122199999999999
 20
103.09099999999999
 30
0.0
 11
52.122199999999999
 21
103.84099999999999
 31
0.0
  0
LINE
  5
242
  8
0
 62
     7
 10
155.232
 20
174.24199999999999
 30
0.0
 11
153.02099999999999
 21
173.65000000000001
 31
0.0
  0
LINE
  5
243
  8
0
 62
     7
 10
153.02099999999999
 20
173.65000000000001
 30
0.0
 11
155.232
 21
173.05799999999999
 31
0.0
  0
LINE
  5
244
  8
0
 62
     7
 10
155.232
 20
173.05799999999999
 30
0.0
 11
155.232
 21
174.24199999999999
 31
0.0
  0
LINE
  5
245
  8
0
 62
     7
 10
160.798
 20
173.05799999999999
 30
0.0
 11
163.00899999999999
 21
173.65000000000001
 31
0.0
  0
LINE
  5
246
  8
0
 62
     7
 10
163.00899999999999
 20
173.65000000000001
 30
0.0
 11
160.798
 21
174.24299999999999
 31
0.0
  0
LINE
  5
247
  8
0
 62
     7
 10
160.798
 20
174.24299999999999
 30
0.0
 11
160.798
 21
173.05799999999999
 31
0.0
  0
LINE
  5
248
  8
0
 62
     7
 10
146.792
 20
173.65000000000001
 30
0.0
 11
163.00899999999999
 21
173.65000000000001
 31
0.0
  0
LINE
  5
249
  8
0
 62
     7
 10
154.108
 20
110.595
 30
0.0
 11
151.89699999999999
 21
110.003
 31
0.0
  0
LINE
  5
24A
  8
0
 62
     7
 10
151.89699999999999
 20
110.003
 30
0.0
 11
154.108
 21
109.411
 31
0.0
  0
LINE
  5
24B
  8
0
 62
     7
 10
154.108
 20
109.411
 30
0.0
 11
154.108
 21
110.595
 31
0.0
  0
LINE
  5
24C
  8
0
 62
     7
 10
161.922
 20
109.425
 30
0.0
 11
164.13300000000001
 21
110.018
 31
0.0
  0
LINE
  5
24D
  8
0
 62
     7
 10
164.13300000000001
 20
110.018
 30
0.0
 11
161.922
 21
110.61
 31
0.0
  0
LINE
  5
24E
  8
0
 62
     7
 10
161.922
 20
110.61
 30
0.0
 11
161.922
 21
109.425
 31
0.0
  0
LINE
  5
24F
  8
0
 62
     7
 10
146.34399999999999
 20
110.01000000000001
 30
0.0
 11
164.13300000000001
 21
110.01000000000001
 31
0.0
  0
LINE
  5
250
  8
0
 62
     7
 10
151.89699999999999
 20
105.41500000000001
 30
0.0
 11
151.89699999999999
 21
110.718
 31
0.0
  0
LINE
  5
251
  8
0
 62
     7
 10
164.13300000000001
 20
105.41500000000001
 30
0.0
 11
164.13300000000001
 21
110.718
 31
0.0
  0
LINE
  5
252
  8
0
 62
     7
 10
140.62299999999999
 20
186.34200000000001
 30
0.0
 11
95.521900000000016
 21
186.34200000000001
 31
0.0
  0
LINE
  5
253
  8
0
 62
     7
 10
125.58799999999999
 20
162.43700000000001
 30
0.0
 11
116.76000000000001
 21
162.43700000000001
 31
0.0
  0
LINE
  5
254
  8
0
 62
     7
 10
125.48
 20
160.226
 30
0.0
 11
124.88800000000001
 21
162.43700000000001
 31
0.0
  0
LINE
  5
255
  8
0
 62
     7
 10
124.88800000000001
 20
162.43700000000001
 30
0.0
 11
124.295
 21
160.226
 31
0.0
  0
LINE
  5
256
  8
0
 62
     7
 10
124.295
 20
160.226
 30
0.0
 11
125.48
 21
160.226
 31
0.0
  0
LINE
  5
257
  8
0
 62
     7
 10
124.31
 20
106.05200000000001
 30
0.0
 11
124.902
 21
103.84099999999999
 31
0.0
  0
LINE
  5
258
  8
0
 62
     7
 10
124.902
 20
103.84099999999999
 30
0.0
 11
125.494
 21
106.05200000000001
 31
0.0
  0
LINE
  5
259
  8
0
 62
     7
 10
125.494
 20
106.05200000000001
 30
0.0
 11
124.31
 21
106.05200000000001
 31
0.0
  0
LINE
  5
25A
  8
0
 62
     7
 10
124.895
 20
162.43700000000001
 30
0.0
 11
124.895
 21
103.84099999999999
 31
0.0
  0
LINE
  5
25B
  8
0
 62
     7
 10
113.31399999999999
 20
163.869
 30
0.0
 11
102.596
 21
163.869
 31
0.0
  0
LINE
  5
25C
  8
0
 62
     7
 10
141.96299999999999
 20
192.34200000000001
 30
0.0
 11
88.440500000000014
 21
192.34200000000001
 31
0.0
  0
LINE
  5
25D
  8
0
 62
     7
 10
155.804
 20
153.44999999999999
 30
0.0
 11
158.01499999999999
 21
154.042
 31
0.0
  0
LINE
  5
25E
  8
0
 62
     7
 10
158.01499999999999
 20
154.042
 30
0.0
 11
155.804
 21
154.63499999999999
 31
0.0
  0
LINE
  5
25F
  8
0
 62
     7
 10
155.804
 20
154.63499999999999
 30
0.0
 11
155.804
 21
153.44999999999999
 31
0.0
  0
LINE
  5
260
  8
0
 62
     7
 10
111.741
 20
153.779
 30
0.0
 11
114.014
 21
154.04300000000001
 31
0.0
  0
LINE
  5
261
  8
0
 62
     7
 10
114.014
 20
154.04300000000001
 30
0.0
 11
111.914
 21
154.95099999999999
 31
0.0
  0
LINE
  5
262
  8
0
 62
     7
 10
111.914
 20
154.95099999999999
 30
0.0
 11
111.741
 21
153.779
 31
0.0
  0
LINE
  5
263
  8
0
 62
     7
 10
110.61
 20
155.31700000000001
 30
0.0
 11
108.377
 21
155.81899999999999
 31
0.0
  0
LINE
  5
264
  8
0
 62
     7
 10
108.377
 20
155.81899999999999
 30
0.0
 11
110.06
 21
154.268
 31
0.0
  0
LINE
  5
265
  8
0
 62
     7
 10
110.06
 20
154.268
 30
0.0
 11
110.61
 21
155.31700000000001
 31
0.0
  0
LINE
  5
266
  8
0
 62
     7
 10
116.22499999999999
 20
154.63399999999999
 30
0.0
 11
114.014
 21
154.042
 31
0.0
  0
LINE
  5
267
  8
0
 62
     7
 10
114.014
 20
154.042
 30
0.0
 11
116.22499999999999
 21
153.44999999999999
 31
0.0
  0
LINE
  5
268
  8
0
 62
     7
 10
116.22499999999999
 20
153.44999999999999
 30
0.0
 11
116.22499999999999
 21
154.63399999999999
 31
0.0
  0
LINE
  5
269
  8
0
 62
     7
 10
158.01499999999999
 20
154.042
 30
0.0
 11
114.014
 21
154.042
 31
0.0
  0
LINE
  5
26A
  8
0
 62
     7
 10
151.197
 20
103.84099999999999
 30
0.0
 11
88.440500000000014
 21
103.84099999999999
 31
0.0
  0
LINE
  5
26B
  8
0
 62
     7
 10
89.725499999999997
 20
190.131
 30
0.0
 11
89.133300000000006
 21
192.34200000000001
 31
0.0
  0
LINE
  5
26C
  8
0
 62
     7
 10
89.133300000000006
 20
192.34200000000001
 30
0.0
 11
88.5411
 21
190.131
 31
0.0
  0
LINE
  5
26D
  8
0
 62
     7
 10
88.5411
 20
190.131
 30
0.0
 11
89.725499999999997
 21
190.131
 31
0.0
  0
LINE
  5
26E
  8
0
 62
     7
 10
88.555499999999995
 20
106.05200000000001
 30
0.0
 11
89.1477
 21
103.84099999999999
 31
0.0
  0
LINE
  5
26F
  8
0
 62
     7
 10
89.1477
 20
103.84099999999999
 30
0.0
 11
89.739999999999995
 21
106.05200000000001
 31
0.0
  0
LINE
  5
270
  8
0
 62
     7
 10
89.739999999999995
 20
106.05200000000001
 30
0.0
 11
88.555499999999995
 21
106.05200000000001
 31
0.0
  0
LINE
  5
271
  8
0
 62
     7
 10
89.140500000000003
 20
192.34200000000001
 30
0.0
 11
89.140500000000003
 21
103.84099999999999
 31
0.0
  0
LINE
  5
272
  8
0
 62
     7
 10
96.806899999999999
 20
184.131
 30
0.0
 11
96.214699999999993
 21
186.34200000000001
 31
0.0
  0
LINE
  5
273
  8
0
 62
     7
 10
96.214699999999993
 20
186.34200000000001
 30
0.0
 11
95.622500000000002
 21
184.131
 31
0.0
  0
LINE
  5
274
  8
0
 62
     7
 10
95.622500000000002
 20
184.131
 30
0.0
 11
96.806899999999999
 21
184.131
 31
0.0
  0
LINE
  5
275
  8
0
 62
     7
 10
95.637
 20
106.05200000000001
 30
0.0
 11
96.229200000000006
 21
103.84099999999999
 31
0.0
  0
LINE
  5
276
  8
0
 62
     7
 10
96.229200000000006
 20
103.84099999999999
 30
0.0
 11
96.821399999999997
 21
106.05200000000001
 31
0.0
  0
LINE
  5
277
  8
0
 62
     7
 10
96.821399999999997
 20
106.05200000000001
 30
0.0
 11
95.637
 21
106.05200000000001
 31
0.0
  0
LINE
  5
278
  8
0
 62
     7
 10
114.014
 20
163.16900000000001
 30
0.0
 11
114.014
 21
153.34200000000001
 31
0.0
  0
LINE
  5
279
  8
0
 62
     7
 10
96.222000000000008
 20
186.34200000000001
 30
0.0
 11
96.222000000000008
 21
103.84099999999999
 31
0.0
  0
LINE
  5
27A
  8
0
 62
     7
 10
103.88800000000001
 20
161.65899999999999
 30
0.0
 11
103.29600000000001
 21
163.869
 31
0.0
  0
LINE
  5
27B
  8
0
 62
     7
 10
103.29600000000001
 20
163.869
 30
0.0
 11
102.70399999999999
 21
161.65899999999999
 31
0.0
  0
LINE
  5
27C
  8
0
 62
     7
 10
102.70399999999999
 20
161.65899999999999
 30
0.0
 11
103.88800000000001
 21
161.65899999999999
 31
0.0
  0
LINE
  5
27D
  8
0
 62
     7
 10
102.718
 20
106.05200000000001
 30
0.0
 11
103.31
 21
103.84099999999999
 31
0.0
  0
LINE
  5
27E
  8
0
 62
     7
 10
103.31
 20
103.84099999999999
 30
0.0
 11
103.90300000000001
 21
106.05200000000001
 31
0.0
  0
LINE
  5
27F
  8
0
 62
     7
 10
103.90300000000001
 20
106.05200000000001
 30
0.0
 11
102.718
 21
106.05200000000001
 31
0.0
  0
LINE
  5
280
  8
0
 62
     7
 10
103.303
 20
163.869
 30
0.0
 11
103.303
 21
103.84099999999999
 31
0.0
  0
LINE
  5
281
  8
0
  6
AIGENLINE001
 62
     7
 10
158.01499999999999
 20
189.54400000000001
 30
0.0
 11
158.01499999999999
 21
101.669
 31
0.0
  0
LINE
  5
282
  8
0
  6
AIGENLINE001
 62
     7
 10
57.872100000000003
 20
188.75700000000001
 30
0.0
 11
57.872100000000003
 21
82.814800000000005
 31
0.0
  0
LINE
  5
283
  8
0
 62
     7
 10
58.809899999999999
 20
85.091300000000004
 30
0.0
 11
58.809899999999999
 21
76.802300000000002
 31
0.0
  0
LINE
  5
284
  8
0
 62
     7
 10
58.809899999999999
 20
75.888999999999996
 30
0.0
 11
58.809899999999999
 21
56.734200000000001
 31
0.0
  0
LINE
  5
285
  8
0
 62
     7
 10
61.309699999999999
 20
103.09099999999999
 30
0.0
 11
61.309699999999999
 21
92.591300000000004
 31
0.0
  0
LINE
  5
286
  8
0
 62
     7
 10
61.309699999999999
 20
91.091300000000004
 30
0.0
 11
61.309699999999999
 21
76.528099999999995
 31
0.0
  0
LINE
  5
287
  8
0
 62
     7
 10
61.309699999999999
 20
75.614500000000007
 30
0.0
 11
61.309699999999999
 21
56.734200000000001
 31
0.0
  0
LINE
  5
288
  8
0
 62
     7
 10
56.934699999999999
 20
85.091300000000004
 30
0.0
 11
56.934699999999999
 21
76.538799999999995
 31
0.0
  0
LINE
  5
289
  8
0
 62
     7
 10
56.934699999999999
 20
75.625100000000003
 30
0.0
 11
56.934699999999999
 21
56.734200000000001
 31
0.0
  0
LINE
  5
28A
  8
0
 62
     7
 10
54.434600000000003
 20
103.09099999999999
 30
0.0
 11
54.434600000000003
 21
92.591300000000004
 31
0.0
  0
LINE
  5
28B
  8
0
 62
     7
 10
54.434600000000003
 20
91.091300000000004
 30
0.0
 11
54.434600000000003
 21
76.806799999999996
 31
0.0
  0
LINE
  5
28C
  8
0
 62
     7
 10
54.434600000000003
 20
75.893500000000003
 30
0.0
 11
54.434600000000003
 21
56.734200000000001
 31
0.0
  0
LINE
  5
28D
  8
0
  6
AIGENLINE001
 62
     7
 10
60.059800000000003
 20
45.921999999999997
 30
0.0
 11
60.059800000000003
 21
105.69499999999999
 31
0.0
  0
LINE
  5
28E
  8
0
 62
     7
 10
62.813099999999999
 20
51.857999999999997
 30
0.0
 11
62.813099999999999
 21
49.232100000000003
 31
0.0
  0
LINE
  5
28F
  8
0
 62
     7
 10
61.437800000000003
 20
51.857999999999997
 30
0.0
 11
61.437800000000003
 21
49.232100000000003
 31
0.0
  0
ARC
  5
290
  8
0
 62
     7
 10
59.447921999999998
 20
57.049413999999999
 30
0.0
 40
8.5108619999999995
 50
291.64301499999999
 51
293.29081500000001
  0
ARC
  5
291
  8
0
 62
     7
 10
61.899154000000003
 20
50.905934999999999
 30
0.0
 40
1.896471
 50
281.78779100000003
 51
291.26332000000002
  0
ARC
  5
292
  8
0
 62
     7
 10
62.105212999999992
 20
49.996868999999997
 30
0.0
 40
0.9646139999999999
 50
270.46569699999998
 51
280.83723800000001
  0
ARC
  5
293
  8
0
 62
     7
 10
62.113190000000003
 20
49.938206999999998
 30
0.0
 40
0.90592
 50
257.53026799999998
 51
269.991333
  0
ARC
  5
294
  8
0
 62
     7
 10
62.235711999999999
 20
50.561450999999998
 30
0.0
 40
1.5409889999999991
 50
247.169749
 51
258.085823
  0
ARC
  5
295
  8
0
 62
     7
 10
62.690115000000013
 20
51.721381999999998
 30
0.0
 40
2.7865349999999989
 50
243.29396499999999
 51
247.812341
  0
ARC
  5
296
  8
0
 62
     7
 10
62.190587999999991
 20
50.748521000000011
 30
0.0
 40
1.3407299999999991
 50
97.317863000000017
 51
124.157433
  0
ARC
  5
297
  8
0
 62
     7
 10
62.114173000000001
 20
51.181995999999998
 30
0.0
 40
0.9012870000000001
 50
90.071229999999986
 51
96.009534000000016
  0
ARC
  5
298
  8
0
 62
     7
 10
62.112257999999997
 20
51.163978
 30
0.0
 40
0.9193049999999999
 50
77.812441000000007
 51
89.950447999999994
  0
ARC
  5
299
  8
0
 62
     7
 10
62.022278
 20
50.698340000000002
 30
0.0
 40
1.393481999999999
 50
66.825141999999985
 51
78.237994
  0
ARC
  5
29A
  8
0
 62
     7
 10
61.799809000000003
 20
50.137335999999998
 30
0.0
 40
1.9968339999999991
 50
59.505949999999999
 51
67.291696000000002
  0
LINE
  5
29B
  8
0
 62
     7
 10
57.312600000000003
 20
51.857999999999997
 30
0.0
 11
57.312600000000003
 21
49.232100000000003
 31
0.0
  0
LINE
  5
29C
  8
0
 62
     7
 10
58.68719999999999
 20
51.857999999999997
 30
0.0
 11
58.68719999999999
 21
49.232100000000003
 31
0.0
  0
ARC
  5
29D
  8
0
 62
     7
 10
55.261989
 20
57.195963999999996
 30
0.0
 40
8.6692179999999972
 50
291.694098
 51
293.27244000000002
  0
ARC
  5
29E
  8
0
 62
     7
 10
57.731266000000012
 20
51.015205000000002
 30
0.0
 40
2.01349
 50
282.24405200000001
 51
291.419332
  0
ARC
  5
29F
  8
0
 62
     7
 10
58.002225000000003
 20
49.835895000000001
 30
0.0
 40
0.8036760000000001
 50
270.74496599999998
 51
281.19653699999998
  0
ARC
  5
2A0
  8
0
 62
     7
 10
58.013482999999987
 20
49.939819
 30
0.0
 40
0.9075319999999999
 50
257.811983
 51
269.94892599999997
  0
ARC
  5
2A1
  8
0
 62
     7
 10
58.112487000000002
 20
50.472771999999992
 30
0.0
 40
1.44946
 50
252.94071400000001
 51
258.43437299999999
  0
ARC
  5
2A2
  8
0
 62
     7
 10
58.360486000000002
 20
51.277752999999997
 30
0.0
 40
2.2917770000000002
 50
248.54088300000001
 51
252.917306
  0
ARC
  5
2A3
  8
0
 62
     7
 10
59.782831000000009
 20
54.866218999999987
 30
0.0
 40
6.1518420000000003
 50
246.32559000000001
 51
248.43888699999999
  0
ARC
  5
2A4
  8
0
 62
     7
 10
58.314563
 20
50.14490399999999
 30
0.0
 40
1.984561
 50
107.879918
 51
120.322425
  0
ARC
  5
2A5
  8
0
 62
     7
 10
58.037126000000001
 20
50.955750000000002
 30
0.0
 40
1.1277969999999991
 50
91.242338000000004
 51
107.113371
  0
ARC
  5
2A6
  8
0
 62
     7
 10
58.011949000000001
 20
51.316611000000002
 30
0.0
 40
0.766672
 50
76.139626000000007
 51
89.945769999999996
  0
ARC
  5
2A7
  8
0
 62
     7
 10
57.868544999999997
 20
50.63973
 30
0.0
 40
1.458377
 50
65.825644999999994
 51
77.040245999999996
  0
ARC
  5
2A8
  8
0
 62
     7
 10
57.622118000000007
 20
50.031053
 30
0.0
 40
2.1147320000000001
 50
59.757435000000001
 51
66.488002000000009
  0
ARC
  5
2A9
  8
0
 62
     7
 10
62.747729000000007
 20
42.668661999999991
 30
0.0
 40
6.692880999999999
 50
101.286674
 51
103.197889
  0
ARC
  5
2AA
  8
0
 62
     7
 10
59.748108999999999
 20
54.762929
 30
0.0
 40
5.7689959999999987
 50
278.57858599999997
 51
284.77810199999999
  0
ARC
  5
2AB
  8
0
 62
     7
 10
60.262339000000011
 20
51.323363000000001
 30
0.0
 40
2.2912110000000001
 50
270.62022400000001
 51
278.69332400000002
  0
LINE
  5
2AC
  8
0
 62
     7
 10
60.287100000000002
 20
49.032299999999999
 30
0.0
 11
59.837899999999991
 21
49.032299999999999
 31
0.0
  0
ARC
  5
2AD
  8
0
 62
     7
 10
59.838216000000003
 20
50.992435999999998
 30
0.0
 40
1.9601489999999999
 50
261.53813000000002
 51
269.990679
  0
ARC
  5
2AE
  8
0
 62
     7
 10
60.052537000000001
 20
52.648896000000001
 30
0.0
 40
3.6302529999999988
 50
258.55251800000002
 51
262.03944999999999
  0
ARC
  5
2AF
  8
0
 62
     7
 10
61.472295999999993
 20
59.54374399999999
 30
0.0
 40
10.669746
 50
256.53940499999999
 51
258.42848900000001
  0
ARC
  5
2B0
  8
0
 62
     7
 10
57.555518999999997
 20
43.254137
 30
0.0
 40
6.084147999999999
 50
76.376069000000001
 51
79.280000000000001
  0
ARC
  5
2B1
  8
0
 62
     7
 10
59.926307999999999
 20
48.206123999999988
 30
0.0
 40
3.8563349999999992
 50
102.80274199999999
 51
108.74217400000001
  0
ARC
  5
2B2
  8
0
 62
     7
 10
60.168481999999997
 20
47.335974999999998
 30
0.0
 40
4.7587120000000001
 50
94.332845999999975
 51
103.324471
  0
ARC
  5
2B3
  8
0
 62
     7
 10
59.95550699999999
 20
49.799883999999999
 30
0.0
 40
2.2859050000000001
 50
87.316779999999994
 51
93.675730999999985
  0
ARC
  5
2B4
  8
0
 62
     7
 10
60.145775999999991
 20
50.66745499999999
 30
0.0
 40
1.418274
 50
88.960406000000006
 51
93.365382999999994
  0
ARC
  5
2B5
  8
0
 62
     7
 10
60.132126
 20
49.510674999999999
 30
0.0
 40
2.5751209999999989
 50
85.185413999999994
 51
89.123698999999988
  0
ARC
  5
2B6
  8
0
 62
     7
 10
59.933981999999993
 20
47.190230999999997
 30
0.0
 40
4.9040089999999994
 50
72.142374000000004
 51
85.154031999999987
  0
LINE
  5
2B7
  8
0
 62
     7
 10
61.313099999999999
 20
52.258999999999993
 30
0.0
 11
60.0625
 21
52.258999999999993
 31
0.0
  0
LINE
  5
2B8
  8
0
 62
     7
 10
58.81260000000001
 20
52.258999999999993
 30
0.0
 11
60.0625
 21
52.258999999999993
 31
0.0
  0
LINE
  5
2B9
  8
0
 62
     7
 10
57.76189999999999
 20
48.982700000000001
 30
0.0
 11
60.0625
 21
48.982700000000001
 31
0.0
  0
LINE
  5
2BA
  8
0
 62
     7
 10
60.0625
 20
48.982700000000001
 30
0.0
 11
62.363199999999999
 21
48.982700000000001
 31
0.0
  0
LINE
  5
2BB
  8
0
 62
     7
 10
62.663600000000002
 20
49.182499999999997
 30
0.0
 11
62.363199999999999
 21
49.0075
 31
0.0
  0
LINE
  5
2BC
  8
0
 62
     7
 10
62.363199999999999
 20
49.0075
 30
0.0
 11
62.363199999999999
 21
48.982700000000001
 31
0.0
  0
LINE
  5
2BD
  8
0
 62
     7
 10
62.813099999999999
 20
49.232100000000003
 30
0.0
 11
62.363199999999999
 21
49.0075
 31
0.0
  0
LINE
  5
2BE
  8
0
 62
     7
 10
57.312600000000003
 20
49.232100000000003
 30
0.0
 11
57.76189999999999
 21
48.982700000000001
 31
0.0
  0
LINE
  5
2BF
  8
0
 62
     7
 10
57.76189999999999
 20
52.1081
 30
0.0
 11
62.363199999999999
 21
52.1081
 31
0.0
  0
LINE
  5
2C0
  8
0
 62
     7
 10
58.5122
 20
52.23279999999999
 30
0.0
 11
61.6128
 21
52.23279999999999
 31
0.0
  0
ARC
  5
2C1
  8
0
 62
     7
 10
61.061109999999999
 20
52.929718999999992
 30
0.0
 40
0.716507
 50
290.59053399999999
 51
326.53321899999997
  0
ARC
  5
2C2
  8
0
 62
     7
 10
61.229013999999992
 20
52.793519999999987
 30
0.0
 40
0.5017740000000001
 50
328.93488500000001
 51
341.35771599999998
  0
LINE
  5
2C3
  8
0
 62
     7
 10
61.704500000000003
 20
52.633099999999999
 30
0.0
 11
61.737499999999997
 21
52.732999999999997
 31
0.0
  0
LINE
  5
2C4
  8
0
 62
     7
 10
61.737499999999997
 20
52.732999999999997
 30
0.0
 11
61.737499999999997
 21
52.883200000000002
 31
0.0
  0
LINE
  5
2C5
  8
0
 62
     7
 10
61.737499999999997
 20
52.883200000000002
 30
0.0
 11
61.687899999999999
 21
53.058300000000003
 31
0.0
  0
LINE
  5
2C6
  8
0
 62
     7
 10
58.412300000000002
 20
53.058300000000003
 30
0.0
 11
58.437100000000001
 21
53.058300000000003
 31
0.0
  0
ARC
  5
2C7
  8
0
 62
     7
 10
165.60064399999999
 20
37.776940000000003
 30
0.0
 40
108.272147
 50
171.88628
 51
171.97981899999999
  0
LINE
  5
2C8
  8
0
 62
     7
 10
58.387500000000003
 20
52.883200000000002
 30
0.0
 11
58.387500000000003
 21
52.732999999999997
 31
0.0
  0
LINE
  5
2C9
  8
0
 62
     7
 10
58.387500000000003
 20
52.732999999999997
 30
0.0
 11
58.419899999999998
 21
52.633099999999999
 31
0.0
  0
ARC
  5
2CA
  8
0
 62
     7
 10
59.484667000000002
 20
52.989575000000002
 30
0.0
 40
1.1228599999999991
 50
198.508769
 51
203.306194
  0
ARC
  5
2CB
  8
0
 62
     7
 10
58.891145999999999
 20
52.732900000000001
 30
0.0
 40
0.4762170000000001
 50
203.19695899999999
 51
222.350945
  0
ARC
  5
2CC
  8
0
 62
     7
 10
58.823230000000002
 20
52.689790000000002
 30
0.0
 40
0.397225
 50
224.35538399999999
 51
234.70535699999999
  0
ARC
  5
2CD
  8
0
 62
     7
 10
59.015813999999999
 20
52.967672
 30
0.0
 40
0.7353100000000001
 50
234.967907
 51
242.37642099999999
  0
ARC
  5
2CE
  8
0
 62
     7
 10
60.787528000000002
 20
56.348067999999998
 30
0.0
 40
4.5518589999999994
 50
242.34616299999999
 51
243.93979300000001
  0
LINE
  5
2CF
  8
0
 62
     7
 10
58.78779999999999
 20
52.258999999999993
 30
0.0
 11
58.81260000000001
 21
52.258999999999993
 31
0.0
  0
LINE
  5
2D0
  8
0
 62
     7
 10
58.6128
 20
53.483400000000003
 30
0.0
 11
61.488100000000003
 21
53.483400000000003
 31
0.0
  0
LINE
  5
2D1
  8
0
 62
     7
 10
58.6128
 20
55.483600000000003
 30
0.0
 11
60.0625
 21
55.483600000000003
 31
0.0
  0
LINE
  5
2D2
  8
0
 62
     7
 10
60.0625
 20
55.483600000000003
 30
0.0
 11
61.488100000000003
 21
55.483600000000003
 31
0.0
  0
LINE
  5
2D3
  8
0
 62
     7
 10
61.737499999999997
 20
56.033499999999989
 30
0.0
 11
61.737499999999997
 21
55.908700000000003
 31
0.0
  0
LINE
  5
2D4
  8
0
 62
     7
 10
61.737499999999997
 20
55.908700000000003
 30
0.0
 11
61.6631
 21
55.783299999999997
 31
0.0
  0
LINE
  5
2D5
  8
0
 62
     7
 10
58.36269999999999
 20
56.033499999999989
 30
0.0
 11
58.387500000000003
 21
55.908700000000003
 31
0.0
  0
LINE
  5
2D6
  8
0
 62
     7
 10
58.387500000000003
 20
55.908700000000003
 30
0.0
 11
58.437100000000001
 21
55.783299999999997
 31
0.0
  0
LINE
  5
2D7
  8
0
 62
     7
 10
58.36269999999999
 20
56.734200000000001
 30
0.0
 11
61.737499999999997
 21
56.734200000000001
 31
0.0
  0
LINE
  5
2D8
  8
0
 62
     7
 10
58.36269999999999
 20
56.734200000000001
 30
0.0
 11
58.36269999999999
 21
56.033499999999989
 31
0.0
  0
LINE
  5
2D9
  8
0
 62
     7
 10
61.737499999999997
 20
56.734200000000001
 30
0.0
 11
61.737499999999997
 21
56.033499999999989
 31
0.0
  0
LINE
  5
2DA
  8
0
 62
     7
 10
62.363199999999999
 20
52.1081
 30
0.0
 11
62.813099999999999
 21
51.857999999999997
 31
0.0
  0
LINE
  5
2DB
  8
0
 62
     7
 10
57.76189999999999
 20
52.1081
 30
0.0
 11
57.312600000000003
 21
51.857999999999997
 31
0.0
  0
LINE
  5
2DC
  8
0
 62
     7
 10
58.437100000000001
 20
55.783299999999997
 30
0.0
 11
58.6128
 21
55.483600000000003
 31
0.0
  0
LINE
  5
2DD
  8
0
 62
     7
 10
58.6128
 20
53.483400000000003
 30
0.0
 11
58.437100000000001
 21
53.058300000000003
 31
0.0
  0
LINE
  5
2DE
  8
0
 62
     7
 10
61.6631
 20
55.783299999999997
 30
0.0
 11
61.488100000000003
 21
55.483600000000003
 31
0.0
  0
LINE
  5
2DF
  8
0
 62
     7
 10
61.488100000000003
 20
53.483400000000003
 30
0.0
 11
61.687899999999999
 21
53.058300000000003
 31
0.0
  0
LINE
  5
2E0
  8
0
 62
     7
 10
58.6128
 20
55.483600000000003
 30
0.0
 11
58.6128
 21
53.483400000000003
 31
0.0
  0
LINE
  5
2E1
  8
0
 62
     7
 10
61.488100000000003
 20
55.483600000000003
 30
0.0
 11
61.488100000000003
 21
53.483400000000003
 31
0.0
  0
LINE
  5
2E2
  8
0
 62
     7
 10
58.5122
 20
52.23279999999999
 30
0.0
 11
58.5122
 21
52.1081
 31
0.0
  0
LINE
  5
2E3
  8
0
 62
     7
 10
61.6128
 20
52.23279999999999
 30
0.0
 11
61.6128
 21
52.1081
 31
0.0
  0
LINE
  5
2E4
  8
0
 62
     7
 10
57.312600000000003
 20
49.232100000000003
 30
0.0
 11
57.76189999999999
 21
48.982700000000001
 31
0.0
  0
LINE
  5
2E5
  8
0
 62
     7
 10
62.813099999999999
 20
49.232100000000003
 30
0.0
 11
62.363199999999999
 21
48.982700000000001
 31
0.0
  0
LINE
  5
2E6
  8
0
 62
     7
 10
137.72200000000001
 20
101.63
 30
0.0
 11
137.13
 21
103.84099999999999
 31
0.0
  0
LINE
  5
2E7
  8
0
 62
     7
 10
137.13
 20
103.84099999999999
 30
0.0
 11
136.53700000000001
 21
101.63
 31
0.0
  0
LINE
  5
2E8
  8
0
 62
     7
 10
136.53700000000001
 20
101.63
 30
0.0
 11
137.72200000000001
 21
101.63
 31
0.0
  0
LINE
  5
2E9
  8
0
 62
     7
 10
136.55199999999999
 20
52.1935
 30
0.0
 11
137.14400000000001
 21
49.9818
 31
0.0
  0
LINE
  5
2EA
  8
0
 62
     7
 10
137.14400000000001
 20
49.9818
 30
0.0
 11
137.73699999999999
 21
52.1935
 31
0.0
  0
LINE
  5
2EB
  8
0
 62
     7
 10
137.73699999999999
 20
52.1935
 30
0.0
 11
136.55199999999999
 21
52.1935
 31
0.0
  0
LINE
  5
2EC
  8
0
 62
     7
 10
137.13
 20
103.84099999999999
 30
0.0
 11
137.13
 21
49.9818
 31
0.0
  0
LINE
  5
2ED
  8
0
 62
     7
 10
145.91499999999999
 20
101.63
 30
0.0
 11
145.32300000000001
 21
103.84099999999999
 31
0.0
  0
LINE
  5
2EE
  8
0
 62
     7
 10
145.32300000000001
 20
103.84099999999999
 30
0.0
 11
144.72999999999999
 21
101.63
 31
0.0
  0
LINE
  5
2EF
  8
0
 62
     7
 10
144.72999999999999
 20
101.63
 30
0.0
 11
145.91499999999999
 21
101.63
 31
0.0
  0
LINE
  5
2F0
  8
0
 62
     7
 10
144.745
 20
94.802700000000002
 30
0.0
 11
145.33699999999999
 21
92.591000000000008
 31
0.0
  0
LINE
  5
2F1
  8
0
 62
     7
 10
145.33699999999999
 20
92.591000000000008
 30
0.0
 11
145.93000000000001
 21
94.802700000000002
 31
0.0
  0
LINE
  5
2F2
  8
0
 62
     7
 10
145.93000000000001
 20
94.802700000000002
 30
0.0
 11
144.745
 21
94.802700000000002
 31
0.0
  0
LINE
  5
2F3
  8
0
 62
     7
 10
145.32300000000001
 20
103.84099999999999
 30
0.0
 11
145.32300000000001
 21
92.591000000000008
 31
0.0
  0
LINE
  5
2F4
  8
0
 62
     7
 10
150.78700000000001
 20
92.591300000000004
 30
0.0
 11
144.62299999999999
 21
92.591300000000004
 31
0.0
  0
LINE
  5
2F5
  8
0
 62
     7
 10
158.51499999999999
 20
56.734200000000001
 30
0.0
 11
158.51499999999999
 21
75.610699999999994
 31
0.0
  0
LINE
  5
2F6
  8
0
 62
     7
 10
158.51499999999999
 20
76.524299999999997
 30
0.0
 11
158.51499999999999
 21
91.091300000000004
 31
0.0
  0
LINE
  5
2F7
  8
0
 62
     7
 10
158.51499999999999
 20
92.591300000000004
 30
0.0
 11
158.51499999999999
 21
103.09099999999999
 31
0.0
  0
LINE
  5
2F8
  8
0
 62
     7
 10
156.01499999999999
 20
56.734200000000001
 30
0.0
 11
156.01499999999999
 21
75.887699999999995
 31
0.0
  0
LINE
  5
2F9
  8
0
 62
     7
 10
156.01499999999999
 20
76.801299999999998
 30
0.0
 11
156.01499999999999
 21
91.091300000000004
 31
0.0
  0
LINE
  5
2FA
  8
0
 62
     7
 10
156.01499999999999
 20
92.591300000000004
 30
0.0
 11
156.01499999999999
 21
103.09099999999999
 31
0.0
  0
LINE
  5
2FB
  8
0
 62
     7
 10
161.53899999999999
 20
42.701500000000003
 30
0.0
 11
159.328
 21
42.108999999999988
 31
0.0
  0
LINE
  5
2FC
  8
0
 62
     7
 10
159.328
 20
42.108999999999988
 30
0.0
 11
161.53899999999999
 21
41.517099999999999
 31
0.0
  0
LINE
  5
2FD
  8
0
 62
     7
 10
161.53899999999999
 20
41.517099999999999
 30
0.0
 11
161.53899999999999
 21
42.701500000000003
 31
0.0
  0
LINE
  5
2FE
  8
0
 62
     7
 10
152.99199999999999
 20
41.530900000000003
 30
0.0
 11
155.203
 21
42.123399999999997
 31
0.0
  0
LINE
  5
2FF
  8
0
 62
     7
 10
155.203
 20
42.123399999999997
 30
0.0
 11
152.99199999999999
 21
42.716000000000001
 31
0.0
  0
LINE
  5
300
  8
0
 62
     7
 10
152.99199999999999
 20
42.716000000000001
 30
0.0
 11
152.99199999999999
 21
41.530900000000003
 31
0.0
  0
LINE
  5
301
  8
0
 62
     7
 10
144.69300000000001
 20
42.116599999999998
 30
0.0
 11
163.04400000000001
 21
42.116599999999998
 31
0.0
  0
LINE
  5
302
  8
0
 62
     7
 10
157.26499999999999
 20
49.232100000000003
 30
0.0
 11
157.26499999999999
 21
51.857300000000002
 31
0.0
  0
LINE
  5
303
  8
0
 62
     7
 10
154.88999999999999
 20
49.232100000000003
 30
0.0
 11
154.88999999999999
 21
51.857300000000002
 31
0.0
  0
ARC
  5
304
  8
0
 62
     7
 10
160.51338100000001
 20
71.680934999999991
 30
0.0
 40
23.142506999999998
 50
255.93624900000009
 51
256.9500220000001
  0
ARC
  5
305
  8
0
 62
     7
 10
156.38430299999999
 20
53.985793999999991
 30
0.0
 40
4.9720930000000001
 50
257.25949700000001
 51
263.09643
  0
ARC
  5
306
  8
0
 62
     7
 10
156.100705
 20
51.861785999999988
 30
0.0
 40
2.8295180000000002
 50
263.627748
 51
269.79011100000002
  0
ARC
  5
307
  8
0
 62
     7
 10
156.08901900000001
 20
51.553261999999997
 30
0.0
 40
2.5209749999999991
 50
270.03002300000003
 51
277.20703900000001
  0
ARC
  5
308
  8
0
 62
     7
 10
155.87714299999999
 20
53.348199000000001
 30
0.0
 40
4.3283379999999987
 50
277.008714
 51
283.59966600000001
  0
ARC
  5
309
  8
0
 62
     7
 10
153.095023
 20
65.419743000000011
 30
0.0
 40
16.716142999999999
 50
283.13919600000003
 51
284.445897
  0
ARC
  5
30A
  8
0
 62
     7
 10
155.646232
 20
47.123156999999999
 30
0.0
 40
5.0032759999999996
 50
71.121235999999996
 51
78.868915000000001
  0
ARC
  5
30B
  8
0
 62
     7
 10
156.05931200000001
 20
49.069363000000003
 30
0.0
 40
3.014079999999999
 50
79.431341000000003
 51
89.410163999999995
  0
ARC
  5
30C
  8
0
 62
     7
 10
156.09068400000001
 20
49.200417999999992
 30
0.0
 40
2.8828640000000001
 50
90.006844999999998
 51
100.852923
  0
ARC
  5
30D
  8
0
 62
     7
 10
156.33540400000001
 20
47.731466999999988
 30
0.0
 40
4.3717699999999988
 50
100.377905
 51
109.310475
  0
ARC
  5
30E
  8
0
 62
     7
 10
162.84287900000001
 20
71.497509999999991
 30
0.0
 40
22.953423999999998
 50
255.93615299999999
 51
256.95859000000002
  0
ARC
  5
30F
  8
0
 62
     7
 10
158.76179500000001
 20
53.996186000000002
 30
0.0
 40
4.9826600000000001
 50
257.26393000000002
 51
263.08700700000003
  0
ARC
  5
310
  8
0
 62
     7
 10
158.475649
 20
51.853297999999988
 30
0.0
 40
2.8210309999999992
 50
263.617998
 51
269.78492499999999
  0
ARC
  5
311
  8
0
 62
     7
 10
158.46374499999999
 20
51.555723999999998
 30
0.0
 40
2.523436999999999
 50
270.02984600000008
 51
277.20351699999998
  0
ARC
  5
312
  8
0
 62
     7
 10
158.251766
 20
53.351097000000003
 30
0.0
 40
4.3312460000000002
 50
277.00742700000001
 51
283.59563300000002
  0
ARC
  5
313
  8
0
 62
     7
 10
155.40631999999999
 20
65.697836999999993
 30
0.0
 40
17.001439000000001
 50
283.13524999999998
 51
284.42132700000008
  0
LINE
  5
314
  8
0
 62
     7
 10
159.64099999999999
 20
49.232100000000003
 30
0.0
 11
159.64099999999999
 21
51.857300000000002
 31
0.0
  0
ARC
  5
315
  8
0
 62
     7
 10
158.01586499999999
 20
47.100357999999993
 30
0.0
 40
5.0267169999999988
 50
71.143041000000011
 51
78.857030000000009
  0
ARC
  5
316
  8
0
 62
     7
 10
158.43426199999999
 20
49.066704000000001
 30
0.0
 40
3.016735999999999
 50
79.436267999999998
 51
89.415066000000024
  0
ARC
  5
317
  8
0
 62
     7
 10
158.465405
 20
49.206066
 30
0.0
 40
2.877216999999999
 50
90.006888999999987
 51
100.863602
  0
ARC
  5
318
  8
0
 62
     7
 10
158.7126989999999
 20
47.725031000000001
 30
0.0
 40
4.3784669999999988
 50
100.388957
 51
109.305924
  0
LINE
  5
319
  8
0
 62
     7
 10
159.64099999999999
 20
49.032299999999999
 30
0.0
 11
159.64099999999999
 21
49.232100000000003
 31
0.0
  0
LINE
  5
31A
  8
0
 62
     7
 10
159.64099999999999
 20
51.857300000000002
 30
0.0
 11
159.64099999999999
 21
52.083300000000001
 31
0.0
  0
LINE
  5
31B
  8
0
 62
     7
 10
154.88999999999999
 20
49.032299999999999
 30
0.0
 11
154.88999999999999
 21
49.232100000000003
 31
0.0
  0
LINE
  5
31C
  8
0
 62
     7
 10
154.88999999999999
 20
51.857300000000002
 30
0.0
 11
154.88999999999999
 21
52.083300000000001
 31
0.0
  0
LINE
  5
31D
  8
0
 62
     7
 10
158.51599999999999
 20
52.257599999999996
 30
0.0
 11
157.26499999999999
 21
52.257599999999996
 31
0.0
  0
LINE
  5
31E
  8
0
 62
     7
 10
157.26499999999999
 20
52.257599999999996
 30
0.0
 11
156.01599999999999
 21
52.257599999999996
 31
0.0
  0
LINE
  5
31F
  8
0
 62
     7
 10
159.64099999999999
 20
49.032299999999999
 30
0.0
 11
159.565
 21
48.982700000000001
 31
0.0
  0
LINE
  5
320
  8
0
 62
     7
 10
159.565
 20
48.982700000000001
 30
0.0
 11
154.965
 21
48.982700000000001
 31
0.0
  0
LINE
  5
321
  8
0
 62
     7
 10
154.965
 20
48.982700000000001
 30
0.0
 11
154.88999999999999
 21
49.032299999999999
 31
0.0
  0
ARC
  5
322
  8
0
 62
     7
 10
159.62203600000001
 20
52.049540999999998
 30
0.0
 40
0.038479
 50
61.269488000000003
 51
90.14337900000001
  0
ARC
  5
323
  8
0
 62
     7
 10
159.46044699999999
 20
50.730500999999997
 30
0.0
 40
1.3670910000000001
 50
83.215862000000001
 51
88.382508000000001
  0
ARC
  5
324
  8
0
 62
     7
 10
158.95254199999999
 20
38.512749999999997
 30
0.0
 40
13.595285000000001
 50
87.696236999999996
 51
89.304100000000005
  0
ARC
  5
325
  8
0
 62
     7
 10
158.039424
 20
-23.173798000000001
 30
0.0
 40
75.288551999999996
 50
89.179406999999998
 51
89.888685999999993
  0
ARC
  5
326
  8
0
 62
     7
 10
157.34113500000001
 20
-325.99055600000003
 30
0.0
 40
378.106111
 50
89.872012999999995
 51
90.360083999999986
  0
LINE
  5
327
  8
0
 62
     7
 10
154.965
 20
52.1081
 30
0.0
 11
154.88999999999999
 21
52.083300000000001
 31
0.0
  0
LINE
  5
328
  8
0
 62
     7
 10
158.815
 20
52.1081
 30
0.0
 11
158.815
 21
52.23279999999999
 31
0.0
  0
LINE
  5
329
  8
0
 62
     7
 10
158.815
 20
52.23279999999999
 30
0.0
 11
155.715
 21
52.23279999999999
 31
0.0
  0
LINE
  5
32A
  8
0
 62
     7
 10
155.715
 20
52.1081
 30
0.0
 11
155.715
 21
52.23279999999999
 31
0.0
  0
LINE
  5
32B
  8
0
 62
     7
 10
156.01599999999999
 20
52.257599999999996
 30
0.0
 11
155.63999999999999
 21
52.558700000000002
 31
0.0
  0
LINE
  5
32C
  8
0
 62
     7
 10
155.63999999999999
 20
52.558700000000002
 30
0.0
 11
155.61500000000001
 21
53.058300000000003
 31
0.0
  0
LINE
  5
32D
  8
0
 62
     7
 10
158.916
 20
53.058300000000003
 30
0.0
 11
158.88999999999999
 21
52.558700000000002
 31
0.0
  0
LINE
  5
32E
  8
0
 62
     7
 10
158.88999999999999
 20
52.558700000000002
 30
0.0
 11
158.51599999999999
 21
52.257599999999996
 31
0.0
  0
LINE
  5
32F
  8
0
 62
     7
 10
158.71600000000001
 20
53.483400000000003
 30
0.0
 11
155.816
 21
53.483400000000003
 31
0.0
  0
LINE
  5
330
  8
0
 62
     7
 10
155.816
 20
53.483400000000003
 30
0.0
 11
155.61500000000001
 21
53.058300000000003
 31
0.0
  0
LINE
  5
331
  8
0
 62
     7
 10
158.916
 20
53.058300000000003
 30
0.0
 11
158.71600000000001
 21
53.483400000000003
 31
0.0
  0
LINE
  5
332
  8
0
 62
     7
 10
158.71600000000001
 20
55.483600000000003
 30
0.0
 11
155.816
 21
55.483600000000003
 31
0.0
  0
LINE
  5
333
  8
0
 62
     7
 10
155.203
 20
41.7273
 30
0.0
 11
155.203
 21
48.542400000000001
 31
0.0
  0
LINE
  5
334
  8
0
 62
     7
 10
159.328
 20
41.7273
 30
0.0
 11
159.328
 21
48.542400000000001
 31
0.0
  0
LINE
  5
335
  8
0
 62
     7
 10
155.816
 20
53.483400000000003
 30
0.0
 11
155.816
 21
55.483600000000003
 31
0.0
  0
LINE
  5
336
  8
0
 62
     7
 10
158.71600000000001
 20
53.483400000000003
 30
0.0
 11
158.71600000000001
 21
55.483600000000003
 31
0.0
  0
LINE
  5
337
  8
0
 62
     7
 10
155.816
 20
55.483600000000003
 30
0.0
 11
155.63999999999999
 21
55.783999999999999
 31
0.0
  0
LINE
  5
338
  8
0
 62
     7
 10
158.88999999999999
 20
55.783999999999999
 30
0.0
 11
158.71600000000001
 21
55.483600000000003
 31
0.0
  0
LINE
  5
339
  8
0
 62
     7
 10
155.63999999999999
 20
55.783999999999999
 30
0.0
 11
155.59
 21
55.908700000000003
 31
0.0
  0
LINE
  5
33A
  8
0
 62
     7
 10
155.59
 20
55.908700000000003
 30
0.0
 11
155.59
 21
56.033499999999989
 31
0.0
  0
ARC
  5
33B
  8
0
 62
     7
 10
158.34752
 20
56.092281999999997
 30
0.0
 40
0.620564
 50
339.65870100000001
 51
354.56034
  0
ARC
  5
33C
  8
0
 62
     7
 10
158.27026499999999
 20
56.101193999999992
 30
0.0
 40
0.6963460000000001
 50
332.90463599999998
 51
341.18094600000001
  0
LINE
  5
33D
  8
0
 62
     7
 10
158.965
 20
56.033499999999989
 30
0.0
 11
158.965
 21
56.734200000000001
 31
0.0
  0
LINE
  5
33E
  8
0
 62
     7
 10
158.965
 20
56.734200000000001
 30
0.0
 11
155.59
 21
56.734200000000001
 31
0.0
  0
LINE
  5
33F
  8
0
 62
     7
 10
155.59
 20
56.033499999999989
 30
0.0
 11
155.59
 21
56.734200000000001
 31
0.0
  0
LINE
  5
340
  8
0
  6
AIGENLINE001
 62
     7
 10
157.26499999999999
 20
47.201599999999992
 30
0.0
 11
157.26499999999999
 21
105.733
 31
0.0
  0
LINE
  5
341
  8
0
 62
     7
 10
153.672
 20
49.9818
 30
0.0
 11
136.43000000000001
 21
49.9818
 31
0.0
  0
LINE
  5
342
  8
0
 62
     7
 10
151.97
 20
238.16499999999999
 30
0.0
 11
145.60300000000001
 21
238.16499999999999
 31
0.0
  0
ARC
  5
343
  8
0
 62
     7
 10
158.01512600000001
 20
244.21075500000001
 30
0.0
 40
3.5002399999999998
 50
270.00002000000001
 51
359.99999000000003
  0
ARC
  5
344
  8
0
 62
     7
 10
158.01546999999999
 20
244.21041
 30
0.0
 40
3.4998939999999998
 50
179.99432999999999
 51
269.99437999999998
  0
ARC
  5
345
  8
0
 62
     7
 10
158.015299
 20
244.210926
 30
0.0
 40
3.4997229999999999
 50
90.002820000000014
 51
180.00282999999999
  0
ARC
  5
346
  8
0
 62
     7
 10
158.015298
 20
244.21058199999999
 30
0.0
 40
3.500067
 50
0.00283
 51
90.002800000000008
  0
LINE
  5
347
  8
0
  6
AIGENLINE001
 62
     7
 10
164.11699999999999
 20
244.21100000000001
 30
0.0
 11
151.93799999999999
 21
244.21100000000001
 31
0.0
  0
LINE
  5
348
  8
0
 62
     7
 10
156.46000000000001
 20
243.31700000000001
 30
0.0
 11
155.54499999999999
 21
241.732
 31
0.0
  0
LINE
  5
349
  8
0
 62
     7
 10
155.54499999999999
 20
241.732
 30
0.0
 11
157.13
 21
242.64699999999999
 31
0.0
  0
LINE
  5
34A
  8
0
 62
     7
 10
157.13
 20
242.64699999999999
 30
0.0
 11
156.46000000000001
 21
243.31700000000001
 31
0.0
  0
LINE
  5
34B
  8
0
 62
     7
 10
159.57499999999999
 20
245.09999999999999
 30
0.0
 11
160.49000000000001
 21
246.68600000000001
 31
0.0
  0
LINE
  5
34C
  8
0
 62
     7
 10
160.49000000000001
 20
246.68600000000001
 30
0.0
 11
158.905
 21
245.77000000000001
 31
0.0
  0
LINE
  5
34D
  8
0
 62
     7
 10
158.905
 20
245.77000000000001
 30
0.0
 11
159.57499999999999
 21
245.09999999999999
 31
0.0
  0
LINE
  5
34E
  8
0
 62
     7
 10
151.97
 20
238.16499999999999
 30
0.0
 11
160.49000000000001
 21
246.68600000000001
 31
0.0
  0
LINE
  5
34F
  8
0
  6
AIGENLINE001
 62
     7
 10
158.01499999999999
 20
238.06299999999999
 30
0.0
 11
158.01499999999999
 21
250.56200000000001
 31
0.0
  0
TEXT
  5
350
  8
_________2
 62
     7
 10
24.586400000000001
 20
0.707627
 30
0.0
 40
3.9357000000000002
  1
（社）日本水道協会認証品
 41
0.5
  0
TEXT
  5
351
  8
_________2
 62
     7
 10
109.179
 20
24.226099999999999
 30
0.0
 40
3.9357000000000002
  1
オン　湯水混合栓
 41
0.5
  0
LINE
  5
352
  8
_________2
 62
     7
 10
205.30099999999999
 20
127.411
 30
0.0
 11
183.55099999999999
 21
127.411
 31
0.0
  0
LINE
  5
353
  8
_________2
 62
     7
 10
100.3
 20
-4.0910799999999998
 30
0.0
 11
100.3
 21
-21.071000000000002
 31
0.0
  0
LINE
  5
354
  8
_________2
 62
     7
 10
100.3
 20
275.93099999999998
 30
0.0
 11
100.3
 21
258.911
 31
0.0
  0
LINE
  5
355
  8
_________2
 62
     7
 10
17.049199999999999
 20
127.411
 30
0.0
 11
-4.7012099999999988
 21
127.411
 31
0.0
  0
LINE
  5
356
  8
_________2
 62
     7
 10
76.740700000000004
 20
29.8047
 30
0.0
 11
74.554400000000001
 21
29.8047
 31
0.0
  0
LINE
  5
357
  8
_________2
 62
     7
 10
77.2333
 20
29.8047
 30
0.0
 11
76.981099999999984
 21
29.8047
 31
0.0
  0
LINE
  5
358
  8
_________2
 62
     7
 10
77.725999999999999
 20
29.8047
 30
0.0
 11
80.650899999999993
 21
29.8047
 31
0.0
  0
LINE
  5
359
  8
_________2
 62
     7
 10
77.2333
 20
29.8047
 30
0.0
 11
77.485500000000002
 21
29.8047
 31
0.0
  0
LINE
  5
35A
  8
_________2
 62
     7
 10
70.837100000000007
 20
29.8047
 30
0.0
 11
68.650199999999998
 21
29.8047
 31
0.0
  0
LINE
  5
35B
  8
_________2
 62
     7
 10
71.329099999999997
 20
29.8047
 30
0.0
 11
71.077600000000004
 21
29.8047
 31
0.0
  0
LINE
  5
35C
  8
_________2
 62
     7
 10
71.329099999999997
 20
30.2974
 30
0.0
 11
71.329099999999997
 21
32.484400000000001
 31
0.0
  0
LINE
  5
35D
  8
_________2
 62
     7
 10
71.329099999999997
 20
29.8047
 30
0.0
 11
71.329099999999997
 21
30.057300000000001
 31
0.0
  0
LINE
  5
35E
  8
_________2
 62
     7
 10
71.821700000000007
 20
29.8047
 30
0.0
 11
74.008700000000005
 21
29.8047
 31
0.0
  0
LINE
  5
35F
  8
_________2
 62
     7
 10
71.329099999999997
 20
29.8047
 30
0.0
 11
71.581299999999985
 21
29.8047
 31
0.0
  0
LINE
  5
360
  8
_________2
 62
     7
 10
71.329099999999997
 20
29.312799999999999
 30
0.0
 11
71.329099999999997
 21
27.126200000000001
 31
0.0
  0
LINE
  5
361
  8
_________2
 62
     7
 10
71.329099999999997
 20
29.8047
 30
0.0
 11
71.329099999999997
 21
29.5532
 31
0.0
  0
LINE
  5
362
  8
_________2
 62
     7
 10
75.040199999999999
 20
28.5852
 30
0.0
 11
80.218199999999996
 21
27.720400000000001
 31
0.0
  0
LINE
  5
363
  8
_________2
 62
     7
 10
75.040199999999999
 20
31.024699999999999
 30
0.0
 11
80.218199999999996
 21
31.8901
 31
0.0
  0
LINE
  5
364
  8
_________2
 62
     7
 10
80.218199999999996
 20
27.720400000000001
 30
0.0
 11
80.218199999999996
 21
31.8901
 31
0.0
  0
LINE
  5
365
  8
_________2
 62
     7
 10
75.040199999999999
 20
28.5852
 30
0.0
 11
75.040199999999999
 21
31.024699999999999
 31
0.0
  0
ARC
  5
366
  8
_________2
 62
     7
 10
71.282501999999994
 20
29.757801000000001
 30
0.0
 40
1.267714
 50
2.1220840000000001
 51
87.894083999999992
  0
ARC
  5
367
  8
_________2
 62
     7
 10
71.375640000000004
 20
29.758545999999999
 30
0.0
 40
1.2669680000000001
 50
92.105782999999988
 51
177.91037
  0
ARC
  5
368
  8
_________2
 62
     7
 10
71.376013999999998
 20
29.851671
 30
0.0
 40
1.2673680000000001
 50
182.12203600000001
 51
267.877993
  0
ARC
  5
369
  8
_________2
 62
     7
 10
71.282195999999999
 20
29.852347999999999
 30
0.0
 40
1.2680439999999991
 50
272.11916400000001
 51
357.84848499999998
  0
ARC
  5
36A
  8
_________2
 62
     7
 10
71.248716999999985
 20
29.724731999999999
 30
0.0
 40
2.1668310000000002
 50
2.1161439999999989
 51
87.874379000000005
  0
ARC
  5
36B
  8
_________2
 62
     7
 10
71.408756000000011
 20
29.726146
 30
0.0
 40
2.165392999999999
 50
92.108508999999998
 51
177.91986499999999
  0
ARC
  5
36C
  8
_________2
 62
     7
 10
71.409094999999994
 20
29.884751999999999
 30
0.0
 40
2.1657829999999998
 50
182.117133
 51
267.88289700000001
  0
ARC
  5
36D
  8
_________2
 62
     7
 10
71.249115000000003
 20
29.885429999999999
 30
0.0
 40
2.1664590000000001
 50
272.11546800000002
 51
357.86560400000002
  0
TEXT
  5
36E
  8
_________2
 62
     7
 10
104.605
 20
1.6794899999999999
 30
0.0
 40
3.0923400000000001
  1
図番
 41
0.5
  0
LINE
  5
36F
  8
_________2
 62
     7
 10
103.55
 20
5.9087199999999989
 30
0.0
 11
183.55099999999999
 21
5.9087199999999989
 31
0.0
  0
TEXT
  5
370
  8
_________2
 62
     7
 10
104.605
 20
11.6793
 30
0.0
 40
3.0923400000000001
  1
品番
 41
0.5
  0
TEXT
  5
371
  8
_________2
 62
     7
 10
104.605
 20
31.8184
 30
0.0
 40
3.0923400000000001
  1
名称
 41
0.5
  0
TEXT
  5
372
  8
_________2
 62
     7
 10
91.844758333333345
 20
26.822299999999998
 30
0.0
 40
3.6545800000000002
  1
mm
 41
0.5
 72
     1
 11
93.367500000000007
 21
26.822299999999998
 31
0.0
  0
TEXT
  5
373
  8
_________2
 62
     7
 10
85.642899999999983
 20
31.8184
 30
0.0
 40
3.0923400000000001
  1
単位
 41
0.5
  0
TEXT
  5
374
  8
_________2
 62
     7
 10
85.642899999999983
 20
19.410799999999998
 30
0.0
 40
3.0923400000000001
  1
尺度
 41
0.5
  0
TEXT
  5
375
  8
_________2
 62
     7
 10
90.548458666666676
 20
13.2182
 30
0.0
 40
3.6545800000000002
  1
1 ： 4
 41
0.5
 72
     1
 11
93.959400000000016
 21
13.2182
 31
0.0
  0
TEXT
  5
376
  8
_________2
 62
     7
 10
138.13841249999999
 20
9.1082000000000001
 30
0.0
 40
3.9357000000000002
  1
ZU0597
 41
0.5
 72
     1
 11
143.55000000000001
 21
9.1082000000000001
 31
0.0
  0
TEXT
  5
377
  8
_________2
 62
     7
 10
138.13841249999999
 20
-0.8926299999999999
 30
0.0
 40
3.9357000000000002
  1
ZU0597
 41
0.5
 72
     1
 11
143.55000000000001
 21
-0.8926299999999999
 31
0.0
  0
TEXT
  5
378
  8
_________2
 62
     7
 10
39.425000333333337
 20
13.603400000000001
 30
0.0
 40
3.6545800000000002
  1
早川
 41
0.5
 72
     1
 11
41.313200000000002
 21
13.603400000000001
 31
0.0
  0
TEXT
  5
379
  8
_________2
 62
     7
 10
20.851000333333339
 20
13.603400000000001
 30
0.0
 40
3.6545800000000002
  1
福田
 41
0.5
 72
     1
 11
22.7392
 21
13.603400000000001
 31
0.0
  0
TEXT
  5
37A
  8
_________2
 62
     7
 10
67.785399999999996
 20
13.2182
 30
0.0
 40
3.6545800000000002
  1
15.12.21
 41
0.5
  0
TEXT
  5
37B
  8
_________2
 62
     7
 10
66.592699999999994
 20
19.410799999999998
 30
0.0
 40
3.0923400000000001
  1
日付
 41
0.5
  0
TEXT
  5
37C
  8
_________2
 62
     7
 10
29.638999999999999
 20
19.410799999999998
 30
0.0
 40
3.0923400000000001
  1
検図
 41
0.5
  0
TEXT
  5
37D
  8
_________2
 62
     7
 10
18.020700000000001
 20
5.21143
 30
0.0
 40
3.0923400000000001
  1
備考
 41
0.5
  0
TEXT
  5
37E
  8
_________2
 62
     7
 10
18.020700000000001
 20
19.410799999999998
 30
0.0
 40
3.0923400000000001
  1
製図
 41
0.5
  0
TEXT
  5
37F
  8
_________2
 62
     7
 10
23.788165333333339
 20
27.936800000000002
 30
0.0
 40
4.4979399999999989
  1
セラトレーディング株式会社
 41
0.5
 72
     1
 11
41.180199999999999
 21
27.936800000000002
 31
0.0
  0
LINE
  5
380
  8
_________2
 62
     7
 10
183.55099999999999
 20
-4.0910799999999998
 30
0.0
 11
17.049199999999999
 21
-4.0910799999999998
 31
0.0
  0
LINE
  5
381
  8
_________2
 62
     7
 10
17.049199999999999
 20
-4.0910799999999998
 30
0.0
 11
17.049199999999999
 21
258.911
 31
0.0
  0
LINE
  5
382
  8
_________2
 62
     7
 10
17.049199999999999
 20
258.911
 30
0.0
 11
183.55099999999999
 21
258.911
 31
0.0
  0
LINE
  5
383
  8
_________2
 62
     7
 10
183.55099999999999
 20
258.911
 30
0.0
 11
183.55099999999999
 21
-4.0910799999999998
 31
0.0
  0
LINE
  5
384
  8
_________2
 62
     7
 10
65.549599999999998
 20
9.4092999999999982
 30
0.0
 11
65.549599999999998
 21
35.909100000000002
 31
0.0
  0
LINE
  5
385
  8
_________2
 62
     7
 10
84.549400000000006
 20
9.4092999999999982
 30
0.0
 11
84.549400000000006
 21
35.909100000000002
 31
0.0
  0
LINE
  5
386
  8
_________2
 62
     7
 10
103.55
 20
-4.0910799999999998
 30
0.0
 11
103.55
 21
35.909100000000002
 31
0.0
  0
LINE
  5
387
  8
_________2
 62
     7
 10
28.548999999999999
 20
9.4092999999999982
 30
0.0
 11
28.548999999999999
 21
23.409199999999998
 31
0.0
  0
LINE
  5
388
  8
_________2
 62
     7
 10
17.049199999999999
 20
9.4092999999999982
 30
0.0
 11
103.55
 21
9.4092999999999982
 31
0.0
  0
LINE
  5
389
  8
_________2
 62
     7
 10
17.049199999999999
 20
23.409199999999998
 30
0.0
 11
103.55
 21
23.409199999999998
 31
0.0
  0
LINE
  5
38A
  8
_________2
 62
     7
 10
103.55
 20
15.9085
 30
0.0
 11
183.55099999999999
 21
15.9085
 31
0.0
  0
LINE
  5
38B
  8
_________2
 62
     7
 10
17.049199999999999
 20
35.909100000000002
 30
0.0
 11
183.55099999999999
 21
35.909100000000002
 31
0.0
  0
ENDSEC
  0
EOF
