  0
SECTION
  2
HEADER
  9
$ACADVER
  1
AC1009
  9
$INSBASE
 10
0.0
 20
0.0
 30
0.0
  9
$EXTMIN
 10
-104.794
 20
0.176045
 30
0.0
  9
$EXTMAX
 10
315.209
 20
297.178
 30
0.0
  9
$LIMMIN
 10
0.0
 20
0.0
  9
$LIMMAX
 10
12.0
 20
9.0
  9
$ORTHOMODE
 70
     0
  9
$REGENMODE
 70
     1
  9
$FILLMODE
 70
     1
  9
$QTEXTMODE
 70
     0
  9
$MIRRTEXT
 70
     1
  9
$DRAGMODE
 70
     2
  9
$LTSCALE
 40
1.0
  9
$OSMODE
 70
    37
  9
$ATTMODE
 70
     1
  9
$TEXTSIZE
 40
0.0
  9
$TRACEWID
 40
0.05
  9
$TEXTSTYLE
  7
STANDARD
  9
$CLAYER
  8
0
  9
$CELTYPE
  6
CONTINUOUS
  9
$CECOLOR
 62
   256
  9
$DIMSCALE
 40
1.0
  9
$DIMASZ
 40
0.18
  9
$DIMEXO
 40
0.0625
  9
$DIMDLI
 40
0.38
  9
$DIMRND
 40
0.0
  9
$DIMDLE
 40
0.0
  9
$DIMEXE
 40
0.18
  9
$DIMTP
 40
0.0
  9
$DIMTM
 40
0.0
  9
$DIMTXT
 40
0.18
  9
$DIMCEN
 40
0.09
  9
$DIMTSZ
 40
0.0
  9
$DIMTOL
 70
     0
  9
$DIMLIM
 70
     0
  9
$DIMTIH
 70
     1
  9
$DIMTOH
 70
     1
  9
$DIMSE1
 70
     0
  9
$DIMSE2
 70
     0
  9
$DIMTAD
 70
     0
  9
$DIMZIN
 70
     0
  9
$DIMBLK
  1

  9
$DIMASO
 70
     1
  9
$DIMSHO
 70
     1
  9
$DIMPOST
  1

  9
$DIMAPOST
  1

  9
$DIMALT
 70
     0
  9
$DIMALTD
 70
     2
  9
$DIMALTF
 40
25.399999999999999
  9
$DIMLFAC
 40
1.0
  9
$DIMTOFL
 70
     0
  9
$DIMTVP
 40
0.0
  9
$DIMTIX
 70
     0
  9
$DIMSOXD
 70
     0
  9
$DIMSAH
 70
     0
  9
$DIMBLK1
  1

  9
$DIMBLK2
  1

  9
$DIMSTYLE
  2
STANDARD
  9
$DIMCLRD
 70
     0
  9
$DIMCLRE
 70
     0
  9
$DIMCLRT
 70
     0
  9
$DIMTFAC
 40
1.0
  9
$DIMGAP
 40
0.09
  9
$LUNITS
 70
     2
  9
$LUPREC
 70
     4
  9
$SKETCHINC
 40
0.1
  9
$FILLETRAD
 40
0.0
  9
$AUNITS
 70
     0
  9
$AUPREC
 70
     0
  9
$MENU
  1
.
  9
$ELEVATION
 40
0.0
  9
$PELEVATION
 40
0.0
  9
$THICKNESS
 40
0.0
  9
$LIMCHECK
 70
     0
  9
$BLIPMODE
 70
     0
  9
$CHAMFERA
 40
0.0
  9
$CHAMFERB
 40
0.0
  9
$SKPOLY
 70
     0
  9
$TDCREATE
 40
2444972.375
  9
$TDUPDATE
 40
2458787.2532356479
  9
$TDINDWG
 40
0.0000473264
  9
$TDUSRTIMER
 40
0.0000473264
  9
$USRTIMER
 70
     1
  9
$ANGBASE
 50
0.0
  9
$ANGDIR
 70
     0
  9
$PDMODE
 70
     0
  9
$PDSIZE
 40
0.0
  9
$PLINEWID
 40
0.0
  9
$COORDS
 70
     1
  9
$SPLFRAME
 70
     0
  9
$SPLINETYPE
 70
     6
  9
$SPLINESEGS
 70
     8
  9
$ATTDIA
 70
     1
  9
$ATTREQ
 70
     1
  9
$HANDLING
 70
     1
  9
$HANDSEED
  5
5D3
  9
$SURFTAB1
 70
     6
  9
$SURFTAB2
 70
     6
  9
$SURFTYPE
 70
     6
  9
$SURFU
 70
     6
  9
$SURFV
 70
     6
  9
$UCSNAME
  2

  9
$UCSORG
 10
0.0
 20
0.0
 30
0.0
  9
$UCSXDIR
 10
1.0
 20
0.0
 30
0.0
  9
$UCSYDIR
 10
0.0
 20
1.0
 30
0.0
  9
$PUCSNAME
  2

  9
$PUCSORG
 10
0.0
 20
0.0
 30
0.0
  9
$PUCSXDIR
 10
1.0
 20
0.0
 30
0.0
  9
$PUCSYDIR
 10
0.0
 20
1.0
 30
0.0
  9
$USERI1
 70
     0
  9
$USERI2
 70
     0
  9
$USERI3
 70
     0
  9
$USERI4
 70
     0
  9
$USERI5
 70
     0
  9
$USERR1
 40
0.0
  9
$USERR2
 40
0.0
  9
$USERR3
 40
0.0
  9
$USERR4
 40
0.0
  9
$USERR5
 40
0.0
  9
$WORLDVIEW
 70
     1
  9
$SHADEDGE
 70
     3
  9
$SHADEDIF
 70
    70
  9
$TILEMODE
 70
     1
  9
$MAXACTVP
 70
    48
  9
$PLIMCHECK
 70
     0
  9
$PEXTMIN
 10
1.0000000000000000E+020
 20
1.0000000000000000E+020
 30
1.0000000000000000E+020
  9
$PEXTMAX
 10
-1.0000000000000000E+020
 20
-1.0000000000000000E+020
 30
-1.0000000000000000E+020
  9
$PLIMMIN
 10
0.0
 20
0.0
  9
$PLIMMAX
 10
12.0
 20
9.0
  9
$UNITMODE
 70
     0
  9
$VISRETAIN
 70
     1
  9
$PLINEGEN
 70
     0
  9
$PSLTSCALE
 70
     1
  0
ENDSEC
  0
SECTION
  2
TABLES
  0
TABLE
  2
VPORT
 70
     1
  0
VPORT
  2
*ACTIVE
 70
     0
 10
0.0
 20
0.0
 11
1.0
 21
1.0
 12
195.84271114783351
 22
148.589
 13
0.0
 23
0.0
 14
1.0
 24
1.0
 15
0.0
 25
0.0
 16
0.0
 26
0.0
 36
1.0
 17
0.0
 27
0.0
 37
0.0
 40
281.11539623648741
 41
2.298642533936651
 42
50.0
 43
0.0
 44
0.0
 50
0.0
 51
0.0
 71
     0
 72
   100
 73
     1
 74
     1
 75
     0
 76
     0
 77
     0
 78
     0
  0
ENDTAB
  0
TABLE
  2
LTYPE
 70
     3
  0
LTYPE
  2
CONTINUOUS
 70
     0
  3
Solid line
 72
    65
 73
     0
 40
0.0
  0
LTYPE
  2
AIGENLINE001
 70
     0
  3
generate AI->DXF Converter
 72
    65
 73
     4
 40
5.8561449999999988
 49
3.5278
 49
-0.776115
 49
0.776115
 49
-0.776115
  0
LTYPE
  2
AIGENLINE002
 70
     0
  3
generate AI->DXF Converter
 72
    65
 73
     6
 40
7.4083750000000004
 49
3.5278
 49
-0.776115
 49
0.776115
 49
-0.776115
 49
0.776115
 49
-0.776115
  0
ENDTAB
  0
TABLE
  2
LAYER
 70
     4
  0
LAYER
  2
0
 70
     0
 62
     7
  6
CONTINUOUS
  0
LAYER
  2
____
 70
     0
 62
     7
  6
CONTINUOUS
  0
LAYER
  2
_________1
 70
     0
 62
     7
  6
CONTINUOUS
  0
LAYER
  2
_________2
 70
     0
 62
     7
  6
CONTINUOUS
  0
ENDTAB
  0
TABLE
  2
STYLE
 70
     1
  0
STYLE
  2
STANDARD
 70
     0
 40
0.0
 41
0.0
 50
0.0
 71
     0
 42
0.0
  3
TXT
  4
EXTFONT.SHX
  0
ENDTAB
  0
TABLE
  2
VIEW
 70
     0
  0
ENDTAB
  0
TABLE
  2
UCS
 70
     0
  0
ENDTAB
  0
TABLE
  2
APPID
 70
     3
  0
APPID
  2
ACAD
 70
     0
  0
APPID
  2
ACAD_NAV_VCDISPLAY
 70
     0
  0
APPID
  2
ACAD_MLEADERVER
 70
     0
  0
ENDTAB
  0
TABLE
  2
DIMSTYLE
 70
     1
  0
DIMSTYLE
  2
STANDARD
 70
     0
  3

  4

  5

  6

  7

 40
1.0
 41
0.18
 42
0.0625
 43
0.38
 44
0.18
 45
0.0
 46
0.0
 47
0.0
 48
0.0
140
0.18
141
0.09
142
0.0
143
25.399999999999999
144
1.0
145
0.0
146
1.0
147
0.09
 71
     0
 72
     0
 73
     1
 74
     1
 75
     0
 76
     0
 77
     0
 78
     0
170
     0
171
     2
172
     0
173
     0
174
     0
175
     0
176
     0
177
     0
178
     0
  0
ENDTAB
  0
ENDSEC
  0
SECTION
  2
BLOCKS
  0
BLOCK
  8
0
  2
$MODEL_SPACE
 70
     0
 10
0.0
 20
0.0
 30
0.0
  3
$MODEL_SPACE
  1

  0
ENDBLK
  5
1A
  8
0
  0
BLOCK
 67
     1
  8
0
  2
$PAPER_SPACE
 70
     0
 10
0.0
 20
0.0
 30
0.0
  3
$PAPER_SPACE
  1

  0
ENDBLK
  5
17
 67
     1
  8
0
  0
BLOCK
  8
_________1
  2
AIGNBL02050016
 70
     0
 10
0.0
 20
0.0
 30
0.0
  3
AIGNBL02050016
  1

  0
LINE
  5
27
  8
_________1
 62
     7
 10
-22.887799999999999
 20
35.7607
 30
0.0
 11
-24.656500000000001
 21
35.2866
 31
0.0
  0
LINE
  5
28
  8
_________1
 62
     7
 10
-24.656500000000001
 20
35.2866
 30
0.0
 11
-22.887799999999999
 21
34.813299999999998
 31
0.0
  0
LINE
  5
29
  8
_________1
 62
     7
 10
-22.887799999999999
 20
34.813299999999998
 30
0.0
 11
-22.887799999999999
 21
35.7607
 31
0.0
  0
LINE
  5
2A
  8
_________1
 62
     7
 10
9.5755300000000005
 20
34.825000000000003
 30
0.0
 11
11.3439
 21
35.298299999999998
 31
0.0
  0
LINE
  5
2B
  8
_________1
 62
     7
 10
11.3439
 20
35.298299999999998
 30
0.0
 11
9.5755300000000005
 21
35.772399999999998
 31
0.0
  0
LINE
  5
2C
  8
_________1
 62
     7
 10
9.5755300000000005
 20
35.772399999999998
 30
0.0
 11
9.5755300000000005
 21
34.825000000000003
 31
0.0
  0
LINE
  5
2D
  8
_________1
 62
     7
 10
-24.635200000000001
 20
35.2928
 30
0.0
 11
11.3226
 21
35.2928
 31
0.0
  0
ENDBLK
  5
2E
  8
_________1
  0
BLOCK
  8
_________1
  2
AIGNBL02050019
 70
     0
 10
0.0
 20
0.0
 30
0.0
  3
AIGNBL02050019
  1

  0
LINE
  5
31
  8
_________1
 62
     7
 10
-20.895199999999999
 20
42.497899999999987
 30
0.0
 11
-11.8459
 21
42.497899999999987
 31
0.0
  0
LINE
  5
32
  8
_________1
 62
     7
 10
-26.648499999999999
 20
42.965800000000002
 30
0.0
 11
-28.416499999999999
 21
42.492400000000004
 31
0.0
  0
LINE
  5
33
  8
_________1
 62
     7
 10
-28.416499999999999
 20
42.492400000000004
 30
0.0
 11
-26.648499999999999
 21
42.018399999999993
 31
0.0
  0
LINE
  5
34
  8
_________1
 62
     7
 10
-26.648499999999999
 20
42.018399999999993
 30
0.0
 11
-26.648499999999999
 21
42.965800000000002
 31
0.0
  0
LINE
  5
35
  8
_________1
 62
     7
 10
-22.663900000000002
 20
42.03009999999999
 30
0.0
 11
-20.895199999999999
 21
42.504100000000001
 31
0.0
  0
LINE
  5
36
  8
_________1
 62
     7
 10
-20.895199999999999
 20
42.504100000000001
 30
0.0
 11
-22.663900000000002
 21
42.978200000000001
 31
0.0
  0
LINE
  5
37
  8
_________1
 62
     7
 10
-22.663900000000002
 20
42.978200000000001
 30
0.0
 11
-22.663900000000002
 21
42.03009999999999
 31
0.0
  0
LINE
  5
38
  8
_________1
 62
     7
 10
-28.395199999999999
 20
42.497899999999987
 30
0.0
 11
-20.917200000000001
 21
42.497899999999987
 31
0.0
  0
ENDBLK
  5
39
  8
_________1
  0
BLOCK
  8
_________1
  2
AIGNBL0205001C
 70
     0
 10
0.0
 20
0.0
 30
0.0
  3
AIGNBL0205001C
  1

  0
LINE
  5
3C
  8
_________1
 62
     7
 10
-34.244300000000003
 20
64.884600000000006
 30
0.0
 11
-34.718299999999999
 21
66.652699999999996
 31
0.0
  0
LINE
  5
3D
  8
_________1
 62
     7
 10
-34.718299999999999
 20
66.652699999999996
 30
0.0
 11
-35.192399999999999
 21
64.884600000000006
 31
0.0
  0
LINE
  5
3E
  8
_________1
 62
     7
 10
-35.192399999999999
 20
64.884600000000006
 30
0.0
 11
-34.244300000000003
 21
64.884600000000006
 31
0.0
  0
LINE
  5
3F
  8
_________1
 62
     7
 10
-35.180700000000002
 20
60.411200000000001
 30
0.0
 11
-34.706600000000002
 21
58.642400000000002
 31
0.0
  0
LINE
  5
40
  8
_________1
 62
     7
 10
-34.706600000000002
 20
58.642400000000002
 30
0.0
 11
-34.232599999999998
 21
60.411200000000001
 31
0.0
  0
LINE
  5
41
  8
_________1
 62
     7
 10
-34.232599999999998
 20
60.411200000000001
 30
0.0
 11
-35.180700000000002
 21
60.411200000000001
 31
0.0
  0
LINE
  5
42
  8
_________1
 62
     7
 10
-34.712800000000001
 20
66.652699999999996
 30
0.0
 11
-34.712800000000001
 21
58.642400000000002
 31
0.0
  0
ENDBLK
  5
43
  8
_________1
  0
BLOCK
  8
_________1
  2
AIGNBL0205001F
 70
     0
 10
0.0
 20
0.0
 30
0.0
  3
AIGNBL0205001F
  1

  0
LINE
  5
46
  8
_________1
 62
     7
 10
-34.244300000000003
 20
56.873699999999999
 30
0.0
 11
-34.718299999999999
 21
58.642400000000002
 31
0.0
  0
LINE
  5
47
  8
_________1
 62
     7
 10
-34.718299999999999
 20
58.642400000000002
 30
0.0
 11
-35.192399999999999
 21
56.873699999999999
 31
0.0
  0
LINE
  5
48
  8
_________1
 62
     7
 10
-35.192399999999999
 20
56.873699999999999
 30
0.0
 11
-34.244300000000003
 21
56.873699999999999
 31
0.0
  0
LINE
  5
49
  8
_________1
 62
     7
 10
-35.180700000000002
 20
50.343800000000002
 30
0.0
 11
-34.706600000000002
 21
48.575800000000001
 31
0.0
  0
LINE
  5
4A
  8
_________1
 62
     7
 10
-34.706600000000002
 20
48.575800000000001
 30
0.0
 11
-34.232599999999998
 21
50.343800000000002
 31
0.0
  0
LINE
  5
4B
  8
_________1
 62
     7
 10
-34.232599999999998
 20
50.343800000000002
 30
0.0
 11
-35.180700000000002
 21
50.343800000000002
 31
0.0
  0
LINE
  5
4C
  8
_________1
 62
     7
 10
-34.712800000000001
 20
58.663800000000002
 30
0.0
 11
-34.712800000000001
 21
48.575800000000001
 31
0.0
  0
ENDBLK
  5
4D
  8
_________1
  0
BLOCK
  8
_________1
  2
AIGNBL02050022
 70
     0
 10
0.0
 20
0.0
 30
0.0
  3
AIGNBL02050022
  1

  0
LINE
  5
50
  8
_________1
 62
     7
 10
-7.8202399999999992
 20
49.927
 30
0.0
 11
-8.2935999999999996
 21
51.695
 31
0.0
  0
LINE
  5
51
  8
_________1
 62
     7
 10
-8.2935999999999996
 20
51.695
 30
0.0
 11
-8.7676499999999997
 21
49.927
 31
0.0
  0
LINE
  5
52
  8
_________1
 62
     7
 10
-8.7676499999999997
 20
49.927
 30
0.0
 11
-7.8202399999999992
 21
49.927
 31
0.0
  0
LINE
  5
53
  8
_________1
 62
     7
 10
-8.7559399999999972
 20
54.4621
 30
0.0
 11
-8.2818899999999989
 21
52.694099999999999
 31
0.0
  0
LINE
  5
54
  8
_________1
 62
     7
 10
-8.2818899999999989
 20
52.694099999999999
 30
0.0
 11
-7.8085300000000002
 21
54.4621
 31
0.0
  0
LINE
  5
55
  8
_________1
 62
     7
 10
-7.8085300000000002
 20
54.4621
 30
0.0
 11
-8.7559399999999972
 21
54.4621
 31
0.0
  0
LINE
  5
56
  8
_________1
 62
     7
 10
-8.2880899999999986
 20
58.616900000000001
 30
0.0
 11
-8.2880899999999986
 21
48.660600000000002
 31
0.0
  0
ENDBLK
  5
57
  8
_________1
  0
BLOCK
  8
_________1
  2
AIGNBL02050027
 70
     0
 10
0.0
 20
0.0
 30
0.0
  3
AIGNBL02050027
  1

  0
LINE
  5
5A
  8
_________1
 62
     7
 10
-20.134499999999999
 20
70.330699999999993
 30
0.0
 11
-18.366399999999999
 21
70.804699999999997
 31
0.0
  0
LINE
  5
5B
  8
_________1
 62
     7
 10
-18.366399999999999
 20
70.804699999999997
 30
0.0
 11
-20.134499999999999
 21
71.278800000000004
 31
0.0
  0
LINE
  5
5C
  8
_________1
 62
     7
 10
-20.134499999999999
 20
71.278800000000004
 30
0.0
 11
-20.134499999999999
 21
70.330699999999993
 31
0.0
  0
LINE
  5
5D
  8
_________1
 62
     7
 10
-29.177199999999999
 20
71.267099999999999
 30
0.0
 11
-30.9452
 21
70.793000000000006
 31
0.0
  0
LINE
  5
5E
  8
_________1
 62
     7
 10
-30.9452
 20
70.793000000000006
 30
0.0
 11
-29.177199999999999
 21
70.319000000000003
 31
0.0
  0
LINE
  5
5F
  8
_________1
 62
     7
 10
-29.177199999999999
 20
70.319000000000003
 30
0.0
 11
-29.177199999999999
 21
71.267099999999999
 31
0.0
  0
LINE
  5
60
  8
_________1
 62
     7
 10
-18.387799999999999
 20
70.799199999999999
 30
0.0
 11
-30.865300000000001
 21
70.799199999999999
 31
0.0
  0
ENDBLK
  5
61
  8
_________1
  0
BLOCK
  8
_________1
  2
AIGNBL02040015
 70
     0
 10
0.0
 20
0.0
 30
0.0
  3
AIGNBL02040015
  1

  0
INSERT
  5
64
  8
_________1
 62
     7
  2
AIGNBL02050016
 10
0.0
 20
0.0
 30
0.0
  0
ENDBLK
  5
65
  8
_________1
  0
BLOCK
  8
_________1
  2
AIGNBL02040018
 70
     0
 10
0.0
 20
0.0
 30
0.0
  3
AIGNBL02040018
  1

  0
INSERT
  5
68
  8
_________1
 62
     7
  2
AIGNBL02050019
 10
0.0
 20
0.0
 30
0.0
  0
ENDBLK
  5
69
  8
_________1
  0
BLOCK
  8
_________1
  2
AIGNBL0204001B
 70
     0
 10
0.0
 20
0.0
 30
0.0
  3
AIGNBL0204001B
  1

  0
INSERT
  5
6C
  8
_________1
 62
     7
  2
AIGNBL0205001C
 10
0.0
 20
0.0
 30
0.0
  0
ENDBLK
  5
6D
  8
_________1
  0
BLOCK
  8
_________1
  2
AIGNBL0204001E
 70
     0
 10
0.0
 20
0.0
 30
0.0
  3
AIGNBL0204001E
  1

  0
INSERT
  5
70
  8
_________1
 62
     7
  2
AIGNBL0205001F
 10
0.0
 20
0.0
 30
0.0
  0
ENDBLK
  5
71
  8
_________1
  0
BLOCK
  8
_________1
  2
AIGNBL02040021
 70
     0
 10
0.0
 20
0.0
 30
0.0
  3
AIGNBL02040021
  1

  0
INSERT
  5
74
  8
_________1
 62
     7
  2
AIGNBL02050022
 10
0.0
 20
0.0
 30
0.0
  0
ENDBLK
  5
75
  8
_________1
  0
BLOCK
  8
_________1
  2
AIGNBL02040024
 70
     0
 10
0.0
 20
0.0
 30
0.0
  3
AIGNBL02040024
  1

  0
LINE
  5
78
  8
_________1
 62
     7
 10
9.5052500000000002
 20
51.724600000000002
 30
0.0
 11
9.5097300000000011
 21
51.724600000000002
 31
0.0
  0
LINE
  5
79
  8
_________1
 62
     7
 10
8.8837499999999991
 20
51.715000000000003
 30
0.0
 11
9.4167100000000001
 21
51.715000000000003
 31
0.0
  0
LINE
  5
7A
  8
_________1
 62
     7
 10
8.8837499999999991
 20
52.660299999999999
 30
0.0
 11
9.4167100000000001
 21
52.660299999999999
 31
0.0
  0
ARC
  5
7B
  8
_________1
 62
     7
 10
9.6698909999999998
 20
51.551622999999999
 30
0.0
 40
0.251803
 50
157.079635
 51
179.82537600000001
  0
ARC
  5
7C
  8
_________1
 62
     7
 10
9.6075400000000002
 20
51.568224999999998
 30
0.0
 40
0.188123
 50
106.65652
 51
154.34015299999999
  0
ARC
  5
7D
  8
_________1
 62
     7
 10
9.6843990000000009
 20
51.368743000000002
 30
0.0
 40
0.4016030000000001
 50
88.083088000000004
 51
109.004983
  0
ARC
  5
7E
  8
_________1
 62
     7
 10
9.7040699999999998
 20
51.363599000000001
 30
0.0
 40
0.40657
 50
73.498393000000007
 51
90.878998999999993
  0
ARC
  5
7F
  8
_________1
 62
     7
 10
9.7490649999999999
 20
51.535038
 30
0.0
 40
0.22948
 50
25.081801000000009
 51
72.111568000000005
  0
ARC
  5
80
  8
_________1
 62
     7
 10
9.6559489999999997
 20
52.809190000000001
 30
0.0
 40
0.238872
 50
182.98126999999991
 51
206.064773
  0
ARC
  5
81
  8
_________1
 62
     7
 10
9.6052750000000007
 20
52.794670999999987
 30
0.0
 40
0.1872
 50
208.88879900000001
 51
256.348725
  0
ARC
  5
82
  8
_________1
 62
     7
 10
9.6850369999999995
 20
53.028897000000001
 30
0.0
 40
0.434203
 50
253.41431700000001
 51
271.68875400000002
  0
ARC
  5
83
  8
_________1
 62
     7
 10
9.6982549999999996
 20
53.034134000000002
 30
0.0
 40
0.4392520000000001
 50
269.94489399999998
 51
286.62006500000001
  0
ARC
  5
84
  8
_________1
 62
     7
 10
9.7558439999999997
 20
52.824482000000003
 30
0.0
 40
0.221939
 50
287.85491300000001
 51
335.37293399999999
  0
ARC
  5
85
  8
_________1
 62
     7
 10
9.7150970000000001
 20
52.298155000000001
 30
0.0
 40
0.29723
 50
93.329902000000004
 51
177.78799900000001
  0
ARC
  5
86
  8
_________1
 62
     7
 10
9.6975100000000012
 20
52.333942
 30
0.0
 40
0.26094
 50
26.729371
 51
89.929113999999998
  0
ARC
  5
87
  8
_________1
 62
     7
 10
9.6286249999999995
 20
52.280942000000003
 30
0.0
 40
0.346689
 50
8.6451449999999994
 51
29.433229000000001
  0
ARC
  5
88
  8
_________1
 62
     7
 10
9.7132710000000007
 20
52.066650000000003
 30
0.0
 40
0.29693
 50
184.84001000000001
 51
267.01964500000003
  0
ARC
  5
89
  8
_________1
 62
     7
 10
9.6978480000000005
 20
52.201948999999999
 30
0.0
 40
0.431827
 50
269.99801600000001
 51
286.71117900000002
  0
ARC
  5
8A
  8
_________1
 62
     7
 10
9.7522199999999994
 20
52.000857000000003
 30
0.0
 40
0.223668
 50
288.183787
 51
348.47206699999998
  0
LINE
  5
8B
  8
_________1
 62
     7
 10
9.7739700000000003
 20
51.511000000000003
 30
0.0
 11
9.4167100000000001
 21
51.511000000000003
 31
0.0
  0
LINE
  5
8C
  8
_________1
 62
     7
 10
9.9713799999999981
 20
52.660299999999999
 30
0.0
 11
9.9713799999999981
 21
51.708799999999997
 31
0.0
  0
ARC
  5
8D
  8
_________1
 62
     7
 10
9.7660669999999996
 20
51.716343999999999
 30
0.0
 40
0.205447
 50
272.20466099999999
 51
357.89525400000002
  0
LINE
  5
8E
  8
_________1
 62
     7
 10
9.7739700000000003
 20
52.857399999999998
 30
0.0
 11
9.4167100000000001
 21
52.857399999999998
 31
0.0
  0
ARC
  5
8F
  8
_________1
 62
     7
 10
9.7664350000000013
 20
52.652447000000002
 30
0.0
 40
0.205092
 50
2.205592999999999
 51
87.894476999999995
  0
LINE
  5
90
  8
_________1
 62
     7
 10
9.4167100000000001
 20
52.857399999999998
 30
0.0
 11
9.4167100000000001
 21
51.511000000000003
 31
0.0
  0
ENDBLK
  5
91
  8
_________1
  0
BLOCK
  8
_________1
  2
AIGNBL02040026
 70
     0
 10
0.0
 20
0.0
 30
0.0
  3
AIGNBL02040026
  1

  0
INSERT
  5
94
  8
_________1
 62
     7
  2
AIGNBL02050027
 10
0.0
 20
0.0
 30
0.0
  0
ENDBLK
  5
95
  8
_________1
  0
BLOCK
  8
_________1
  2
AIGNBL02030014
 70
     0
 10
0.0
 20
0.0
 30
0.0
  3
AIGNBL02030014
  1

  0
INSERT
  5
98
  8
_________1
 62
     7
  2
AIGNBL02040015
 10
0.0
 20
0.0
 30
0.0
  0
ENDBLK
  5
99
  8
_________1
  0
BLOCK
  8
_________1
  2
AIGNBL02030017
 70
     0
 10
0.0
 20
0.0
 30
0.0
  3
AIGNBL02030017
  1

  0
INSERT
  5
9C
  8
_________1
 62
     7
  2
AIGNBL02040018
 10
0.0
 20
0.0
 30
0.0
  0
ENDBLK
  5
9D
  8
_________1
  0
BLOCK
  8
_________1
  2
AIGNBL0203001A
 70
     0
 10
0.0
 20
0.0
 30
0.0
  3
AIGNBL0203001A
  1

  0
INSERT
  5
A0
  8
_________1
 62
     7
  2
AIGNBL0204001B
 10
0.0
 20
0.0
 30
0.0
  0
ENDBLK
  5
A1
  8
_________1
  0
BLOCK
  8
_________1
  2
AIGNBL0203001D
 70
     0
 10
0.0
 20
0.0
 30
0.0
  3
AIGNBL0203001D
  1

  0
INSERT
  5
A4
  8
_________1
 62
     7
  2
AIGNBL0204001E
 10
0.0
 20
0.0
 30
0.0
  0
ENDBLK
  5
A5
  8
_________1
  0
BLOCK
  8
_________1
  2
AIGNBL02030020
 70
     0
 10
0.0
 20
0.0
 30
0.0
  3
AIGNBL02030020
  1

  0
INSERT
  5
A8
  8
_________1
 62
     7
  2
AIGNBL02040021
 10
0.0
 20
0.0
 30
0.0
  0
ENDBLK
  5
A9
  8
_________1
  0
BLOCK
  8
_________1
  2
AIGNBL02030023
 70
     0
 10
0.0
 20
0.0
 30
0.0
  3
AIGNBL02030023
  1

  0
LINE
  5
AC
  8
_________1
 62
     7
 10
9.4167100000000001
 20
51.835599999999992
 30
0.0
 11
8.8837499999999991
 21
51.835599999999992
 31
0.0
  0
LINE
  5
AD
  8
_________1
 62
     7
 10
9.4167100000000001
 20
52.5411
 30
0.0
 11
8.8837499999999991
 21
52.5411
 31
0.0
  0
INSERT
  5
AE
  8
_________1
 62
     7
  2
AIGNBL02040024
 10
0.0
 20
0.0
 30
0.0
  0
LINE
  5
AF
  8
_________1
 62
     7
 10
8.7965900000000001
 20
51.742600000000003
 30
0.0
 11
8.7972800000000007
 21
51.742600000000003
 31
0.0
  0
LINE
  5
B0
  8
_________1
 62
     7
 10
8.8837499999999991
 20
52.873199999999997
 30
0.0
 11
8.6822100000000013
 21
53.046199999999992
 31
0.0
  0
LINE
  5
B1
  8
_________1
 62
     7
 10
8.8837499999999991
 20
51.526200000000003
 30
0.0
 11
8.6822100000000013
 21
51.354599999999998
 31
0.0
  0
LINE
  5
B2
  8
_________1
 62
     7
 10
6.1483299999999996
 20
51.354599999999998
 30
0.0
 11
5.94679
 21
51.526200000000003
 31
0.0
  0
LINE
  5
B3
  8
_________1
 62
     7
 10
6.1483299999999996
 20
53.044800000000002
 30
0.0
 11
5.94679
 21
52.872599999999991
 31
0.0
  0
LINE
  5
B4
  8
_________1
 62
     7
 10
5.94679
 20
52.872599999999991
 30
0.0
 11
5.94679
 21
51.526200000000003
 31
0.0
  0
ARC
  5
B5
  8
_________1
 62
     7
 10
6.5517190000000003
 20
51.707234999999997
 30
0.0
 40
0.352595
 50
239.63368500000001
 51
269.89343000000002
  0
ARC
  5
B6
  8
_________1
 62
     7
 10
6.6261460000000003
 20
51.849614000000003
 30
0.0
 40
0.5131250000000001
 50
222.37933100000001
 51
240.50017800000001
  0
ARC
  5
B7
  8
_________1
 62
     7
 10
6.8478779999999988
 20
52.060732999999992
 30
0.0
 40
0.8192459999999998
 50
200.65539699999999
 51
222.833798
  0
ARC
  5
B8
  8
_________1
 62
     7
 10
7.1544600000000003
 20
52.203293000000002
 30
0.0
 40
1.156682999999999
 50
179.954724
 51
201.906251
  0
ARC
  5
B9
  8
_________1
 62
     7
 10
7.1845840000000001
 20
52.202303999999998
 30
0.0
 40
1.1868080000000001
 50
151.70014800000001
 51
179.908151
  0
ARC
  5
BA
  8
_________1
 62
     7
 10
6.7718669999999994
 20
52.413911999999989
 30
0.0
 40
0.7231600000000001
 50
128.06763100000001
 51
150.959598
  0
ARC
  5
BB
  8
_________1
 62
     7
 10
6.559988999999999
 20
52.660094999999998
 30
0.0
 40
0.398985
 50
105.367448
 51
125.91109899999999
  0
ARC
  5
BC
  8
_________1
 62
     7
 10
8.3195060000000005
 20
52.680845999999988
 30
0.0
 40
0.368371
 50
50.14780300000001
 51
81.133147999999991
  0
ARC
  5
BD
  8
_________1
 62
     7
 10
8.1789059999999996
 20
52.486224
 30
0.0
 40
0.608111
 50
34.468119000000002
 51
51.728774000000001
  0
ARC
  5
BE
  8
_________1
 62
     7
 10
7.8804729999999994
 20
52.27008
 30
0.0
 40
0.9765219999999999
 50
14.163423
 51
35.013820000000003
  0
ARC
  5
BF
  8
_________1
 62
     7
 10
7.6631289999999987
 20
52.192242999999998
 30
0.0
 40
1.206512
 50
0.273648
 51
15.221987
  0
ARC
  5
C0
  8
_________1
 62
     7
 10
7.6951729999999987
 20
52.199632999999992
 30
0.0
 40
1.174455
 50
331.65244999999999
 51
359.92059999999998
  0
ARC
  5
C1
  8
_________1
 62
     7
 10
8.0884280000000004
 20
51.997112999999999
 30
0.0
 40
0.732247
 50
308.39405199999999
 51
330.98804100000001
  0
ARC
  5
C2
  8
_________1
 62
     7
 10
8.3046959999999999
 20
51.746653999999999
 30
0.0
 40
0.401873
 50
282.71768200000002
 51
306.40482100000003
  0
LINE
  5
C3
  8
_________1
 62
     7
 10
6.1372999999999989
 20
52.285499999999999
 30
0.0
 11
7.3337899999999987
 21
52.285499999999999
 31
0.0
  0
LINE
  5
C4
  8
_________1
 62
     7
 10
6.1372999999999989
 20
52.113300000000002
 30
0.0
 11
7.3337899999999987
 21
52.113300000000002
 31
0.0
  0
ARC
  5
C5
  8
_________1
 62
     7
 10
6.8449239999999998
 20
52.185678000000003
 30
0.0
 40
0.713583
 50
112.65499699999999
 51
179.010177
  0
ARC
  5
C6
  8
_________1
 62
     7
 10
6.7369690000000002
 20
52.367247999999996
 30
0.0
 40
0.5053130000000001
 50
90.180612999999994
 51
109.28695
  0
ARC
  5
C7
  8
_________1
 62
     7
 10
6.7337249999999989
 20
52.354281
 30
0.0
 40
0.51828
 50
54.270740000000011
 51
89.817377000000008
  0
ARC
  5
C8
  8
_________1
 62
     7
 10
6.621097999999999
 20
52.187683
 30
0.0
 40
0.719315
 50
0.822211
 51
54.737286000000012
  0
ARC
  5
C9
  8
_________1
 62
     7
 10
6.6312410000000002
 20
52.210444000000003
 30
0.0
 40
0.709207
 50
292.34706199999999
 51
358.99499900000001
  0
ARC
  5
CA
  8
_________1
 62
     7
 10
6.7337419999999986
 20
52.034058000000002
 30
0.0
 40
0.507853
 50
270.18441999999999
 51
289.21613400000001
  0
ARC
  5
CB
  8
_________1
 62
     7
 10
6.7370270000000003
 20
52.044241
 30
0.0
 40
0.518037
 50
234.3079680000001
 51
269.81742200000002
  0
ARC
  5
CC
  8
_________1
 62
     7
 10
6.8482529999999988
 20
52.209158000000002
 30
0.0
 40
0.716892
 50
180.89139800000001
 51
234.77819400000001
  0
LINE
  5
CD
  8
_________1
 62
     7
 10
6.1445400000000001
 20
51.354599999999998
 30
0.0
 11
8.6856600000000004
 21
51.354599999999998
 31
0.0
  0
LINE
  5
CE
  8
_________1
 62
     7
 10
6.1483299999999996
 20
53.044800000000002
 30
0.0
 11
8.6839300000000001
 21
53.044800000000002
 31
0.0
  0
LINE
  5
CF
  8
_________1
 62
     7
 10
8.8837499999999991
 20
52.873199999999997
 30
0.0
 11
8.8837499999999991
 21
51.526200000000003
 31
0.0
  0
ENDBLK
  5
D0
  8
_________1
  0
BLOCK
  8
_________1
  2
AIGNBL02030025
 70
     0
 10
0.0
 20
0.0
 30
0.0
  3
AIGNBL02030025
  1

  0
INSERT
  5
D3
  8
_________1
 62
     7
  2
AIGNBL02040026
 10
0.0
 20
0.0
 30
0.0
  0
ENDBLK
  5
D4
  8
_________1
  0
BLOCK
  8
_________1
  2
AIGNBL02020011
 70
     0
 10
0.0
 20
0.0
 30
0.0
  3
AIGNBL02020011
  1

  0
LINE
  5
D7
  8
_________1
 62
     7
 10
45.667999999999992
 20
98.067999999999998
 30
0.0
 11
43.456899999999997
 21
97.475499999999997
 31
0.0
  0
LINE
  5
D8
  8
_________1
 62
     7
 10
43.456899999999997
 20
97.475499999999997
 30
0.0
 11
45.667999999999992
 21
96.883600000000015
 31
0.0
  0
LINE
  5
D9
  8
_________1
 62
     7
 10
45.667999999999992
 20
96.883600000000015
 30
0.0
 11
45.667999999999992
 21
98.067999999999998
 31
0.0
  0
LINE
  5
DA
  8
_________1
 62
     7
 10
37.121299999999998
 20
96.883600000000015
 30
0.0
 11
39.331699999999998
 21
97.475499999999997
 31
0.0
  0
LINE
  5
DB
  8
_________1
 62
     7
 10
39.331699999999998
 20
97.475499999999997
 30
0.0
 11
37.121299999999998
 21
98.067999999999998
 31
0.0
  0
LINE
  5
DC
  8
_________1
 62
     7
 10
37.121299999999998
 20
98.067999999999998
 30
0.0
 11
37.121299999999998
 21
96.883600000000015
 31
0.0
  0
LINE
  5
DD
  8
_________1
 62
     7
 10
28.556699999999999
 20
97.475499999999997
 30
0.0
 11
47.172800000000002
 21
97.475499999999997
 31
0.0
  0
ENDBLK
  5
DE
  8
_________1
  0
BLOCK
  8
_________1
  2
AIGNBL02020013
 70
     0
 10
0.0
 20
0.0
 30
0.0
  3
AIGNBL02020013
  1

  0
INSERT
  5
E1
  8
_________1
 62
     7
  2
AIGNBL02030014
 10
0.0
 20
0.0
 30
0.0
  0
LINE
  5
E2
  8
_________1
 62
     7
 10
11.3439
 20
51.334699999999991
 30
0.0
 11
11.3439
 21
34.5976
 31
0.0
  0
INSERT
  5
E3
  8
_________1
 62
     7
  2
AIGNBL02030017
 10
0.0
 20
0.0
 30
0.0
  0
LINE
  5
E4
  8
_________1
 62
     7
 10
-28.416499999999999
 20
48.260899999999999
 30
0.0
 11
-28.416499999999999
 21
41.976999999999997
 31
0.0
  0
LINE
  5
E5
  8
_________1
 62
     7
 10
-20.895199999999999
 20
48.260899999999999
 30
0.0
 11
-20.895199999999999
 21
42.034199999999998
 31
0.0
  0
INSERT
  5
E6
  8
_________1
 62
     7
  2
AIGNBL0203001A
 10
0.0
 20
0.0
 30
0.0
  0
INSERT
  5
E7
  8
_________1
 62
     7
  2
AIGNBL0203001D
 10
0.0
 20
0.0
 30
0.0
  0
LINE
  5
E8
  8
_________1
 62
     7
 10
-29.020099999999999
 20
48.575800000000001
 30
0.0
 11
-35.055300000000003
 21
48.575800000000001
 31
0.0
  0
LINE
  5
E9
  8
_________1
 62
     7
 10
-31.167100000000001
 20
58.642400000000002
 30
0.0
 11
-35.055300000000003
 21
58.642400000000002
 31
0.0
  0
LINE
  5
EA
  8
_________1
 62
     7
 10
-31.244299999999999
 20
66.652699999999996
 30
0.0
 11
-35.058
 21
66.652699999999996
 31
0.0
  0
LINE
  5
EB
  8
_________1
 62
     7
 10
-18.366399999999999
 20
66.406000000000006
 30
0.0
 11
-18.366399999999999
 21
66.305400000000006
 31
0.0
  0
ARC
  5
EC
  8
_________1
 62
     7
 10
-16.031146
 20
53.428229999999999
 30
0.0
 40
5.1192349999999989
 50
197.79385099999999
 51
205.456209
  0
ARC
  5
ED
  8
_________1
 62
     7
 10
-18.905376
 20
52.083939000000001
 30
0.0
 40
1.9463680000000001
 50
206.09278499999999
 51
211.00056599999999
  0
ARC
  5
EE
  8
_________1
 62
     7
 10
-19.970863999999999
 20
51.433382999999992
 30
0.0
 40
0.698061
 50
210.27364900000001
 51
225.39328699999999
  0
ARC
  5
EF
  8
_________1
 62
     7
 10
-18.580580999999999
 20
52.504390000000001
 30
0.0
 40
2.2834089999999989
 50
149.49268799999999
 51
157.23764700000001
  0
ARC
  5
F0
  8
_________1
 62
     7
 10
-16.926919999999999
 20
51.774931000000002
 30
0.0
 40
4.0906459999999987
 50
156.7778129999999
 51
168.870071
  0
LINE
  5
F1
  8
_________1
 62
     7
 10
-14.959199999999999
 20
54.2134
 30
0.0
 11
-15.4236
 21
54.2134
 31
0.0
  0
LINE
  5
F2
  8
_________1
 62
     7
 10
-16.508800000000001
 20
50.250799999999991
 30
0.0
 11
-17.217099999999999
 21
50.250799999999991
 31
0.0
  0
LINE
  5
F3
  8
_________1
 62
     7
 10
-14.951599999999999
 20
50.250799999999991
 30
0.0
 11
-15.3706
 21
50.250799999999991
 31
0.0
  0
ARC
  5
F4
  8
_________1
 62
     7
 10
-15.958526000000001
 20
50.181694
 30
0.0
 40
0.856685
 50
71.079227000000003
 51
90.030982999999992
  0
ARC
  5
F5
  8
_________1
 62
     7
 10
-15.875631
 20
50.481296999999998
 30
0.0
 40
0.546712
 50
15.048963000000001
 51
69.115506000000011
  0
ARC
  5
F6
  8
_________1
 62
     7
 10
-16.212313999999999
 20
50.376586000000003
 30
0.0
 40
0.8991399999999998
 50
358.79156799999998
 51
15.922105
  0
ARC
  5
F7
  8
_________1
 62
     7
 10
-15.390267
 20
50.358052000000001
 30
0.0
 40
0.076894
 50
340.23881299999999
 51
359.68055299999997
  0
ARC
  5
F8
  8
_________1
 62
     7
 10
-15.481320999999999
 20
50.388187000000002
 30
0.0
 40
0.172791
 50
326.44246900000002
 51
341.04307300000011
  0
ARC
  5
F9
  8
_________1
 62
     7
 10
-15.646818
 20
50.49529299999999
 30
0.0
 40
0.369918
 50
315.87787100000003
 51
326.78745300000003
  0
ARC
  5
FA
  8
_________1
 62
     7
 10
-15.892206
 20
50.732498
 30
0.0
 40
0.711211
 50
300.00293599999998
 51
315.922822
  0
ARC
  5
FB
  8
_________1
 62
     7
 10
-16.001087999999999
 20
50.891323999999997
 30
0.0
 40
0.9033229999999999
 50
271.49043899999998
 51
300.946237
  0
ARC
  5
FC
  8
_________1
 62
     7
 10
-15.976036000000001
 20
50.623790999999997
 30
0.0
 40
0.6354860000000001
 50
237.98466099999999
 51
269.85969299999999
  0
ARC
  5
FD
  8
_________1
 62
     7
 10
-15.915592999999999
 20
50.751342999999999
 30
0.0
 40
0.7758550000000001
 50
216.68923899999999
 51
239.19372100000001
  0
ARC
  5
FE
  8
_________1
 62
     7
 10
-16.249199000000001
 20
50.498562999999997
 30
0.0
 40
0.357327
 50
203.96406899999999
 51
216.14719600000001
  0
ARC
  5
FF
  8
_________1
 62
     7
 10
-16.476984999999999
 20
50.400005999999991
 30
0.0
 40
0.109173
 50
183.07907800000001
 51
205.25354899999999
  0
ARC
  5
100
  8
_________1
 62
     7
 10
-15.468328
 20
50.395196999999989
 30
0.0
 40
1.1176719999999991
 50
169.31487799999999
 51
180.0541199999999
  0
ARC
  5
101
  8
_________1
 62
     7
 10
-15.968163000000001
 20
50.483108000000001
 30
0.0
 40
0.6102370000000001
 50
143.48844199999999
 51
168.72444100000001
  0
ARC
  5
102
  8
_________1
 62
     7
 10
-16.087512
 20
50.545870999999998
 30
0.0
 40
0.477412
 50
101.674458
 51
141.01953399999999
  0
ARC
  5
103
  8
_________1
 62
     7
 10
-15.974945
 20
50.154946000000002
 30
0.0
 40
0.883576
 50
88.965243000000015
 51
103.69376699999999
  0
ARC
  5
104
  8
_________1
 62
     7
 10
-16.013677000000001
 20
52.574323
 30
0.0
 40
1.7637890000000001
 50
76.622818999999993
 51
90.014088999999984
  0
ARC
  5
105
  8
_________1
 62
     7
 10
-15.775057
 20
53.620686999999997
 30
0.0
 40
0.6906790000000002
 50
59.889006000000009
 51
75.798098999999993
  0
ARC
  5
106
  8
_________1
 62
     7
 10
-15.528938999999999
 20
54.054830000000003
 30
0.0
 40
0.191713
 50
29.407636
 51
58.426393999999988
  0
ARC
  5
107
  8
_________1
 62
     7
 10
-15.439731999999999
 20
54.113016000000002
 30
0.0
 40
0.085707
 50
0.317384
 51
24.799139
  0
ARC
  5
108
  8
_________1
 62
     7
 10
-16.592414999999999
 20
54.113062999999997
 30
0.0
 40
1.2383889999999991
 50
344.521458
 51
0.019753
  0
ARC
  5
109
  8
_________1
 62
     7
 10
-16.088498999999999
 20
53.988835000000002
 30
0.0
 40
0.719747
 50
319.05866800000001
 51
343.34634499999999
  0
ARC
  5
10A
  8
_________1
 62
     7
 10
-15.945853
 20
53.889589000000001
 30
0.0
 40
0.5472730000000001
 50
268.624595
 51
317.12087300000002
  0
ARC
  5
10B
  8
_________1
 62
     7
 10
-15.952679
 20
53.962447999999988
 30
0.0
 40
0.6200070000000001
 50
212.58928399999999
 51
269.41688399999998
  0
ARC
  5
10C
  8
_________1
 62
     7
 10
-15.805056
 20
54.064933000000003
 30
0.0
 40
0.799616
 50
190.57864799999999
 51
213.079275
  0
ARC
  5
10D
  8
_________1
 62
     7
 10
-15.539403
 20
54.12995699999999
 30
0.0
 40
1.072797999999999
 50
179.66506899999999
 51
191.38775000000001
  0
ARC
  5
10E
  8
_________1
 62
     7
 10
-16.554739000000001
 20
54.136175999999999
 30
0.0
 40
0.057444
 50
159.63521700000001
 51
179.948408
  0
ARC
  5
10F
  8
_________1
 62
     7
 10
-16.520136999999998
 20
54.122788999999997
 30
0.0
 40
0.094543
 50
138.68355500000001
 51
159.326448
  0
ARC
  5
110
  8
_________1
 62
     7
 10
-16.444043000000001
 20
54.056837999999999
 30
0.0
 40
0.195239
 50
124.285814
 51
138.89040800000001
  0
ARC
  5
111
  8
_________1
 62
     7
 10
-16.329433000000002
 20
53.892507999999992
 30
0.0
 40
0.395583
 50
114.19512400000001
 51
124.59347099999999
  0
ARC
  5
112
  8
_________1
 62
     7
 10
-16.158239999999999
 20
53.509914999999999
 30
0.0
 40
0.8147300000000001
 50
99.289972999999975
 51
114.149432
  0
ARC
  5
113
  8
_________1
 62
     7
 10
-16.024234
 20
52.868616000000003
 30
0.0
 40
1.469530999999999
 50
89.605311999999998
 51
100.409947
  0
ARC
  5
114
  8
_________1
 62
     7
 10
-15.960381
 20
52.642429000000007
 30
0.0
 40
0.47887
 50
54.485410000000002
 51
89.833445999999995
  0
ARC
  5
115
  8
_________1
 62
     7
 10
-16.071251
 20
52.46834599999999
 30
0.0
 40
0.685059
 50
31.406938000000011
 51
55.395586999999999
  0
ARC
  5
116
  8
_________1
 62
     7
 10
-16.367787
 20
52.266915000000012
 30
0.0
 40
1.0432629999999989
 50
4.8733719999999989
 51
32.362067000000003
  0
ARC
  5
117
  8
_________1
 62
     7
 10
-16.604481
 20
52.218449999999997
 30
0.0
 40
1.283528
 50
359.97931399999999
 51
6.1314589999999987
  0
ARC
  5
118
  8
_________1
 62
     7
 10
-16.53152399999999
 20
52.219234999999991
 30
0.0
 40
1.2105719999999991
 50
331.61258500000002
 51
359.9409490000001
  0
ARC
  5
119
  8
_________1
 62
     7
 10
-16.142092999999999
 20
52.033915
 30
0.0
 40
0.780175
 50
307.38971800000002
 51
329.988471
  0
ARC
  5
11A
  8
_________1
 62
     7
 10
-15.971966
 20
51.830944000000002
 30
0.0
 40
0.5157410000000001
 50
271.44187899999997
 51
306.06545599999998
  0
ARC
  5
11B
  8
_________1
 62
     7
 10
-15.957582
 20
51.794346999999988
 30
0.0
 40
0.4789830000000001
 50
234.517503
 51
269.831751
  0
ARC
  5
11C
  8
_________1
 62
     7
 10
-15.844395
 20
51.972200999999998
 30
0.0
 40
0.6895970000000001
 50
210.80902000000009
 51
235.437174
  0
ARC
  5
11D
  8
_________1
 62
     7
 10
-15.544871000000001
 20
52.172812
 30
0.0
 40
1.0497700000000001
 50
184.43253000000001
 51
211.840114
  0
ARC
  5
11E
  8
_________1
 62
     7
 10
-15.318877000000001
 20
52.217576000000001
 30
0.0
 40
1.278837
 50
179.981582
 51
185.64969099999999
  0
ARC
  5
11F
  8
_________1
 62
     7
 10
-15.389697999999999
 20
52.216741999999989
 30
0.0
 40
1.2080159999999991
 50
151.53206900000001
 51
179.940921
  0
ARC
  5
120
  8
_________1
 62
     7
 10
-15.773834000000001
 20
52.400371
 30
0.0
 40
0.783098
 50
127.400718
 51
149.94574600000001
  0
ARC
  5
121
  8
_________1
 62
     7
 10
-15.945567
 20
52.605506000000013
 30
0.0
 40
0.5159660000000002
 50
91.490566999999999
 51
126.08686899999999
  0
INSERT
  5
122
  8
_________1
 62
     7
  2
AIGNBL02030020
 10
0.0
 20
0.0
 30
0.0
  0
INSERT
  5
123
  8
_________1
 62
     7
  2
AIGNBL02030023
 10
0.0
 20
0.0
 30
0.0
  0
LINE
  5
124
  8
_________1
 62
     7
 10
-30.9452
 20
67.031599999999997
 30
0.0
 11
-30.9452
 21
71.143699999999995
 31
0.0
  0
LINE
  5
125
  8
_________1
 62
     7
 10
-30.698599999999999
 20
66.652699999999996
 30
0.0
 11
-18.613800000000001
 21
66.652699999999996
 31
0.0
  0
ARC
  5
126
  8
_________1
 62
     7
 10
-18.62331
 20
66.395782999999994
 30
0.0
 40
0.257077
 50
2.280692999999999
 51
87.879118000000005
  0
ARC
  5
127
  8
_________1
 62
     7
 10
-30.690131000000001
 20
66.396851999999996
 30
0.0
 40
0.255283
 50
91.896366
 51
177.94333700000001
  0
LINE
  5
128
  8
_________1
 62
     7
 10
-30.9452
 20
66.305400000000006
 30
0.0
 11
-30.9452
 21
66.406000000000006
 31
0.0
  0
LINE
  5
129
  8
_________1
 62
     7
 10
-20.7346
 20
59.971600000000002
 30
0.0
 11
-20.6616
 21
59.971600000000002
 31
0.0
  0
LINE
  5
12A
  8
_________1
 62
     7
 10
-21.055700000000002
 20
60.29399999999999
 30
0.0
 11
-21.055700000000002
 21
62.050400000000003
 31
0.0
  0
ARC
  5
12B
  8
_________1
 62
     7
 10
-20.722172
 20
60.305041000000003
 30
0.0
 40
0.333705
 50
181.89070599999999
 51
267.863946
  0
LINE
  5
12C
  8
_________1
 62
     7
 10
-28.247
 20
60.29399999999999
 30
0.0
 11
-28.247
 21
62.050400000000003
 31
0.0
  0
LINE
  5
12D
  8
_________1
 62
     7
 10
-28.6508
 20
59.971600000000002
 30
0.0
 11
-28.568100000000001
 21
59.971600000000002
 31
0.0
  0
ARC
  5
12E
  8
_________1
 62
     7
 10
-28.581856999999999
 20
60.306336000000002
 30
0.0
 40
0.33505
 50
272.35006800000002
 51
357.89532000000003
  0
LINE
  5
12F
  8
_________1
 62
     7
 10
-20.7346
 20
62.371400000000001
 30
0.0
 11
-20.6616
 21
62.371400000000001
 31
0.0
  0
ARC
  5
130
  8
_________1
 62
     7
 10
-20.722270000000002
 20
62.03801099999999
 30
0.0
 40
0.333654
 50
92.119619999999983
 51
177.88035099999999
  0
LINE
  5
131
  8
_________1
 62
     7
 10
-28.6508
 20
62.371400000000001
 30
0.0
 11
-28.568100000000001
 21
62.371400000000001
 31
0.0
  0
ARC
  5
132
  8
_________1
 62
     7
 10
-28.580459000000001
 20
62.03801099999999
 30
0.0
 40
0.333654
 50
2.1196470000000001
 51
87.880343000000011
  0
LINE
  5
133
  8
_________1
 62
     7
 10
-28.6508
 20
62.371400000000001
 30
0.0
 11
-28.6508
 21
64.441599999999994
 31
0.0
  0
LINE
  5
134
  8
_________1
 62
     7
 10
-28.6508
 20
59.57119999999999
 30
0.0
 11
-28.6508
 21
59.971600000000002
 31
0.0
  0
LINE
  5
135
  8
_________1
 62
     7
 10
-28.6508
 20
64.441599999999994
 30
0.0
 11
-28.799600000000002
 21
64.597300000000004
 31
0.0
  0
LINE
  5
136
  8
_________1
 62
     7
 10
-20.549299999999999
 20
64.597300000000004
 30
0.0
 11
-20.6616
 21
64.441599999999994
 31
0.0
  0
LINE
  5
137
  8
_________1
 62
     7
 10
-20.6616
 20
59.971600000000002
 30
0.0
 11
-20.6616
 21
59.57119999999999
 31
0.0
  0
LINE
  5
138
  8
_________1
 62
     7
 10
-20.6616
 20
64.441599999999994
 30
0.0
 11
-20.6616
 21
62.371400000000001
 31
0.0
  0
LINE
  5
139
  8
_________1
 62
     7
 10
-30.9452
 20
66.305400000000006
 30
0.0
 11
-18.345800000000001
 21
66.305400000000006
 31
0.0
  0
LINE
  5
13A
  8
_________1
 62
     7
 10
-14.7125
 20
50.497500000000002
 30
0.0
 11
-14.7125
 21
53.968800000000002
 31
0.0
  0
ARC
  5
13B
  8
_________1
 62
     7
 10
-14.961183999999999
 20
50.507041999999998
 30
0.0
 40
0.256395
 50
272.133962
 51
357.86604799999998
  0
ARC
  5
13C
  8
_________1
 62
     7
 10
-14.968617999999999
 20
53.957239000000001
 30
0.0
 40
0.256333
 50
2.5840730000000001
 51
87.898066
  0
LINE
  5
13D
  8
_________1
 62
     7
 10
-20.488600000000002
 20
50.381100000000004
 30
0.0
 11
-28.823699999999999
 21
50.381100000000004
 31
0.0
  0
LINE
  5
13E
  8
_________1
 62
     7
 10
-18.631699999999999
 20
58.652799999999999
 30
0.0
 11
-30.680700000000002
 21
58.652799999999999
 31
0.0
  0
LINE
  5
13F
  8
_________1
 62
     7
 10
-18.072199999999999
 20
53.835799999999999
 30
0.0
 11
-18.072199999999999
 21
50.5533
 31
0.0
  0
LINE
  5
140
  8
_________1
 62
     7
 10
-18.366399999999999
 20
66.835999999999999
 30
0.0
 11
-18.366399999999999
 21
71.143699999999995
 31
0.0
  0
INSERT
  5
141
  8
_________1
 62
     7
  2
AIGNBL02030025
 10
0.0
 20
0.0
 30
0.0
  0
LINE
  5
142
  8
_________1
 62
     7
 10
-24.656500000000001
 20
46.133200000000002
 30
0.0
 11
-24.656500000000001
 21
34.479799999999997
 31
0.0
  0
LINE
  5
143
  8
_________1
 62
     7
 10
9.9734400000000001
 20
51.680500000000002
 30
0.0
 11
11.131
 21
51.680500000000002
 31
0.0
  0
LINE
  5
144
  8
_________1
 62
     7
 10
-14.7119
 20
51.695
 30
0.0
 11
7.0981500000000004
 21
51.695
 31
0.0
  0
LINE
  5
145
  8
_________1
  6
AIGENLINE001
 62
     7
 10
-22.158799999999999
 20
52.194600000000001
 30
0.0
 11
13.0327
 21
52.194600000000001
 31
0.0
  0
LINE
  5
146
  8
_________1
 62
     7
 10
9.9734400000000001
 20
52.680300000000003
 30
0.0
 11
11.131
 21
52.680300000000003
 31
0.0
  0
LINE
  5
147
  8
_________1
 62
     7
 10
-14.7119
 20
52.694099999999999
 30
0.0
 11
7.0981500000000004
 21
52.694099999999999
 31
0.0
  0
ARC
  5
148
  8
_________1
 62
     7
 10
-20.184728
 20
50.199170000000002
 30
0.0
 40
0.35417
 50
90.787019999999984
 51
149.10001
  0
LINE
  5
149
  8
_________1
 62
     7
 10
-17.3033
 20
50.337600000000002
 30
0.0
 11
-17.3033
 21
54.05149999999999
 31
0.0
  0
ARC
  5
14A
  8
_________1
 62
     7
 10
-20.130351000000001
 20
54.194119000000001
 30
0.0
 40
0.358543
 50
182.20471900000001
 51
267.90978799999999
  0
LINE
  5
14B
  8
_________1
 62
     7
 10
-17.3033
 20
50.337600000000002
 30
0.0
 11
-17.217099999999999
 21
50.250799999999991
 31
0.0
  0
LINE
  5
14C
  8
_________1
 62
     7
 10
-17.217099999999999
 20
54.136200000000002
 30
0.0
 11
-17.3033
 21
54.05149999999999
 31
0.0
  0
LINE
  5
14D
  8
_________1
 62
     7
 10
-20.1434
 20
53.835799999999999
 30
0.0
 11
-17.3033
 21
53.835799999999999
 31
0.0
  0
LINE
  5
14E
  8
_________1
 62
     7
 10
-17.3033
 20
50.5533
 30
0.0
 11
-20.189599999999999
 21
50.5533
 31
0.0
  0
LINE
  5
14F
  8
_________1
 62
     7
 10
-17.724299999999999
 20
53.63389999999999
 30
0.0
 11
-17.3033
 21
53.63389999999999
 31
0.0
  0
LINE
  5
150
  8
_________1
 62
     7
 10
-17.3033
 20
50.753100000000003
 30
0.0
 11
-17.724299999999999
 21
50.753100000000003
 31
0.0
  0
LINE
  5
151
  8
_________1
 62
     7
 10
11.131
 20
52.680300000000003
 30
0.0
 11
11.131
 21
51.680500000000002
 31
0.0
  0
ARC
  5
152
  8
_________1
 62
     7
 10
-19.287441000000001
 20
64.595528999999999
 30
0.0
 40
1.261822999999999
 50
152.32709700000001
 51
179.91834499999999
  0
ARC
  5
153
  8
_________1
 62
     7
 10
-18.835975999999999
 20
64.386065999999985
 30
0.0
 40
1.759093
 50
131.91711599999999
 51
153.11427900000001
  0
ARC
  5
154
  8
_________1
 62
     7
 10
-18.369475000000001
 20
63.919854999999998
 30
0.0
 40
2.4179169999999992
 50
98.762539000000004
 51
132.76248899999999
  0
ARC
  5
155
  8
_________1
 62
     7
 10
-30.892343
 20
64.176835999999994
 30
0.0
 40
2.1510910000000001
 50
60.907572999999992
 51
82.505166000000003
  0
ARC
  5
156
  8
_________1
 62
     7
 10
-30.972794
 20
63.952289
 30
0.0
 40
2.386741999999999
 50
41.049269000000002
 51
61.840916000000007
  0
ARC
  5
157
  8
_________1
 62
     7
 10
-30.480225000000001
 20
64.40934
 30
0.0
 40
1.7152559999999999
 50
19.774521
 51
40.340798999999997
  0
ARC
  5
158
  8
_________1
 62
     7
 10
-30.070523000000001
 20
64.583743999999996
 30
0.0
 40
1.270964999999999
 50
0.6123440000000001
 51
18.624493000000001
  0
LINE
  5
159
  8
_________1
 62
     7
 10
-23.156500000000001
 20
60.471099999999993
 30
0.0
 11
-23.156500000000001
 21
61.871200000000002
 31
0.0
  0
LINE
  5
15A
  8
_________1
 62
     7
 10
-26.156500000000001
 20
60.471099999999993
 30
0.0
 11
-26.156500000000001
 21
61.871200000000002
 31
0.0
  0
LINE
  5
15B
  8
_________1
  6
AIGENLINE001
 62
     7
 10
-24.656500000000001
 20
46.9559
 30
0.0
 11
-24.656500000000001
 21
67.778499999999994
 31
0.0
  0
ARC
  5
15C
  8
_________1
 62
     7
 10
-29.852546000000011
 20
59.057805000000002
 30
0.0
 40
0.526354
 50
180.58722700000001
 51
230.30881600000009
  0
ARC
  5
15D
  8
_________1
 62
     7
 10
-29.840112000000001
 20
59.032485000000001
 30
0.0
 40
0.5391280000000001
 50
92.118031000000002
 51
177.88193999999999
  0
ARC
  5
15E
  8
_________1
 62
     7
 10
-19.470970000000001
 20
59.034542999999999
 30
0.0
 40
0.537075
 50
1.9064700000000001
 51
87.864793999999989
  0
ARC
  5
15F
  8
_________1
 62
     7
 10
-19.458839999999999
 20
59.056429000000001
 30
0.0
 40
0.5246640000000001
 50
309.70405299999999
 51
359.56114300000002
  0
LINE
  5
160
  8
_________1
 62
     7
 10
-20.488600000000002
 20
56.908200000000001
 30
0.0
 11
-20.488600000000002
 21
54.180300000000003
 31
0.0
  0
ARC
  5
161
  8
_________1
 62
     7
 10
-29.704961000000001
 20
56.898252999999997
 30
0.0
 40
0.8812709999999999
 50
0.644705
 51
59.355098999999989
  0
ARC
  5
162
  8
_________1
 62
     7
 10
-19.607039999999991
 20
56.898037999999993
 30
0.0
 40
0.8816469999999999
 50
120.658624
 51
179.341533
  0
LINE
  5
163
  8
_________1
 62
     7
 10
-28.823699999999999
 20
50.381100000000004
 30
0.0
 11
-28.823699999999999
 21
56.908200000000001
 31
0.0
  0
LINE
  5
164
  8
_________1
 62
     7
 10
-17.724299999999999
 20
50.753100000000003
 30
0.0
 11
-18.072199999999999
 21
50.5533
 31
0.0
  0
LINE
  5
165
  8
_________1
 62
     7
 10
-20.895199999999999
 20
48.652299999999997
 30
0.0
 11
-20.895199999999999
 21
49.862200000000001
 31
0.0
  0
LINE
  5
166
  8
_________1
 62
     7
 10
-28.6508
 20
48.886600000000001
 30
0.0
 11
-20.6616
 21
48.886600000000001
 31
0.0
  0
LINE
  5
167
  8
_________1
 62
     7
 10
-18.631699999999999
 20
58.479100000000003
 30
0.0
 11
-20.0566
 21
57.656399999999998
 31
0.0
  0
LINE
  5
168
  8
_________1
 62
     7
 10
-18.631699999999999
 20
58.479100000000003
 30
0.0
 11
-18.631699999999999
 21
58.652799999999999
 31
0.0
  0
LINE
  5
169
  8
_________1
 62
     7
 10
-20.6616
 20
49.862200000000001
 30
0.0
 11
-28.6081
 21
49.862200000000001
 31
0.0
  0
LINE
  5
16A
  8
_________1
 62
     7
 10
-20.704999999999998
 20
49.862200000000001
 30
0.0
 11
-20.704999999999998
 21
50.381100000000004
 31
0.0
  0
LINE
  5
16B
  8
_________1
 62
     7
 10
-28.6081
 20
49.862200000000001
 30
0.0
 11
-28.6081
 21
50.381100000000004
 31
0.0
  0
LINE
  5
16C
  8
_________1
 62
     7
 10
-28.6508
 20
48.886600000000001
 30
0.0
 11
-28.416499999999999
 21
48.652299999999997
 31
0.0
  0
LINE
  5
16D
  8
_________1
 62
     7
 10
-20.6616
 20
48.886600000000001
 30
0.0
 11
-20.895199999999999
 21
48.652299999999997
 31
0.0
  0
LINE
  5
16E
  8
_________1
 62
     7
 10
-20.6616
 20
49.862200000000001
 30
0.0
 11
-20.6616
 21
48.886600000000001
 31
0.0
  0
LINE
  5
16F
  8
_________1
 62
     7
 10
-28.6508
 20
48.886600000000001
 30
0.0
 11
-28.6508
 21
49.862200000000001
 31
0.0
  0
LINE
  5
170
  8
_________1
 62
     7
 10
-20.895199999999999
 20
48.652299999999997
 30
0.0
 11
-28.416499999999999
 21
48.652299999999997
 31
0.0
  0
LINE
  5
171
  8
_________1
 62
     7
 10
-30.680700000000002
 20
58.479100000000003
 30
0.0
 11
-29.255800000000001
 21
57.656399999999998
 31
0.0
  0
LINE
  5
172
  8
_________1
 62
     7
 10
-30.680700000000002
 20
58.479100000000003
 30
0.0
 11
-30.680700000000002
 21
58.652799999999999
 31
0.0
  0
LINE
  5
173
  8
_________1
 62
     7
 10
11.3026
 20
51.8521
 30
0.0
 11
11.131
 21
51.680500000000002
 31
0.0
  0
LINE
  5
174
  8
_________1
 62
     7
 10
11.131
 20
52.680300000000003
 30
0.0
 11
11.3026
 21
52.506
 31
0.0
  0
LINE
  5
175
  8
_________1
 62
     7
 10
11.3026
 20
51.8521
 30
0.0
 11
11.3026
 21
52.506
 31
0.0
  0
LINE
  5
176
  8
_________1
 62
     7
 10
-28.416499999999999
 20
48.652299999999997
 30
0.0
 11
-28.416499999999999
 21
49.862200000000001
 31
0.0
  0
LINE
  5
177
  8
_________1
 62
     7
 10
-25.656300000000002
 20
62.371400000000001
 30
0.0
 11
-23.656400000000001
 21
62.371400000000001
 31
0.0
  0
LINE
  5
178
  8
_________1
 62
     7
 10
-25.656300000000002
 20
59.971600000000002
 30
0.0
 11
-23.656400000000001
 21
59.971600000000002
 31
0.0
  0
LINE
  5
179
  8
_________1
 62
     7
 10
-29.859999999999999
 20
59.57119999999999
 30
0.0
 11
-19.451000000000001
 21
59.57119999999999
 31
0.0
  0
LINE
  5
17A
  8
_________1
 62
     7
 10
-17.724299999999999
 20
50.5533
 30
0.0
 11
-17.724299999999999
 21
53.835799999999999
 31
0.0
  0
LINE
  5
17B
  8
_________1
 62
     7
 10
-18.072199999999999
 20
53.835799999999999
 30
0.0
 11
-17.724299999999999
 21
53.63389999999999
 31
0.0
  0
LINE
  5
17C
  8
_________1
 62
     7
 10
-16.612200000000001
 20
54.136200000000002
 30
0.0
 11
-17.217099999999999
 21
54.136200000000002
 31
0.0
  0
ENDBLK
  5
17D
  8
_________1
  0
BLOCK
  8
____
  2
AIGNBL01010002
 70
     0
 10
0.0
 20
0.0
 30
0.0
  3
AIGNBL01010002
  1

  0
LINE
  5
180
  8
____
 62
     7
 10
-22.4358
 20
238.84200000000001
 30
0.0
 11
-24.656500000000001
 21
239.39500000000001
 31
0.0
  0
LINE
  5
181
  8
____
 62
     7
 10
-24.656500000000001
 20
239.39500000000001
 30
0.0
 11
-22.456499999999998
 21
240.02600000000001
 31
0.0
  0
LINE
  5
182
  8
____
 62
     7
 10
-22.456499999999998
 20
240.02600000000001
 30
0.0
 11
-22.4358
 21
238.84200000000001
 31
0.0
  0
LINE
  5
183
  8
____
 62
     7
 10
-9.7715599999999991
 20
246.99000000000001
 30
0.0
 11
-7.9573600000000004
 21
248.38499999999999
 31
0.0
  0
LINE
  5
184
  8
____
 62
     7
 10
-7.9573600000000004
 20
248.38499999999999
 30
0.0
 11
-8.8310399999999998
 21
246.27000000000001
 31
0.0
  0
LINE
  5
185
  8
____
 62
     7
 10
-8.8310399999999998
 20
246.27000000000001
 30
0.0
 11
-9.7715599999999991
 21
246.99000000000001
 31
0.0
  0
ARC
  5
186
  8
____
 62
     7
 10
-24.851275000000001
 20
259.761843
 30
0.0
 40
20.367432000000001
 50
270.54784999999998
 51
326.04303099999998
  0
ENDBLK
  5
187
  8
____
  0
BLOCK
  8
____
  2
AIGNBL01010003
 70
     0
 10
0.0
 20
0.0
 30
0.0
  3
AIGNBL01010003
  1

  0
LINE
  5
18A
  8
____
 62
     7
 10
-26.877300000000002
 20
238.84200000000001
 30
0.0
 11
-24.656500000000001
 21
239.39500000000001
 31
0.0
  0
LINE
  5
18B
  8
____
 62
     7
 10
-24.656500000000001
 20
239.39500000000001
 30
0.0
 11
-26.8566
 21
240.02600000000001
 31
0.0
  0
LINE
  5
18C
  8
____
 62
     7
 10
-26.8566
 20
240.02600000000001
 30
0.0
 11
-26.877300000000002
 21
238.84200000000001
 31
0.0
  0
LINE
  5
18D
  8
____
 62
     7
 10
-39.541499999999999
 20
246.99000000000001
 30
0.0
 11
-41.355699999999999
 21
248.38499999999999
 31
0.0
  0
LINE
  5
18E
  8
____
 62
     7
 10
-41.355699999999999
 20
248.38499999999999
 30
0.0
 11
-40.481999999999999
 21
246.27000000000001
 31
0.0
  0
LINE
  5
18F
  8
____
 62
     7
 10
-40.481999999999999
 20
246.27000000000001
 30
0.0
 11
-39.541499999999999
 21
246.99000000000001
 31
0.0
  0
ARC
  5
190
  8
____
 62
     7
 10
-24.461794999999999
 20
259.76183400000002
 30
0.0
 40
20.367422999999999
 50
213.956974
 51
269.4521840000001
  0
ENDBLK
  5
191
  8
____
  0
BLOCK
  8
_________1
  2
AIGNBL02010002
 70
     0
 10
0.0
 20
0.0
 30
0.0
  3
AIGNBL02010002
  1

  0
LINE
  5
194
  8
_________1
  6
AIGENLINE002
 62
     7
 10
-39.354799999999997
 20
255.97999999999999
 30
0.0
 11
-26.389399999999998
 21
266.85899999999998
 31
0.0
  0
ARC
  5
195
  8
_________1
  6
AIGENLINE002
 62
     7
 10
-38.475816000000002
 20
255.029841
 30
0.0
 40
1.2944649999999991
 50
132.76690300000001
 51
217.93879999999999
  0
LINE
  5
196
  8
_________1
  6
AIGENLINE002
 62
     7
 10
-39.496699999999997
 20
254.23400000000001
 30
0.0
 11
-35.3309
 21
249.26900000000001
 31
0.0
  0
ARC
  5
197
  8
_________1
  6
AIGENLINE002
 62
     7
 10
-34.369666000000002
 20
250.136402
 30
0.0
 40
1.294581999999999
 50
222.055823
 51
307.238156
  0
LINE
  5
198
  8
_________1
  6
AIGENLINE002
 62
     7
 10
-33.586300000000001
 20
249.10599999999999
 30
0.0
 11
-24.656500000000001
 21
256.59899999999999
 31
0.0
  0
LINE
  5
199
  8
_________1
  6
AIGENLINE001
 62
     7
 10
-24.639299999999999
 20
262.45600000000002
 30
0.0
 11
-42.764099999999999
 21
247.20099999999999
 31
0.0
  0
ENDBLK
  5
19A
  8
_________1
  0
BLOCK
  8
_________1
  2
AIGNBL02010003
 70
     0
 10
0.0
 20
0.0
 30
0.0
  3
AIGNBL02010003
  1

  0
LINE
  5
19D
  8
_________1
  6
AIGENLINE002
 62
     7
 10
-9.9541500000000003
 20
255.97999999999999
 30
0.0
 11
-22.919499999999999
 21
266.85899999999998
 31
0.0
  0
ARC
  5
19E
  8
_________1
  6
AIGENLINE002
 62
     7
 10
-10.833614000000001
 20
255.030002
 30
0.0
 40
1.294686
 50
322.05981600000001
 51
47.212021000000007
  0
LINE
  5
19F
  8
_________1
  6
AIGENLINE002
 62
     7
 10
-9.8125600000000013
 20
254.23400000000001
 30
0.0
 11
-13.978
 21
249.26900000000001
 31
0.0
  0
ARC
  5
1A0
  8
_________1
  6
AIGENLINE002
 62
     7
 10
-14.939342999999999
 20
250.13724500000001
 30
0.0
 40
1.295205999999999
 50
232.78722300000001
 51
317.91883799999999
  0
LINE
  5
1A1
  8
_________1
  6
AIGENLINE002
 62
     7
 10
-15.7227
 20
249.10599999999999
 30
0.0
 11
-24.6572
 21
256.60199999999998
 31
0.0
  0
LINE
  5
1A2
  8
_________1
  6
AIGENLINE001
 62
     7
 10
-24.639299999999999
 20
262.45600000000002
 30
0.0
 11
-6.4911199999999987
 21
247.20099999999999
 31
0.0
  0
ENDBLK
  5
1A3
  8
_________1
  0
BLOCK
  8
_________1
  2
AIGNBL02010004
 70
     0
 10
0.0
 20
0.0
 30
0.0
  3
AIGNBL02010004
  1

  0
LINE
  5
1A6
  8
_________1
 62
     7
 10
53.453200000000002
 20
257.37900000000002
 30
0.0
 11
54.597700000000003
 21
259.36200000000002
 31
0.0
  0
LINE
  5
1A7
  8
_________1
 62
     7
 10
54.597700000000003
 20
259.36200000000002
 30
0.0
 11
52.614699999999999
 21
258.21699999999998
 31
0.0
  0
LINE
  5
1A8
  8
_________1
 62
     7
 10
52.614699999999999
 20
258.21699999999998
 30
0.0
 11
53.453200000000002
 21
257.37900000000002
 31
0.0
  0
LINE
  5
1A9
  8
_________1
 62
     7
 10
61.930300000000003
 20
267.53199999999998
 30
0.0
 11
60.7851
 21
265.54899999999998
 31
0.0
  0
LINE
  5
1AA
  8
_________1
 62
     7
 10
60.7851
 20
265.54899999999998
 30
0.0
 11
62.768099999999997
 21
266.69400000000002
 31
0.0
  0
LINE
  5
1AB
  8
_________1
 62
     7
 10
62.768099999999997
 20
266.69400000000002
 30
0.0
 11
61.930300000000003
 21
267.53199999999998
 31
0.0
  0
LINE
  5
1AC
  8
_________1
 62
     7
 10
64.804199999999994
 20
269.56799999999998
 30
0.0
 11
50.618600000000001
 21
255.38300000000001
 31
0.0
  0
ENDBLK
  5
1AD
  8
_________1
  0
BLOCK
  8
_________1
  2
AIGNBL02010005
 70
     0
 10
0.0
 20
0.0
 30
0.0
  3
AIGNBL02010005
  1

  0
LINE
  5
1B0
  8
_________1
 62
     7
 10
52.403199999999998
 20
180.459
 30
0.0
 11
50.191400000000002
 21
179.86699999999999
 31
0.0
  0
LINE
  5
1B1
  8
_________1
 62
     7
 10
50.191400000000002
 20
179.86699999999999
 30
0.0
 11
52.403199999999998
 21
179.274
 31
0.0
  0
LINE
  5
1B2
  8
_________1
 62
     7
 10
52.403199999999998
 20
179.274
 30
0.0
 11
52.403199999999998
 21
180.459
 31
0.0
  0
LINE
  5
1B3
  8
_________1
 62
     7
 10
62.979700000000001
 20
179.28899999999999
 30
0.0
 11
65.191400000000002
 21
179.881
 31
0.0
  0
LINE
  5
1B4
  8
_________1
 62
     7
 10
65.191400000000002
 20
179.881
 30
0.0
 11
62.979700000000001
 21
180.47399999999999
 31
0.0
  0
LINE
  5
1B5
  8
_________1
 62
     7
 10
62.979700000000001
 20
180.47399999999999
 30
0.0
 11
62.979700000000001
 21
179.28899999999999
 31
0.0
  0
LINE
  5
1B6
  8
_________1
 62
     7
 10
50.191400000000002
 20
179.86699999999999
 30
0.0
 11
65.191400000000002
 21
179.86699999999999
 31
0.0
  0
ENDBLK
  5
1B7
  8
_________1
  0
BLOCK
  8
_________1
  2
AIGNBL02010006
 70
     0
 10
0.0
 20
0.0
 30
0.0
  3
AIGNBL02010006
  1

  0
LINE
  5
1BA
  8
_________1
 62
     7
 10
55.479700000000001
 20
191.07300000000001
 30
0.0
 11
57.691400000000002
 21
191.66499999999999
 31
0.0
  0
LINE
  5
1BB
  8
_________1
 62
     7
 10
57.691400000000002
 20
191.66499999999999
 30
0.0
 11
55.479700000000001
 21
192.25800000000001
 31
0.0
  0
LINE
  5
1BC
  8
_________1
 62
     7
 10
55.479700000000001
 20
192.25800000000001
 30
0.0
 11
55.479700000000001
 21
191.07300000000001
 31
0.0
  0
LINE
  5
1BD
  8
_________1
 62
     7
 10
29.9024
 20
192.244
 30
0.0
 11
27.691299999999998
 21
191.65100000000001
 31
0.0
  0
LINE
  5
1BE
  8
_________1
 62
     7
 10
27.691299999999998
 20
191.65100000000001
 30
0.0
 11
29.9024
 21
191.05799999999999
 31
0.0
  0
LINE
  5
1BF
  8
_________1
 62
     7
 10
29.9024
 20
191.05799999999999
 30
0.0
 11
29.9024
 21
192.244
 31
0.0
  0
LINE
  5
1C0
  8
_________1
 62
     7
 10
57.691400000000002
 20
191.66499999999999
 30
0.0
 11
27.691299999999998
 21
191.66499999999999
 31
0.0
  0
ENDBLK
  5
1C1
  8
_________1
  0
BLOCK
  8
_________1
  2
AIGNBL02010007
 70
     0
 10
0.0
 20
0.0
 30
0.0
  3
AIGNBL02010007
  1

  0
LINE
  5
1C4
  8
_________1
 62
     7
 10
75.4572
 20
182.95699999999999
 30
0.0
 11
74.864599999999996
 21
185.16800000000001
 31
0.0
  0
LINE
  5
1C5
  8
_________1
 62
     7
 10
74.864599999999996
 20
185.16800000000001
 30
0.0
 11
74.272099999999995
 21
182.95699999999999
 31
0.0
  0
LINE
  5
1C6
  8
_________1
 62
     7
 10
74.272099999999995
 20
182.95699999999999
 30
0.0
 11
75.4572
 21
182.95699999999999
 31
0.0
  0
LINE
  5
1C7
  8
_________1
 62
     7
 10
74.321700000000007
 20
174.18799999999999
 30
0.0
 11
74.914199999999994
 21
171.977
 31
0.0
  0
LINE
  5
1C8
  8
_________1
 62
     7
 10
74.914199999999994
 20
171.977
 30
0.0
 11
75.506799999999984
 21
174.18799999999999
 31
0.0
  0
LINE
  5
1C9
  8
_________1
 62
     7
 10
75.506799999999984
 20
174.18799999999999
 30
0.0
 11
74.321700000000007
 21
174.18799999999999
 31
0.0
  0
LINE
  5
1CA
  8
_________1
 62
     7
 10
74.864599999999996
 20
185.16800000000001
 30
0.0
 11
74.899799999999999
 21
171.977
 31
0.0
  0
ENDBLK
  5
1CB
  8
_________1
  0
BLOCK
  8
_________1
  2
AIGNBL02010008
 70
     0
 10
0.0
 20
0.0
 30
0.0
  3
AIGNBL02010008
  1

  0
LINE
  5
1CE
  8
_________1
 62
     7
 10
59.980400000000003
 20
173.71000000000001
 30
0.0
 11
62.191400000000002
 21
174.30199999999999
 31
0.0
  0
LINE
  5
1CF
  8
_________1
 62
     7
 10
62.191400000000002
 20
174.30199999999999
 30
0.0
 11
59.980400000000003
 21
174.89500000000001
 31
0.0
  0
LINE
  5
1D0
  8
_________1
 62
     7
 10
59.980400000000003
 20
174.89500000000001
 30
0.0
 11
59.980400000000003
 21
173.71000000000001
 31
0.0
  0
LINE
  5
1D1
  8
_________1
 62
     7
 10
55.403199999999998
 20
174.88
 30
0.0
 11
53.191400000000002
 21
174.2879999999999
 31
0.0
  0
LINE
  5
1D2
  8
_________1
 62
     7
 10
53.191400000000002
 20
174.2879999999999
 30
0.0
 11
55.403199999999998
 21
173.69499999999999
 31
0.0
  0
LINE
  5
1D3
  8
_________1
 62
     7
 10
55.403199999999998
 20
173.69499999999999
 30
0.0
 11
55.403199999999998
 21
174.88
 31
0.0
  0
LINE
  5
1D4
  8
_________1
 62
     7
 10
62.191400000000002
 20
174.2879999999999
 30
0.0
 11
53.191400000000002
 21
174.2879999999999
 31
0.0
  0
ENDBLK
  5
1D5
  8
_________1
  0
BLOCK
  8
_________1
  2
AIGNBL02010009
 70
     0
 10
0.0
 20
0.0
 30
0.0
  3
AIGNBL02010009
  1

  0
LINE
  5
1D8
  8
_________1
 62
     7
 10
65.234800000000007
 20
186.88
 30
0.0
 11
67.446600000000004
 21
187.47200000000001
 31
0.0
  0
LINE
  5
1D9
  8
_________1
 62
     7
 10
67.446600000000004
 20
187.47200000000001
 30
0.0
 11
65.234800000000007
 21
188.065
 31
0.0
  0
LINE
  5
1DA
  8
_________1
 62
     7
 10
65.234800000000007
 20
188.065
 30
0.0
 11
65.234800000000007
 21
186.88
 31
0.0
  0
LINE
  5
1DB
  8
_________1
 62
     7
 10
64.403199999999984
 20
188.05000000000001
 30
0.0
 11
62.191400000000002
 21
187.458
 31
0.0
  0
LINE
  5
1DC
  8
_________1
 62
     7
 10
62.191400000000002
 20
187.458
 30
0.0
 11
64.403199999999984
 21
186.86500000000001
 31
0.0
  0
LINE
  5
1DD
  8
_________1
 62
     7
 10
64.403199999999984
 20
186.86500000000001
 30
0.0
 11
64.403199999999984
 21
188.05000000000001
 31
0.0
  0
LINE
  5
1DE
  8
_________1
 62
     7
 10
76.208200000000005
 20
187.458
 30
0.0
 11
62.191400000000002
 21
187.458
 31
0.0
  0
ENDBLK
  5
1DF
  8
_________1
  0
BLOCK
  8
_________1
  2
AIGNBL0201000A
 70
     0
 10
0.0
 20
0.0
 30
0.0
  3
AIGNBL0201000A
  1

  0
LINE
  5
1E2
  8
_________1
 62
     7
 10
81.563299999999998
 20
169.76499999999999
 30
0.0
 11
80.970799999999997
 21
171.977
 31
0.0
  0
LINE
  5
1E3
  8
_________1
 62
     7
 10
80.970799999999997
 20
171.977
 30
0.0
 11
80.378200000000007
 21
169.76499999999999
 31
0.0
  0
LINE
  5
1E4
  8
_________1
 62
     7
 10
80.378200000000007
 20
169.76499999999999
 30
0.0
 11
81.563299999999998
 21
169.76499999999999
 31
0.0
  0
LINE
  5
1E5
  8
_________1
 62
     7
 10
80.392700000000005
 20
83.429000000000002
 30
0.0
 11
80.985200000000006
 21
81.218000000000004
 31
0.0
  0
LINE
  5
1E6
  8
_________1
 62
     7
 10
80.985200000000006
 20
81.218000000000004
 30
0.0
 11
81.577799999999996
 21
83.429000000000002
 31
0.0
  0
LINE
  5
1E7
  8
_________1
 62
     7
 10
81.577799999999996
 20
83.429000000000002
 30
0.0
 11
80.392700000000005
 21
83.429000000000002
 31
0.0
  0
LINE
  5
1E8
  8
_________1
 62
     7
 10
80.970799999999997
 20
171.977
 30
0.0
 11
80.970799999999997
 21
81.218000000000004
 31
0.0
  0
ENDBLK
  5
1E9
  8
_________1
  0
BLOCK
  8
_________1
  2
AIGNBL0201000B
 70
     0
 10
0.0
 20
0.0
 30
0.0
  3
AIGNBL0201000B
  1

  0
LINE
  5
1EC
  8
_________1
 62
     7
 10
89.695899999999995
 20
219.721
 30
0.0
 11
89.103300000000004
 21
221.93299999999999
 31
0.0
  0
LINE
  5
1ED
  8
_________1
 62
     7
 10
89.103300000000004
 20
221.93299999999999
 30
0.0
 11
88.510699999999986
 21
219.721
 31
0.0
  0
LINE
  5
1EE
  8
_________1
 62
     7
 10
88.510699999999986
 20
219.721
 30
0.0
 11
89.695899999999995
 21
219.721
 31
0.0
  0
LINE
  5
1EF
  8
_________1
 62
     7
 10
88.525199999999998
 20
174.18799999999999
 30
0.0
 11
89.117800000000003
 21
171.977
 31
0.0
  0
LINE
  5
1F0
  8
_________1
 62
     7
 10
89.117800000000003
 20
171.977
 30
0.0
 11
89.710300000000004
 21
174.18799999999999
 31
0.0
  0
LINE
  5
1F1
  8
_________1
 62
     7
 10
89.710300000000004
 20
174.18799999999999
 30
0.0
 11
88.525199999999998
 21
174.18799999999999
 31
0.0
  0
LINE
  5
1F2
  8
_________1
 62
     7
 10
89.103300000000004
 20
221.93299999999999
 30
0.0
 11
89.103300000000004
 21
171.977
 31
0.0
  0
ENDBLK
  5
1F3
  8
_________1
  0
BLOCK
  8
_________1
  2
AIGNBL0201000C
 70
     0
 10
0.0
 20
0.0
 30
0.0
  3
AIGNBL0201000C
  1

  0
LINE
  5
1F6
  8
_________1
 62
     7
 10
81.548899999999989
 20
213.26499999999999
 30
0.0
 11
80.956299999999985
 21
215.477
 31
0.0
  0
LINE
  5
1F7
  8
_________1
 62
     7
 10
80.956299999999985
 20
215.477
 30
0.0
 11
80.363699999999994
 21
213.26499999999999
 31
0.0
  0
LINE
  5
1F8
  8
_________1
 62
     7
 10
80.363699999999994
 20
213.26499999999999
 30
0.0
 11
81.548899999999989
 21
213.26499999999999
 31
0.0
  0
LINE
  5
1F9
  8
_________1
 62
     7
 10
80.378200000000007
 20
174.18799999999999
 30
0.0
 11
80.970799999999997
 21
171.977
 31
0.0
  0
LINE
  5
1FA
  8
_________1
 62
     7
 10
80.970799999999997
 20
171.977
 30
0.0
 11
81.563299999999998
 21
174.18799999999999
 31
0.0
  0
LINE
  5
1FB
  8
_________1
 62
     7
 10
81.563299999999998
 20
174.18799999999999
 30
0.0
 11
80.378200000000007
 21
174.18799999999999
 31
0.0
  0
LINE
  5
1FC
  8
_________1
 62
     7
 10
80.956299999999985
 20
215.477
 30
0.0
 11
80.956299999999985
 21
171.977
 31
0.0
  0
ENDBLK
  5
1FD
  8
_________1
  0
BLOCK
  8
_________1
  2
AIGNBL0201000D
 70
     0
 10
0.0
 20
0.0
 30
0.0
  3
AIGNBL0201000D
  1

  0
LINE
  5
200
  8
_________1
 62
     7
 10
19.483000000000001
 20
169.76499999999999
 30
0.0
 11
18.8904
 21
171.977
 31
0.0
  0
LINE
  5
201
  8
_________1
 62
     7
 10
18.8904
 20
171.977
 30
0.0
 11
18.297899999999998
 21
169.76499999999999
 31
0.0
  0
LINE
  5
202
  8
_________1
 62
     7
 10
18.297899999999998
 20
169.76499999999999
 30
0.0
 11
19.483000000000001
 21
169.76499999999999
 31
0.0
  0
LINE
  5
203
  8
_________1
 62
     7
 10
18.3123
 20
107.417
 30
0.0
 11
18.904900000000001
 21
105.206
 31
0.0
  0
LINE
  5
204
  8
_________1
 62
     7
 10
18.904900000000001
 20
105.206
 30
0.0
 11
19.497499999999999
 21
107.417
 31
0.0
  0
LINE
  5
205
  8
_________1
 62
     7
 10
19.497499999999999
 20
107.417
 30
0.0
 11
18.3123
 21
107.417
 31
0.0
  0
LINE
  5
206
  8
_________1
 62
     7
 10
18.8904
 20
171.977
 30
0.0
 11
18.8904
 21
105.206
 31
0.0
  0
ENDBLK
  5
207
  8
_________1
  0
BLOCK
  8
_________1
  2
AIGNBL0201000E
 70
     0
 10
0.0
 20
0.0
 30
0.0
  3
AIGNBL0201000E
  1

  0
LINE
  5
20A
  8
_________1
 62
     7
 10
19.483000000000001
 20
199.26499999999999
 30
0.0
 11
18.8904
 21
201.477
 31
0.0
  0
LINE
  5
20B
  8
_________1
 62
     7
 10
18.8904
 20
201.477
 30
0.0
 11
18.297899999999998
 21
199.26499999999999
 31
0.0
  0
LINE
  5
20C
  8
_________1
 62
     7
 10
18.297899999999998
 20
199.26499999999999
 30
0.0
 11
19.483000000000001
 21
199.26499999999999
 31
0.0
  0
LINE
  5
20D
  8
_________1
 62
     7
 10
18.3123
 20
174.18799999999999
 30
0.0
 11
18.904900000000001
 21
171.977
 31
0.0
  0
LINE
  5
20E
  8
_________1
 62
     7
 10
18.904900000000001
 20
171.977
 30
0.0
 11
19.497499999999999
 21
174.18799999999999
 31
0.0
  0
LINE
  5
20F
  8
_________1
 62
     7
 10
19.497499999999999
 20
174.18799999999999
 30
0.0
 11
18.3123
 21
174.18799999999999
 31
0.0
  0
LINE
  5
210
  8
_________1
 62
     7
 10
18.8904
 20
201.477
 30
0.0
 11
18.8904
 21
171.977
 31
0.0
  0
ENDBLK
  5
211
  8
_________1
  0
BLOCK
  8
_________1
  2
AIGNBL0201000F
 70
     0
 10
0.0
 20
0.0
 30
0.0
  3
AIGNBL0201000F
  1

  0
LINE
  5
214
  8
_________1
 62
     7
 10
54.855400000000003
 20
134.554
 30
0.0
 11
57.066499999999991
 21
135.14599999999999
 31
0.0
  0
LINE
  5
215
  8
_________1
 62
     7
 10
57.066499999999991
 20
135.14599999999999
 30
0.0
 11
54.855400000000003
 21
135.739
 31
0.0
  0
LINE
  5
216
  8
_________1
 62
     7
 10
54.855400000000003
 20
135.739
 30
0.0
 11
54.855400000000003
 21
134.554
 31
0.0
  0
LINE
  5
217
  8
_________1
 62
     7
 10
60.528100000000002
 20
135.72499999999999
 30
0.0
 11
58.316400000000002
 21
135.13200000000001
 31
0.0
  0
LINE
  5
218
  8
_________1
 62
     7
 10
58.316400000000002
 20
135.13200000000001
 30
0.0
 11
60.528100000000002
 21
134.53899999999999
 31
0.0
  0
LINE
  5
219
  8
_________1
 62
     7
 10
60.528100000000002
 20
134.53899999999999
 30
0.0
 11
60.528100000000002
 21
135.72499999999999
 31
0.0
  0
LINE
  5
21A
  8
_________1
 62
     7
 10
64.965400000000002
 20
135.13200000000001
 30
0.0
 11
52.545099999999991
 21
135.13200000000001
 31
0.0
  0
ENDBLK
  5
21B
  8
_________1
  0
BLOCK
  8
_________1
  2
AIGNBL02010010
 70
     0
 10
0.0
 20
0.0
 30
0.0
  3
AIGNBL02010010
  1

  0
INSERT
  5
21E
  8
_________1
 62
     7
  2
AIGNBL02020011
 10
0.0
 20
0.0
 30
0.0
  0
ENDBLK
  5
21F
  8
_________1
  0
BLOCK
  8
_________1
  2
AIGNBL02010012
 70
     0
 10
0.0
 20
0.0
 30
0.0
  3
AIGNBL02010012
  1

  0
INSERT
  5
222
  8
_________1
 62
     7
  2
AIGNBL02020013
 10
0.0
 20
0.0
 30
0.0
  0
ENDBLK
  5
223
  8
_________1
  0
BLOCK
  8
_________2
  2
AIGNBL03010002
 70
     0
 10
0.0
 20
0.0
 30
0.0
  3
AIGNBL03010002
  1

  0
LINE
  5
226
  8
_________2
 62
     7
 10
186.649
 20
51.052199999999999
 30
0.0
 11
184.46299999999999
 21
51.052199999999999
 31
0.0
  0
LINE
  5
227
  8
_________2
 62
     7
 10
187.142
 20
51.052199999999999
 30
0.0
 11
186.88900000000001
 21
51.052199999999999
 31
0.0
  0
LINE
  5
228
  8
_________2
 62
     7
 10
187.63399999999999
 20
51.052199999999999
 30
0.0
 11
190.559
 21
51.052199999999999
 31
0.0
  0
LINE
  5
229
  8
_________2
 62
     7
 10
187.142
 20
51.052199999999999
 30
0.0
 11
187.39400000000001
 21
51.052199999999999
 31
0.0
  0
LINE
  5
22A
  8
_________2
 62
     7
 10
180.745
 20
51.052199999999999
 30
0.0
 11
178.55799999999999
 21
51.052199999999999
 31
0.0
  0
LINE
  5
22B
  8
_________2
 62
     7
 10
181.23699999999999
 20
51.052199999999999
 30
0.0
 11
180.98599999999999
 21
51.052199999999999
 31
0.0
  0
LINE
  5
22C
  8
_________2
 62
     7
 10
181.23699999999999
 20
51.544800000000002
 30
0.0
 11
181.23699999999999
 21
53.7318
 31
0.0
  0
LINE
  5
22D
  8
_________2
 62
     7
 10
181.23699999999999
 20
51.052199999999999
 30
0.0
 11
181.23699999999999
 21
51.304299999999998
 31
0.0
  0
LINE
  5
22E
  8
_________2
 62
     7
 10
181.72999999999999
 20
51.052199999999999
 30
0.0
 11
183.917
 21
51.052199999999999
 31
0.0
  0
LINE
  5
22F
  8
_________2
 62
     7
 10
181.23699999999999
 20
51.052199999999999
 30
0.0
 11
181.489
 21
51.052199999999999
 31
0.0
  0
LINE
  5
230
  8
_________2
 62
     7
 10
181.23699999999999
 20
50.560200000000002
 30
0.0
 11
181.23699999999999
 21
48.373199999999997
 31
0.0
  0
LINE
  5
231
  8
_________2
 62
     7
 10
181.23699999999999
 20
51.052199999999999
 30
0.0
 11
181.23699999999999
 21
50.800699999999999
 31
0.0
  0
LINE
  5
232
  8
_________2
 62
     7
 10
184.94799999999989
 20
49.832599999999999
 30
0.0
 11
190.12599999999989
 21
48.9679
 31
0.0
  0
LINE
  5
233
  8
_________2
 62
     7
 10
184.94799999999989
 20
52.271700000000003
 30
0.0
 11
190.12599999999989
 21
53.137099999999997
 31
0.0
  0
LINE
  5
234
  8
_________2
 62
     7
 10
190.12599999999989
 20
48.9679
 30
0.0
 11
190.12599999999989
 21
53.137099999999997
 31
0.0
  0
LINE
  5
235
  8
_________2
 62
     7
 10
184.94799999999989
 20
49.832599999999999
 30
0.0
 11
184.94799999999989
 21
52.271700000000003
 31
0.0
  0
ARC
  5
236
  8
_________2
 62
     7
 10
181.190651
 20
51.004810999999989
 30
0.0
 40
1.2677780000000001
 50
2.1403449999999991
 51
87.892005999999995
  0
ARC
  5
237
  8
_________2
 62
     7
 10
181.28420199999999
 20
51.005241999999988
 30
0.0
 40
1.2673579999999991
 50
92.121564999999975
 51
177.87840600000001
  0
ARC
  5
238
  8
_________2
 62
     7
 10
181.28381400000001
 20
51.098689
 30
0.0
 40
1.2669559999999991
 50
182.10473099999999
 51
267.89529900000002
  0
ARC
  5
239
  8
_________2
 62
     7
 10
181.19038399999999
 20
51.099775000000001
 30
0.0
 40
1.268054
 50
272.11960599999998
 51
357.84804300000002
  0
ARC
  5
23A
  8
_________2
 62
     7
 10
181.23728399999999
 20
51.05215900000001
 30
0.0
 40
2.0849849999999992
 50
0.00001
 51
89.999980000000008
  0
ARC
  5
23B
  8
_________2
 62
     7
 10
181.317331
 20
50.972827000000002
 30
0.0
 40
2.1657969999999991
 50
92.118111999999996
 51
177.90079600000001
  0
ARC
  5
23C
  8
_________2
 62
     7
 10
181.31728799999999
 20
51.132162999999998
 30
0.0
 40
2.1657779999999991
 50
182.11700400000001
 51
267.88302499999998
  0
ARC
  5
23D
  8
_________2
 62
     7
 10
181.15730300000001
 20
51.132855999999997
 30
0.0
 40
2.166469999999999
 50
272.115725
 51
357.86534699999999
  0
ENDBLK
  5
23E
  8
_________2
  0
ENDSEC
  0
SECTION
  2
ENTITIES
  0
TEXT
  5
23F
  8
____
 62
     7
 10
-33.99351750000001
 20
243.559
 30
0.0
 40
3.0923400000000001
  1
50%%d
 41
0.5
 72
     1
 11
-32.3185
 21
243.559
 31
0.0
  0
TEXT
  5
240
  8
____
 62
     7
 10
-14.915117499999999
 20
243.559
 30
0.0
 40
3.0923400000000001
  1
50%%d
 41
0.5
 72
     1
 11
-13.2401
 21
243.559
 31
0.0
  0
INSERT
  5
241
  8
____
 62
     7
  2
AIGNBL01010002
 10
0.0
 20
0.0
 30
0.0
  0
INSERT
  5
242
  8
____
 62
     7
  2
AIGNBL01010003
 10
0.0
 20
0.0
 30
0.0
  0
TEXT
  5
243
  8
____
 62
     7
 10
41.016382499999992
 20
192.40799999999999
 30
0.0
 40
3.0923400000000001
  1
120
 41
0.5
 72
     1
 11
42.691400000000002
 21
192.40799999999999
 31
0.0
  0
TEXT
  5
244
  8
____
 62
     7
 10
74.181799999999996
 20
174.83642249999991
 30
0.0
 40
3.0923400000000001
  1
max.70
 50
90.0
 41
0.5
 72
     1
 11
74.181799999999996
 21
178.57300000000001
 31
0.0
  0
TEXT
  5
245
  8
____
 62
     7
 10
66.351780000000005
 20
270.428
 30
0.0
 40
3.0923400000000001
  1
%%c35
 41
0.5
 72
     2
 11
70.474900000000005
 21
270.428
 31
0.0
  0
TEXT
  5
246
  8
____
 62
     7
 10
-9.1259475000000005
 20
36.000399999999999
 30
0.0
 40
3.0923400000000001
  1
180
 41
0.5
 72
     1
 11
-7.4509299999999996
 21
36.000399999999999
 31
0.0
  0
TEXT
  5
247
  8
____
 62
     7
 10
-8.9881399999999996
 20
56.039950000000012
 30
0.0
 40
3.0923400000000001
  1
%%c5
 50
90.0
 41
0.5
 72
     2
 11
-8.9881399999999996
 21
58.616900000000001
 31
0.0
  0
TEXT
  5
248
  8
____
 62
     7
 10
-19.216982000000002
 20
43.334400000000002
 30
0.0
 40
3.0923400000000001
  1
G1 1/4
 41
0.5
 72
     2
 11
-12.1046
 21
43.334400000000002
 31
0.0
  0
TEXT
  5
249
  8
____
 62
     7
 10
-35.589300000000001
 20
51.86937249999999
 30
0.0
 40
3.0923400000000001
  1
50
 50
90.0
 41
0.5
 72
     1
 11
-35.589300000000001
 21
53.029000000000003
 31
0.0
  0
TEXT
  5
24A
  8
____
 62
     7
 10
-35.929600000000001
 20
59.109922499999989
 30
0.0
 40
3.0923400000000001
  1
max.50
 50
90.0
 41
0.5
 72
     1
 11
-35.929600000000001
 21
62.846499999999999
 31
0.0
  0
TEXT
  5
24B
  8
____
 62
     7
 10
-26.46726
 20
71.962999999999994
 30
0.0
 40
3.0923400000000001
  1
%%c63
 41
0.5
 72
     1
 11
-24.4057
 21
71.962999999999994
 31
0.0
  0
TEXT
  5
24C
  8
____
 62
     7
 10
28.556699999999999
 20
98.023200000000017
 30
0.0
 40
3.0923400000000001
  1
PF 3/8
 41
0.5
  0
TEXT
  5
24D
  8
____
 62
     7
 10
55.130287500000001
 20
180.90299999999999
 30
0.0
 40
3.0923400000000001
  1
%%c60
 41
0.5
 72
     1
 11
57.063000000000002
 21
180.90299999999999
 31
0.0
  0
TEXT
  5
24E
  8
____
 62
     7
 10
55.001440000000002
 20
175.68799999999999
 30
0.0
 40
3.0923400000000001
  1
%%c36
 41
0.5
 72
     1
 11
57.063000000000002
 21
175.68799999999999
 31
0.0
  0
TEXT
  5
24F
  8
____
 62
     7
 10
62.238950000000003
 20
135.761
 30
0.0
 40
3.0923400000000001
  1
%%c5
 41
0.5
 72
     2
 11
64.815899999999999
 21
135.761
 31
0.0
  0
TEXT
  5
250
  8
____
 62
     7
 10
68.477350000000001
 20
188.1579999999999
 30
0.0
 40
3.0923400000000001
  1
max.35
 41
0.5
 72
     2
 11
76.208200000000005
 21
188.1579999999999
 31
0.0
  0
TEXT
  5
251
  8
____
 62
     7
 10
43.319800000000001
 20
162.99442250000001
 30
0.0
 40
3.0923400000000001
  1
max.40
 50
90.0
 41
0.5
 72
     1
 11
43.319800000000001
 21
166.73099999999999
 31
0.0
  0
TEXT
  5
252
  8
____
 62
     7
 10
88.360500000000002
 20
195.15113500000001
 30
0.0
 40
3.0923400000000001
  1
200
 50
90.0
 41
0.5
 72
     1
 11
88.360500000000002
 21
196.95500000000001
 31
0.0
  0
TEXT
  5
253
  8
____
 62
     7
 10
80.213499999999996
 20
191.923135
 30
0.0
 40
3.0923400000000001
  1
174
 50
90.0
 41
0.5
 72
     1
 11
80.213499999999996
 21
193.727
 31
0.0
  0
TEXT
  5
254
  8
____
 62
     7
 10
18.1477
 20
136.6592875
 30
0.0
 40
3.0923400000000001
  1
460
 50
90.0
 41
0.5
 72
     1
 11
18.1477
 21
138.59200000000001
 31
0.0
  0
TEXT
  5
255
  8
____
 62
     7
 10
18.1477
 20
185.18082999999999
 30
0.0
 40
3.0923400000000001
  1
118
 50
90.0
 41
0.5
 72
     1
 11
18.1477
 21
186.727
 31
0.0
  0
TEXT
  5
256
  8
____
 62
     7
 10
80.270700000000005
 20
124.9229825
 30
0.0
 40
3.0923400000000001
  1
310
 50
90.0
 41
0.5
 72
     1
 11
80.270700000000005
 21
126.598
 31
0.0
  0
TEXT
  5
257
  8
____
 62
     7
 10
-44.177346
 20
248.95099999999999
 30
0.0
 40
3.0923400000000001
  1
湯
 41
0.5
 72
     1
 11
-43.455800000000004
 21
248.95099999999999
 31
0.0
  0
TEXT
  5
258
  8
____
 62
     7
 10
-6.2080659999999988
 20
248.95099999999999
 30
0.0
 40
3.0923400000000001
  1
水
 41
0.5
 72
     1
 11
-5.4865199999999987
 21
248.95099999999999
 31
0.0
  0
TEXT
  5
259
  8
____
 62
     7
 10
53.259045999999998
 20
248.11000000000001
 30
0.0
 40
3.0923400000000001
  1
水栓取付穴
 41
0.5
 72
     1
 11
57.691400000000002
 21
248.11000000000001
 31
0.0
  0
TEXT
  5
25A
  8
____
 62
     7
 10
-77.847200000000001
 20
22.237500000000001
 30
0.0
 40
3.6545800000000002
  1
・国産洗面器とのセットの場合は国産の排水ヘッド部を別途準備してください。
 41
0.5
  0
TEXT
  5
25B
  8
____
 62
     7
 10
-42.80584799999999
 20
99.474299999999999
 30
0.0
 40
3.0923400000000001
  1
湯側
 41
0.5
 72
     1
 11
-41.156599999999997
 21
99.474299999999999
 31
0.0
  0
TEXT
  5
25C
  8
____
 62
     7
 10
-9.8057379999999998
 20
99.474299999999999
 30
0.0
 40
3.0923400000000001
  1
水側
 41
0.5
 72
     1
 11
-8.1564899999999998
 21
99.474299999999999
 31
0.0
  0
INSERT
  5
25D
  8
_________1
 62
     7
  2
AIGNBL02010002
 10
0.0
 20
0.0
 30
0.0
  0
INSERT
  5
25E
  8
_________1
 62
     7
  2
AIGNBL02010003
 10
0.0
 20
0.0
 30
0.0
  0
LINE
  5
25F
  8
_________1
 62
     7
 10
64.804199999999994
 20
269.56799999999998
 30
0.0
 11
70.591300000000004
 21
269.56799999999998
 31
0.0
  0
INSERT
  5
260
  8
_________1
 62
     7
  2
AIGNBL02010004
 10
0.0
 20
0.0
 30
0.0
  0
LINE
  5
261
  8
_________1
  6
AIGENLINE001
 62
     7
 10
57.691400000000002
 20
268.77699999999999
 30
0.0
 11
57.691400000000002
 21
255.624
 31
0.0
  0
ARC
  5
262
  8
_________1
 62
     7
 10
57.691588000000003
 20
262.455578
 30
0.0
 40
4.3751269999999991
 50
0.002266
 51
90.002235999999996
  0
ARC
  5
263
  8
_________1
 62
     7
 10
57.691590000000012
 20
262.45592299999998
 30
0.0
 40
4.374782999999999
 50
90.002256000000017
 51
180.00226599999999
  0
ARC
  5
264
  8
_________1
 62
     7
 10
57.691588000000003
 20
262.455578
 30
0.0
 40
4.3747809999999987
 50
179.997714
 51
269.99776400000002
  0
ARC
  5
265
  8
_________1
 62
     7
 10
57.691588000000003
 20
262.45592399999998
 30
0.0
 40
4.3751269999999991
 50
269.99776400000002
 51
359.99773399999998
  0
LINE
  5
266
  8
_________1
  6
AIGENLINE001
 62
     7
 10
-37.139600000000002
 20
262.45600000000002
 30
0.0
 11
-12.1394
 21
262.45600000000002
 31
0.0
  0
LINE
  5
267
  8
_________1
  6
AIGENLINE001
 62
     7
 10
50.753
 20
262.45600000000002
 30
0.0
 11
64.468699999999998
 21
262.45600000000002
 31
0.0
  0
INSERT
  5
268
  8
_________1
 62
     7
  2
AIGNBL02010005
 10
0.0
 20
0.0
 30
0.0
  0
LINE
  5
269
  8
_________1
 62
     7
 10
65.191400000000002
 20
180.56700000000001
 30
0.0
 11
65.191400000000002
 21
173.56399999999999
 31
0.0
  0
LINE
  5
26A
  8
_________1
 62
     7
 10
50.191400000000002
 20
180.56700000000001
 30
0.0
 11
50.191400000000002
 21
173.56399999999999
 31
0.0
  0
INSERT
  5
26B
  8
_________1
 62
     7
  2
AIGNBL02010006
 10
0.0
 20
0.0
 30
0.0
  0
LINE
  5
26C
  8
_________1
 62
     7
 10
27.691299999999998
 20
199.624
 30
0.0
 11
27.691299999999998
 21
190.95099999999999
 31
0.0
  0
INSERT
  5
26D
  8
_________1
 62
     7
  2
AIGNBL02010007
 10
0.0
 20
0.0
 30
0.0
  0
INSERT
  5
26E
  8
_________1
 62
     7
  2
AIGNBL02010008
 10
0.0
 20
0.0
 30
0.0
  0
LINE
  5
26F
  8
_________1
 62
     7
 10
44.612400000000001
 20
169.76499999999999
 30
0.0
 11
44.019799999999996
 21
171.977
 31
0.0
  0
LINE
  5
270
  8
_________1
 62
     7
 10
44.019799999999996
 20
171.977
 30
0.0
 11
43.427300000000002
 21
169.76499999999999
 31
0.0
  0
LINE
  5
271
  8
_________1
 62
     7
 10
43.427300000000002
 20
169.76499999999999
 30
0.0
 11
44.612400000000001
 21
169.76499999999999
 31
0.0
  0
LINE
  5
272
  8
_________1
 62
     7
 10
75.564700000000002
 20
185.16800000000001
 30
0.0
 11
68.143199999999993
 21
185.16800000000001
 31
0.0
  0
LINE
  5
273
  8
_________1
 62
     7
 10
43.441699999999997
 20
163.69499999999999
 30
0.0
 11
44.034300000000002
 21
161.48400000000001
 31
0.0
  0
LINE
  5
274
  8
_________1
 62
     7
 10
44.034300000000002
 20
161.48400000000001
 30
0.0
 11
44.626800000000003
 21
163.69499999999999
 31
0.0
  0
LINE
  5
275
  8
_________1
 62
     7
 10
44.626800000000003
 20
163.69499999999999
 30
0.0
 11
43.441699999999997
 21
163.69499999999999
 31
0.0
  0
LINE
  5
276
  8
_________1
 62
     7
 10
44.019799999999996
 20
171.977
 30
0.0
 11
44.019799999999996
 21
161.48400000000001
 31
0.0
  0
LINE
  5
277
  8
_________1
 62
     7
 10
50.741199999999999
 20
161.48400000000001
 30
0.0
 11
43.319800000000001
 21
161.48400000000001
 31
0.0
  0
INSERT
  5
278
  8
_________1
 62
     7
  2
AIGNBL02010009
 10
0.0
 20
0.0
 30
0.0
  0
LINE
  5
279
  8
_________1
 62
     7
 10
67.446600000000004
 20
188.1579999999999
 30
0.0
 11
67.446600000000004
 21
185.9309999999999
 31
0.0
  0
INSERT
  5
27A
  8
_________1
 62
     7
  2
AIGNBL0201000A
 10
0.0
 20
0.0
 30
0.0
  0
INSERT
  5
27B
  8
_________1
 62
     7
  2
AIGNBL0201000B
 10
0.0
 20
0.0
 30
0.0
  0
INSERT
  5
27C
  8
_________1
 62
     7
  2
AIGNBL0201000C
 10
0.0
 20
0.0
 30
0.0
  0
INSERT
  5
27D
  8
_________1
 62
     7
  2
AIGNBL0201000D
 10
0.0
 20
0.0
 30
0.0
  0
INSERT
  5
27E
  8
_________1
 62
     7
  2
AIGNBL0201000E
 10
0.0
 20
0.0
 30
0.0
  0
LINE
  5
27F
  8
_________1
 62
     7
 10
89.803399999999996
 20
221.93299999999999
 30
0.0
 11
47.626199999999997
 21
221.93299999999999
 31
0.0
  0
LINE
  5
280
  8
_________1
 62
     7
 10
81.656300000000002
 20
215.477
 30
0.0
 11
43.337699999999998
 21
215.477
 31
0.0
  0
LINE
  5
281
  8
_________1
 62
     7
 10
38.144500000000001
 20
105.206
 30
0.0
 11
18.204899999999999
 21
105.206
 31
0.0
  0
LINE
  5
282
  8
_________1
 62
     7
 10
49.315600000000011
 20
171.977
 30
0.0
 11
18.204899999999999
 21
171.977
 31
0.0
  0
LINE
  5
283
  8
_________1
 62
     7
 10
89.817800000000005
 20
171.977
 30
0.0
 11
65.891499999999994
 21
171.977
 31
0.0
  0
LINE
  5
284
  8
_________1
 62
     7
 10
24.665800000000001
 20
201.477
 30
0.0
 11
18.1904
 21
201.477
 31
0.0
  0
LINE
  5
285
  8
_________1
 62
     7
 10
81.685299999999998
 20
81.218000000000004
 30
0.0
 11
59.156999999999996
 21
81.218000000000004
 31
0.0
  0
INSERT
  5
286
  8
_________1
 62
     7
  2
AIGNBL0201000F
 10
0.0
 20
0.0
 30
0.0
  0
INSERT
  5
287
  8
_________1
 62
     7
  2
AIGNBL02010010
 10
0.0
 20
0.0
 30
0.0
  0
LINE
  5
288
  8
_________1
 62
     7
 10
39.331699999999998
 20
96.805000000000021
 30
0.0
 11
39.331699999999998
 21
104.765
 31
0.0
  0
LINE
  5
289
  8
_________1
 62
     7
 10
43.456899999999997
 20
96.805000000000021
 30
0.0
 11
43.456899999999997
 21
104.765
 31
0.0
  0
LINE
  5
28A
  8
_________1
 62
     7
 10
-24.033000000000001
 20
266.85899999999998
 30
0.0
 11
-24.033000000000001
 21
267.971
 31
0.0
  0
LINE
  5
28B
  8
_________1
 62
     7
 10
-24.033000000000001
 20
267.971
 30
0.0
 11
-24.033000000000001
 21
269.21300000000002
 31
0.0
  0
LINE
  5
28C
  8
_________1
 62
     7
 10
-24.033000000000001
 20
269.21300000000002
 30
0.0
 11
-24.033000000000001
 21
271.70499999999998
 31
0.0
  0
ARC
  5
28D
  8
_________1
 62
     7
 10
-24.421403000000002
 20
271.69020899999998
 30
0.0
 40
0.3887070000000001
 50
2.1343570000000001
 51
87.892017999999993
  0
ARC
  5
28E
  8
_________1
 62
     7
 10
-24.891607
 20
271.69084400000003
 30
0.0
 40
0.388049
 50
92.01764
 51
177.9559449999999
  0
LINE
  5
28F
  8
_________1
 62
     7
 10
-25.279399999999999
 20
269.21300000000002
 30
0.0
 11
-25.279399999999999
 21
271.70499999999998
 31
0.0
  0
LINE
  5
290
  8
_________1
 62
     7
 10
-24.4071
 20
272.07900000000001
 30
0.0
 11
-24.9053
 21
272.07900000000001
 31
0.0
  0
LINE
  5
291
  8
_________1
 62
     7
 10
-25.279399999999999
 20
267.971
 30
0.0
 11
-25.279399999999999
 21
269.21300000000002
 31
0.0
  0
ARC
  5
292
  8
_________1
 62
     7
 10
-24.581102999999999
 20
267.97754500000002
 30
0.0
 40
0.5481810000000001
 50
299.900554
 51
359.28406200000001
  0
ARC
  5
293
  8
_________1
 62
     7
 10
-24.652165
 20
268.06854299999998
 30
0.0
 40
0.66269
 50
269.62247300000001
 51
301.30483900000002
  0
ARC
  5
294
  8
_________1
 62
     7
 10
-24.651551000000001
 20
268.07401900000002
 30
0.0
 40
0.66817
 50
216.98942600000001
 51
269.57290699999999
  0
ARC
  5
295
  8
_________1
 62
     7
 10
-24.744751999999998
 20
267.975053
 30
0.0
 40
0.5346750000000001
 50
180.46700399999989
 51
214.52683500000001
  0
LINE
  5
296
  8
_________1
 62
     7
 10
-25.279399999999999
 20
266.85899999999998
 30
0.0
 11
-25.279399999999999
 21
267.971
 31
0.0
  0
ARC
  5
297
  8
_________1
 62
     7
 10
-24.656026000000001
 20
262.38467100000003
 30
0.0
 40
7.4782710000000003
 50
94.781676000000004
 51
184.77696299999999
  0
ARC
  5
298
  8
_________1
 62
     7
 10
-24.555475000000001
 20
262.44072399999999
 30
0.0
 40
7.5832889999999988
 50
185.13573199999999
 51
232.887936
  0
ARC
  5
299
  8
_________1
 62
     7
 10
-24.657147999999999
 20
262.385065
 30
0.0
 40
7.4784470000000001
 50
306.99326300000001
 51
36.984631
  0
ARC
  5
29A
  8
_________1
 62
     7
 10
-24.710307
 20
262.287488
 30
0.0
 40
7.579752
 50
37.33207800000001
 51
84.873093000000011
  0
ARC
  5
29B
  8
_________1
 62
     7
 10
-21.450745000000001
 20
247.00532999999999
 30
0.0
 40
1.2950829999999991
 50
272.08387900000002
 51
357.19904600000001
  0
LINE
  5
29C
  8
_________1
 62
     7
 10
-21.403700000000001
 20
245.71100000000001
 30
0.0
 11
-27.884599999999999
 21
245.71100000000001
 31
0.0
  0
ARC
  5
29D
  8
_________1
 62
     7
 10
-27.837520000000001
 20
247.005324
 30
0.0
 40
1.295078
 50
182.8007539999999
 51
267.91636
  0
ARC
  5
29E
  8
_________1
 62
     7
 10
-27.836454
 20
265.5646910000001
 30
0.0
 40
1.295504999999999
 50
92.13010700000001
 51
177.85402500000001
  0
LINE
  5
29F
  8
_________1
 62
     7
 10
-21.403700000000001
 20
266.85899999999998
 30
0.0
 11
-27.884599999999999
 21
266.85899999999998
 31
0.0
  0
ARC
  5
2A0
  8
_________1
 62
     7
 10
-21.451093
 20
265.56540200000001
 30
0.0
 40
1.294767
 50
2.1156649999999999
 51
87.900164000000004
  0
LINE
  5
2A1
  8
_________1
 62
     7
 10
-20.1572
 20
247.02000000000001
 30
0.0
 11
-20.1572
 21
265.613
 31
0.0
  0
LINE
  5
2A2
  8
_________1
 62
     7
 10
-29.1311
 20
247.02000000000001
 30
0.0
 11
-29.1311
 21
265.613
 31
0.0
  0
ARC
  5
2A3
  8
_________1
 62
     7
 10
-21.440774000000001
 20
229.85762099999999
 30
0.0
 40
1.2463580000000001
 50
269.99606
 51
359.99603100000002
  0
LINE
  5
2A4
  8
_________1
 62
     7
 10
-21.440899999999999
 20
228.61099999999999
 30
0.0
 11
-27.872199999999999
 21
228.61099999999999
 31
0.0
  0
ARC
  5
2A5
  8
_________1
 62
     7
 10
-27.823923000000001
 20
229.90528
 30
0.0
 40
1.2949170000000001
 50
182.113066
 51
267.863201
  0
LINE
  5
2A6
  8
_________1
 62
     7
 10
-29.117999999999999
 20
229.858
 30
0.0
 11
-29.117999999999999
 21
246.768
 31
0.0
  0
LINE
  5
2A7
  8
_________1
 62
     7
 10
-20.194400000000002
 20
246.642
 30
0.0
 11
-20.194400000000002
 21
229.858
 31
0.0
  0
LINE
  5
2A8
  8
_________1
  6
AIGENLINE001
 62
     7
 10
-24.656500000000001
 20
274.17899999999997
 30
0.0
 11
-24.656500000000001
 21
226.11099999999999
 31
0.0
  0
LINE
  5
2A9
  8
_________1
  6
AIGENLINE001
 62
     7
 10
41.39459999999999
 20
155.976
 30
0.0
 11
57.691400000000002
 21
139.40600000000001
 31
0.0
  0
LINE
  5
2AA
  8
_________1
 62
     7
 10
42.706499999999991
 20
151.126
 30
0.0
 11
42.706499999999991
 21
112.95699999999999
 31
0.0
  0
LINE
  5
2AB
  8
_________1
 62
     7
 10
40.082000000000001
 20
151.126
 30
0.0
 11
40.082000000000001
 21
112.95699999999999
 31
0.0
  0
LINE
  5
2AC
  8
_________1
  6
AIGENLINE001
 62
     7
 10
41.39459999999999
 20
155.976
 30
0.0
 11
41.39459999999999
 21
103.899
 31
0.0
  0
LINE
  5
2AD
  8
_________1
 62
     7
 10
59.003999999999998
 20
157.23400000000001
 30
0.0
 11
59.003999999999998
 21
145.738
 31
0.0
  0
LINE
  5
2AE
  8
_________1
 62
     7
 10
56.378799999999998
 20
157.23400000000001
 30
0.0
 11
56.378799999999998
 21
145.738
 31
0.0
  0
LINE
  5
2AF
  8
_________1
 62
     7
 10
58.316400000000002
 20
137.83199999999999
 30
0.0
 11
58.316400000000002
 21
133.71899999999999
 31
0.0
  0
LINE
  5
2B0
  8
_________1
 62
     7
 10
57.066499999999991
 20
137.83199999999999
 30
0.0
 11
57.066499999999991
 21
133.71899999999999
 31
0.0
  0
LINE
  5
2B1
  8
_________1
 62
     7
 10
58.441800000000001
 20
133.71899999999999
 30
0.0
 11
58.441800000000001
 21
129.96799999999999
 31
0.0
  0
LINE
  5
2B2
  8
_________1
 62
     7
 10
56.941800000000001
 20
133.71899999999999
 30
0.0
 11
56.941800000000001
 21
129.96799999999999
 31
0.0
  0
LINE
  5
2B3
  8
_________1
 62
     7
 10
56.941800000000001
 20
133.71899999999999
 30
0.0
 11
58.441800000000001
 21
133.71899999999999
 31
0.0
  0
LINE
  5
2B4
  8
_________1
 62
     7
 10
58.316400000000002
 20
129.96799999999999
 30
0.0
 11
58.316400000000002
 21
81.218000000000004
 31
0.0
  0
LINE
  5
2B5
  8
_________1
 62
     7
 10
57.066499999999991
 20
129.96799999999999
 30
0.0
 11
57.066499999999991
 21
81.218000000000004
 31
0.0
  0
LINE
  5
2B6
  8
_________1
 62
     7
 10
56.941800000000001
 20
129.96799999999999
 30
0.0
 11
58.441800000000001
 21
129.96799999999999
 31
0.0
  0
LINE
  5
2B7
  8
_________1
 62
     7
 10
57.066499999999991
 20
81.218000000000004
 30
0.0
 11
58.316400000000002
 21
81.218000000000004
 31
0.0
  0
LINE
  5
2B8
  8
_________1
 62
     7
 10
61.816600000000001
 20
157.48400000000001
 30
0.0
 11
61.566499999999991
 21
157.23400000000001
 31
0.0
  0
LINE
  5
2B9
  8
_________1
 62
     7
 10
53.816299999999998
 20
157.23400000000001
 30
0.0
 11
53.566200000000002
 21
157.48400000000001
 31
0.0
  0
LINE
  5
2BA
  8
_________1
 62
     7
 10
61.566499999999991
 20
171.60300000000001
 30
0.0
 11
61.566499999999991
 21
161.976
 31
0.0
  0
LINE
  5
2BB
  8
_________1
 62
     7
 10
61.816600000000001
 20
171.60300000000001
 30
0.0
 11
61.816600000000001
 21
161.976
 31
0.0
  0
LINE
  5
2BC
  8
_________1
 62
     7
 10
53.816299999999998
 20
171.60300000000001
 30
0.0
 11
53.816299999999998
 21
161.976
 31
0.0
  0
LINE
  5
2BD
  8
_________1
 62
     7
 10
53.566200000000002
 20
171.60300000000001
 30
0.0
 11
53.566200000000002
 21
161.976
 31
0.0
  0
LINE
  5
2BE
  8
_________1
 62
     7
 10
61.566499999999991
 20
159.48400000000001
 30
0.0
 11
61.566499999999991
 21
157.23400000000001
 31
0.0
  0
LINE
  5
2BF
  8
_________1
 62
     7
 10
61.816600000000001
 20
159.48400000000001
 30
0.0
 11
61.816600000000001
 21
157.48400000000001
 31
0.0
  0
LINE
  5
2C0
  8
_________1
 62
     7
 10
53.816299999999998
 20
159.48400000000001
 30
0.0
 11
53.816299999999998
 21
157.23400000000001
 31
0.0
  0
LINE
  5
2C1
  8
_________1
 62
     7
 10
53.566200000000002
 20
159.48400000000001
 30
0.0
 11
53.566200000000002
 21
157.48400000000001
 31
0.0
  0
LINE
  5
2C2
  8
_________1
 62
     7
 10
53.566200000000002
 20
157.48400000000001
 30
0.0
 11
61.816600000000001
 21
157.48400000000001
 31
0.0
  0
LINE
  5
2C3
  8
_________1
 62
     7
 10
53.816299999999998
 20
157.23400000000001
 30
0.0
 11
61.566499999999991
 21
157.23400000000001
 31
0.0
  0
LINE
  5
2C4
  8
_________1
  6
AIGENLINE001
 62
     7
 10
57.691400000000002
 20
173.703
 30
0.0
 11
57.691400000000002
 21
79.3018
 31
0.0
  0
LINE
  5
2C5
  8
_________1
 62
     7
 10
41.39459999999999
 20
105.455
 30
0.0
 11
41.39459999999999
 21
108.08
 31
0.0
  0
LINE
  5
2C6
  8
_________1
 62
     7
 10
39.018900000000002
 20
105.455
 30
0.0
 11
39.018900000000002
 21
108.08
 31
0.0
  0
ARC
  5
2C7
  8
_________1
 62
     7
 10
44.839334000000001
 20
128.731022
 30
0.0
 40
23.992687
 50
255.96039200000001
 51
256.93863800000003
  0
ARC
  5
2C8
  8
_________1
 62
     7
 10
40.512852000000002
 20
110.204021
 30
0.0
 40
4.9673220000000002
 50
257.25637799999998
 51
263.09917899999999
  0
ARC
  5
2C9
  8
_________1
 62
     7
 10
40.229937999999997
 20
108.08261400000001
 30
0.0
 40
2.82741
 50
263.62554999999998
 51
269.79556600000001
  0
ARC
  5
2CA
  8
_________1
 62
     7
 10
40.218533999999998
 20
107.77389100000001
 30
0.0
 40
2.518669
 50
270.02992899999998
 51
277.21034200000003
  0
ARC
  5
2CB
  8
_________1
 62
     7
 10
40.005997000000001
 20
109.574716
 30
0.0
 40
4.3319549999999998
 50
277.00971800000002
 51
283.596002
  0
ARC
  5
2CC
  8
_________1
 62
     7
 10
37.235334999999999
 20
121.601816
 30
0.0
 40
16.673876
 50
283.13471400000009
 51
284.44497999999999
  0
ARC
  5
2CD
  8
_________1
 62
     7
 10
39.781059999999997
 20
103.36442599999999
 30
0.0
 40
4.9842069999999987
 50
71.110894999999999
 51
78.891000000000005
  0
ARC
  5
2CE
  8
_________1
 62
     7
 10
40.188524000000001
 20
105.29224600000001
 30
0.0
 40
3.014135
 50
79.430560999999983
 51
89.404507999999979
  0
ARC
  5
2CF
  8
_________1
 62
     7
 10
40.221865000000001
 20
105.40240799999999
 30
0.0
 40
2.9038110000000001
 50
90.039764000000005
 51
100.813097
  0
ARC
  5
2D0
  8
_________1
 62
     7
 10
40.464990999999998
 20
103.952701
 30
0.0
 40
4.3735150000000003
 50
100.37861700000001
 51
109.308318
  0
ARC
  5
2D1
  8
_________1
 62
     7
 10
47.172257000000002
 20
128.51897700000001
 30
0.0
 40
23.776588
 50
255.93655999999999
 51
256.90015199999999
  0
ARC
  5
2D2
  8
_________1
 62
     7
 10
42.895468999999999
 20
110.24585399999999
 30
0.0
 40
5.0097230000000001
 50
257.17358200000001
 51
263.07433200000003
  0
ARC
  5
2D3
  8
_________1
 62
     7
 10
42.604655000000001
 20
108.070767
 30
0.0
 40
2.8155639999999988
 50
263.61189899999999
 51
269.78774800000002
  0
ARC
  5
2D4
  8
_________1
 62
     7
 10
42.592916000000002
 20
107.778648
 30
0.0
 40
2.523425
 50
270.02970599999998
 51
277.20353399999999
  0
ARC
  5
2D5
  8
_________1
 62
     7
 10
42.381000999999991
 20
109.573555
 30
0.0
 40
4.3307630000000001
 50
277.00735100000003
 51
283.59615200000002
  0
ARC
  5
2D6
  8
_________1
 62
     7
 10
39.542859999999997
 20
121.890927
 30
0.0
 40
16.970697000000001
 50
283.13388300000003
 51
284.42230799999999
  0
LINE
  5
2D7
  8
_________1
 62
     7
 10
43.7697
 20
105.455
 30
0.0
 11
43.7697
 21
108.08
 31
0.0
  0
ARC
  5
2D8
  8
_________1
 62
     7
 10
42.155017999999998
 20
103.36118399999999
 30
0.0
 40
4.9876329999999989
 50
71.110928000000001
 51
78.883884999999992
  0
ARC
  5
2D9
  8
_________1
 62
     7
 10
42.563600999999998
 20
105.290218
 30
0.0
 40
3.0161560000000001
 50
79.434871000000001
 51
89.418261000000001
  0
ARC
  5
2DA
  8
_________1
 62
     7
 10
42.596238999999997
 20
105.411513
 30
0.0
 40
2.8947069999999999
 50
90.039867999999984
 51
100.830139
  0
ARC
  5
2DB
  8
_________1
 62
     7
 10
42.841439000000001
 20
103.952415
 30
0.0
 40
4.3740149999999991
 50
100.393558
 51
109.31567200000001
  0
LINE
  5
2DC
  8
_________1
 62
     7
 10
43.7697
 20
105.255
 30
0.0
 11
43.7697
 21
105.455
 31
0.0
  0
LINE
  5
2DD
  8
_________1
 62
     7
 10
43.7697
 20
108.08
 30
0.0
 11
43.7697
 21
108.306
 31
0.0
  0
LINE
  5
2DE
  8
_________1
 62
     7
 10
39.018900000000002
 20
105.255
 30
0.0
 11
39.018900000000002
 21
105.455
 31
0.0
  0
LINE
  5
2DF
  8
_________1
 62
     7
 10
39.018900000000002
 20
108.08
 30
0.0
 11
39.018900000000002
 21
108.306
 31
0.0
  0
LINE
  5
2E0
  8
_________1
 62
     7
 10
42.645200000000003
 20
108.48099999999999
 30
0.0
 11
41.39459999999999
 21
108.48099999999999
 31
0.0
  0
LINE
  5
2E1
  8
_________1
 62
     7
 10
41.39459999999999
 20
108.48099999999999
 30
0.0
 11
40.1447
 21
108.48099999999999
 31
0.0
  0
LINE
  5
2E2
  8
_________1
 62
     7
 10
43.7697
 20
105.255
 30
0.0
 11
43.694600000000001
 21
105.206
 31
0.0
  0
LINE
  5
2E3
  8
_________1
 62
     7
 10
43.694600000000001
 20
105.206
 30
0.0
 11
39.094000000000001
 21
105.206
 31
0.0
  0
LINE
  5
2E4
  8
_________1
 62
     7
 10
39.094000000000001
 20
105.206
 30
0.0
 11
39.018900000000002
 21
105.255
 31
0.0
  0
ARC
  5
2E5
  8
_________1
 62
     7
 10
43.751201999999999
 20
108.27247699999999
 30
0.0
 40
0.038479
 50
61.269488000000003
 51
90.14337900000001
  0
ARC
  5
2E6
  8
_________1
 62
     7
 10
43.589818000000001
 20
106.955421
 30
0.0
 40
1.365095999999999
 50
83.214589000000004
 51
88.388773
  0
ARC
  5
2E7
  8
_________1
 62
     7
 10
43.047992000000001
 20
93.617863999999983
 30
0.0
 40
14.713558000000001
 50
87.740026000000015
 51
89.360946999999996
  0
ARC
  5
2E8
  8
_________1
 62
     7
 10
42.110019000000001
 20
26.282029999999999
 30
0.0
 40
82.055878000000007
 50
89.230439000000004
 51
89.925381000000002
  0
ARC
  5
2E9
  8
_________1
 62
     7
 10
41.528559999999992
 20
-291.77468900000002
 30
0.0
 40
400.11311899999993
 50
89.901425000000003
 51
90.348621000000009
  0
LINE
  5
2EA
  8
_________1
 62
     7
 10
39.094000000000001
 20
108.331
 30
0.0
 11
39.018900000000002
 21
108.306
 31
0.0
  0
LINE
  5
2EB
  8
_________1
 62
     7
 10
42.94489999999999
 20
108.331
 30
0.0
 11
42.94489999999999
 21
108.456
 31
0.0
  0
LINE
  5
2EC
  8
_________1
 62
     7
 10
42.94489999999999
 20
108.456
 30
0.0
 11
39.844299999999997
 21
108.456
 31
0.0
  0
LINE
  5
2ED
  8
_________1
 62
     7
 10
39.844299999999997
 20
108.331
 30
0.0
 11
39.844299999999997
 21
108.456
 31
0.0
  0
LINE
  5
2EE
  8
_________1
 62
     7
 10
40.1447
 20
108.48099999999999
 30
0.0
 11
39.769199999999998
 21
108.782
 31
0.0
  0
LINE
  5
2EF
  8
_________1
 62
     7
 10
39.769199999999998
 20
108.782
 30
0.0
 11
39.744399999999999
 21
109.28100000000001
 31
0.0
  0
LINE
  5
2F0
  8
_________1
 62
     7
 10
43.04549999999999
 20
109.28100000000001
 30
0.0
 11
43.019399999999997
 21
108.782
 31
0.0
  0
LINE
  5
2F1
  8
_________1
 62
     7
 10
43.019399999999997
 20
108.782
 30
0.0
 11
42.645200000000003
 21
108.48099999999999
 31
0.0
  0
LINE
  5
2F2
  8
_________1
 62
     7
 10
42.844999999999999
 20
109.706
 30
0.0
 11
39.944899999999997
 21
109.706
 31
0.0
  0
LINE
  5
2F3
  8
_________1
 62
     7
 10
39.944899999999997
 20
109.706
 30
0.0
 11
39.744399999999999
 21
109.28100000000001
 31
0.0
  0
LINE
  5
2F4
  8
_________1
 62
     7
 10
43.04549999999999
 20
109.28100000000001
 30
0.0
 11
42.844999999999999
 21
109.706
 31
0.0
  0
LINE
  5
2F5
  8
_________1
 62
     7
 10
42.844999999999999
 20
111.70699999999999
 30
0.0
 11
39.944899999999997
 21
111.70699999999999
 31
0.0
  0
LINE
  5
2F6
  8
_________1
 62
     7
 10
39.944899999999997
 20
109.706
 30
0.0
 11
39.944899999999997
 21
111.70699999999999
 31
0.0
  0
LINE
  5
2F7
  8
_________1
 62
     7
 10
42.844999999999999
 20
109.706
 30
0.0
 11
42.844999999999999
 21
111.70699999999999
 31
0.0
  0
LINE
  5
2F8
  8
_________1
 62
     7
 10
39.944899999999997
 20
111.70699999999999
 30
0.0
 11
39.769199999999998
 21
112.00700000000001
 31
0.0
  0
LINE
  5
2F9
  8
_________1
 62
     7
 10
43.019399999999997
 20
112.00700000000001
 30
0.0
 11
42.844999999999999
 21
111.70699999999999
 31
0.0
  0
LINE
  5
2FA
  8
_________1
 62
     7
 10
39.769199999999998
 20
112.00700000000001
 30
0.0
 11
39.718899999999998
 21
112.13200000000001
 31
0.0
  0
LINE
  5
2FB
  8
_________1
 62
     7
 10
39.718899999999998
 20
112.13200000000001
 30
0.0
 11
39.718899999999998
 21
112.256
 31
0.0
  0
ARC
  5
2FC
  8
_________1
 62
     7
 10
42.476590999999992
 20
112.31522699999999
 30
0.0
 40
0.620659
 50
339.66158999999999
 51
354.56033300000001
  0
ARC
  5
2FD
  8
_________1
 62
     7
 10
42.397857999999992
 20
112.324821
 30
0.0
 40
0.69806
 50
332.912893
 51
341.16943100000009
  0
LINE
  5
2FE
  8
_________1
 62
     7
 10
43.094499999999996
 20
112.256
 30
0.0
 11
43.094499999999996
 21
112.95699999999999
 31
0.0
  0
LINE
  5
2FF
  8
_________1
 62
     7
 10
43.094499999999996
 20
112.95699999999999
 30
0.0
 11
39.718899999999998
 21
112.95699999999999
 31
0.0
  0
LINE
  5
300
  8
_________1
 62
     7
 10
39.718899999999998
 20
112.256
 30
0.0
 11
39.718899999999998
 21
112.95699999999999
 31
0.0
  0
ARC
  5
301
  8
_________1
  6
AIGENLINE002
 62
     7
 10
56.684603000000003
 20
206.435102
 30
0.0
 40
3.4315559999999992
 50
141.79932700000001
 51
148.19945300000001
  0
ARC
  5
302
  8
_________1
  6
AIGENLINE002
 62
     7
 10
58.319851999999997
 20
205.390491
 30
0.0
 40
5.3718690000000002
 50
147.921223
 51
167.67478899999989
  0
ARC
  5
303
  8
_________1
  6
AIGENLINE002
 62
     7
 10
56.534543999999997
 20
205.81302099999999
 30
0.0
 40
3.5376579999999991
 50
168.18820700000001
 51
175.29368700000001
  0
ARC
  5
304
  8
_________1
  6
AIGENLINE002
 62
     7
 10
57.809766000000003
 20
207.197408
 30
0.0
 40
0.5026270000000001
 50
243.212378
 51
265.221835
  0
LINE
  5
305
  8
_________1
  6
AIGENLINE002
 62
     7
 10
61.179299999999998
 20
206.405
 30
0.0
 11
57.767899999999997
 21
206.697
 31
0.0
  0
LINE
  5
306
  8
_________1
  6
AIGENLINE002
 62
     7
 10
57.583199999999998
 20
206.749
 30
0.0
 11
53.851500000000001
 21
208.626
 31
0.0
  0
LINE
  5
307
  8
_________1
  6
AIGENLINE002
 62
     7
 10
53.627600000000001
 20
208.738
 30
0.0
 11
53.851500000000001
 21
208.626
 31
0.0
  0
ARC
  5
308
  8
_________1
  6
AIGENLINE002
 62
     7
 10
46.501128999999992
 20
221.32927699999999
 30
0.0
 40
0.259563
 50
146.51993300000001
 51
232.331253
  0
LINE
  5
309
  8
_________1
  6
AIGENLINE002
 62
     7
 10
46.28459999999999
 20
221.47200000000001
 30
0.0
 11
46.576099999999997
 21
221.87700000000001
 31
0.0
  0
ARC
  5
30A
  8
_________1
  6
AIGENLINE002
 62
     7
 10
63.847248999999998
 20
209.48858200000001
 30
0.0
 40
0.258775
 50
335.17355500000002
 51
52.839920999999983
  0
LINE
  5
30B
  8
_________1
  6
AIGENLINE002
 62
     7
 10
64.082099999999997
 20
209.38
 30
0.0
 11
62.528399999999991
 21
206.28999999999999
 31
0.0
  0
ARC
  5
30C
  8
_________1
  6
AIGENLINE002
 62
     7
 10
46.780920000000002
 20
221.717333
 30
0.0
 40
0.259766
 50
56.017035999999997
 51
142.046907
  0
LINE
  5
30D
  8
_________1
  6
AIGENLINE002
 62
     7
 10
46.342500000000001
 20
221.124
 30
0.0
 11
47.160400000000003
 21
220.53800000000001
 31
0.0
  0
LINE
  5
30E
  8
_________1
  6
AIGENLINE002
 62
     7
 10
55.4039
 20
214.631
 30
0.0
 11
47.160400000000003
 21
220.53800000000001
 31
0.0
  0
ARC
  5
30F
  8
_________1
  6
AIGENLINE002
 62
     7
 10
54.620432000000001
 20
213.5975
 30
0.0
 40
1.296718
 50
335.24395299999998
 51
52.831477
  0
LINE
  5
310
  8
_________1
  6
AIGENLINE002
 62
     7
 10
53.627600000000001
 20
208.738
 30
0.0
 11
55.798000000000002
 21
213.054
 31
0.0
  0
LINE
  5
311
  8
_________1
  6
AIGENLINE002
 62
     7
 10
64.003600000000006
 20
209.69499999999999
 30
0.0
 11
63.176000000000002
 21
210.28800000000001
 31
0.0
  0
LINE
  5
312
  8
_________1
  6
AIGENLINE002
 62
     7
 10
46.926099999999998
 20
221.93299999999999
 30
0.0
 11
47.743299999999991
 21
221.34700000000001
 31
0.0
  0
LINE
  5
313
  8
_________1
  6
AIGENLINE002
 62
     7
 10
47.743299999999991
 20
221.34700000000001
 30
0.0
 11
63.176000000000002
 21
210.28800000000001
 31
0.0
  0
LINE
  5
314
  8
_________1
  6
AIGENLINE002
 62
     7
 10
62.528399999999991
 20
206.28999999999999
 30
0.0
 11
61.179299999999998
 21
206.405
 31
0.0
  0
ARC
  5
315
  8
_________1
  6
AIGENLINE002
 62
     7
 10
56.724527999999999
 20
205.97284999999999
 30
0.0
 40
4.8073129999999988
 50
1.5998920000000001
 51
4.8245259999999996
  0
LINE
  5
316
  8
_________1
 62
     7
 10
51.405500000000011
 20
171.977
 30
0.0
 11
51.405500000000011
 21
171.60300000000001
 31
0.0
  0
LINE
  5
317
  8
_________1
 62
     7
 10
63.978099999999991
 20
171.977
 30
0.0
 11
63.978099999999991
 21
171.60300000000001
 31
0.0
  0
LINE
  5
318
  8
_________1
 62
     7
 10
62.935600000000001
 20
171.60300000000001
 30
0.0
 11
63.978099999999991
 21
171.60300000000001
 31
0.0
  0
LINE
  5
319
  8
_________1
 62
     7
 10
51.405500000000011
 20
171.60300000000001
 30
0.0
 11
62.935600000000001
 21
171.60300000000001
 31
0.0
  0
LINE
  5
31A
  8
_________1
 62
     7
 10
52.8889
 20
160.97900000000001
 30
0.0
 11
52.871000000000002
 21
160.85499999999999
 31
0.0
  0
ARC
  5
31B
  8
_________1
 62
     7
 10
54.533409999999989
 20
156.23097999999999
 30
0.0
 40
5.3892059999999988
 50
59.085995999999987
 51
61.773000000000003
  0
ARC
  5
31C
  8
_________1
 62
     7
 10
56.886144999999992
 20
154.09636800000001
 30
0.0
 40
7.8490339999999987
 50
118.72753
 51
120.567984
  0
ARC
  5
31D
  8
_________1
 62
     7
 10
59.016987999999998
 20
155.239948
 30
0.0
 40
6.416275999999999
 50
61.05239499999999
 51
63.444240000000001
  0
ARC
  5
31E
  8
_________1
 62
     7
 10
60.862157000000003
 20
154.47828999999999
 30
0.0
 40
7.2767660000000003
 50
116.697177
 51
118.80614799999999
  0
LINE
  5
31F
  8
_________1
 62
     7
 10
62.152799999999992
 20
160.85499999999999
 30
0.0
 11
62.1708
 21
160.97900000000001
 31
0.0
  0
LINE
  5
320
  8
_________1
 62
     7
 10
62.494599999999998
 20
160.97900000000001
 30
0.0
 11
62.512500000000003
 21
160.85499999999999
 31
0.0
  0
LINE
  5
321
  8
_________1
 62
     7
 10
52.8889
 20
159.48400000000001
 30
0.0
 11
52.871000000000002
 21
159.60900000000001
 31
0.0
  0
ARC
  5
322
  8
_________1
 62
     7
 10
52.485579000000001
 20
167.84160900000001
 30
0.0
 40
9.5382160000000002
 50
298.81145400000003
 51
300.3295490000001
  0
ARC
  5
323
  8
_________1
 62
     7
 10
55.988649999999993
 20
164.79024699999999
 30
0.0
 40
6.0349949999999994
 50
239.155373
 51
241.549114
  0
ARC
  5
324
  8
_________1
 62
     7
 10
58.461702000000002
 20
166.27883199999999
 30
0.0
 40
7.6085779999999987
 50
296.74318799999998
 51
298.760177
  0
ARC
  5
325
  8
_________1
 62
     7
 10
60.461401000000002
 20
165.22348099999999
 30
0.0
 40
6.416275999999999
 50
241.052415
 51
243.44426000000001
  0
LINE
  5
326
  8
_________1
 62
     7
 10
62.152799999999992
 20
159.60900000000001
 30
0.0
 11
62.1708
 21
159.48400000000001
 31
0.0
  0
LINE
  5
327
  8
_________1
 62
     7
 10
62.494599999999998
 20
159.48400000000001
 30
0.0
 11
62.512500000000003
 21
159.60900000000001
 31
0.0
  0
LINE
  5
328
  8
_________1
 62
     7
 10
52.871000000000002
 20
160.85499999999999
 30
0.0
 11
52.871000000000002
 21
159.60900000000001
 31
0.0
  0
LINE
  5
329
  8
_________1
 62
     7
 10
52.89439999999999
 20
159.60900000000001
 30
0.0
 11
52.89439999999999
 21
160.85499999999999
 31
0.0
  0
LINE
  5
32A
  8
_________1
 62
     7
 10
57.302100000000003
 20
160.85499999999999
 30
0.0
 11
57.302100000000003
 21
159.60900000000001
 31
0.0
  0
LINE
  5
32B
  8
_________1
 62
     7
 10
57.355899999999998
 20
159.60900000000001
 30
0.0
 11
57.355899999999998
 21
160.85499999999999
 31
0.0
  0
LINE
  5
32C
  8
_________1
 62
     7
 10
62.122500000000002
 20
160.85499999999999
 30
0.0
 11
62.122500000000002
 21
159.60900000000001
 31
0.0
  0
LINE
  5
32D
  8
_________1
 62
     7
 10
62.152799999999992
 20
159.60900000000001
 30
0.0
 11
62.152799999999992
 21
160.85499999999999
 31
0.0
  0
LINE
  5
32E
  8
_________1
 62
     7
 10
62.512500000000003
 20
160.85499999999999
 30
0.0
 11
62.512500000000003
 21
159.60900000000001
 31
0.0
  0
LINE
  5
32F
  8
_________1
 62
     7
 10
52.89439999999999
 20
160.85499999999999
 30
0.0
 11
52.871000000000002
 21
160.85499999999999
 31
0.0
  0
LINE
  5
330
  8
_________1
 62
     7
 10
57.355899999999998
 20
160.85499999999999
 30
0.0
 11
57.302100000000003
 21
160.85499999999999
 31
0.0
  0
LINE
  5
331
  8
_________1
 62
     7
 10
62.152799999999992
 20
160.85499999999999
 30
0.0
 11
62.122500000000002
 21
160.85499999999999
 31
0.0
  0
LINE
  5
332
  8
_________1
 62
     7
 10
52.89439999999999
 20
159.60900000000001
 30
0.0
 11
52.871000000000002
 21
159.60900000000001
 31
0.0
  0
LINE
  5
333
  8
_________1
 62
     7
 10
57.355899999999998
 20
159.60900000000001
 30
0.0
 11
57.302100000000003
 21
159.60900000000001
 31
0.0
  0
LINE
  5
334
  8
_________1
 62
     7
 10
62.152799999999992
 20
159.60900000000001
 30
0.0
 11
62.122500000000002
 21
159.60900000000001
 31
0.0
  0
LINE
  5
335
  8
_________1
 62
     7
 10
53.113500000000002
 20
159.48400000000001
 30
0.0
 11
52.8889
 21
159.48400000000001
 31
0.0
  0
LINE
  5
336
  8
_________1
 62
     7
 10
57.082299999999996
 20
159.48400000000001
 30
0.0
 11
53.113500000000002
 21
159.48400000000001
 31
0.0
  0
LINE
  5
337
  8
_________1
 62
     7
 10
57.5929
 20
159.48400000000001
 30
0.0
 11
57.082299999999996
 21
159.48400000000001
 31
0.0
  0
LINE
  5
338
  8
_________1
 62
     7
 10
61.8855
 20
159.48400000000001
 30
0.0
 11
57.5929
 21
159.48400000000001
 31
0.0
  0
LINE
  5
339
  8
_________1
 62
     7
 10
62.1708
 20
159.48400000000001
 30
0.0
 11
61.8855
 21
159.48400000000001
 31
0.0
  0
LINE
  5
33A
  8
_________1
 62
     7
 10
62.494599999999998
 20
159.48400000000001
 30
0.0
 11
62.1708
 21
159.48400000000001
 31
0.0
  0
LINE
  5
33B
  8
_________1
 62
     7
 10
51.405500000000011
 20
161.976
 30
0.0
 11
51.405500000000011
 21
161.35300000000001
 31
0.0
  0
LINE
  5
33C
  8
_________1
 62
     7
 10
63.978099999999991
 20
161.976
 30
0.0
 11
63.978099999999991
 21
161.35300000000001
 31
0.0
  0
LINE
  5
33D
  8
_________1
 62
     7
 10
61.481000000000002
 20
161.35300000000001
 30
0.0
 11
63.978099999999991
 21
161.35300000000001
 31
0.0
  0
LINE
  5
33E
  8
_________1
 62
     7
 10
51.405500000000011
 20
161.35300000000001
 30
0.0
 11
61.481000000000002
 21
161.35300000000001
 31
0.0
  0
LINE
  5
33F
  8
_________1
 62
     7
 10
61.481000000000002
 20
161.976
 30
0.0
 11
63.978099999999991
 21
161.976
 31
0.0
  0
LINE
  5
340
  8
_________1
 62
     7
 10
51.405500000000011
 20
161.976
 30
0.0
 11
61.481000000000002
 21
161.976
 31
0.0
  0
LINE
  5
341
  8
_________1
 62
     7
 10
51.405500000000011
 20
160.97900000000001
 30
0.0
 11
51.405500000000011
 21
161.10400000000001
 31
0.0
  0
LINE
  5
342
  8
_________1
 62
     7
 10
63.978099999999991
 20
160.97900000000001
 30
0.0
 11
63.978099999999991
 21
161.10400000000001
 31
0.0
  0
ARC
  5
343
  8
_________1
 62
     7
 10
52.164003999999998
 20
161.09654800000001
 30
0.0
 40
0.256929
 50
90.907062999999994
 51
168.891649
  0
ARC
  5
344
  8
_________1
 62
     7
 10
63.217219999999998
 20
161.09379799999999
 30
0.0
 40
0.259725
 50
11.605891
 51
88.595357000000007
  0
ARC
  5
345
  8
_________1
 62
     7
 10
51.860680999999992
 20
161.15619699999999
 30
0.0
 40
0.052203
 50
271.75374399999998
 51
348.79029100000002
  0
ARC
  5
346
  8
_________1
 62
     7
 10
63.522633999999996
 20
161.15595200000001
 30
0.0
 40
0.051952
 50
190.98844800000001
 51
268.467557
  0
LINE
  5
347
  8
_________1
 62
     7
 10
63.471600000000002
 20
161.14599999999999
 30
0.0
 11
51.911900000000003
 21
161.14599999999999
 31
0.0
  0
LINE
  5
348
  8
_________1
 62
     7
 10
63.978099999999991
 20
161.10400000000001
 30
0.0
 11
51.405500000000011
 21
161.10400000000001
 31
0.0
  0
LINE
  5
349
  8
_________1
 62
     7
 10
63.978099999999991
 20
160.97900000000001
 30
0.0
 11
51.405500000000011
 21
160.97900000000001
 31
0.0
  0
LINE
  5
34A
  8
_________1
  6
AIGENLINE001
 62
     7
 10
57.691400000000002
 20
215.744
 30
0.0
 11
57.691400000000002
 21
184.648
 31
0.0
  0
LINE
  5
34B
  8
_________1
 62
     7
 10
62.191400000000002
 20
182.816
 30
0.0
 11
62.756399999999999
 21
184.017
 31
0.0
  0
LINE
  5
34C
  8
_________1
 62
     7
 10
62.191400000000002
 20
179.86699999999999
 30
0.0
 11
63.896099999999997
 21
183.4909999999999
 31
0.0
  0
ARC
  5
34D
  8
_________1
 62
     7
 10
64.601301000000007
 20
183.1148
 30
0.0
 40
2.0536490000000001
 50
90.605870999999993
 51
153.94050200000001
  0
ARC
  5
34E
  8
_________1
 62
     7
 10
64.587032999999991
 20
183.15285600000001
 30
0.0
 40
0.769072
 50
90.554921999999976
 51
153.952868
  0
LINE
  5
34F
  8
_________1
 62
     7
 10
64.579599999999985
 20
185.16800000000001
 30
0.0
 11
67.093100000000007
 21
185.16800000000001
 31
0.0
  0
LINE
  5
350
  8
_________1
 62
     7
 10
64.579599999999985
 20
183.922
 30
0.0
 11
67.093100000000007
 21
183.922
 31
0.0
  0
ARC
  5
351
  8
_________1
 62
     7
 10
67.079594999999998
 20
184.77776700000001
 30
0.0
 40
0.390803
 50
2.4598729999999991
 51
88.013415000000009
  0
ARC
  5
352
  8
_________1
 62
     7
 10
67.081327999999999
 20
184.310699
 30
0.0
 40
0.388987
 50
271.74043399999999
 51
357.83905800000002
  0
LINE
  5
353
  8
_________1
 62
     7
 10
67.469999999999985
 20
184.5449999999999
 30
0.0
 11
67.469999999999985
 21
184.29599999999999
 31
0.0
  0
LINE
  5
354
  8
_________1
 62
     7
 10
67.469999999999985
 20
184.79499999999999
 30
0.0
 11
67.469999999999985
 21
184.5449999999999
 31
0.0
  0
LINE
  5
355
  8
_________1
  6
AIGENLINE001
 62
     7
 10
27.691299999999998
 20
200.32400000000001
 30
0.0
 11
27.691299999999998
 21
206.69900000000001
 31
0.0
  0
LINE
  5
356
  8
_________1
 62
     7
 10
30.017499999999998
 20
201.477
 30
0.0
 11
30.017499999999998
 21
201.863
 31
0.0
  0
LINE
  5
357
  8
_________1
 62
     7
 10
25.3659
 20
201.477
 30
0.0
 11
25.3659
 21
201.863
 31
0.0
  0
LINE
  5
358
  8
_________1
 62
     7
 10
30.017499999999998
 20
201.477
 30
0.0
 11
25.3659
 21
201.477
 31
0.0
  0
LINE
  5
359
  8
_________1
 62
     7
 10
50.191400000000002
 20
171.977
 30
0.0
 11
50.191400000000002
 21
172.72399999999999
 31
0.0
  0
LINE
  5
35A
  8
_________1
 62
     7
 10
65.191400000000002
 20
171.977
 30
0.0
 11
65.191400000000002
 21
172.72399999999999
 31
0.0
  0
LINE
  5
35B
  8
_________1
 62
     7
 10
65.191400000000002
 20
172.72399999999999
 30
0.0
 11
50.191400000000002
 21
172.72399999999999
 31
0.0
  0
LINE
  5
35C
  8
_________1
 62
     7
 10
65.191400000000002
 20
171.977
 30
0.0
 11
50.191400000000002
 21
171.977
 31
0.0
  0
ARC
  5
35D
  8
_________1
 62
     7
 10
57.578901999999999
 20
207.22395299999999
 30
0.0
 40
0.5226060000000001
 50
270.24906600000008
 51
291.44443699999999
  0
LINE
  5
35E
  8
_________1
 62
     7
 10
60.947699999999998
 20
208.00999999999999
 30
0.0
 11
57.77000000000001
 21
206.738
 31
0.0
  0
LINE
  5
35F
  8
_________1
 62
     7
 10
57.581200000000003
 20
206.70099999999999
 30
0.0
 11
53.404299999999999
 21
206.70099999999999
 31
0.0
  0
LINE
  5
360
  8
_________1
 62
     7
 10
53.153500000000001
 20
206.70099999999999
 30
0.0
 11
53.404299999999999
 21
206.70099999999999
 31
0.0
  0
ARC
  5
361
  8
_________1
 62
     7
 10
41.12968
 20
214.74815599999999
 30
0.0
 40
0.26037
 50
173.51389
 51
259.09876700000001
  0
LINE
  5
362
  8
_________1
 62
     7
 10
40.871000000000002
 20
214.77799999999999
 30
0.0
 11
40.949499999999993
 21
215.27000000000001
 31
0.0
  0
ARC
  5
363
  8
_________1
 62
     7
 10
61.944963999999999
 20
211.96239199999999
 30
0.0
 40
0.260437
 50
2.1981509999999989
 51
79.373482999999993
  0
LINE
  5
364
  8
_________1
 62
     7
 10
62.205199999999998
 20
211.97200000000001
 30
0.0
 11
62.205199999999998
 21
208.51400000000001
 31
0.0
  0
ARC
  5
365
  8
_________1
 62
     7
 10
41.205007999999999
 20
215.21850599999999
 30
0.0
 40
0.26063
 50
82.830344999999994
 51
168.59430699999999
  0
LINE
  5
366
  8
_________1
 62
     7
 10
41.08039999999999
 20
214.49199999999999
 30
0.0
 11
42.073999999999991
 21
214.33600000000001
 31
0.0
  0
LINE
  5
367
  8
_________1
 62
     7
 10
52.092399999999998
 20
212.76300000000001
 30
0.0
 11
42.073999999999991
 21
214.33600000000001
 31
0.0
  0
ARC
  5
368
  8
_________1
 62
     7
 10
51.856802000000002
 20
211.48746499999999
 30
0.0
 40
1.2974870000000001
 50
1.986429999999999
 51
79.537599
  0
LINE
  5
369
  8
_________1
 62
     7
 10
53.153500000000001
 20
206.70099999999999
 30
0.0
 11
53.153500000000001
 21
211.53200000000001
 31
0.0
  0
LINE
  5
36A
  8
_________1
 62
     7
 10
61.993000000000002
 20
212.21799999999999
 30
0.0
 11
60.987000000000002
 21
212.376
 31
0.0
  0
LINE
  5
36B
  8
_________1
 62
     7
 10
41.237499999999997
 20
215.477
 30
0.0
 11
42.231099999999998
 21
215.321
 31
0.0
  0
LINE
  5
36C
  8
_________1
 62
     7
 10
42.231099999999998
 20
215.321
 30
0.0
 11
60.987000000000002
 21
212.376
 31
0.0
  0
LINE
  5
36D
  8
_________1
 62
     7
 10
62.205199999999998
 20
208.51400000000001
 30
0.0
 11
60.947699999999998
 21
208.00999999999999
 31
0.0
  0
ARC
  5
36E
  8
_________1
 62
     7
 10
57.810825999999999
 20
205.85339200000001
 30
0.0
 40
4.3379240000000001
 50
168.72746000000001
 51
176.69761800000001
  0
ARC
  5
36F
  8
_________1
 62
     7
 10
57.54297600000001
 20
205.841971
 30
0.0
 40
4.368263999999999
 50
3.4294579999999999
 51
31.67465399999999
  0
ARC
  5
370
  8
_________1
 62
     7
 10
24.056633999999999
 20
202.124506
 30
0.0
 40
0.261307
 50
182.60547600000001
 51
267.90699999999998
  0
ARC
  5
371
  8
_________1
 62
     7
 10
24.054580000000001
 20
205.84421900000001
 30
0.0
 40
0.259168
 50
91.655926000000008
 51
177.83159800000001
  0
LINE
  5
372
  8
_________1
 62
     7
 10
23.7956
 20
205.85400000000001
 30
0.0
 11
23.7956
 21
202.113
 31
0.0
  0
ARC
  5
373
  8
_________1
 62
     7
 10
61.930392000000012
 20
205.84214600000001
 30
0.0
 40
0.261307
 50
2.6054560000000002
 51
87.906980000000004
  0
LINE
  5
374
  8
_________1
 62
     7
 10
62.191400000000002
 20
205.85400000000001
 30
0.0
 11
62.191400000000002
 21
172.72399999999999
 31
0.0
  0
LINE
  5
375
  8
_________1
 62
     7
 10
24.0471
 20
206.10300000000001
 30
0.0
 11
25.052399999999999
 21
206.10300000000001
 31
0.0
  0
LINE
  5
376
  8
_________1
 62
     7
 10
25.052399999999999
 20
206.10300000000001
 30
0.0
 11
60.934699999999992
 21
206.10300000000001
 31
0.0
  0
LINE
  5
377
  8
_________1
 62
     7
 10
60.934699999999992
 20
206.10300000000001
 30
0.0
 11
61.939900000000002
 21
206.10300000000001
 31
0.0
  0
LINE
  5
378
  8
_________1
 62
     7
 10
53.191400000000002
 20
198.124
 30
0.0
 11
53.191400000000002
 21
172.72399999999999
 31
0.0
  0
ARC
  5
379
  8
_________1
 62
     7
 10
49.278647999999997
 20
197.949265
 30
0.0
 40
3.9166729999999998
 50
2.5626660000000001
 51
87.926197999999999
  0
LINE
  5
37A
  8
_________1
 62
     7
 10
25.052399999999999
 20
201.863
 30
0.0
 11
49.420400000000001
 21
201.863
 31
0.0
  0
LINE
  5
37B
  8
_________1
 62
     7
 10
24.0471
 20
201.863
 30
0.0
 11
25.052399999999999
 21
201.863
 31
0.0
  0
LINE
  5
37C
  8
_________1
  6
AIGENLINE001
 62
     7
 10
-24.656500000000001
 20
217.97999999999999
 30
0.0
 11
-24.656500000000001
 21
79.3018
 31
0.0
  0
LINE
  5
37D
  8
_________1
 62
     7
 10
-30.888100000000001
 20
171.977
 30
0.0
 11
-30.888100000000001
 21
171.60300000000001
 31
0.0
  0
LINE
  5
37E
  8
_________1
 62
     7
 10
-18.425000000000001
 20
171.977
 30
0.0
 11
-18.425000000000001
 21
171.60300000000001
 31
0.0
  0
LINE
  5
37F
  8
_________1
 62
     7
 10
-18.425000000000001
 20
171.60300000000001
 30
0.0
 11
-30.888100000000001
 21
171.60300000000001
 31
0.0
  0
ARC
  5
380
  8
_________1
 62
     7
 10
-23.229393000000002
 20
153.35868199999999
 30
0.0
 40
8.3772130000000011
 50
114.538155
 51
116.51754099999999
  0
ARC
  5
381
  8
_________1
 62
     7
 10
-25.719514
 20
152.81261499999999
 30
0.0
 40
8.9822729999999993
 50
63.549112999999998
 51
65.395151999999996
  0
ARC
  5
382
  8
_________1
 62
     7
 10
-26.839596000000011
 20
157.357404
 30
0.0
 40
4.6813859999999989
 50
129.31435200000001
 51
131.665268
  0
ARC
  5
383
  8
_________1
 62
     7
 10
-29.759222000000001
 20
157.80590599999999
 30
0.0
 40
4.0999749999999988
 50
48.037827
 51
50.714861999999989
  0
ARC
  5
384
  8
_________1
 62
     7
 10
-27.225449000000001
 20
158.451494
 30
0.0
 40
3.6367569999999989
 50
135.96694299999999
 51
138.640547
  0
ARC
  5
385
  8
_________1
 62
     7
 10
-17.271463000000001
 20
156.90761800000001
 30
0.0
 40
5.9131039999999988
 50
136.48161400000001
 51
138.125877
  0
ARC
  5
386
  8
_________1
 62
     7
 10
-22.553847999999999
 20
158.02068700000001
 30
0.0
 40
4.2719129999999987
 50
41.558219999999992
 51
43.834249999999997
  0
ARC
  5
387
  8
_________1
 62
     7
 10
-21.566153
 20
170.587444
 30
0.0
 40
12.236293
 50
243.7946060000001
 51
245.149698
  0
ARC
  5
388
  8
_________1
 62
     7
 10
-25.458727
 20
167.104748
 30
0.0
 40
8.3772130000000011
 50
294.53817500000002
 51
296.517561
  0
ARC
  5
389
  8
_________1
 62
     7
 10
-27.475146000000009
 20
162.361625
 30
0.0
 40
3.7028430000000001
 50
228.024034
 51
230.99634599999999
  0
ARC
  5
38A
  8
_________1
 62
     7
 10
-31.221871
 20
164.36260200000001
 30
0.0
 40
6.3460510000000001
 50
309.75892900000002
 51
311.488381
  0
ARC
  5
38B
  8
_________1
 62
     7
 10
-27.772493999999998
 20
161.507204
 30
0.0
 40
2.8926910000000001
 50
221.01550800000001
 51
224.377002
  0
ARC
  5
38C
  8
_________1
 62
     7
 10
-18.503003
 20
162.41952900000001
 30
0.0
 40
4.2376870000000002
 50
221.549047
 51
223.84346300000001
  0
ARC
  5
38D
  8
_________1
 62
     7
 10
-24.033087999999999
 20
163.80756700000001
 30
0.0
 40
6.2843269999999993
 50
316.53020099999998
 51
318.07732900000002
  0
LINE
  5
38E
  8
_________1
 62
     7
 10
-21.718499999999999
 20
159.60900000000001
 30
0.0
 11
-21.718499999999999
 21
160.85499999999999
 31
0.0
  0
LINE
  5
38F
  8
_________1
 62
     7
 10
-26.9696
 20
160.85499999999999
 30
0.0
 11
-26.9696
 21
159.60900000000001
 31
0.0
  0
LINE
  5
390
  8
_________1
 62
     7
 10
-27.017800000000001
 20
159.60900000000001
 30
0.0
 11
-27.017800000000001
 21
160.85499999999999
 31
0.0
  0
LINE
  5
391
  8
_________1
 62
     7
 10
-29.951699999999999
 20
160.85499999999999
 30
0.0
 11
-29.951699999999999
 21
159.60900000000001
 31
0.0
  0
LINE
  5
392
  8
_________1
 62
     7
 10
-29.955100000000002
 20
159.60900000000001
 30
0.0
 11
-29.955100000000002
 21
160.85499999999999
 31
0.0
  0
LINE
  5
393
  8
_________1
 62
     7
 10
-19.357299999999999
 20
159.60900000000001
 30
0.0
 11
-19.357299999999999
 21
160.85499999999999
 31
0.0
  0
LINE
  5
394
  8
_________1
 62
     7
 10
-21.674399999999999
 20
160.85499999999999
 30
0.0
 11
-21.674399999999999
 21
159.60900000000001
 31
0.0
  0
LINE
  5
395
  8
_________1
 62
     7
 10
-21.718499999999999
 20
160.85499999999999
 30
0.0
 11
-21.674399999999999
 21
160.85499999999999
 31
0.0
  0
LINE
  5
396
  8
_________1
 62
     7
 10
-27.017800000000001
 20
160.85499999999999
 30
0.0
 11
-26.9696
 21
160.85499999999999
 31
0.0
  0
LINE
  5
397
  8
_________1
 62
     7
 10
-21.718499999999999
 20
159.60900000000001
 30
0.0
 11
-21.674399999999999
 21
159.60900000000001
 31
0.0
  0
LINE
  5
398
  8
_________1
 62
     7
 10
-27.017800000000001
 20
159.60900000000001
 30
0.0
 11
-26.9696
 21
159.60900000000001
 31
0.0
  0
LINE
  5
399
  8
_________1
 62
     7
 10
-26.708400000000001
 20
159.48400000000001
 30
0.0
 11
-21.979700000000001
 21
159.48400000000001
 31
0.0
  0
LINE
  5
39A
  8
_________1
 62
     7
 10
-21.979700000000001
 20
159.48400000000001
 30
0.0
 11
-21.5594
 21
159.48400000000001
 31
0.0
  0
LINE
  5
39B
  8
_________1
 62
     7
 10
-27.1632
 20
159.48400000000001
 30
0.0
 11
-26.708400000000001
 21
159.48400000000001
 31
0.0
  0
LINE
  5
39C
  8
_________1
 62
     7
 10
-29.805599999999998
 20
159.48400000000001
 30
0.0
 11
-27.1632
 21
159.48400000000001
 31
0.0
  0
LINE
  5
39D
  8
_________1
 62
     7
 10
-29.8401
 20
159.48400000000001
 30
0.0
 11
-29.805599999999998
 21
159.48400000000001
 31
0.0
  0
LINE
  5
39E
  8
_________1
 62
     7
 10
-21.5594
 20
159.48400000000001
 30
0.0
 11
-19.472300000000001
 21
159.48400000000001
 31
0.0
  0
LINE
  5
39F
  8
_________1
 62
     7
 10
-30.888100000000001
 20
161.976
 30
0.0
 11
-30.888100000000001
 21
161.35300000000001
 31
0.0
  0
LINE
  5
3A0
  8
_________1
 62
     7
 10
-18.425000000000001
 20
161.976
 30
0.0
 11
-18.425000000000001
 21
161.35300000000001
 31
0.0
  0
LINE
  5
3A1
  8
_________1
 62
     7
 10
-18.425000000000001
 20
161.35300000000001
 30
0.0
 11
-30.888100000000001
 21
161.35300000000001
 31
0.0
  0
LINE
  5
3A2
  8
_________1
 62
     7
 10
-18.425000000000001
 20
161.976
 30
0.0
 11
-30.888100000000001
 21
161.976
 31
0.0
  0
LINE
  5
3A3
  8
_________1
 62
     7
 10
-18.425000000000001
 20
160.97900000000001
 30
0.0
 11
-18.425000000000001
 21
161.10400000000001
 31
0.0
  0
LINE
  5
3A4
  8
_________1
 62
     7
 10
-30.888100000000001
 20
160.97900000000001
 30
0.0
 11
-30.888100000000001
 21
161.10400000000001
 31
0.0
  0
ARC
  5
3A5
  8
_________1
 62
     7
 10
-19.17933
 20
161.09672499999999
 30
0.0
 40
0.256809
 50
11.073426
 51
88.497147999999996
  0
ARC
  5
3A6
  8
_________1
 62
     7
 10
-30.134025000000001
 20
161.097069
 30
0.0
 40
0.256457
 50
91.439886999999985
 51
168.989499
  0
ARC
  5
3A7
  8
_________1
 62
     7
 10
-18.876017000000001
 20
161.15628899999999
 30
0.0
 40
0.052297
 50
191.29121599999999
 51
268.16478799999999
  0
ARC
  5
3A8
  8
_________1
 62
     7
 10
-30.436361000000002
 20
161.15545700000001
 30
0.0
 40
0.051466
 50
271.86844200000002
 51
349.46694100000002
  0
LINE
  5
3A9
  8
_________1
 62
     7
 10
-30.3858
 20
161.14599999999999
 30
0.0
 11
-18.927299999999999
 21
161.14599999999999
 31
0.0
  0
LINE
  5
3AA
  8
_________1
 62
     7
 10
-30.888100000000001
 20
161.10400000000001
 30
0.0
 11
-18.425000000000001
 21
161.10400000000001
 31
0.0
  0
LINE
  5
3AB
  8
_________1
 62
     7
 10
-30.888100000000001
 20
160.97900000000001
 30
0.0
 11
-18.425000000000001
 21
160.97900000000001
 31
0.0
  0
LINE
  5
3AC
  8
_________1
 62
     7
 10
-26.962
 20
201.477
 30
0.0
 11
-26.962
 21
201.863
 31
0.0
  0
LINE
  5
3AD
  8
_________1
 62
     7
 10
-22.3504
 20
201.477
 30
0.0
 11
-22.3504
 21
201.863
 31
0.0
  0
LINE
  5
3AE
  8
_________1
 62
     7
 10
-24.274100000000001
 20
201.477
 30
0.0
 11
-22.3504
 21
201.477
 31
0.0
  0
LINE
  5
3AF
  8
_________1
 62
     7
 10
-26.962
 20
201.477
 30
0.0
 11
-24.274100000000001
 21
201.477
 31
0.0
  0
LINE
  5
3B0
  8
_________1
 62
     7
 10
-17.178599999999999
 20
171.977
 30
0.0
 11
-17.178599999999999
 21
172.72399999999999
 31
0.0
  0
LINE
  5
3B1
  8
_________1
 62
     7
 10
-32.134500000000003
 20
171.977
 30
0.0
 11
-32.134500000000003
 21
172.72399999999999
 31
0.0
  0
LINE
  5
3B2
  8
_________1
 62
     7
 10
-32.134500000000003
 20
172.72399999999999
 30
0.0
 11
-17.178599999999999
 21
172.72399999999999
 31
0.0
  0
LINE
  5
3B3
  8
_________1
 62
     7
 10
-32.134500000000003
 20
171.977
 30
0.0
 11
-17.178599999999999
 21
171.977
 31
0.0
  0
ARC
  5
3B4
  8
_________1
 62
     7
 10
-28.853594000000001
 20
215.074262
 30
0.0
 40
0.277457
 50
152.34556499999999
 51
179.872016
  0
ARC
  5
3B5
  8
_________1
 62
     7
 10
-28.836216
 20
215.06406899999999
 30
0.0
 40
0.297582
 50
129.876822
 51
152.16021599999999
  0
ARC
  5
3B6
  8
_________1
 62
     7
 10
-28.800941999999999
 20
215.030147
 30
0.0
 40
0.346271
 50
119.32029900000001
 51
130.75745000000001
  0
ARC
  5
3B7
  8
_________1
 62
     7
 10
-28.697627000000001
 20
214.84760900000001
 30
0.0
 40
0.556018
 50
108.648787
 51
119.39168100000001
  0
ARC
  5
3B8
  8
_________1
 62
     7
 10
-28.544671999999998
 20
214.41386800000001
 30
0.0
 40
1.015914999999999
 50
102.297217
 51
109.000055
  0
ARC
  5
3B9
  8
_________1
 62
     7
 10
-28.320107
 20
213.45673099999999
 30
0.0
 40
1.9989799999999991
 50
96.808648000000005
 51
102.74318
  0
ARC
  5
3BA
  8
_________1
 62
     7
 10
-28.134001999999999
 20
212.274575
 30
0.0
 40
3.195174999999999
 50
94.731537999999986
 51
97.609205000000003
  0
ARC
  5
3BB
  8
_________1
 62
     7
 10
-27.928743999999998
 20
210.09478799999999
 30
0.0
 40
5.3845219999999996
 50
91.935527000000008
 51
94.99494
  0
ARC
  5
3BC
  8
_________1
 62
     7
 10
-27.884567000000001
 20
209.030013
 30
0.0
 40
6.4501860000000004
 50
90.000347999999988
 51
92.008271999999991
  0
LINE
  5
3BD
  8
_________1
 62
     7
 10
-21.403700000000001
 20
215.47999999999999
 30
0.0
 11
-27.884599999999999
 21
215.47999999999999
 31
0.0
  0
ARC
  5
3BE
  8
_________1
 62
     7
 10
-21.402497
 20
209.024666
 30
0.0
 40
6.4555329999999991
 50
87.385831999999979
 51
90.010243000000003
  0
ARC
  5
3BF
  8
_________1
 62
     7
 10
-21.325251999999999
 20
210.716498
 30
0.0
 40
4.761938999999999
 50
82.139189000000016
 51
87.385840000000016
  0
ARC
  5
3C0
  8
_________1
 62
     7
 10
-20.989467000000001
 20
213.34559200000001
 30
0.0
 40
2.1117970000000001
 50
75.895714999999996
 51
81.408159999999995
  0
ARC
  5
3C1
  8
_________1
 62
     7
 10
-20.693930999999999
 20
214.57920799999999
 30
0.0
 40
0.843468
 50
66.916224999999997
 51
74.945371999999992
  0
ARC
  5
3C2
  8
_________1
 62
     7
 10
-20.584289999999999
 20
214.866637
 30
0.0
 40
0.536196
 50
57.350521999999998
 51
65.651801000000006
  0
ARC
  5
3C3
  8
_________1
 62
     7
 10
-20.484825000000001
 20
215.03007099999999
 30
0.0
 40
0.344953
 50
46.521926999999998
 51
56.615589999999997
  0
ARC
  5
3C4
  8
_________1
 62
     7
 10
-20.455698999999999
 20
215.06186299999999
 30
0.0
 40
0.301844
 50
25.253606000000001
 51
46.381529999999998
  0
ARC
  5
3C5
  8
_________1
 62
     7
 10
-20.446346999999999
 20
215.071887
 30
0.0
 40
0.289154
 50
0.5932680000000001
 51
24.247589000000001
  0
LINE
  5
3C6
  8
_________1
 62
     7
 10
-20.406600000000001
 20
206.70099999999999
 30
0.0
 11
-20.1572
 21
206.70099999999999
 31
0.0
  0
LINE
  5
3C7
  8
_________1
 62
     7
 10
-28.881599999999999
 20
206.70099999999999
 30
0.0
 11
-29.1311
 21
206.70099999999999
 31
0.0
  0
LINE
  5
3C8
  8
_________1
 62
     7
 10
-20.1572
 20
211.53200000000001
 30
0.0
 11
-20.406600000000001
 21
211.53200000000001
 31
0.0
  0
LINE
  5
3C9
  8
_________1
 62
     7
 10
-20.406600000000001
 20
206.70099999999999
 30
0.0
 11
-28.881599999999999
 21
206.70099999999999
 31
0.0
  0
LINE
  5
3CA
  8
_________1
 62
     7
 10
-20.406600000000001
 20
211.53200000000001
 30
0.0
 11
-28.881599999999999
 21
211.53200000000001
 31
0.0
  0
ARC
  5
3CB
  8
_________1
 62
     7
 10
-20.416045
 20
213.02236300000001
 30
0.0
 40
0.259154
 50
272.08078999999998
 51
357.16245700000002
  0
LINE
  5
3CC
  8
_________1
 62
     7
 10
-20.406600000000001
 20
212.76300000000001
 30
0.0
 11
-28.881599999999999
 21
212.76300000000001
 31
0.0
  0
LINE
  5
3CD
  8
_________1
 62
     7
 10
-20.1572
 20
214.58199999999999
 30
0.0
 11
-20.1572
 21
215.07499999999999
 31
0.0
  0
ARC
  5
3CE
  8
_________1
 62
     7
 10
-28.872198999999998
 20
213.022378
 30
0.0
 40
0.2591699999999999
 50
182.840867
 51
267.91592600000001
  0
LINE
  5
3CF
  8
_________1
 62
     7
 10
-29.1311
 20
214.58199999999999
 30
0.0
 11
-29.1311
 21
215.07499999999999
 31
0.0
  0
LINE
  5
3D0
  8
_________1
 62
     7
 10
-29.1311
 20
211.53200000000001
 30
0.0
 11
-28.881599999999999
 21
211.53200000000001
 31
0.0
  0
LINE
  5
3D1
  8
_________1
 62
     7
 10
-20.1572
 20
206.70099999999999
 30
0.0
 11
-20.1572
 21
211.53200000000001
 31
0.0
  0
LINE
  5
3D2
  8
_________1
 62
     7
 10
-20.1572
 20
213.00999999999999
 30
0.0
 11
-20.1572
 21
211.53200000000001
 31
0.0
  0
LINE
  5
3D3
  8
_________1
 62
     7
 10
-20.1572
 20
213.00999999999999
 30
0.0
 11
-20.1572
 21
214.58199999999999
 31
0.0
  0
ARC
  5
3D4
  8
_________1
 62
     7
 10
-21.405200000000001
 20
207.67294699999999
 30
0.0
 40
7.1046209999999999
 50
83.580250000000007
 51
89.987507999999991
  0
ARC
  5
3D5
  8
_________1
 62
     7
 10
-20.956191
 20
211.98166000000001
 30
0.0
 40
2.7729499999999989
 50
78.722094999999996
 51
82.845275999999998
  0
ARC
  5
3D6
  8
_________1
 62
     7
 10
-20.652905000000001
 20
213.481337
 30
0.0
 40
1.2429250000000001
 50
72.547314999999998
 51
78.912998000000002
  0
ARC
  5
3D7
  8
_________1
 62
     7
 10
-20.411743999999999
 20
214.24073000000001
 30
0.0
 40
0.4461680000000001
 50
62.321989000000009
 51
72.843087999999995
  0
ARC
  5
3D8
  8
_________1
 62
     7
 10
-20.264479000000001
 20
214.518326
 30
0.0
 40
0.13194
 50
43.834291
 51
62.960582999999993
  0
ARC
  5
3D9
  8
_________1
 62
     7
 10
-20.199262000000001
 20
214.58010200000001
 30
0.0
 40
0.042116
 50
3.1305239999999999
 51
44.658119999999997
  0
LINE
  5
3DA
  8
_________1
 62
     7
 10
-21.403700000000001
 20
214.77799999999999
 30
0.0
 11
-27.884599999999999
 21
214.77799999999999
 31
0.0
  0
ARC
  5
3DB
  8
_________1
 62
     7
 10
-27.883064999999998
 20
207.67305400000001
 30
0.0
 40
7.1045139999999991
 50
90.012423999999996
 51
96.419778000000008
  0
ARC
  5
3DC
  8
_________1
 62
     7
 10
-28.332288999999999
 20
211.98302100000001
 30
0.0
 40
2.771571999999999
 50
97.153677999999999
 51
101.27891099999999
  0
ARC
  5
3DD
  8
_________1
 62
     7
 10
-28.635354
 20
213.481337
 30
0.0
 40
1.2429250000000001
 50
101.08698200000001
 51
107.452665
  0
ARC
  5
3DE
  8
_________1
 62
     7
 10
-28.876705000000001
 20
214.24119200000001
 30
0.0
 40
0.44567
 50
107.151003
 51
117.683881
  0
ARC
  5
3DF
  8
_________1
 62
     7
 10
-29.023688
 20
214.518182
 30
0.0
 40
0.132111
 50
117.046722
 51
136.14997500000001
  0
ARC
  5
3E0
  8
_________1
 62
     7
 10
-29.088968000000001
 20
214.580095
 30
0.0
 40
0.042145
 50
135.36778799999999
 51
176.862416
  0
LINE
  5
3E1
  8
_________1
 62
     7
 10
-29.1311
 20
213.00999999999999
 30
0.0
 11
-29.1311
 21
214.58199999999999
 31
0.0
  0
LINE
  5
3E2
  8
_________1
 62
     7
 10
-29.1311
 20
213.00999999999999
 30
0.0
 11
-29.1311
 21
211.53200000000001
 31
0.0
  0
LINE
  5
3E3
  8
_________1
 62
     7
 10
-29.1311
 20
206.70099999999999
 30
0.0
 11
-29.1311
 21
211.53200000000001
 31
0.0
  0
ARC
  5
3E4
  8
_________1
 62
     7
 10
-24.957794
 20
205.839788
 30
0.0
 40
4.4844919999999986
 50
3.3684080000000001
 51
11.076561999999999
  0
ARC
  5
3E5
  8
_________1
 62
     7
 10
-24.573528
 20
205.867535
 30
0.0
 40
4.2643190000000004
 50
168.72410300000001
 51
176.83088799999999
  0
LINE
  5
3E6
  8
_________1
 62
     7
 10
-27.872199999999999
 20
201.863
 30
0.0
 11
-27.872199999999999
 21
202.113
 31
0.0
  0
LINE
  5
3E7
  8
_________1
 62
     7
 10
-21.440899999999999
 20
202.113
 30
0.0
 11
-21.440899999999999
 21
201.863
 31
0.0
  0
LINE
  5
3E8
  8
_________1
 62
     7
 10
-27.872199999999999
 20
205.85400000000001
 30
0.0
 11
-27.872199999999999
 21
206.10300000000001
 31
0.0
  0
LINE
  5
3E9
  8
_________1
 62
     7
 10
-21.440899999999999
 20
206.10300000000001
 30
0.0
 11
-21.440899999999999
 21
205.85400000000001
 31
0.0
  0
LINE
  5
3EA
  8
_________1
 62
     7
 10
-21.440899999999999
 20
205.85400000000001
 30
0.0
 11
-21.440899999999999
 21
202.113
 31
0.0
  0
LINE
  5
3EB
  8
_________1
 62
     7
 10
-27.872199999999999
 20
205.85400000000001
 30
0.0
 11
-27.872199999999999
 21
202.113
 31
0.0
  0
ARC
  5
3EC
  8
_________1
 62
     7
 10
-28.859576000000001
 20
205.84491600000001
 30
0.0
 40
0.258543
 50
92.137941999999995
 51
177.98094
  0
LINE
  5
3ED
  8
_________1
 62
     7
 10
-29.117999999999999
 20
205.85400000000001
 30
0.0
 11
-29.117999999999999
 21
202.113
 31
0.0
  0
ARC
  5
3EE
  8
_________1
 62
     7
 10
-20.453323000000001
 20
205.84436500000001
 30
0.0
 40
0.259087
 50
2.1366320000000001
 51
87.902940999999998
  0
LINE
  5
3EF
  8
_________1
 62
     7
 10
-20.194400000000002
 20
205.85400000000001
 30
0.0
 11
-20.194400000000002
 21
202.113
 31
0.0
  0
LINE
  5
3F0
  8
_________1
 62
     7
 10
-29.117999999999999
 20
198.124
 30
0.0
 11
-28.869199999999999
 21
198.124
 31
0.0
  0
LINE
  5
3F1
  8
_________1
 62
     7
 10
-20.4438
 20
198.124
 30
0.0
 11
-28.869199999999999
 21
198.124
 31
0.0
  0
ARC
  5
3F2
  8
_________1
 62
     7
 10
-28.859093999999999
 20
202.122218
 30
0.0
 40
0.259042
 50
182.12168399999999
 51
267.759433
  0
LINE
  5
3F3
  8
_________1
 62
     7
 10
-20.194400000000002
 20
198.124
 30
0.0
 11
-20.4438
 21
198.124
 31
0.0
  0
ARC
  5
3F4
  8
_________1
 62
     7
 10
-20.453469999999999
 20
202.122434
 30
0.0
 40
0.259239
 50
272.1282819999999
 51
357.83214500000003
  0
LINE
  5
3F5
  8
_________1
 62
     7
 10
-20.4438
 20
206.10300000000001
 30
0.0
 11
-21.440899999999999
 21
206.10300000000001
 31
0.0
  0
LINE
  5
3F6
  8
_________1
 62
     7
 10
-21.440899999999999
 20
206.10300000000001
 30
0.0
 11
-27.872199999999999
 21
206.10300000000001
 31
0.0
  0
LINE
  5
3F7
  8
_________1
 62
     7
 10
-27.872199999999999
 20
206.10300000000001
 30
0.0
 11
-28.869199999999999
 21
206.10300000000001
 31
0.0
  0
LINE
  5
3F8
  8
_________1
 62
     7
 10
-29.117999999999999
 20
198.124
 30
0.0
 11
-29.117999999999999
 21
172.72399999999999
 31
0.0
  0
LINE
  5
3F9
  8
_________1
 62
     7
 10
-29.117999999999999
 20
198.124
 30
0.0
 11
-29.117999999999999
 21
202.113
 31
0.0
  0
LINE
  5
3FA
  8
_________1
 62
     7
 10
-27.872199999999999
 20
201.863
 30
0.0
 11
-28.869199999999999
 21
201.863
 31
0.0
  0
LINE
  5
3FB
  8
_________1
 62
     7
 10
-20.194400000000002
 20
198.124
 30
0.0
 11
-20.194400000000002
 21
172.72399999999999
 31
0.0
  0
LINE
  5
3FC
  8
_________1
 62
     7
 10
-20.194400000000002
 20
202.113
 30
0.0
 11
-20.194400000000002
 21
198.124
 31
0.0
  0
LINE
  5
3FD
  8
_________1
 62
     7
 10
-20.4438
 20
201.863
 30
0.0
 11
-21.440899999999999
 21
201.863
 31
0.0
  0
LINE
  5
3FE
  8
_________1
 62
     7
 10
-21.440899999999999
 20
201.863
 30
0.0
 11
-27.872199999999999
 21
201.863
 31
0.0
  0
LINE
  5
3FF
  8
_________1
 62
     7
 10
-21.468800000000002
 20
157.23400000000001
 30
0.0
 11
-21.468800000000002
 21
145.738
 31
0.0
  0
LINE
  5
400
  8
_________1
 62
     7
 10
-24.093900000000001
 20
157.23400000000001
 30
0.0
 11
-24.093900000000001
 21
145.738
 31
0.0
  0
LINE
  5
401
  8
_________1
  6
AIGENLINE001
 62
     7
 10
-26.531400000000001
 20
170.44
 30
0.0
 11
-26.531400000000001
 21
139.40600000000001
 31
0.0
  0
LINE
  5
402
  8
_________1
  6
AIGENLINE001
 62
     7
 10
-41.156599999999997
 20
155.976
 30
0.0
 11
-26.531400000000001
 21
139.40600000000001
 31
0.0
  0
LINE
  5
403
  8
_________1
  6
AIGENLINE001
 62
     7
 10
-22.781400000000001
 20
170.44
 30
0.0
 11
-22.781400000000001
 21
139.40600000000001
 31
0.0
  0
LINE
  5
404
  8
_________1
 62
     7
 10
-25.218800000000002
 20
157.23400000000001
 30
0.0
 11
-25.218800000000002
 21
145.738
 31
0.0
  0
LINE
  5
405
  8
_________1
 62
     7
 10
-27.844000000000001
 20
157.23400000000001
 30
0.0
 11
-27.844000000000001
 21
145.738
 31
0.0
  0
LINE
  5
406
  8
_________1
 62
     7
 10
-5.4031500000000001
 20
108.081
 30
0.0
 11
-5.4031500000000001
 21
105.455
 31
0.0
  0
LINE
  5
407
  8
_________1
 62
     7
 10
-6.7791300000000003
 20
108.081
 30
0.0
 11
-6.7791300000000003
 21
105.455
 31
0.0
  0
ARC
  5
408
  8
_________1
 62
     7
 10
-8.9910910000000008
 20
113.811026
 30
0.0
 40
9.0937260000000002
 50
291.69582700000001
 51
293.23800299999999
  0
ARC
  5
409
  8
_________1
 62
     7
 10
-6.316546999999999
 20
107.12702
 30
0.0
 40
1.894547
 50
281.78296999999998
 51
291.26814100000001
  0
ARC
  5
40A
  8
_________1
 62
     7
 10
-6.1110379999999989
 20
106.21980499999999
 30
0.0
 40
0.9646139999999999
 50
270.46569699999998
 51
280.83723800000001
  0
ARC
  5
40B
  8
_________1
 62
     7
 10
-6.102117999999999
 20
106.169856
 30
0.0
 40
0.914634
 50
257.58986499999997
 51
269.93241799999998
  0
ARC
  5
40C
  8
_________1
 62
     7
 10
-5.9798859999999996
 20
106.787978
 30
0.0
 40
1.54464
 50
247.191416
 51
258.089269
  0
ARC
  5
40D
  8
_________1
 62
     7
 10
-5.516125999999999
 20
107.97326099999999
 30
0.0
 40
2.817200999999999
 50
243.36415
 51
247.84189699999999
  0
ARC
  5
40E
  8
_________1
 62
     7
 10
-6.0232380000000001
 20
106.962856
 30
0.0
 40
1.349596999999999
 50
97.382283000000015
 51
124.06180000000001
  0
ARC
  5
40F
  8
_________1
 62
     7
 10
-6.1023230000000002
 20
107.405565
 30
0.0
 40
0.9006540000000001
 50
90.055644000000015
 51
96.011484999999993
  0
ARC
  5
410
  8
_________1
 62
     7
 10
-6.1039959999999986
 20
107.387659
 30
0.0
 40
0.91856
 50
77.809069999999991
 51
89.950207999999975
  0
ARC
  5
411
  8
_________1
 62
     7
 10
-6.1954589999999987
 20
106.91728500000001
 30
0.0
 40
1.397675999999999
 50
66.602540000000005
 51
78.216042999999999
  0
ARC
  5
412
  8
_________1
 62
     7
 10
-6.4288410000000002
 20
106.333748
 30
0.0
 40
2.0259839999999998
 50
59.584410999999989
 51
67.098452000000009
  0
LINE
  5
413
  8
_________1
 62
     7
 10
-10.903600000000001
 20
108.081
 30
0.0
 11
-10.903600000000001
 21
105.455
 31
0.0
  0
LINE
  5
414
  8
_________1
 62
     7
 10
-9.5290199999999992
 20
108.081
 30
0.0
 11
-9.5290199999999992
 21
105.455
 31
0.0
  0
ARC
  5
415
  8
_________1
 62
     7
 10
-12.6708
 20
112.739142
 30
0.0
 40
7.9327750000000004
 50
291.564863
 51
293.331503
  0
ARC
  5
416
  8
_________1
 62
     7
 10
-10.482286999999999
 20
107.228313
 30
0.0
 40
2.003318999999999
 50
282.22823799999998
 51
291.284762
  0
ARC
  5
417
  8
_________1
 62
     7
 10
-10.214078000000001
 20
106.059612
 30
0.0
 40
0.8044579999999999
 50
270.74798199999998
 51
281.18932999999998
  0
ARC
  5
418
  8
_________1
 62
     7
 10
-10.202767
 20
106.16275400000001
 30
0.0
 40
0.9075319999999999
 50
257.811983
 51
269.94892599999997
  0
ARC
  5
419
  8
_________1
 62
     7
 10
-10.103623000000001
 20
106.696324
 30
0.0
 40
1.450091999999999
 50
252.94235800000001
 51
258.43382700000001
  0
ARC
  5
41A
  8
_________1
 62
     7
 10
-9.8580740000000002
 20
107.49409900000001
 30
0.0
 40
2.284800999999999
 50
248.53419900000009
 51
252.92399
  0
ARC
  5
41B
  8
_________1
 62
     7
 10
-8.3968429999999987
 20
111.176805
 30
0.0
 40
6.246804
 50
246.34115499999999
 51
248.42227700000001
  0
ARC
  5
41C
  8
_________1
 62
     7
 10
-9.895408999999999
 20
106.353746
 30
0.0
 40
1.999895999999999
 50
107.927187
 51
120.273847
  0
ARC
  5
41D
  8
_________1
 62
     7
 10
-10.1792
 20
107.17927299999999
 30
0.0
 40
1.127208999999999
 50
91.239127999999994
 51
107.118537
  0
ARC
  5
41E
  8
_________1
 62
     7
 10
-10.204300999999999
 20
107.539732
 30
0.0
 40
0.7664870000000001
 50
76.136262999999985
 51
89.945809999999994
  0
ARC
  5
41F
  8
_________1
 62
     7
 10
-10.347206
 20
106.864149
 30
0.0
 40
1.4568149999999991
 50
65.819612000000006
 51
77.046278999999998
  0
ARC
  5
420
  8
_________1
 62
     7
 10
-10.591771
 20
106.258555
 30
0.0
 40
2.1095980000000001
 50
59.750377
 51
66.497275999999999
  0
ARC
  5
421
  8
_________1
 62
     7
 10
-5.5165360000000003
 20
99.119975999999994
 30
0.0
 40
6.4596580000000001
 50
101.27148800000001
 51
103.248867
  0
ARC
  5
422
  8
_________1
 62
     7
 10
-8.4829050000000006
 20
111.052915
 30
0.0
 40
5.837502999999999
 50
278.62354299999998
 51
284.74692800000003
  0
ARC
  5
423
  8
_________1
 62
     7
 10
-7.9537849999999999
 20
107.545008
 30
0.0
 40
2.2899180000000001
 50
270.6174279999999
 51
278.69467900000001
  0
LINE
  5
424
  8
_________1
 62
     7
 10
-7.9291099999999997
 20
105.255
 30
0.0
 11
-8.3783499999999993
 21
105.255
 31
0.0
  0
ARC
  5
425
  8
_________1
 62
     7
 10
-8.3780300000000008
 20
107.21672599999999
 30
0.0
 40
1.9615029999999991
 50
261.54105600000003
 51
269.99059
  0
ARC
  5
426
  8
_________1
 62
     7
 10
-8.1644929999999984
 20
108.86971699999999
 30
0.0
 40
3.6280649999999999
 50
258.55453
 51
262.04550799999998
  0
ARC
  5
427
  8
_________1
 62
     7
 10
-6.7646990000000002
 20
115.676663
 30
0.0
 40
10.577437
 50
256.53362199999998
 51
258.43959100000001
  0
ARC
  5
428
  8
_________1
 62
     7
 10
-10.648082
 20
99.541697999999997
 30
0.0
 40
6.0182969999999996
 50
76.350930000000005
 51
79.283874999999995
  0
ARC
  5
429
  8
_________1
 62
     7
 10
-8.2765000000000004
 20
104.38269099999999
 30
0.0
 40
3.9045640000000001
 50
102.84613899999999
 51
108.710337
  0
ARC
  5
42A
  8
_________1
 62
     7
 10
-8.0484100000000005
 20
103.562398
 30
0.0
 40
4.7552059999999994
 50
94.331414999999993
 51
103.328131
  0
ARC
  5
42B
  8
_________1
 62
     7
 10
-8.2608890000000006
 20
106.022476
 30
0.0
 40
2.2862550000000001
 50
87.313519999999997
 51
93.677980999999988
  0
ARC
  5
42C
  8
_________1
 62
     7
 10
-8.0703639999999996
 20
106.88841600000001
 30
0.0
 40
1.4202520000000001
 50
88.966301999999999
 51
93.365144999999984
  0
ARC
  5
42D
  8
_________1
 62
     7
 10
-8.0848669999999991
 20
105.721975
 30
0.0
 40
2.5867729999999991
 50
85.190771999999996
 51
89.111204999999998
  0
ARC
  5
42E
  8
_________1
 62
     7
 10
-8.2805710000000001
 20
103.42622
 30
0.0
 40
4.890852999999999
 50
72.122085999999996
 51
85.160980000000009
  0
LINE
  5
42F
  8
_________1
 62
     7
 10
-6.9038399999999989
 20
108.482
 30
0.0
 11
-8.1537299999999995
 21
108.482
 31
0.0
  0
LINE
  5
430
  8
_________1
 62
     7
 10
-9.4036200000000001
 20
108.482
 30
0.0
 11
-8.1537299999999995
 21
108.482
 31
0.0
  0
LINE
  5
431
  8
_________1
 62
     7
 10
-10.4544
 20
105.206
 30
0.0
 11
-8.1537299999999995
 21
105.206
 31
0.0
  0
LINE
  5
432
  8
_________1
 62
     7
 10
-8.1537299999999995
 20
105.206
 30
0.0
 11
-5.8530800000000003
 21
105.206
 31
0.0
  0
LINE
  5
433
  8
_________1
 62
     7
 10
-5.5533599999999987
 20
105.405
 30
0.0
 11
-5.8530800000000003
 21
105.23
 31
0.0
  0
LINE
  5
434
  8
_________1
 62
     7
 10
-5.8530800000000003
 20
105.23
 30
0.0
 11
-5.8530800000000003
 21
105.206
 31
0.0
  0
LINE
  5
435
  8
_________1
 62
     7
 10
-5.4031500000000001
 20
105.455
 30
0.0
 11
-5.8530800000000003
 21
105.23
 31
0.0
  0
LINE
  5
436
  8
_________1
 62
     7
 10
-10.903600000000001
 20
105.455
 30
0.0
 11
-10.4544
 21
105.206
 31
0.0
  0
LINE
  5
437
  8
_________1
 62
     7
 10
-10.4544
 20
108.331
 30
0.0
 11
-5.8530800000000003
 21
108.331
 31
0.0
  0
LINE
  5
438
  8
_________1
 62
     7
 10
-9.7040299999999995
 20
108.456
 30
0.0
 11
-6.6034300000000004
 21
108.456
 31
0.0
  0
ARC
  5
439
  8
_________1
 62
     7
 10
-7.1560929999999994
 20
109.153695
 30
0.0
 40
0.7175740000000001
 50
290.58107899999999
 51
326.48943200000002
  0
ARC
  5
43A
  8
_________1
 62
     7
 10
-6.985167999999998
 20
109.01376399999999
 30
0.0
 40
0.498304
 50
329.05502999999999
 51
341.549623
  0
LINE
  5
43B
  8
_________1
 62
     7
 10
-6.51248
 20
108.85599999999999
 30
0.0
 11
-6.47872
 21
108.956
 31
0.0
  0
LINE
  5
43C
  8
_________1
 62
     7
 10
-6.47872
 20
108.956
 30
0.0
 11
-6.47872
 21
109.10599999999999
 31
0.0
  0
LINE
  5
43D
  8
_________1
 62
     7
 10
-6.47872
 20
109.10599999999999
 30
0.0
 11
-6.528319999999999
 21
109.28100000000001
 31
0.0
  0
LINE
  5
43E
  8
_________1
 62
     7
 10
-9.8039399999999972
 20
109.28100000000001
 30
0.0
 11
-9.7791399999999982
 21
109.28100000000001
 31
0.0
  0
ARC
  5
43F
  8
_________1
 62
     7
 10
97.384394
 20
93.999874999999989
 30
0.0
 40
108.272147
 50
171.88628
 51
171.97981899999999
  0
LINE
  5
440
  8
_________1
 62
     7
 10
-9.8287499999999994
 20
109.10599999999999
 30
0.0
 11
-9.8287499999999994
 21
108.956
 31
0.0
  0
LINE
  5
441
  8
_________1
 62
     7
 10
-9.8287499999999994
 20
108.956
 30
0.0
 11
-9.7963599999999982
 21
108.85599999999999
 31
0.0
  0
ARC
  5
442
  8
_________1
 62
     7
 10
-8.7302649999999993
 20
109.212598
 30
0.0
 40
1.124137999999999
 50
198.49167800000001
 51
203.282704
  0
ARC
  5
443
  8
_________1
 62
     7
 10
-9.3243289999999988
 20
108.955823
 30
0.0
 40
0.476957
 50
203.156587
 51
222.26802499999999
  0
ARC
  5
444
  8
_________1
 62
     7
 10
-9.3946930000000002
 20
108.910726
 30
0.0
 40
0.394801
 50
224.29355100000001
 51
234.70009899999999
  0
ARC
  5
445
  8
_________1
 62
     7
 10
-9.203778999999999
 20
109.185761
 30
0.0
 40
0.729596
 50
234.94501099999999
 51
242.41402099999999
  0
ARC
  5
446
  8
_________1
 62
     7
 10
-7.4670639999999988
 20
112.50542299999999
 30
0.0
 40
4.4761049999999996
 50
242.38825
 51
244.01189600000001
  0
LINE
  5
447
  8
_________1
 62
     7
 10
-9.4284199999999991
 20
108.482
 30
0.0
 11
-9.4036200000000001
 21
108.482
 31
0.0
  0
LINE
  5
448
  8
_________1
 62
     7
 10
-9.6041299999999996
 20
109.706
 30
0.0
 11
-6.7281399999999989
 21
109.706
 31
0.0
  0
LINE
  5
449
  8
_________1
 62
     7
 10
-9.6041299999999996
 20
111.70699999999999
 30
0.0
 11
-8.1537299999999995
 21
111.70699999999999
 31
0.0
  0
LINE
  5
44A
  8
_________1
 62
     7
 10
-8.1537299999999995
 20
111.70699999999999
 30
0.0
 11
-6.7281399999999989
 21
111.70699999999999
 31
0.0
  0
LINE
  5
44B
  8
_________1
 62
     7
 10
-6.47872
 20
112.256
 30
0.0
 11
-6.47872
 21
112.13200000000001
 31
0.0
  0
LINE
  5
44C
  8
_________1
 62
     7
 10
-6.47872
 20
112.13200000000001
 30
0.0
 11
-6.5538199999999991
 21
112.006
 31
0.0
  0
LINE
  5
44D
  8
_________1
 62
     7
 10
-9.854239999999999
 20
112.256
 30
0.0
 11
-9.8287499999999994
 21
112.13200000000001
 31
0.0
  0
LINE
  5
44E
  8
_________1
 62
     7
 10
-9.8287499999999994
 20
112.13200000000001
 30
0.0
 11
-9.7791399999999982
 21
112.006
 31
0.0
  0
LINE
  5
44F
  8
_________1
 62
     7
 10
-9.854239999999999
 20
112.95699999999999
 30
0.0
 11
-6.47872
 21
112.95699999999999
 31
0.0
  0
LINE
  5
450
  8
_________1
 62
     7
 10
-9.854239999999999
 20
112.95699999999999
 30
0.0
 11
-9.854239999999999
 21
112.256
 31
0.0
  0
LINE
  5
451
  8
_________1
 62
     7
 10
-6.47872
 20
112.95699999999999
 30
0.0
 11
-6.47872
 21
112.256
 31
0.0
  0
LINE
  5
452
  8
_________1
 62
     7
 10
-5.8530800000000003
 20
108.331
 30
0.0
 11
-5.4031500000000001
 21
108.081
 31
0.0
  0
LINE
  5
453
  8
_________1
 62
     7
 10
-10.4544
 20
108.331
 30
0.0
 11
-10.903600000000001
 21
108.081
 31
0.0
  0
LINE
  5
454
  8
_________1
 62
     7
 10
-9.7791399999999982
 20
112.006
 30
0.0
 11
-9.6041299999999996
 21
111.70699999999999
 31
0.0
  0
LINE
  5
455
  8
_________1
 62
     7
 10
-9.6041299999999996
 20
109.706
 30
0.0
 11
-9.7791399999999982
 21
109.28100000000001
 31
0.0
  0
LINE
  5
456
  8
_________1
 62
     7
 10
-6.5538199999999991
 20
112.006
 30
0.0
 11
-6.7281399999999989
 21
111.70699999999999
 31
0.0
  0
LINE
  5
457
  8
_________1
 62
     7
 10
-6.7281399999999989
 20
109.706
 30
0.0
 11
-6.528319999999999
 21
109.28100000000001
 31
0.0
  0
LINE
  5
458
  8
_________1
 62
     7
 10
-9.6041299999999996
 20
111.70699999999999
 30
0.0
 11
-9.6041299999999996
 21
109.706
 31
0.0
  0
LINE
  5
459
  8
_________1
 62
     7
 10
-6.7281399999999989
 20
111.70699999999999
 30
0.0
 11
-6.7281399999999989
 21
109.706
 31
0.0
  0
LINE
  5
45A
  8
_________1
 62
     7
 10
-9.7040299999999995
 20
108.456
 30
0.0
 11
-9.7040299999999995
 21
108.331
 31
0.0
  0
LINE
  5
45B
  8
_________1
 62
     7
 10
-6.6034300000000004
 20
108.456
 30
0.0
 11
-6.6034300000000004
 21
108.331
 31
0.0
  0
LINE
  5
45C
  8
_________1
 62
     7
 10
-10.903600000000001
 20
105.455
 30
0.0
 11
-10.4544
 21
105.206
 31
0.0
  0
LINE
  5
45D
  8
_________1
 62
     7
 10
-5.4031500000000001
 20
105.455
 30
0.0
 11
-5.8530800000000003
 21
105.206
 31
0.0
  0
LINE
  5
45E
  8
_________1
 62
     7
 10
-6.8445899999999993
 20
151.126
 30
0.0
 11
-6.8445899999999993
 21
112.95699999999999
 31
0.0
  0
LINE
  5
45F
  8
_________1
 62
     7
 10
-9.4690799999999982
 20
151.126
 30
0.0
 11
-9.4690799999999982
 21
112.95699999999999
 31
0.0
  0
LINE
  5
460
  8
_________1
  6
AIGENLINE001
 62
     7
 10
-8.1564899999999998
 20
155.976
 30
0.0
 11
-8.1564899999999998
 21
103.899
 31
0.0
  0
LINE
  5
461
  8
_________1
 62
     7
 10
-38.403199999999998
 20
108.081
 30
0.0
 11
-38.403199999999998
 21
105.455
 31
0.0
  0
LINE
  5
462
  8
_________1
 62
     7
 10
-39.77920000000001
 20
108.081
 30
0.0
 11
-39.77920000000001
 21
105.455
 31
0.0
  0
ARC
  5
463
  8
_________1
 62
     7
 10
-41.99118099999999
 20
113.811026
 30
0.0
 40
9.0937260000000002
 50
291.69582700000001
 51
293.23800299999999
  0
ARC
  5
464
  8
_________1
 62
     7
 10
-39.316636000000003
 20
107.12702
 30
0.0
 40
1.894547
 50
281.78296999999998
 51
291.26814100000001
  0
ARC
  5
465
  8
_________1
 62
     7
 10
-39.111127000000003
 20
106.21980499999999
 30
0.0
 40
0.9646139999999999
 50
270.46569699999998
 51
280.83723800000001
  0
ARC
  5
466
  8
_________1
 62
     7
 10
-39.102208000000012
 20
106.16990800000001
 30
0.0
 40
0.914686
 50
257.590215
 51
269.93240900000001
  0
ARC
  5
467
  8
_________1
 62
     7
 10
-38.979883000000001
 20
106.78825500000001
 30
0.0
 40
1.544932
 50
247.19223
 51
258.087828
  0
ARC
  5
468
  8
_________1
 62
     7
 10
-38.517440000000001
 20
107.970562
 30
0.0
 40
2.8142390000000002
 50
243.36179300000001
 51
247.84425400000001
  0
ARC
  5
469
  8
_________1
 62
     7
 10
-39.023327000000002
 20
106.962856
 30
0.0
 40
1.349596999999999
 50
97.382283000000015
 51
124.06180000000001
  0
ARC
  5
46A
  8
_________1
 62
     7
 10
-39.102412000000001
 20
107.405565
 30
0.0
 40
0.9006540000000001
 50
90.055644000000015
 51
96.011484999999993
  0
ARC
  5
46B
  8
_________1
 62
     7
 10
-39.104084999999998
 20
107.387659
 30
0.0
 40
0.91856
 50
77.809069999999991
 51
89.950207999999975
  0
ARC
  5
46C
  8
_________1
 62
     7
 10
-39.195549
 20
106.91728500000001
 30
0.0
 40
1.397675999999999
 50
66.602540000000005
 51
78.216042999999999
  0
ARC
  5
46D
  8
_________1
 62
     7
 10
-39.428930000000001
 20
106.333748
 30
0.0
 40
2.0259839999999998
 50
59.584410999999989
 51
67.098452000000009
  0
LINE
  5
46E
  8
_________1
 62
     7
 10
-43.903699999999994
 20
108.081
 30
0.0
 11
-43.903699999999994
 21
105.455
 31
0.0
  0
LINE
  5
46F
  8
_________1
 62
     7
 10
-42.529099999999993
 20
108.081
 30
0.0
 11
-42.529099999999993
 21
105.455
 31
0.0
  0
ARC
  5
470
  8
_________1
 62
     7
 10
-45.670889000000003
 20
112.739142
 30
0.0
 40
7.9327750000000004
 50
291.564863
 51
293.331503
  0
ARC
  5
471
  8
_________1
 62
     7
 10
-43.482376000000002
 20
107.228313
 30
0.0
 40
2.003318999999999
 50
282.22823799999998
 51
291.284762
  0
ARC
  5
472
  8
_________1
 62
     7
 10
-43.214166999999989
 20
106.059612
 30
0.0
 40
0.8044579999999999
 50
270.74798199999998
 51
281.18932999999998
  0
ARC
  5
473
  8
_________1
 62
     7
 10
-43.202861999999989
 20
106.162696
 30
0.0
 40
0.9074729999999998
 50
257.81158900000003
 51
269.94932
  0
ARC
  5
474
  8
_________1
 62
     7
 10
-43.103712000000002
 20
106.696324
 30
0.0
 40
1.450091999999999
 50
252.94235800000001
 51
258.43382700000001
  0
ARC
  5
475
  8
_________1
 62
     7
 10
-42.85816299999999
 20
107.49409900000001
 30
0.0
 40
2.284800999999999
 50
248.53419900000009
 51
252.92399
  0
ARC
  5
476
  8
_________1
 62
     7
 10
-41.396931999999993
 20
111.176805
 30
0.0
 40
6.246804
 50
246.34115499999999
 51
248.42227700000001
  0
ARC
  5
477
  8
_________1
 62
     7
 10
-42.895462000000002
 20
106.353684
 30
0.0
 40
1.9999679999999991
 50
107.927774
 51
120.27384499999999
  0
ARC
  5
478
  8
_________1
 62
     7
 10
-43.179265999999991
 20
107.179092
 30
0.0
 40
1.127391
 50
91.240117999999995
 51
107.117231
  0
ARC
  5
479
  8
_________1
 62
     7
 10
-43.204396000000003
 20
107.539727
 30
0.0
 40
0.7664920000000001
 50
76.136308999999997
 51
89.945358999999996
  0
ARC
  5
47A
  8
_________1
 62
     7
 10
-43.347335999999991
 20
106.864006
 30
0.0
 40
1.456963
 50
65.820425999999998
 51
77.046154000000001
  0
ARC
  5
47B
  8
_________1
 62
     7
 10
-43.591859999999997
 20
106.258555
 30
0.0
 40
2.1095980000000001
 50
59.750377
 51
66.497275999999999
  0
ARC
  5
47C
  8
_________1
 62
     7
 10
-38.516624999999998
 20
99.119975999999994
 30
0.0
 40
6.4596580000000001
 50
101.27148800000001
 51
103.248867
  0
ARC
  5
47D
  8
_________1
 62
     7
 10
-41.482993999999991
 20
111.052915
 30
0.0
 40
5.837502999999999
 50
278.62354299999998
 51
284.74692800000003
  0
ARC
  5
47E
  8
_________1
 62
     7
 10
-40.953874999999996
 20
107.545008
 30
0.0
 40
2.2899180000000001
 50
270.6174279999999
 51
278.69467900000001
  0
LINE
  5
47F
  8
_________1
 62
     7
 10
-40.929200000000002
 20
105.255
 30
0.0
 11
-41.378399999999992
 21
105.255
 31
0.0
  0
ARC
  5
480
  8
_________1
 62
     7
 10
-41.378120000000003
 20
107.21672599999999
 30
0.0
 40
1.9615029999999991
 50
261.54105600000003
 51
269.99059
  0
ARC
  5
481
  8
_________1
 62
     7
 10
-41.164583
 20
108.86971699999999
 30
0.0
 40
3.6280649999999999
 50
258.55453
 51
262.04550799999998
  0
ARC
  5
482
  8
_________1
 62
     7
 10
-39.76478800000001
 20
115.676663
 30
0.0
 40
10.577437
 50
256.53362199999998
 51
258.43959100000001
  0
ARC
  5
483
  8
_________1
 62
     7
 10
-43.648172000000002
 20
99.541697999999997
 30
0.0
 40
6.0182969999999996
 50
76.350930000000005
 51
79.283874999999995
  0
ARC
  5
484
  8
_________1
 62
     7
 10
-41.276589000000001
 20
104.38269099999999
 30
0.0
 40
3.9045640000000001
 50
102.84613899999999
 51
108.710337
  0
ARC
  5
485
  8
_________1
 62
     7
 10
-41.04849999999999
 20
103.562398
 30
0.0
 40
4.7552059999999994
 50
94.331414999999993
 51
103.328131
  0
ARC
  5
486
  8
_________1
 62
     7
 10
-41.260978999999999
 20
106.022476
 30
0.0
 40
2.2862550000000001
 50
87.313519999999997
 51
93.677980999999988
  0
ARC
  5
487
  8
_________1
 62
     7
 10
-41.070479999999989
 20
106.889754
 30
0.0
 40
1.418914
 50
88.964226999999994
 51
93.367219999999989
  0
ARC
  5
488
  8
_________1
 62
     7
 10
-41.084947
 20
105.72229400000001
 30
0.0
 40
2.5864539999999998
 50
85.190503000000007
 51
89.111299999999986
  0
ARC
  5
489
  8
_________1
 62
     7
 10
-41.280619999999992
 20
103.426407
 30
0.0
 40
4.8906629999999991
 50
72.121855000000011
 51
85.161319999999975
  0
LINE
  5
48A
  8
_________1
 62
     7
 10
-39.9039
 20
108.482
 30
0.0
 11
-41.153799999999997
 21
108.482
 31
0.0
  0
LINE
  5
48B
  8
_________1
 62
     7
 10
-42.403700000000001
 20
108.482
 30
0.0
 11
-41.153799999999997
 21
108.482
 31
0.0
  0
LINE
  5
48C
  8
_________1
 62
     7
 10
-43.454500000000003
 20
105.206
 30
0.0
 11
-41.153799999999997
 21
105.206
 31
0.0
  0
LINE
  5
48D
  8
_________1
 62
     7
 10
-41.153799999999997
 20
105.206
 30
0.0
 11
-38.853200000000001
 21
105.206
 31
0.0
  0
LINE
  5
48E
  8
_________1
 62
     7
 10
-38.553400000000003
 20
105.405
 30
0.0
 11
-38.853200000000001
 21
105.23
 31
0.0
  0
LINE
  5
48F
  8
_________1
 62
     7
 10
-38.853200000000001
 20
105.23
 30
0.0
 11
-38.853200000000001
 21
105.206
 31
0.0
  0
LINE
  5
490
  8
_________1
 62
     7
 10
-38.403199999999998
 20
105.455
 30
0.0
 11
-38.853200000000001
 21
105.23
 31
0.0
  0
LINE
  5
491
  8
_________1
 62
     7
 10
-43.903699999999994
 20
105.455
 30
0.0
 11
-43.454500000000003
 21
105.206
 31
0.0
  0
LINE
  5
492
  8
_________1
 62
     7
 10
-43.454500000000003
 20
108.331
 30
0.0
 11
-38.853200000000001
 21
108.331
 31
0.0
  0
LINE
  5
493
  8
_________1
 62
     7
 10
-42.704099999999997
 20
108.456
 30
0.0
 11
-39.603499999999997
 21
108.456
 31
0.0
  0
ARC
  5
494
  8
_________1
 62
     7
 10
-40.156815999999992
 20
109.15449099999999
 30
0.0
 40
0.7185420000000001
 50
290.60609199999999
 51
326.46442000000002
  0
ARC
  5
495
  8
_________1
 62
     7
 10
-39.985256999999997
 20
109.01376399999999
 30
0.0
 40
0.498304
 50
329.05502999999999
 51
341.549623
  0
LINE
  5
496
  8
_________1
 62
     7
 10
-39.512599999999999
 20
108.85599999999999
 30
0.0
 11
-39.4788
 21
108.956
 31
0.0
  0
LINE
  5
497
  8
_________1
 62
     7
 10
-39.4788
 20
108.956
 30
0.0
 11
-39.4788
 21
109.10599999999999
 31
0.0
  0
LINE
  5
498
  8
_________1
 62
     7
 10
-39.4788
 20
109.10599999999999
 30
0.0
 11
-39.528399999999998
 21
109.28100000000001
 31
0.0
  0
LINE
  5
499
  8
_________1
 62
     7
 10
-42.803999999999988
 20
109.28100000000001
 30
0.0
 11
-42.779200000000003
 21
109.28100000000001
 31
0.0
  0
ARC
  5
49A
  8
_________1
 62
     7
 10
-12.966635
 20
104.96300100000001
 30
0.0
 40
30.148250000000001
 50
171.765085
 51
172.10101399999999
  0
LINE
  5
49B
  8
_________1
 62
     7
 10
-42.828800000000001
 20
109.10599999999999
 30
0.0
 11
-42.828800000000001
 21
108.956
 31
0.0
  0
LINE
  5
49C
  8
_________1
 62
     7
 10
-42.828800000000001
 20
108.956
 30
0.0
 11
-42.796500000000002
 21
108.85599999999999
 31
0.0
  0
ARC
  5
49D
  8
_________1
 62
     7
 10
-41.730353999999991
 20
109.212598
 30
0.0
 40
1.124137999999999
 50
198.49167800000001
 51
203.282704
  0
ARC
  5
49E
  8
_________1
 62
     7
 10
-42.324795999999999
 20
108.955581
 30
0.0
 40
0.4765140000000001
 50
203.14763600000001
 51
222.27697599999999
  0
ARC
  5
49F
  8
_________1
 62
     7
 10
-42.394782999999997
 20
108.910726
 30
0.0
 40
0.394801
 50
224.29355100000001
 51
234.70009899999999
  0
ARC
  5
4A0
  8
_________1
 62
     7
 10
-42.203867999999993
 20
109.185761
 30
0.0
 40
0.729596
 50
234.94501099999999
 51
242.41402099999999
  0
ARC
  5
4A1
  8
_________1
 62
     7
 10
-40.467153000000003
 20
112.50542299999999
 30
0.0
 40
4.4761049999999996
 50
242.38825
 51
244.01189600000001
  0
LINE
  5
4A2
  8
_________1
 62
     7
 10
-42.428499999999993
 20
108.482
 30
0.0
 11
-42.403700000000001
 21
108.482
 31
0.0
  0
LINE
  5
4A3
  8
_________1
 62
     7
 10
-42.604199999999992
 20
109.706
 30
0.0
 11
-39.728200000000001
 21
109.706
 31
0.0
  0
LINE
  5
4A4
  8
_________1
 62
     7
 10
-42.604199999999992
 20
111.70699999999999
 30
0.0
 11
-41.153799999999997
 21
111.70699999999999
 31
0.0
  0
LINE
  5
4A5
  8
_________1
 62
     7
 10
-41.153799999999997
 20
111.70699999999999
 30
0.0
 11
-39.728200000000001
 21
111.70699999999999
 31
0.0
  0
LINE
  5
4A6
  8
_________1
 62
     7
 10
-39.4788
 20
112.256
 30
0.0
 11
-39.4788
 21
112.13200000000001
 31
0.0
  0
LINE
  5
4A7
  8
_________1
 62
     7
 10
-39.4788
 20
112.13200000000001
 30
0.0
 11
-39.553899999999999
 21
112.006
 31
0.0
  0
LINE
  5
4A8
  8
_________1
 62
     7
 10
-42.854300000000002
 20
112.256
 30
0.0
 11
-42.828800000000001
 21
112.13200000000001
 31
0.0
  0
LINE
  5
4A9
  8
_________1
 62
     7
 10
-42.828800000000001
 20
112.13200000000001
 30
0.0
 11
-42.779200000000003
 21
112.006
 31
0.0
  0
LINE
  5
4AA
  8
_________1
 62
     7
 10
-42.854300000000002
 20
112.95699999999999
 30
0.0
 11
-39.4788
 21
112.95699999999999
 31
0.0
  0
LINE
  5
4AB
  8
_________1
 62
     7
 10
-42.854300000000002
 20
112.95699999999999
 30
0.0
 11
-42.854300000000002
 21
112.256
 31
0.0
  0
LINE
  5
4AC
  8
_________1
 62
     7
 10
-39.4788
 20
112.95699999999999
 30
0.0
 11
-39.4788
 21
112.256
 31
0.0
  0
LINE
  5
4AD
  8
_________1
 62
     7
 10
-38.853200000000001
 20
108.331
 30
0.0
 11
-38.403199999999998
 21
108.081
 31
0.0
  0
LINE
  5
4AE
  8
_________1
 62
     7
 10
-43.454500000000003
 20
108.331
 30
0.0
 11
-43.903699999999994
 21
108.081
 31
0.0
  0
LINE
  5
4AF
  8
_________1
 62
     7
 10
-42.779200000000003
 20
112.006
 30
0.0
 11
-42.604199999999992
 21
111.70699999999999
 31
0.0
  0
LINE
  5
4B0
  8
_________1
 62
     7
 10
-42.604199999999992
 20
109.706
 30
0.0
 11
-42.779200000000003
 21
109.28100000000001
 31
0.0
  0
LINE
  5
4B1
  8
_________1
 62
     7
 10
-39.553899999999999
 20
112.006
 30
0.0
 11
-39.728200000000001
 21
111.70699999999999
 31
0.0
  0
LINE
  5
4B2
  8
_________1
 62
     7
 10
-39.728200000000001
 20
109.706
 30
0.0
 11
-39.528399999999998
 21
109.28100000000001
 31
0.0
  0
LINE
  5
4B3
  8
_________1
 62
     7
 10
-42.604199999999992
 20
111.70699999999999
 30
0.0
 11
-42.604199999999992
 21
109.706
 31
0.0
  0
LINE
  5
4B4
  8
_________1
 62
     7
 10
-39.728200000000001
 20
111.70699999999999
 30
0.0
 11
-39.728200000000001
 21
109.706
 31
0.0
  0
LINE
  5
4B5
  8
_________1
 62
     7
 10
-42.704099999999997
 20
108.456
 30
0.0
 11
-42.704099999999997
 21
108.331
 31
0.0
  0
LINE
  5
4B6
  8
_________1
 62
     7
 10
-39.603499999999997
 20
108.456
 30
0.0
 11
-39.603499999999997
 21
108.331
 31
0.0
  0
LINE
  5
4B7
  8
_________1
 62
     7
 10
-43.903699999999994
 20
105.455
 30
0.0
 11
-43.454500000000003
 21
105.206
 31
0.0
  0
LINE
  5
4B8
  8
_________1
 62
     7
 10
-38.403199999999998
 20
105.455
 30
0.0
 11
-38.853200000000001
 21
105.206
 31
0.0
  0
LINE
  5
4B9
  8
_________1
 62
     7
 10
-24.031600000000001
 20
137.83199999999999
 30
0.0
 11
-24.031600000000001
 21
133.71899999999999
 31
0.0
  0
LINE
  5
4BA
  8
_________1
 62
     7
 10
-25.281500000000001
 20
137.83199999999999
 30
0.0
 11
-25.281500000000001
 21
133.71899999999999
 31
0.0
  0
LINE
  5
4BB
  8
_________1
 62
     7
 10
-23.906199999999998
 20
133.71899999999999
 30
0.0
 11
-23.906199999999998
 21
129.96799999999999
 31
0.0
  0
LINE
  5
4BC
  8
_________1
 62
     7
 10
-25.406199999999998
 20
133.71899999999999
 30
0.0
 11
-25.406199999999998
 21
129.96799999999999
 31
0.0
  0
LINE
  5
4BD
  8
_________1
 62
     7
 10
-25.406199999999998
 20
133.71899999999999
 30
0.0
 11
-23.906199999999998
 21
133.71899999999999
 31
0.0
  0
LINE
  5
4BE
  8
_________1
 62
     7
 10
-24.031600000000001
 20
129.96799999999999
 30
0.0
 11
-24.031600000000001
 21
81.218000000000004
 31
0.0
  0
LINE
  5
4BF
  8
_________1
 62
     7
 10
-25.281500000000001
 20
129.96799999999999
 30
0.0
 11
-25.281500000000001
 21
81.218000000000004
 31
0.0
  0
LINE
  5
4C0
  8
_________1
 62
     7
 10
-25.406199999999998
 20
129.96799999999999
 30
0.0
 11
-23.906199999999998
 21
129.96799999999999
 31
0.0
  0
LINE
  5
4C1
  8
_________1
 62
     7
 10
-25.281500000000001
 20
81.218000000000004
 30
0.0
 11
-24.031600000000001
 21
81.218000000000004
 31
0.0
  0
LINE
  5
4C2
  8
_________1
  6
AIGENLINE001
 62
     7
 10
-8.1564899999999998
 20
155.976
 30
0.0
 11
-22.781400000000001
 21
139.40600000000001
 31
0.0
  0
LINE
  5
4C3
  8
_________1
 62
     7
 10
-20.531300000000002
 20
157.48400000000001
 30
0.0
 11
-20.781500000000001
 21
157.23400000000001
 31
0.0
  0
LINE
  5
4C4
  8
_________1
 62
     7
 10
-28.531600000000001
 20
157.23400000000001
 30
0.0
 11
-28.780999999999999
 21
157.48400000000001
 31
0.0
  0
LINE
  5
4C5
  8
_________1
 62
     7
 10
-20.781500000000001
 20
171.60300000000001
 30
0.0
 11
-20.781500000000001
 21
161.976
 31
0.0
  0
LINE
  5
4C6
  8
_________1
 62
     7
 10
-20.531300000000002
 20
171.60300000000001
 30
0.0
 11
-20.531300000000002
 21
161.976
 31
0.0
  0
LINE
  5
4C7
  8
_________1
 62
     7
 10
-28.531600000000001
 20
171.60300000000001
 30
0.0
 11
-28.531600000000001
 21
161.976
 31
0.0
  0
LINE
  5
4C8
  8
_________1
 62
     7
 10
-28.780999999999999
 20
171.60300000000001
 30
0.0
 11
-28.780999999999999
 21
161.976
 31
0.0
  0
LINE
  5
4C9
  8
_________1
 62
     7
 10
-20.781500000000001
 20
159.48400000000001
 30
0.0
 11
-20.781500000000001
 21
157.23400000000001
 31
0.0
  0
LINE
  5
4CA
  8
_________1
 62
     7
 10
-20.531300000000002
 20
159.48400000000001
 30
0.0
 11
-20.531300000000002
 21
157.48400000000001
 31
0.0
  0
LINE
  5
4CB
  8
_________1
 62
     7
 10
-28.531600000000001
 20
159.48400000000001
 30
0.0
 11
-28.531600000000001
 21
157.23400000000001
 31
0.0
  0
LINE
  5
4CC
  8
_________1
 62
     7
 10
-28.780999999999999
 20
159.48400000000001
 30
0.0
 11
-28.780999999999999
 21
157.48400000000001
 31
0.0
  0
LINE
  5
4CD
  8
_________1
 62
     7
 10
-28.780999999999999
 20
157.48400000000001
 30
0.0
 11
-20.531300000000002
 21
157.48400000000001
 31
0.0
  0
LINE
  5
4CE
  8
_________1
 62
     7
 10
-28.531600000000001
 20
157.23400000000001
 30
0.0
 11
-20.781500000000001
 21
157.23400000000001
 31
0.0
  0
LINE
  5
4CF
  8
_________1
 62
     7
 10
-39.844700000000003
 20
151.126
 30
0.0
 11
-39.844700000000003
 21
112.95699999999999
 31
0.0
  0
LINE
  5
4D0
  8
_________1
 62
     7
 10
-42.469200000000001
 20
151.126
 30
0.0
 11
-42.469200000000001
 21
112.95699999999999
 31
0.0
  0
LINE
  5
4D1
  8
_________1
  6
AIGENLINE001
 62
     7
 10
-41.156599999999997
 20
155.976
 30
0.0
 11
-41.156599999999997
 21
103.899
 31
0.0
  0
ARC
  5
4D2
  8
_________1
 62
     7
 10
-23.675374999999999
 20
60.490428000000001
 30
0.0
 40
0.519207
 50
272.09286600000001
 51
357.8676430000001
  0
ARC
  5
4D3
  8
_________1
 62
     7
 10
-25.637028999999998
 20
60.491102000000012
 30
0.0
 40
0.5198920000000001
 50
182.203889
 51
267.87511499999999
  0
ARC
  5
4D4
  8
_________1
 62
     7
 10
-23.675758999999999
 20
61.852218999999991
 30
0.0
 40
0.519578
 50
2.094198
 51
87.86631899999999
  0
ARC
  5
4D5
  8
_________1
 62
     7
 10
-25.656305
 20
61.871205000000003
 30
0.0
 40
0.5002310000000002
 50
90.0
 51
179.99996999999999
  0
INSERT
  5
4D6
  8
_________1
 62
     7
  2
AIGNBL02010012
 10
0.0
 20
0.0
 30
0.0
  0
TEXT
  5
4D7
  8
_________2
 62
     7
 10
200.4570586666666
 20
34.465299999999999
 30
0.0
 40
3.6545800000000002
  1
1 ： 4
 41
0.5
 72
     1
 11
203.86799999999999
 21
34.465299999999999
 31
0.0
  0
TEXT
  5
4D8
  8
_________2
 62
     7
 10
247.22647499999999
 20
30.3553
 30
0.0
 40
3.9357000000000002
  1
ZU0690R
 41
0.5
 72
     1
 11
253.458
 21
30.3553
 31
0.0
  0
TEXT
  5
4D9
  8
_________2
 62
     7
 10
149.3328003333333
 20
34.850499999999997
 30
0.0
 40
3.6545800000000002
  1
井田
 41
0.5
 72
     1
 11
151.221
 21
34.850499999999997
 31
0.0
  0
TEXT
  5
4DA
  8
_________2
 62
     7
 10
130.69789066666669
 20
34.850499999999997
 30
0.0
 40
3.6545800000000002
  1
恋塚
 41
0.5
 72
     1
 11
132.64699999999999
 21
34.850499999999997
 31
0.0
  0
TEXT
  5
4DB
  8
_________2
 62
     7
 10
177.69399999999999
 20
34.465299999999999
 30
0.0
 40
3.6545800000000002
  1
19.03.25
 41
0.5
  0
TEXT
  5
4DC
  8
_________2
 62
     7
 10
290.64778333333328
 20
12.808299999999999
 30
0.0
 40
3.3734599999999988
  1
A3
 41
0.5
 72
     2
 11
293.459
 21
12.808299999999999
 31
0.0
  0
TEXT
  5
4DD
  8
_________2
 62
     7
 10
134.495
 20
21.954699999999999
 30
0.0
 40
3.9357000000000002
  1
（社）日本水道協会認証品
 41
0.5
  0
LINE
  5
4DE
  8
_________2
 62
     7
 10
315.209
 20
148.65899999999999
 30
0.0
 11
293.459
 21
148.65899999999999
 31
0.0
  0
LINE
  5
4DF
  8
_________2
 62
     7
 10
105.20699999999999
 20
17.156300000000002
 30
0.0
 11
105.20699999999999
 21
0.176045
 31
0.0
  0
LINE
  5
4E0
  8
_________2
 62
     7
 10
105.20699999999999
 20
297.178
 30
0.0
 11
105.20699999999999
 21
280.15800000000002
 31
0.0
  0
LINE
  5
4E1
  8
_________2
 62
     7
 10
-83.043899999999994
 20
148.65899999999999
 30
0.0
 11
-104.794
 21
148.65899999999999
 31
0.0
  0
INSERT
  5
4E2
  8
_________2
 62
     7
  2
AIGNBL03010002
 10
0.0
 20
0.0
 30
0.0
  0
TEXT
  5
4E3
  8
_________2
 62
     7
 10
214.51300000000001
 20
22.9269
 30
0.0
 40
3.0923400000000001
  1
図番
 41
0.5
  0
LINE
  5
4E4
  8
_________2
 62
     7
 10
213.458
 20
27.156099999999999
 30
0.0
 11
293.459
 21
27.156099999999999
 31
0.0
  0
TEXT
  5
4E5
  8
_________2
 62
     7
 10
214.51300000000001
 20
32.926699999999997
 30
0.0
 40
3.0923400000000001
  1
品番
 41
0.5
  0
TEXT
  5
4E6
  8
_________2
 62
     7
 10
214.51300000000001
 20
53.0655
 30
0.0
 40
3.0923400000000001
  1
名称
 41
0.5
  0
TEXT
  5
4E7
  8
_________2
 62
     7
 10
201.75325833333329
 20
48.069400000000002
 30
0.0
 40
3.6545800000000002
  1
mm
 41
0.5
 72
     1
 11
203.27600000000001
 21
48.069400000000002
 31
0.0
  0
TEXT
  5
4E8
  8
_________2
 62
     7
 10
195.55099999999999
 20
53.0655
 30
0.0
 40
3.0923400000000001
  1
単位
 41
0.5
  0
TEXT
  5
4E9
  8
_________2
 62
     7
 10
195.55099999999999
 20
40.658200000000001
 30
0.0
 40
3.0923400000000001
  1
尺度
 41
0.5
  0
TEXT
  5
4EA
  8
_________2
 62
     7
 10
247.22647499999999
 20
20.354800000000001
 30
0.0
 40
3.9357000000000002
  1
ZU0690R
 41
0.5
 72
     1
 11
253.458
 21
20.354800000000001
 31
0.0
  0
TEXT
  5
4EB
  8
_________2
 62
     7
 10
129.49600000000001
 20
132.15600000000001
 30
0.0
 40
3.9357000000000002
  1
給水圧力
 41
0.5
  0
TEXT
  5
4EC
  8
_________2
 62
     7
 10
129.49600000000001
 20
139.91900000000001
 30
0.0
 40
3.9357000000000002
  1
用途
 41
0.5
  0
TEXT
  5
4ED
  8
_________2
 62
     7
 10
169.50999999999999
 20
139.91900000000001
 30
0.0
 40
3.9357000000000002
  1
一般住宅用（屋内用）
 41
0.5
  0
LINE
  5
4EE
  8
_________2
 62
     7
 10
145.64099999999999
 20
137.81100000000001
 30
0.0
 11
145.64099999999999
 21
116.474
 31
0.0
  0
LINE
  5
4EF
  8
_________2
 62
     7
 10
166.97200000000001
 20
145.57299999999989
 30
0.0
 11
166.97200000000001
 21
61.980800000000002
 31
0.0
  0
LINE
  5
4F0
  8
_________2
 62
     7
 10
290.16199999999998
 20
145.57299999999989
 30
0.0
 11
126.95699999999999
 21
145.57299999999989
 31
0.0
  0
LINE
  5
4F1
  8
_________2
 62
     7
 10
126.95699999999999
 20
145.57299999999989
 30
0.0
 11
126.95699999999999
 21
61.980800000000002
 31
0.0
  0
LINE
  5
4F2
  8
_________2
 62
     7
 10
126.95699999999999
 20
61.980800000000002
 30
0.0
 11
290.16199999999998
 21
61.980800000000002
 31
0.0
  0
LINE
  5
4F3
  8
_________2
 62
     7
 10
290.16199999999998
 20
61.980800000000002
 30
0.0
 11
290.16199999999998
 21
145.57299999999989
 31
0.0
  0
TEXT
  5
4F4
  8
_________2
 62
     7
 10
147.41499999999999
 20
132.15600000000001
 30
0.0
 40
3.9357000000000002
  1
最低必要水圧
 41
0.5
  0
TEXT
  5
4F5
  8
_________2
 62
     7
 10
169.50999999999999
 20
132.15600000000001
 30
0.0
 40
3.9357000000000002
  1
0.1MPa（流動圧）
 41
0.5
  0
LINE
  5
4F6
  8
_________2
 62
     7
 10
126.95699999999999
 20
137.81100000000001
 30
0.0
 11
290.16199999999998
 21
137.81100000000001
 31
0.0
  0
TEXT
  5
4F7
  8
_________2
 62
     7
 10
129.49600000000001
 20
110.819
 30
0.0
 40
3.9357000000000002
  1
使用可能水質
 41
0.5
  0
TEXT
  5
4F8
  8
_________2
 62
     7
 10
169.50999999999999
 20
110.819
 30
0.0
 40
3.9357000000000002
  1
水道水
 41
0.5
  0
LINE
  5
4F9
  8
_________2
 62
     7
 10
126.95699999999999
 20
116.474
 30
0.0
 11
290.16199999999998
 21
116.474
 31
0.0
  0
TEXT
  5
4FA
  8
_________2
 62
     7
 10
147.41499999999999
 20
124.53400000000001
 30
0.0
 40
3.9357000000000002
  1
最高水圧
 41
0.5
  0
TEXT
  5
4FB
  8
_________2
 62
     7
 10
169.50999999999999
 20
118.38
 30
0.0
 40
3.9357000000000002
  1
※快適にお使いいただくためには、0.2～0.3MPa程度の圧力をおすすめします。
 41
0.5
  0
TEXT
  5
4FC
  8
_________2
 62
     7
 10
169.50999999999999
 20
124.53400000000001
 30
0.0
 40
3.9357000000000002
  1
0.5MPa（流動圧）
 41
0.5
  0
LINE
  5
4FD
  8
_________2
 62
     7
 10
145.64099999999999
 20
130.048
 30
0.0
 11
290.16199999999998
 21
130.048
 31
0.0
  0
TEXT
  5
4FE
  8
_________2
 62
     7
 10
129.49600000000001
 20
103.197
 30
0.0
 40
3.9357000000000002
  1
使用環境温度
 41
0.5
  0
TEXT
  5
4FF
  8
_________2
 62
     7
 10
129.49600000000001
 20
89.623299999999986
 30
0.0
 40
3.9357000000000002
  1
最高給湯温度
 41
0.5
  0
TEXT
  5
500
  8
_________2
 62
     7
 10
129.49600000000001
 20
75.920699999999997
 30
0.0
 40
3.9357000000000002
  1
特記事項
 41
0.5
  0
TEXT
  5
501
  8
_________2
 62
     7
 10
169.50999999999999
 20
103.197
 30
0.0
 40
3.9357000000000002
  1
1～40℃
 41
0.5
  0
TEXT
  5
502
  8
_________2
 62
     7
 10
169.50999999999999
 20
98.277799999999999
 30
0.0
 40
3.9357000000000002
  1
※寒冷地仕様ではありません、凍結が予想される場合は凍結予防をしてください。
 41
0.5
  0
LINE
  5
503
  8
_________2
 62
     7
 10
126.95699999999999
 20
108.711
 30
0.0
 11
290.16199999999998
 21
108.711
 31
0.0
  0
TEXT
  5
504
  8
_________2
 62
     7
 10
169.50999999999999
 20
89.623299999999986
 30
0.0
 40
3.9357000000000002
  1
80℃
 41
0.5
  0
TEXT
  5
505
  8
_________2
 62
     7
 10
169.50999999999999
 20
84.703699999999998
 30
0.0
 40
3.9357000000000002
  1
※安全のため給湯温度は60℃以下でのご使用をおすすめします。
 41
0.5
  0
TEXT
  5
506
  8
_________2
 62
     7
 10
169.50999999999999
 20
75.920699999999997
 30
0.0
 40
3.9357000000000002
  1
（1）水圧は湯水ほぼ同圧、且つ湯圧が水圧より高くならないように設定してください。
 41
0.5
  0
TEXT
  5
507
  8
_________2
 62
     7
 10
169.50999999999999
 20
71.001099999999994
 30
0.0
 40
3.9357000000000002
  1
（2）湯水を逆に配管しないでください。
 41
0.5
  0
TEXT
  5
508
  8
_________2
 62
     7
 10
169.50999999999999
 20
66.081500000000005
 30
0.0
 40
3.9357000000000002
  1
（3）フレキホース寸法公差\U+00B120。
 41
0.5
  0
TEXT
  5
509
  8
_________2
 62
     7
 10
219.08699999999999
 20
45.473100000000002
 30
0.0
 40
3.9357000000000002
  1
ジングル 湯水混合水栓
 41
0.5
  0
TEXT
  5
50A
  8
_________2
 62
     7
 10
176.501
 20
40.658200000000001
 30
0.0
 40
3.0923400000000001
  1
日付
 41
0.5
  0
TEXT
  5
50B
  8
_________2
 62
     7
 10
139.547
 20
40.658200000000001
 30
0.0
 40
3.0923400000000001
  1
検図
 41
0.5
  0
TEXT
  5
50C
  8
_________2
 62
     7
 10
127.929
 20
26.4588
 30
0.0
 40
3.0923400000000001
  1
備考
 41
0.5
  0
TEXT
  5
50D
  8
_________2
 62
     7
 10
127.929
 20
40.658200000000001
 30
0.0
 40
3.0923400000000001
  1
製図
 41
0.5
  0
TEXT
  5
50E
  8
_________2
 62
     7
 10
133.69596533333331
 20
49.184199999999997
 30
0.0
 40
4.4979399999999989
  1
セラトレーディング株式会社
 41
0.5
 72
     1
 11
151.08799999999999
 21
49.184199999999997
 31
0.0
  0
LINE
  5
50F
  8
_________2
 62
     7
 10
293.459
 20
17.156300000000002
 30
0.0
 11
-83.043899999999994
 21
17.156300000000002
 31
0.0
  0
LINE
  5
510
  8
_________2
 62
     7
 10
-83.043899999999994
 20
17.156300000000002
 30
0.0
 11
-83.043899999999994
 21
280.15800000000002
 31
0.0
  0
LINE
  5
511
  8
_________2
 62
     7
 10
-83.043899999999994
 20
280.15800000000002
 30
0.0
 11
293.459
 21
280.15800000000002
 31
0.0
  0
LINE
  5
512
  8
_________2
 62
     7
 10
293.459
 20
280.15800000000002
 30
0.0
 11
293.459
 21
17.156300000000002
 31
0.0
  0
LINE
  5
513
  8
_________2
 62
     7
 10
175.458
 20
30.656400000000001
 30
0.0
 11
175.458
 21
57.156199999999998
 31
0.0
  0
LINE
  5
514
  8
_________2
 62
     7
 10
194.458
 20
30.656400000000001
 30
0.0
 11
194.458
 21
57.156199999999998
 31
0.0
  0
LINE
  5
515
  8
_________2
 62
     7
 10
126.95699999999999
 20
17.156300000000002
 30
0.0
 11
126.95699999999999
 21
57.156199999999998
 31
0.0
  0
LINE
  5
516
  8
_________2
 62
     7
 10
213.458
 20
17.156300000000002
 30
0.0
 11
213.458
 21
57.156199999999998
 31
0.0
  0
LINE
  5
517
  8
_________2
 62
     7
 10
138.45699999999999
 20
30.656400000000001
 30
0.0
 11
138.45699999999999
 21
44.65659999999999
 31
0.0
  0
LINE
  5
518
  8
_________2
 62
     7
 10
126.95699999999999
 20
30.656400000000001
 30
0.0
 11
213.458
 21
30.656400000000001
 31
0.0
  0
LINE
  5
519
  8
_________2
 62
     7
 10
126.95699999999999
 20
44.65659999999999
 30
0.0
 11
213.458
 21
44.65659999999999
 31
0.0
  0
LINE
  5
51A
  8
_________2
 62
     7
 10
213.458
 20
37.15590000000001
 30
0.0
 11
293.459
 21
37.15590000000001
 31
0.0
  0
LINE
  5
51B
  8
_________2
 62
     7
 10
126.95699999999999
 20
95.137299999999996
 30
0.0
 11
290.16199999999998
 21
95.137299999999996
 31
0.0
  0
LINE
  5
51C
  8
_________2
 62
     7
 10
126.95699999999999
 20
81.563199999999995
 30
0.0
 11
290.16199999999998
 21
81.563199999999995
 31
0.0
  0
LINE
  5
51D
  8
_________2
 62
     7
 10
126.95699999999999
 20
57.156199999999998
 30
0.0
 11
293.459
 21
57.156199999999998
 31
0.0
  0
ENDSEC
  0
EOF
