  0
SECTION
  2
HEADER
  9
$ACADVER
  1
AC1009
  9
$INSBASE
 10
0.0
 20
0.0
 30
0.0
  9
$EXTMIN
 10
-4.7008599999999987
 20
-21.071400000000001
 30
0.0
  9
$EXTMAX
 10
205.30099999999999
 20
275.93099999999993
 30
0.0
  9
$LIMMIN
 10
0.0
 20
0.0
  9
$LIMMAX
 10
12.0
 20
9.0
  9
$ORTHOMODE
 70
     0
  9
$REGENMODE
 70
     1
  9
$FILLMODE
 70
     1
  9
$QTEXTMODE
 70
     0
  9
$MIRRTEXT
 70
     1
  9
$DRAGMODE
 70
     2
  9
$LTSCALE
 40
1.0
  9
$OSMODE
 70
    37
  9
$ATTMODE
 70
     1
  9
$TEXTSIZE
 40
0.0
  9
$TRACEWID
 40
0.05
  9
$TEXTSTYLE
  7
STANDARD
  9
$CLAYER
  8
0
  9
$CELTYPE
  6
CONTINUOUS
  9
$CECOLOR
 62
   256
  9
$DIMSCALE
 40
1.0
  9
$DIMASZ
 40
0.18
  9
$DIMEXO
 40
0.0625
  9
$DIMDLI
 40
0.38
  9
$DIMRND
 40
0.0
  9
$DIMDLE
 40
0.0
  9
$DIMEXE
 40
0.18
  9
$DIMTP
 40
0.0
  9
$DIMTM
 40
0.0
  9
$DIMTXT
 40
0.18
  9
$DIMCEN
 40
0.09
  9
$DIMTSZ
 40
0.0
  9
$DIMTOL
 70
     0
  9
$DIMLIM
 70
     0
  9
$DIMTIH
 70
     1
  9
$DIMTOH
 70
     1
  9
$DIMSE1
 70
     0
  9
$DIMSE2
 70
     0
  9
$DIMTAD
 70
     0
  9
$DIMZIN
 70
     0
  9
$DIMBLK
  1

  9
$DIMASO
 70
     1
  9
$DIMSHO
 70
     1
  9
$DIMPOST
  1

  9
$DIMAPOST
  1

  9
$DIMALT
 70
     0
  9
$DIMALTD
 70
     2
  9
$DIMALTF
 40
25.399999999999999
  9
$DIMLFAC
 40
1.0
  9
$DIMTOFL
 70
     0
  9
$DIMTVP
 40
0.0
  9
$DIMTIX
 70
     0
  9
$DIMSOXD
 70
     0
  9
$DIMSAH
 70
     0
  9
$DIMBLK1
  1

  9
$DIMBLK2
  1

  9
$DIMSTYLE
  2
STANDARD
  9
$DIMCLRD
 70
     0
  9
$DIMCLRE
 70
     0
  9
$DIMCLRT
 70
     0
  9
$DIMTFAC
 40
1.0
  9
$DIMGAP
 40
0.09
  9
$LUNITS
 70
     2
  9
$LUPREC
 70
     4
  9
$SKETCHINC
 40
0.1
  9
$FILLETRAD
 40
0.0
  9
$AUNITS
 70
     0
  9
$AUPREC
 70
     0
  9
$MENU
  1
.
  9
$ELEVATION
 40
0.0
  9
$PELEVATION
 40
0.0
  9
$THICKNESS
 40
0.0
  9
$LIMCHECK
 70
     0
  9
$BLIPMODE
 70
     0
  9
$CHAMFERA
 40
0.0
  9
$CHAMFERB
 40
0.0
  9
$SKPOLY
 70
     0
  9
$TDCREATE
 40
2444972.375
  9
$TDUPDATE
 40
2456309.4448195128
  9
$TDINDWG
 40
0.0000092361
  9
$TDUSRTIMER
 40
0.0000092361
  9
$USRTIMER
 70
     1
  9
$ANGBASE
 50
0.0
  9
$ANGDIR
 70
     0
  9
$PDMODE
 70
     0
  9
$PDSIZE
 40
0.0
  9
$PLINEWID
 40
0.0
  9
$COORDS
 70
     1
  9
$SPLFRAME
 70
     0
  9
$SPLINETYPE
 70
     6
  9
$SPLINESEGS
 70
     8
  9
$ATTDIA
 70
     0
  9
$ATTREQ
 70
     1
  9
$HANDLING
 70
     1
  9
$HANDSEED
  5
467
  9
$SURFTAB1
 70
     6
  9
$SURFTAB2
 70
     6
  9
$SURFTYPE
 70
     6
  9
$SURFU
 70
     6
  9
$SURFV
 70
     6
  9
$UCSNAME
  2

  9
$UCSORG
 10
0.0
 20
0.0
 30
0.0
  9
$UCSXDIR
 10
1.0
 20
0.0
 30
0.0
  9
$UCSYDIR
 10
0.0
 20
1.0
 30
0.0
  9
$PUCSNAME
  2

  9
$PUCSORG
 10
0.0
 20
0.0
 30
0.0
  9
$PUCSXDIR
 10
1.0
 20
0.0
 30
0.0
  9
$PUCSYDIR
 10
0.0
 20
1.0
 30
0.0
  9
$USERI1
 70
     0
  9
$USERI2
 70
     0
  9
$USERI3
 70
     0
  9
$USERI4
 70
     0
  9
$USERI5
 70
     0
  9
$USERR1
 40
0.0
  9
$USERR2
 40
0.0
  9
$USERR3
 40
0.0
  9
$USERR4
 40
0.0
  9
$USERR5
 40
0.0
  9
$WORLDVIEW
 70
     1
  9
$SHADEDGE
 70
     3
  9
$SHADEDIF
 70
    70
  9
$TILEMODE
 70
     1
  9
$MAXACTVP
 70
    48
  9
$PLIMCHECK
 70
     0
  9
$PEXTMIN
 10
1.0000000000000000E+020
 20
1.0000000000000000E+020
 30
1.0000000000000000E+020
  9
$PEXTMAX
 10
-1.0000000000000000E+020
 20
-1.0000000000000000E+020
 30
-1.0000000000000000E+020
  9
$PLIMMIN
 10
0.0
 20
0.0
  9
$PLIMMAX
 10
12.0
 20
9.0
  9
$UNITMODE
 70
     0
  9
$VISRETAIN
 70
     1
  9
$PLINEGEN
 70
     0
  9
$PSLTSCALE
 70
     1
  0
ENDSEC
  0
SECTION
  2
TABLES
  0
TABLE
  2
VPORT
 70
     2
  0
VPORT
  2
*ACTIVE
 70
     0
 10
0.0
 20
0.0
 11
1.0
 21
1.0
 12
205.3105154945909
 22
127.4297999999999
 13
0.0
 23
0.0
 14
1.0
 24
1.0
 15
0.0
 25
0.0
 16
0.0
 26
0.0
 36
1.0
 17
0.0
 27
0.0
 37
0.0
 40
299.2467506297229
 41
2.2894736842105261
 42
50.0
 43
0.0
 44
0.0
 50
0.0
 51
0.0
 71
     0
 72
   100
 73
     1
 74
     1
 75
     0
 76
     0
 77
     0
 78
     0
  0
ENDTAB
  0
TABLE
  2
LTYPE
 70
     3
  0
LTYPE
  2
CONTINUOUS
 70
     0
  3
Solid line
 72
    65
 73
     0
 40
0.0
  0
LTYPE
  2
AIGENLINE001
 70
     0
  3
generate AI->DXF Converter
 72
    65
 73
     4
 40
5.8561449999999988
 49
3.5278
 49
-0.776115
 49
0.776115
 49
-0.776115
  0
LTYPE
  2
AIGENLINE002
 70
     0
  3
generate AI->DXF Converter
 72
    65
 73
     6
 40
7.4083750000000004
 49
3.5278
 49
-0.776115
 49
0.776115
 49
-0.776115
 49
0.776115
 49
-0.776115
  0
ENDTAB
  0
TABLE
  2
LAYER
 70
     2
  0
LAYER
  2
0
 70
     0
 62
     7
  6
CONTINUOUS
  0
LAYER
  2
_________2
 70
     0
 62
     7
  6
CONTINUOUS
  0
ENDTAB
  0
TABLE
  2
STYLE
 70
     1
  0
STYLE
  2
STANDARD
 70
     0
 40
0.0
 41
0.0
 50
0.0
 71
     0
 42
0.0
  3
TXT
  4
EXTFONT.SHX
  0
ENDTAB
  0
TABLE
  2
VIEW
 70
     0
  0
ENDTAB
  0
TABLE
  2
UCS
 70
     0
  0
ENDTAB
  0
TABLE
  2
APPID
 70
     1
  0
APPID
  2
ACAD
 70
     0
  0
ENDTAB
  0
TABLE
  2
DIMSTYLE
 70
     1
  0
DIMSTYLE
  2
STANDARD
 70
     0
  3

  4

  5

  6

  7

 40
1.0
 41
0.18
 42
0.0625
 43
0.38
 44
0.18
 45
0.0
 46
0.0
 47
0.0
 48
0.0
140
0.18
141
0.09
142
0.0
143
25.399999999999999
144
1.0
145
0.0
146
1.0
147
0.09
 71
     0
 72
     0
 73
     1
 74
     1
 75
     0
 76
     0
 77
     0
 78
     0
170
     0
171
     2
172
     0
173
     0
174
     0
175
     0
176
     0
177
     0
178
     0
  0
ENDTAB
  0
ENDSEC
  0
SECTION
  2
BLOCKS
  0
BLOCK
  8
0
  2
$MODEL_SPACE
 70
     0
 10
0.0
 20
0.0
 30
0.0
  3
$MODEL_SPACE
  1

  0
ENDBLK
  5
1A
  8
0
  0
BLOCK
 67
     1
  8
0
  2
$PAPER_SPACE
 70
     0
 10
0.0
 20
0.0
 30
0.0
  3
$PAPER_SPACE
  1

  0
ENDBLK
  5
17
 67
     1
  8
0
  0
ENDSEC
  0
SECTION
  2
ENTITIES
  0
TEXT
  5
23
  8
0
 62
     7
 10
69.107282500000011
 20
219.74799999999999
 30
0.0
 40
3.0923400000000001
  1
50%%d
 41
0.5
 72
     1
 11
70.782300000000006
 21
219.74799999999999
 31
0.0
  0
TEXT
  5
24
  8
0
 62
     7
 10
88.185682499999999
 20
219.74799999999999
 30
0.0
 40
3.0923400000000001
  1
50%%d
 41
0.5
 72
     1
 11
89.860699999999994
 21
219.74799999999999
 31
0.0
  0
LINE
  5
25
  8
0
 62
     7
 10
80.665000000000006
 20
215.03099999999989
 30
0.0
 11
78.444299999999998
 21
215.58399999999989
 31
0.0
  0
LINE
  5
26
  8
0
 62
     7
 10
78.444299999999998
 20
215.58399999999989
 30
0.0
 11
80.644299999999987
 21
216.215
 31
0.0
  0
LINE
  5
27
  8
0
 62
     7
 10
80.644299999999987
 20
216.215
 30
0.0
 11
80.665000000000006
 21
215.03099999999989
 31
0.0
  0
LINE
  5
28
  8
0
 62
     7
 10
93.329300000000003
 20
223.179
 30
0.0
 11
95.143500000000003
 21
224.57400000000001
 31
0.0
  0
LINE
  5
29
  8
0
 62
     7
 10
95.143500000000003
 20
224.57400000000001
 30
0.0
 11
94.269800000000004
 21
222.459
 31
0.0
  0
LINE
  5
2A
  8
0
 62
     7
 10
94.269800000000004
 20
222.459
 30
0.0
 11
93.329300000000003
 21
223.179
 31
0.0
  0
ARC
  5
2B
  8
0
 62
     7
 10
78.249544
 20
235.95074299999999
 30
0.0
 40
20.367432000000001
 50
270.54784999999998
 51
326.04303099999993
  0
LINE
  5
2C
  8
0
 62
     7
 10
76.223600000000005
 20
215.03099999999989
 30
0.0
 11
78.444299999999998
 21
215.58399999999989
 31
0.0
  0
LINE
  5
2D
  8
0
 62
     7
 10
78.444299999999998
 20
215.58399999999989
 30
0.0
 11
76.244200000000006
 21
216.215
 31
0.0
  0
LINE
  5
2E
  8
0
 62
     7
 10
76.244200000000006
 20
216.215
 30
0.0
 11
76.223600000000005
 21
215.03099999999989
 31
0.0
  0
LINE
  5
2F
  8
0
 62
     7
 10
63.5593
 20
223.179
 30
0.0
 11
61.745100000000001
 21
224.57400000000001
 31
0.0
  0
LINE
  5
30
  8
0
 62
     7
 10
61.745100000000001
 20
224.57400000000001
 30
0.0
 11
62.6188
 21
222.459
 31
0.0
  0
LINE
  5
31
  8
0
 62
     7
 10
62.6188
 20
222.459
 30
0.0
 11
63.5593
 21
223.179
 31
0.0
  0
ARC
  5
32
  8
0
 62
     7
 10
78.639029000000008
 20
235.95074299999999
 30
0.0
 40
20.367432000000001
 50
213.95698899999999
 51
269.45217000000002
  0
TEXT
  5
33
  8
0
 62
     7
 10
130.69198249999999
 20
168.59700000000001
 30
0.0
 40
3.0923400000000001
  1
120
 41
0.5
 72
     1
 11
132.36699999999999
 21
168.59700000000001
 31
0.0
  0
TEXT
  5
34
  8
0
 62
     7
 10
163.858
 20
151.02542249999991
 30
0.0
 40
3.0923400000000001
  1
max.70
 50
90.0
 41
0.5
 72
     1
 11
163.858
 21
154.762
 31
0.0
  0
TEXT
  5
35
  8
0
 62
     7
 10
156.02788000000001
 20
246.61699999999999
 30
0.0
 40
3.0923400000000001
  1
%%c35
 41
0.5
 72
     2
 11
160.15100000000001
 21
246.61699999999999
 31
0.0
  0
TEXT
  5
36
  8
0
 62
     7
 10
20.139800000000001
 20
39.087299999999999
 30
0.0
 40
3.6545800000000002
  1
・国産洗面器とのセットの場合は国産の排水ヘッド部を別途準備してください。
 41
0.5
  0
TEXT
  5
37
  8
0
 62
     7
 10
50.058282499999997
 20
48.134099999999997
 30
0.0
 40
3.0923400000000001
  1
180
 41
0.5
 72
     1
 11
51.733299999999993
 21
48.134099999999997
 31
0.0
  0
TEXT
  5
38
  8
0
 62
     7
 10
49.438800000000001
 20
67.765824999999992
 30
0.0
 40
3.0923400000000001
  1
%%c5
 50
90.0
 41
0.5
 72
     1
 11
49.438800000000001
 21
69.054299999999984
 31
0.0
  0
TEXT
  5
39
  8
0
 62
     7
 10
39.967218000000003
 20
55.4681
 30
0.0
 40
3.0923400000000001
  1
G1 1/4
 41
0.5
 72
     2
 11
47.079599999999992
 21
55.4681
 31
0.0
  0
TEXT
  5
3A
  8
0
 62
     7
 10
23.594899999999999
 20
64.003072500000002
 30
0.0
 40
3.0923400000000001
  1
50
 50
90.0
 41
0.5
 72
     1
 11
23.594899999999999
 21
65.162700000000001
 31
0.0
  0
TEXT
  5
3B
  8
0
 62
     7
 10
23.2545
 20
71.243322500000005
 30
0.0
 40
3.0923400000000001
  1
max.50
 50
90.0
 41
0.5
 72
     1
 11
23.2545
 21
74.979900000000001
 31
0.0
  0
TEXT
  5
3C
  8
0
 62
     7
 10
32.716940000000001
 20
84.096299999999985
 30
0.0
 40
3.0923400000000001
  1
%%c63
 41
0.5
 72
     1
 11
34.778500000000001
 21
84.096299999999985
 31
0.0
  0
TEXT
  5
3D
  8
0
 62
     7
 10
119.4339999999999
 20
74.212000000000003
 30
0.0
 40
3.0923400000000001
  1
G 3/8
 41
0.5
  0
TEXT
  5
3E
  8
0
 62
     7
 10
144.80628749999991
 20
157.09200000000001
 30
0.0
 40
3.0923400000000001
  1
%%c60
 41
0.5
 72
     1
 11
146.73899999999989
 21
157.09200000000001
 31
0.0
  0
TEXT
  5
3F
  8
0
 62
     7
 10
144.6774399999999
 20
151.87700000000001
 30
0.0
 40
3.0923400000000001
  1
%%c36
 41
0.5
 72
     1
 11
146.73899999999989
 21
151.87700000000001
 31
0.0
  0
TEXT
  5
40
  8
0
 62
     7
 10
151.91505000000001
 20
111.95
 30
0.0
 40
3.0923400000000001
  1
%%c5
 41
0.5
 72
     2
 11
154.49199999999999
 21
111.95
 31
0.0
  0
TEXT
  5
41
  8
0
 62
     7
 10
158.15315000000001
 20
164.34700000000001
 30
0.0
 40
3.0923400000000001
  1
max.35
 41
0.5
 72
     2
 11
165.88399999999999
 21
164.34700000000001
 31
0.0
  0
TEXT
  5
42
  8
0
 62
     7
 10
132.99600000000001
 20
139.18242249999989
 30
0.0
 40
3.0923400000000001
  1
max.40
 50
90.0
 41
0.5
 72
     1
 11
132.99600000000001
 21
142.91900000000001
 31
0.0
  0
TEXT
  5
43
  8
0
 62
     7
 10
178.03599999999989
 20
171.340135
 30
0.0
 40
3.0923400000000001
  1
200
 50
90.0
 41
0.5
 72
     1
 11
178.03599999999989
 21
173.14400000000001
 31
0.0
  0
TEXT
  5
44
  8
0
 62
     7
 10
169.88900000000001
 20
168.11213499999991
 30
0.0
 40
3.0923400000000001
  1
174
 50
90.0
 41
0.5
 72
     1
 11
169.88900000000001
 21
169.916
 31
0.0
  0
TEXT
  5
45
  8
0
 62
     7
 10
107.824
 20
112.84728749999999
 30
0.0
 40
3.0923400000000001
  1
460
 50
90.0
 41
0.5
 72
     1
 11
107.824
 21
114.7799999999999
 31
0.0
  0
TEXT
  5
46
  8
0
 62
     7
 10
107.824
 20
161.36983000000001
 30
0.0
 40
3.0923400000000001
  1
118
 50
90.0
 41
0.5
 72
     1
 11
107.824
 21
162.91599999999991
 31
0.0
  0
TEXT
  5
47
  8
0
 62
     7
 10
169.94699999999989
 20
101.11098250000001
 30
0.0
 40
3.0923400000000001
  1
310
 50
90.0
 41
0.5
 72
     1
 11
169.94699999999989
 21
102.7859999999999
 31
0.0
  0
TEXT
  5
48
  8
0
 62
     7
 10
58.923454
 20
225.1399999999999
 30
0.0
 40
3.0923400000000001
  1
湯
 41
0.5
 72
     1
 11
59.64500000000001
 21
225.1399999999999
 31
0.0
  0
TEXT
  5
49
  8
0
 62
     7
 10
96.892753999999996
 20
225.1399999999999
 30
0.0
 40
3.0923400000000001
  1
水
 41
0.5
 72
     1
 11
97.6143
 21
225.1399999999999
 31
0.0
  0
TEXT
  5
4A
  8
0
 62
     7
 10
142.93464599999999
 20
224.29900000000001
 30
0.0
 40
3.0923400000000001
  1
水栓取付穴
 41
0.5
 72
     1
 11
147.36699999999999
 21
224.29900000000001
 31
0.0
  0
LINE
  5
4B
  8
0
  6
AIGENLINE002
 62
     7
 10
63.746000000000002
 20
232.16900000000001
 30
0.0
 11
76.711399999999998
 21
243.048
 31
0.0
  0
ARC
  5
4C
  8
0
  6
AIGENLINE002
 62
     7
 10
64.625003000000007
 20
231.21874099999999
 30
0.0
 40
1.2944649999999991
 50
132.76690300000001
 51
217.9387999999999
  0
LINE
  5
4D
  8
0
  6
AIGENLINE002
 62
     7
 10
63.604100000000003
 20
230.423
 30
0.0
 11
67.769900000000007
 21
225.458
 31
0.0
  0
ARC
  5
4E
  8
0
  6
AIGENLINE002
 62
     7
 10
68.731153000000006
 20
226.32530099999991
 30
0.0
 40
1.294581999999999
 50
222.05582299999989
 51
307.238156
  0
LINE
  5
4F
  8
0
  6
AIGENLINE002
 62
     7
 10
69.514499999999998
 20
225.2949999999999
 30
0.0
 11
78.444299999999998
 21
232.7879999999999
 31
0.0
  0
LINE
  5
50
  8
0
  6
AIGENLINE001
 62
     7
 10
78.461500000000001
 20
238.6449999999999
 30
0.0
 11
60.336799999999997
 21
223.38900000000001
 31
0.0
  0
LINE
  5
51
  8
0
  6
AIGENLINE002
 62
     7
 10
93.146699999999996
 20
232.16900000000001
 30
0.0
 11
80.181299999999993
 21
243.048
 31
0.0
  0
ARC
  5
52
  8
0
  6
AIGENLINE002
 62
     7
 10
92.266773999999984
 20
231.2188669999999
 30
0.0
 40
1.2950049999999991
 50
322.07277399999998
 51
47.199063000000002
  0
LINE
  5
53
  8
0
  6
AIGENLINE002
 62
     7
 10
93.288300000000007
 20
230.423
 30
0.0
 11
89.122799999999998
 21
225.458
 31
0.0
  0
ARC
  5
54
  8
0
  6
AIGENLINE002
 62
     7
 10
88.161474999999996
 20
226.326145
 30
0.0
 40
1.295205999999999
 50
232.78722300000001
 51
317.91883799999988
  0
LINE
  5
55
  8
0
  6
AIGENLINE002
 62
     7
 10
87.378200000000007
 20
225.2949999999999
 30
0.0
 11
78.443600000000004
 21
232.791
 31
0.0
  0
LINE
  5
56
  8
0
  6
AIGENLINE001
 62
     7
 10
78.461500000000001
 20
238.6449999999999
 30
0.0
 11
96.609700000000004
 21
223.38900000000001
 31
0.0
  0
LINE
  5
57
  8
0
 62
     7
 10
154.4799999999999
 20
245.75700000000001
 30
0.0
 11
160.26699999999991
 21
245.75700000000001
 31
0.0
  0
LINE
  5
58
  8
0
 62
     7
 10
143.12899999999991
 20
233.5679999999999
 30
0.0
 11
144.274
 21
235.5509999999999
 31
0.0
  0
LINE
  5
59
  8
0
 62
     7
 10
144.274
 20
235.5509999999999
 30
0.0
 11
142.29099999999991
 21
234.40599999999989
 31
0.0
  0
LINE
  5
5A
  8
0
 62
     7
 10
142.29099999999991
 20
234.40599999999989
 30
0.0
 11
143.12899999999991
 21
233.5679999999999
 31
0.0
  0
LINE
  5
5B
  8
0
 62
     7
 10
151.60599999999991
 20
243.72099999999989
 30
0.0
 11
150.46100000000001
 21
241.738
 31
0.0
  0
LINE
  5
5C
  8
0
 62
     7
 10
150.46100000000001
 20
241.738
 30
0.0
 11
152.44399999999999
 21
242.88300000000001
 31
0.0
  0
LINE
  5
5D
  8
0
 62
     7
 10
152.44399999999999
 20
242.88300000000001
 30
0.0
 11
151.60599999999991
 21
243.72099999999989
 31
0.0
  0
LINE
  5
5E
  8
0
 62
     7
 10
154.4799999999999
 20
245.75700000000001
 30
0.0
 11
140.2939999999999
 21
231.572
 31
0.0
  0
LINE
  5
5F
  8
0
  6
AIGENLINE001
 62
     7
 10
147.36699999999999
 20
244.965
 30
0.0
 11
147.36699999999999
 21
231.81299999999999
 31
0.0
  0
ARC
  5
60
  8
0
 62
     7
 10
147.3674739999999
 20
238.64447799999999
 30
0.0
 40
4.3751269999999991
 50
0.002266
 51
90.002235999999996
  0
ARC
  5
61
  8
0
 62
     7
 10
147.36747600000001
 20
238.644822
 30
0.0
 40
4.374782999999999
 50
90.002256000000017
 51
180.00226599999991
  0
ARC
  5
62
  8
0
 62
     7
 10
147.3674739999999
 20
238.64447799999999
 30
0.0
 40
4.3747809999999987
 50
179.997714
 51
269.99776400000002
  0
ARC
  5
63
  8
0
 62
     7
 10
147.3674739999999
 20
238.644824
 30
0.0
 40
4.3751269999999991
 50
269.99776400000002
 51
359.99773399999992
  0
LINE
  5
64
  8
0
  6
AIGENLINE001
 62
     7
 10
65.961200000000005
 20
238.6449999999999
 30
0.0
 11
90.961399999999998
 21
238.6449999999999
 31
0.0
  0
LINE
  5
65
  8
0
  6
AIGENLINE001
 62
     7
 10
140.429
 20
238.6449999999999
 30
0.0
 11
154.14500000000001
 21
238.6449999999999
 31
0.0
  0
LINE
  5
66
  8
0
 62
     7
 10
142.07900000000001
 20
156.648
 30
0.0
 11
139.86699999999999
 21
156.05600000000001
 31
0.0
  0
LINE
  5
67
  8
0
 62
     7
 10
139.86699999999999
 20
156.05600000000001
 30
0.0
 11
142.07900000000001
 21
155.46299999999991
 31
0.0
  0
LINE
  5
68
  8
0
 62
     7
 10
142.07900000000001
 20
155.46299999999991
 30
0.0
 11
142.07900000000001
 21
156.648
 31
0.0
  0
LINE
  5
69
  8
0
 62
     7
 10
152.65600000000001
 20
155.47699999999989
 30
0.0
 11
154.86699999999999
 21
156.06999999999991
 31
0.0
  0
LINE
  5
6A
  8
0
 62
     7
 10
154.86699999999999
 20
156.06999999999991
 30
0.0
 11
152.65600000000001
 21
156.6629999999999
 31
0.0
  0
LINE
  5
6B
  8
0
 62
     7
 10
152.65600000000001
 20
156.6629999999999
 30
0.0
 11
152.65600000000001
 21
155.47699999999989
 31
0.0
  0
LINE
  5
6C
  8
0
 62
     7
 10
139.86699999999999
 20
156.05600000000001
 30
0.0
 11
154.86699999999999
 21
156.05600000000001
 31
0.0
  0
LINE
  5
6D
  8
0
 62
     7
 10
154.86699999999999
 20
156.756
 30
0.0
 11
154.86699999999999
 21
149.7529999999999
 31
0.0
  0
LINE
  5
6E
  8
0
 62
     7
 10
139.86699999999999
 20
156.756
 30
0.0
 11
139.86699999999999
 21
149.7529999999999
 31
0.0
  0
LINE
  5
6F
  8
0
 62
     7
 10
145.15600000000001
 20
167.262
 30
0.0
 11
147.36699999999999
 21
167.85400000000001
 31
0.0
  0
LINE
  5
70
  8
0
 62
     7
 10
147.36699999999999
 20
167.85400000000001
 30
0.0
 11
145.15600000000001
 21
168.447
 31
0.0
  0
LINE
  5
71
  8
0
 62
     7
 10
145.15600000000001
 20
168.447
 30
0.0
 11
145.15600000000001
 21
167.262
 31
0.0
  0
LINE
  5
72
  8
0
 62
     7
 10
119.5779999999999
 20
168.43199999999999
 30
0.0
 11
117.3669999999999
 21
167.84
 31
0.0
  0
LINE
  5
73
  8
0
 62
     7
 10
117.3669999999999
 20
167.84
 30
0.0
 11
119.5779999999999
 21
167.24700000000001
 31
0.0
  0
LINE
  5
74
  8
0
 62
     7
 10
119.5779999999999
 20
167.24700000000001
 30
0.0
 11
119.5779999999999
 21
168.43199999999999
 31
0.0
  0
LINE
  5
75
  8
0
 62
     7
 10
147.36699999999999
 20
167.85400000000001
 30
0.0
 11
117.3669999999999
 21
167.85400000000001
 31
0.0
  0
LINE
  5
76
  8
0
 62
     7
 10
117.3669999999999
 20
175.8129999999999
 30
0.0
 11
117.3669999999999
 21
167.13999999999999
 31
0.0
  0
LINE
  5
77
  8
0
 62
     7
 10
165.1329999999999
 20
159.14500000000001
 30
0.0
 11
164.541
 21
161.35699999999991
 31
0.0
  0
LINE
  5
78
  8
0
 62
     7
 10
164.541
 20
161.35699999999991
 30
0.0
 11
163.94799999999989
 21
159.14500000000001
 31
0.0
  0
LINE
  5
79
  8
0
 62
     7
 10
163.94799999999989
 20
159.14500000000001
 30
0.0
 11
165.1329999999999
 21
159.14500000000001
 31
0.0
  0
LINE
  5
7A
  8
0
 62
     7
 10
163.99799999999991
 20
150.37700000000001
 30
0.0
 11
164.59
 21
148.16599999999991
 31
0.0
  0
LINE
  5
7B
  8
0
 62
     7
 10
164.59
 20
148.16599999999991
 30
0.0
 11
165.18299999999991
 21
150.37700000000001
 31
0.0
  0
LINE
  5
7C
  8
0
 62
     7
 10
165.18299999999991
 20
150.37700000000001
 30
0.0
 11
163.99799999999991
 21
150.37700000000001
 31
0.0
  0
LINE
  5
7D
  8
0
 62
     7
 10
164.541
 20
161.35699999999991
 30
0.0
 11
164.57599999999991
 21
148.16599999999991
 31
0.0
  0
LINE
  5
7E
  8
0
 62
     7
 10
149.65600000000001
 20
149.899
 30
0.0
 11
151.86699999999999
 21
150.49100000000001
 31
0.0
  0
LINE
  5
7F
  8
0
 62
     7
 10
151.86699999999999
 20
150.49100000000001
 30
0.0
 11
149.65600000000001
 21
151.08399999999989
 31
0.0
  0
LINE
  5
80
  8
0
 62
     7
 10
149.65600000000001
 20
151.08399999999989
 30
0.0
 11
149.65600000000001
 21
149.899
 31
0.0
  0
LINE
  5
81
  8
0
 62
     7
 10
145.07900000000001
 20
151.0689999999999
 30
0.0
 11
142.86699999999999
 21
150.477
 31
0.0
  0
LINE
  5
82
  8
0
 62
     7
 10
142.86699999999999
 20
150.477
 30
0.0
 11
145.07900000000001
 21
149.8839999999999
 31
0.0
  0
LINE
  5
83
  8
0
 62
     7
 10
145.07900000000001
 20
149.8839999999999
 30
0.0
 11
145.07900000000001
 21
151.0689999999999
 31
0.0
  0
LINE
  5
84
  8
0
 62
     7
 10
151.86699999999999
 20
150.477
 30
0.0
 11
142.86699999999999
 21
150.477
 31
0.0
  0
LINE
  5
85
  8
0
 62
     7
 10
134.2879999999999
 20
145.95400000000001
 30
0.0
 11
133.69599999999991
 21
148.16599999999991
 31
0.0
  0
LINE
  5
86
  8
0
 62
     7
 10
133.69599999999991
 20
148.16599999999991
 30
0.0
 11
133.10299999999989
 21
145.95400000000001
 31
0.0
  0
LINE
  5
87
  8
0
 62
     7
 10
133.10299999999989
 20
145.95400000000001
 30
0.0
 11
134.2879999999999
 21
145.95400000000001
 31
0.0
  0
LINE
  5
88
  8
0
 62
     7
 10
165.2409999999999
 20
161.35699999999991
 30
0.0
 11
157.81899999999999
 21
161.35699999999991
 31
0.0
  0
LINE
  5
89
  8
0
 62
     7
 10
133.11799999999999
 20
139.8839999999999
 30
0.0
 11
133.71000000000001
 21
137.673
 31
0.0
  0
LINE
  5
8A
  8
0
 62
     7
 10
133.71000000000001
 20
137.673
 30
0.0
 11
134.30299999999991
 21
139.8839999999999
 31
0.0
  0
LINE
  5
8B
  8
0
 62
     7
 10
134.30299999999991
 20
139.8839999999999
 30
0.0
 11
133.11799999999999
 21
139.8839999999999
 31
0.0
  0
LINE
  5
8C
  8
0
 62
     7
 10
133.69599999999991
 20
148.16599999999991
 30
0.0
 11
133.69599999999991
 21
137.673
 31
0.0
  0
LINE
  5
8D
  8
0
 62
     7
 10
140.417
 20
137.673
 30
0.0
 11
132.99600000000001
 21
137.673
 31
0.0
  0
LINE
  5
8E
  8
0
 62
     7
 10
154.91099999999989
 20
163.0679999999999
 30
0.0
 11
157.12200000000001
 21
163.661
 31
0.0
  0
LINE
  5
8F
  8
0
 62
     7
 10
157.12200000000001
 20
163.661
 30
0.0
 11
154.91099999999989
 21
164.25399999999999
 31
0.0
  0
LINE
  5
90
  8
0
 62
     7
 10
154.91099999999989
 20
164.25399999999999
 30
0.0
 11
154.91099999999989
 21
163.0679999999999
 31
0.0
  0
LINE
  5
91
  8
0
 62
     7
 10
154.07900000000001
 20
164.23899999999989
 30
0.0
 11
151.86699999999999
 21
163.64699999999999
 31
0.0
  0
LINE
  5
92
  8
0
 62
     7
 10
151.86699999999999
 20
163.64699999999999
 30
0.0
 11
154.07900000000001
 21
163.054
 31
0.0
  0
LINE
  5
93
  8
0
 62
     7
 10
154.07900000000001
 20
163.054
 30
0.0
 11
154.07900000000001
 21
164.23899999999989
 31
0.0
  0
LINE
  5
94
  8
0
 62
     7
 10
165.88399999999999
 20
163.64699999999999
 30
0.0
 11
151.86699999999999
 21
163.64699999999999
 31
0.0
  0
LINE
  5
95
  8
0
 62
     7
 10
157.12200000000001
 20
164.34700000000001
 30
0.0
 11
157.12200000000001
 21
162.11999999999989
 31
0.0
  0
LINE
  5
96
  8
0
 62
     7
 10
171.239
 20
145.95400000000001
 30
0.0
 11
170.64699999999999
 21
148.16599999999991
 31
0.0
  0
LINE
  5
97
  8
0
 62
     7
 10
170.64699999999999
 20
148.16599999999991
 30
0.0
 11
170.054
 21
145.95400000000001
 31
0.0
  0
LINE
  5
98
  8
0
 62
     7
 10
170.054
 20
145.95400000000001
 30
0.0
 11
171.239
 21
145.95400000000001
 31
0.0
  0
LINE
  5
99
  8
0
 62
     7
 10
170.06899999999999
 20
59.617800000000003
 30
0.0
 11
170.66099999999989
 21
57.406700000000001
 31
0.0
  0
LINE
  5
9A
  8
0
 62
     7
 10
170.66099999999989
 20
57.406700000000001
 30
0.0
 11
171.25399999999999
 21
59.617800000000003
 31
0.0
  0
LINE
  5
9B
  8
0
 62
     7
 10
171.25399999999999
 20
59.617800000000003
 30
0.0
 11
170.06899999999999
 21
59.617800000000003
 31
0.0
  0
LINE
  5
9C
  8
0
 62
     7
 10
170.64699999999999
 20
148.16599999999991
 30
0.0
 11
170.64699999999999
 21
57.406700000000001
 31
0.0
  0
LINE
  5
9D
  8
0
 62
     7
 10
179.37200000000001
 20
195.91
 30
0.0
 11
178.779
 21
198.12200000000001
 31
0.0
  0
LINE
  5
9E
  8
0
 62
     7
 10
178.779
 20
198.12200000000001
 30
0.0
 11
178.18700000000001
 21
195.91
 31
0.0
  0
LINE
  5
9F
  8
0
 62
     7
 10
178.18700000000001
 20
195.91
 30
0.0
 11
179.37200000000001
 21
195.91
 31
0.0
  0
LINE
  5
A0
  8
0
 62
     7
 10
178.20099999999991
 20
150.37700000000001
 30
0.0
 11
178.79400000000001
 21
148.16599999999991
 31
0.0
  0
LINE
  5
A1
  8
0
 62
     7
 10
178.79400000000001
 20
148.16599999999991
 30
0.0
 11
179.386
 21
150.37700000000001
 31
0.0
  0
LINE
  5
A2
  8
0
 62
     7
 10
179.386
 20
150.37700000000001
 30
0.0
 11
178.20099999999991
 21
150.37700000000001
 31
0.0
  0
LINE
  5
A3
  8
0
 62
     7
 10
178.779
 20
198.12200000000001
 30
0.0
 11
178.779
 21
148.16599999999991
 31
0.0
  0
LINE
  5
A4
  8
0
 62
     7
 10
171.22499999999999
 20
189.45400000000001
 30
0.0
 11
170.63200000000001
 21
191.666
 31
0.0
  0
LINE
  5
A5
  8
0
 62
     7
 10
170.63200000000001
 20
191.666
 30
0.0
 11
170.03999999999991
 21
189.45400000000001
 31
0.0
  0
LINE
  5
A6
  8
0
 62
     7
 10
170.03999999999991
 20
189.45400000000001
 30
0.0
 11
171.22499999999999
 21
189.45400000000001
 31
0.0
  0
LINE
  5
A7
  8
0
 62
     7
 10
170.054
 20
150.37700000000001
 30
0.0
 11
170.64699999999999
 21
148.16599999999991
 31
0.0
  0
LINE
  5
A8
  8
0
 62
     7
 10
170.64699999999999
 20
148.16599999999991
 30
0.0
 11
171.239
 21
150.37700000000001
 31
0.0
  0
LINE
  5
A9
  8
0
 62
     7
 10
171.239
 20
150.37700000000001
 30
0.0
 11
170.054
 21
150.37700000000001
 31
0.0
  0
LINE
  5
AA
  8
0
 62
     7
 10
170.63200000000001
 20
191.666
 30
0.0
 11
170.63200000000001
 21
148.16599999999991
 31
0.0
  0
LINE
  5
AB
  8
0
 62
     7
 10
109.15899999999991
 20
145.95400000000001
 30
0.0
 11
108.566
 21
148.16599999999991
 31
0.0
  0
LINE
  5
AC
  8
0
 62
     7
 10
108.566
 20
148.16599999999991
 30
0.0
 11
107.9739999999999
 21
145.95400000000001
 31
0.0
  0
LINE
  5
AD
  8
0
 62
     7
 10
107.9739999999999
 20
145.95400000000001
 30
0.0
 11
109.15899999999991
 21
145.95400000000001
 31
0.0
  0
LINE
  5
AE
  8
0
 62
     7
 10
107.9879999999999
 20
83.605400000000003
 30
0.0
 11
108.581
 21
81.394300000000001
 31
0.0
  0
LINE
  5
AF
  8
0
 62
     7
 10
108.581
 20
81.394300000000001
 30
0.0
 11
109.1729999999999
 21
83.605400000000003
 31
0.0
  0
LINE
  5
B0
  8
0
 62
     7
 10
109.1729999999999
 20
83.605400000000003
 30
0.0
 11
107.9879999999999
 21
83.605400000000003
 31
0.0
  0
LINE
  5
B1
  8
0
 62
     7
 10
108.566
 20
148.16599999999991
 30
0.0
 11
108.566
 21
81.394300000000001
 31
0.0
  0
LINE
  5
B2
  8
0
 62
     7
 10
109.15899999999991
 20
175.45400000000001
 30
0.0
 11
108.566
 21
177.66599999999991
 31
0.0
  0
LINE
  5
B3
  8
0
 62
     7
 10
108.566
 20
177.66599999999991
 30
0.0
 11
107.9739999999999
 21
175.45400000000001
 31
0.0
  0
LINE
  5
B4
  8
0
 62
     7
 10
107.9739999999999
 20
175.45400000000001
 30
0.0
 11
109.15899999999991
 21
175.45400000000001
 31
0.0
  0
LINE
  5
B5
  8
0
 62
     7
 10
107.9879999999999
 20
150.37700000000001
 30
0.0
 11
108.581
 21
148.16599999999991
 31
0.0
  0
LINE
  5
B6
  8
0
 62
     7
 10
108.581
 20
148.16599999999991
 30
0.0
 11
109.1729999999999
 21
150.37700000000001
 31
0.0
  0
LINE
  5
B7
  8
0
 62
     7
 10
109.1729999999999
 20
150.37700000000001
 30
0.0
 11
107.9879999999999
 21
150.37700000000001
 31
0.0
  0
LINE
  5
B8
  8
0
 62
     7
 10
108.566
 20
177.66599999999991
 30
0.0
 11
108.566
 21
148.16599999999991
 31
0.0
  0
LINE
  5
B9
  8
0
 62
     7
 10
179.47900000000001
 20
198.12200000000001
 30
0.0
 11
137.30199999999999
 21
198.12200000000001
 31
0.0
  0
LINE
  5
BA
  8
0
 62
     7
 10
171.33199999999991
 20
191.666
 30
0.0
 11
133.01400000000001
 21
191.666
 31
0.0
  0
LINE
  5
BB
  8
0
 62
     7
 10
127.81999999999999
 20
81.394300000000001
 30
0.0
 11
107.881
 21
81.394300000000001
 31
0.0
  0
LINE
  5
BC
  8
0
 62
     7
 10
138.99199999999999
 20
148.16599999999991
 30
0.0
 11
107.881
 21
148.16599999999991
 31
0.0
  0
LINE
  5
BD
  8
0
 62
     7
 10
179.494
 20
148.16599999999991
 30
0.0
 11
155.56700000000001
 21
148.16599999999991
 31
0.0
  0
LINE
  5
BE
  8
0
 62
     7
 10
114.342
 20
177.66599999999991
 30
0.0
 11
107.8659999999999
 21
177.66599999999991
 31
0.0
  0
LINE
  5
BF
  8
0
 62
     7
 10
171.3609999999999
 20
57.406700000000001
 30
0.0
 11
148.83299999999991
 21
57.406700000000001
 31
0.0
  0
LINE
  5
C0
  8
0
 62
     7
 10
144.53100000000001
 20
110.7429999999999
 30
0.0
 11
146.74199999999999
 21
111.33499999999999
 31
0.0
  0
LINE
  5
C1
  8
0
 62
     7
 10
146.74199999999999
 20
111.33499999999999
 30
0.0
 11
144.53100000000001
 21
111.928
 31
0.0
  0
LINE
  5
C2
  8
0
 62
     7
 10
144.53100000000001
 20
111.928
 30
0.0
 11
144.53100000000001
 21
110.7429999999999
 31
0.0
  0
LINE
  5
C3
  8
0
 62
     7
 10
150.20400000000001
 20
111.9129999999999
 30
0.0
 11
147.99199999999999
 21
111.321
 31
0.0
  0
LINE
  5
C4
  8
0
 62
     7
 10
147.99199999999999
 20
111.321
 30
0.0
 11
150.20400000000001
 21
110.72799999999999
 31
0.0
  0
LINE
  5
C5
  8
0
 62
     7
 10
150.20400000000001
 20
110.72799999999999
 30
0.0
 11
150.20400000000001
 21
111.9129999999999
 31
0.0
  0
LINE
  5
C6
  8
0
 62
     7
 10
154.64099999999991
 20
111.321
 30
0.0
 11
142.22099999999989
 21
111.321
 31
0.0
  0
LINE
  5
C7
  8
0
 62
     7
 10
135.34399999999991
 20
74.256699999999995
 30
0.0
 11
133.1329999999999
 21
73.664199999999994
 31
0.0
  0
LINE
  5
C8
  8
0
 62
     7
 10
133.1329999999999
 20
73.664199999999994
 30
0.0
 11
135.34399999999991
 21
73.072299999999998
 31
0.0
  0
LINE
  5
C9
  8
0
 62
     7
 10
135.34399999999991
 20
73.072299999999998
 30
0.0
 11
135.34399999999991
 21
74.256699999999995
 31
0.0
  0
LINE
  5
CA
  8
0
 62
     7
 10
126.797
 20
73.072299999999998
 30
0.0
 11
129.0079999999999
 21
73.664199999999994
 31
0.0
  0
LINE
  5
CB
  8
0
 62
     7
 10
129.0079999999999
 20
73.664199999999994
 30
0.0
 11
126.797
 21
74.256699999999995
 31
0.0
  0
LINE
  5
CC
  8
0
 62
     7
 10
126.797
 20
74.256699999999995
 30
0.0
 11
126.797
 21
73.072299999999998
 31
0.0
  0
LINE
  5
CD
  8
0
 62
     7
 10
119.2829999999999
 20
73.664199999999994
 30
0.0
 11
136.8489999999999
 21
73.664199999999994
 31
0.0
  0
LINE
  5
CE
  8
0
 62
     7
 10
129.0079999999999
 20
72.993799999999993
 30
0.0
 11
129.0079999999999
 21
80.954099999999997
 31
0.0
  0
LINE
  5
CF
  8
0
 62
     7
 10
133.1329999999999
 20
72.993799999999993
 30
0.0
 11
133.1329999999999
 21
80.954099999999997
 31
0.0
  0
LINE
  5
D0
  8
0
 62
     7
 10
79.067899999999995
 20
243.048
 30
0.0
 11
79.067899999999995
 21
244.16
 31
0.0
  0
LINE
  5
D1
  8
0
 62
     7
 10
79.067899999999995
 20
244.16
 30
0.0
 11
79.067899999999995
 21
245.40199999999999
 31
0.0
  0
LINE
  5
D2
  8
0
 62
     7
 10
79.067899999999995
 20
245.40199999999999
 30
0.0
 11
79.067899999999995
 21
247.89400000000001
 31
0.0
  0
ARC
  5
D3
  8
0
 62
     7
 10
78.679415000000006
 20
247.879108
 30
0.0
 40
0.3887070000000001
 50
2.1343570000000001
 51
87.892017999999993
  0
ARC
  5
D4
  8
0
 62
     7
 10
78.209210999999996
 20
247.87974399999999
 30
0.0
 40
0.388049
 50
92.01764
 51
177.9559449999999
  0
LINE
  5
D5
  8
0
 62
     7
 10
77.821399999999997
 20
245.40199999999999
 30
0.0
 11
77.821399999999997
 21
247.89400000000001
 31
0.0
  0
LINE
  5
D6
  8
0
 62
     7
 10
78.693700000000007
 20
248.268
 30
0.0
 11
78.195499999999996
 21
248.268
 31
0.0
  0
LINE
  5
D7
  8
0
 62
     7
 10
77.821399999999997
 20
244.16
 30
0.0
 11
77.821399999999997
 21
245.40199999999999
 31
0.0
  0
ARC
  5
D8
  8
0
 62
     7
 10
78.520375000000001
 20
244.16605399999989
 30
0.0
 40
0.547516
 50
299.86156899999992
 51
359.32402599999989
  0
ARC
  5
D9
  8
0
 62
     7
 10
78.448657999999995
 20
244.25744299999999
 30
0.0
 40
0.66269
 50
269.62202400000001
 51
301.30483299999997
  0
ARC
  5
DA
  8
0
 62
     7
 10
78.449267000000006
 20
244.2629189999999
 30
0.0
 40
0.66817
 50
216.9894259999999
 51
269.57290699999999
  0
ARC
  5
DB
  8
0
 62
     7
 10
78.356282999999991
 20
244.16402099999999
 30
0.0
 40
0.5348920000000002
 50
180.47413399999999
 51
214.5197049999999
  0
LINE
  5
DC
  8
0
 62
     7
 10
77.821399999999997
 20
243.048
 30
0.0
 11
77.821399999999997
 21
244.16
 31
0.0
  0
ARC
  5
DD
  8
0
 62
     7
 10
78.444793000000004
 20
238.57357099999999
 30
0.0
 40
7.4782710000000003
 50
94.781676000000004
 51
184.77696299999991
  0
ARC
  5
DE
  8
0
 62
     7
 10
78.545344
 20
238.62962300000001
 30
0.0
 40
7.5832889999999988
 50
185.13573199999999
 51
232.887936
  0
ARC
  5
DF
  8
0
 62
     7
 10
78.443670999999995
 20
238.57396499999999
 30
0.0
 40
7.4784470000000001
 50
306.99326300000001
 51
36.984631
  0
ARC
  5
E0
  8
0
 62
     7
 10
78.390512000000001
 20
238.47638699999999
 30
0.0
 40
7.579752
 50
37.332078000000003
 51
84.873093000000011
  0
ARC
  5
E1
  8
0
 62
     7
 10
81.650079000000005
 20
223.19422399999999
 30
0.0
 40
1.295078
 50
272.08365900000001
 51
357.19926600000002
  0
LINE
  5
E2
  8
0
 62
     7
 10
81.697199999999995
 20
221.90000000000001
 30
0.0
 11
75.216200000000001
 21
221.90000000000001
 31
0.0
  0
ARC
  5
E3
  8
0
 62
     7
 10
75.263299000000004
 20
223.19422399999999
 30
0.0
 40
1.295078
 50
182.8007539999999
 51
267.91635999999988
  0
ARC
  5
E4
  8
0
 62
     7
 10
75.264364
 20
241.75359
 30
0.0
 40
1.295504999999999
 50
92.13010700000001
 51
177.85402500000001
  0
LINE
  5
E5
  8
0
 62
     7
 10
81.697199999999995
 20
243.048
 30
0.0
 11
75.216200000000001
 21
243.048
 31
0.0
  0
ARC
  5
E6
  8
0
 62
     7
 10
81.649725000000004
 20
241.754302
 30
0.0
 40
1.294767
 50
2.1156649999999999
 51
87.900164000000004
  0
LINE
  5
E7
  8
0
 62
     7
 10
82.943600000000004
 20
223.20899999999989
 30
0.0
 11
82.943600000000004
 21
241.80199999999999
 31
0.0
  0
LINE
  5
E8
  8
0
 62
     7
 10
73.969800000000006
 20
223.20899999999989
 30
0.0
 11
73.969800000000006
 21
241.80199999999999
 31
0.0
  0
ARC
  5
E9
  8
0
 62
     7
 10
81.660044999999997
 20
206.0465209999999
 30
0.0
 40
1.2463580000000001
 50
269.99606
 51
359.99603100000002
  0
LINE
  5
EA
  8
0
 62
     7
 10
81.659999999999997
 20
204.80000000000001
 30
0.0
 11
75.2286
 21
204.80000000000001
 31
0.0
  0
ARC
  5
EB
  8
0
 62
     7
 10
75.276895999999994
 20
206.09417999999999
 30
0.0
 40
1.2949170000000001
 50
182.113066
 51
267.863201
  0
LINE
  5
EC
  8
0
 62
     7
 10
73.982900000000001
 20
206.04599999999991
 30
0.0
 11
73.982900000000001
 21
222.95699999999991
 31
0.0
  0
LINE
  5
ED
  8
0
 62
     7
 10
82.906400000000005
 20
222.83099999999999
 30
0.0
 11
82.906400000000005
 21
206.04599999999991
 31
0.0
  0
LINE
  5
EE
  8
0
  6
AIGENLINE001
 62
     7
 10
78.444299999999998
 20
250.36799999999999
 30
0.0
 11
78.444299999999998
 21
202.30000000000001
 31
0.0
  0
LINE
  5
EF
  8
0
  6
AIGENLINE001
 62
     7
 10
131.071
 20
132.16499999999991
 30
0.0
 11
147.36699999999999
 21
115.595
 31
0.0
  0
LINE
  5
F0
  8
0
 62
     7
 10
132.38199999999989
 20
127.31399999999989
 30
0.0
 11
132.38199999999989
 21
89.145899999999997
 31
0.0
  0
LINE
  5
F1
  8
0
 62
     7
 10
129.7579999999999
 20
127.31399999999989
 30
0.0
 11
129.7579999999999
 21
89.145899999999997
 31
0.0
  0
LINE
  5
F2
  8
0
  6
AIGENLINE001
 62
     7
 10
131.071
 20
132.16499999999991
 30
0.0
 11
131.071
 21
80.087299999999985
 31
0.0
  0
LINE
  5
F3
  8
0
 62
     7
 10
148.68000000000001
 20
133.423
 30
0.0
 11
148.68000000000001
 21
121.92700000000001
 31
0.0
  0
LINE
  5
F4
  8
0
 62
     7
 10
146.05500000000001
 20
133.423
 30
0.0
 11
146.05500000000001
 21
121.92700000000001
 31
0.0
  0
LINE
  5
F5
  8
0
 62
     7
 10
147.99199999999999
 20
114.0199999999999
 30
0.0
 11
147.99199999999999
 21
109.9079999999999
 31
0.0
  0
LINE
  5
F6
  8
0
 62
     7
 10
146.74199999999999
 20
114.0199999999999
 30
0.0
 11
146.74199999999999
 21
109.9079999999999
 31
0.0
  0
LINE
  5
F7
  8
0
 62
     7
 10
148.11799999999991
 20
109.9079999999999
 30
0.0
 11
148.11799999999991
 21
106.157
 31
0.0
  0
LINE
  5
F8
  8
0
 62
     7
 10
146.61799999999999
 20
109.9079999999999
 30
0.0
 11
146.61799999999999
 21
106.157
 31
0.0
  0
LINE
  5
F9
  8
0
 62
     7
 10
146.61799999999999
 20
109.9079999999999
 30
0.0
 11
148.11799999999991
 21
109.9079999999999
 31
0.0
  0
LINE
  5
FA
  8
0
 62
     7
 10
147.99199999999999
 20
106.157
 30
0.0
 11
147.99199999999999
 21
57.406700000000001
 31
0.0
  0
LINE
  5
FB
  8
0
 62
     7
 10
146.74199999999999
 20
106.157
 30
0.0
 11
146.74199999999999
 21
57.406700000000001
 31
0.0
  0
LINE
  5
FC
  8
0
 62
     7
 10
146.61799999999999
 20
106.157
 30
0.0
 11
148.11799999999991
 21
106.157
 31
0.0
  0
LINE
  5
FD
  8
0
 62
     7
 10
146.74199999999999
 20
57.406700000000001
 30
0.0
 11
147.99199999999999
 21
57.406700000000001
 31
0.0
  0
LINE
  5
FE
  8
0
 62
     7
 10
151.49199999999999
 20
133.67299999999989
 30
0.0
 11
151.24199999999999
 21
133.423
 31
0.0
  0
LINE
  5
FF
  8
0
 62
     7
 10
143.49199999999999
 20
133.423
 30
0.0
 11
143.24199999999999
 21
133.67299999999989
 31
0.0
  0
LINE
  5
100
  8
0
 62
     7
 10
151.24199999999999
 20
147.792
 30
0.0
 11
151.24199999999999
 21
138.16499999999999
 31
0.0
  0
LINE
  5
101
  8
0
 62
     7
 10
151.49199999999999
 20
147.792
 30
0.0
 11
151.49199999999999
 21
138.16499999999999
 31
0.0
  0
LINE
  5
102
  8
0
 62
     7
 10
143.49199999999999
 20
147.792
 30
0.0
 11
143.49199999999999
 21
138.16499999999999
 31
0.0
  0
LINE
  5
103
  8
0
 62
     7
 10
143.24199999999999
 20
147.792
 30
0.0
 11
143.24199999999999
 21
138.16499999999999
 31
0.0
  0
LINE
  5
104
  8
0
 62
     7
 10
151.24199999999999
 20
135.67299999999989
 30
0.0
 11
151.24199999999999
 21
133.423
 31
0.0
  0
LINE
  5
105
  8
0
 62
     7
 10
151.49199999999999
 20
135.67299999999989
 30
0.0
 11
151.49199999999999
 21
133.67299999999989
 31
0.0
  0
LINE
  5
106
  8
0
 62
     7
 10
143.49199999999999
 20
135.67299999999989
 30
0.0
 11
143.49199999999999
 21
133.423
 31
0.0
  0
LINE
  5
107
  8
0
 62
     7
 10
143.24199999999999
 20
135.67299999999989
 30
0.0
 11
143.24199999999999
 21
133.67299999999989
 31
0.0
  0
LINE
  5
108
  8
0
 62
     7
 10
143.24199999999999
 20
133.67299999999989
 30
0.0
 11
151.49199999999999
 21
133.67299999999989
 31
0.0
  0
LINE
  5
109
  8
0
 62
     7
 10
143.49199999999999
 20
133.423
 30
0.0
 11
151.24199999999999
 21
133.423
 31
0.0
  0
LINE
  5
10A
  8
0
  6
AIGENLINE001
 62
     7
 10
147.36699999999999
 20
149.892
 30
0.0
 11
147.36699999999999
 21
55.490499999999997
 31
0.0
  0
LINE
  5
10B
  8
0
 62
     7
 10
131.071
 20
81.643799999999985
 30
0.0
 11
131.071
 21
84.268900000000002
 31
0.0
  0
LINE
  5
10C
  8
0
 62
     7
 10
128.69499999999999
 20
81.643799999999985
 30
0.0
 11
128.69499999999999
 21
84.268900000000002
 31
0.0
  0
ARC
  5
10D
  8
0
 62
     7
 10
134.43243699999999
 20
104.57497600000001
 30
0.0
 40
23.63812999999999
 50
255.95232200000001
 51
256.945244
  0
ARC
  5
10E
  8
0
 62
     7
 10
130.18938899999989
 20
86.396811
 30
0.0
 40
4.9714320000000001
 50
257.25940200000002
 51
263.09735599999999
  0
ARC
  5
10F
  8
0
 62
     7
 10
129.9060419999999
 20
84.275136000000003
 30
0.0
 40
2.8312049999999989
 50
263.62968999999998
 51
269.791427
  0
ARC
  5
110
  8
0
 62
     7
 10
129.89442
 20
83.962618999999975
 30
0.0
 40
2.518669
 50
270.02992899999992
 51
277.21034199999991
  0
ARC
  5
111
  8
0
 62
     7
 10
129.68175299999999
 20
85.764154000000005
 30
0.0
 40
4.3326769999999986
 50
277.01026699999989
 51
283.59545299999991
  0
ARC
  5
112
  8
0
 62
     7
 10
126.90653
 20
97.809654000000009
 30
0.0
 40
16.693553000000001
 50
283.13548700000001
 51
284.44420700000001
  0
ARC
  5
113
  8
0
 62
     7
 10
129.44600199999999
 20
79.512461000000002
 30
0.0
 40
5.0262519999999986
 50
71.143036999999993
 51
78.857978000000003
  0
ARC
  5
114
  8
0
 62
     7
 10
129.864484
 20
81.481425999999985
 30
0.0
 40
3.0136819999999989
 50
79.430400000000006
 51
89.405840999999995
  0
ARC
  5
115
  8
0
 62
     7
 10
129.896074
 20
81.609082999999998
 30
0.0
 40
2.8858630000000001
 50
90.006719999999987
 51
100.8472669999999
  0
ARC
  5
116
  8
0
 62
     7
 10
130.140186
 20
80.143901999999997
 30
0.0
 40
4.3709530000000001
 50
100.37556600000001
 51
109.31049399999991
  0
ARC
  5
117
  8
0
 62
     7
 10
136.84814199999991
 20
104.70770400000001
 30
0.0
 40
23.776588
 50
255.93655999999999
 51
256.90015199999999
  0
ARC
  5
118
  8
0
 62
     7
 10
132.57117700000001
 20
86.433563000000007
 30
0.0
 40
5.0086909999999998
 50
257.17297400000001
 51
263.07493999999991
  0
ARC
  5
119
  8
0
 62
     7
 10
132.28075899999999
 20
84.263278999999997
 30
0.0
 40
2.8193489999999999
 50
263.61604899999998
 51
269.78359799999993
  0
ARC
  5
11A
  8
0
 62
     7
 10
132.26879600000001
 20
83.967387000000002
 30
0.0
 40
2.523436999999999
 50
270.02984600000002
 51
277.20351699999992
  0
ARC
  5
11B
  8
0
 62
     7
 10
132.056817
 20
85.762760999999983
 30
0.0
 40
4.3312460000000002
 50
277.00742700000001
 51
283.59563300000002
  0
ARC
  5
11C
  8
0
 62
     7
 10
129.2113709999999
 20
98.109499999999997
 30
0.0
 40
17.001439000000001
 50
283.13524999999993
 51
284.42132700000002
  0
LINE
  5
11D
  8
0
 62
     7
 10
133.44599999999991
 20
81.643799999999985
 30
0.0
 11
133.44599999999991
 21
84.268900000000002
 31
0.0
  0
ARC
  5
11E
  8
0
 62
     7
 10
131.81994
 20
79.509154000000009
 30
0.0
 40
5.0297460000000003
 50
71.143068999999997
 51
78.850862000000006
  0
ARC
  5
11F
  8
0
 62
     7
 10
132.239532
 20
81.479093000000006
 30
0.0
 40
3.0160079999999998
 50
79.435217000000009
 51
89.419084999999995
  0
ARC
  5
120
  8
0
 62
     7
 10
132.270456
 20
81.618075000000005
 30
0.0
 40
2.8768709999999991
 50
90.006878000000015
 51
100.864256
  0
ARC
  5
121
  8
0
 62
     7
 10
132.51646599999989
 20
80.144248000000005
 30
0.0
 40
4.3708010000000002
 50
100.389841
 51
109.3185129999999
  0
LINE
  5
122
  8
0
 62
     7
 10
133.44599999999991
 20
81.444000000000003
 30
0.0
 11
133.44599999999991
 21
81.643799999999985
 31
0.0
  0
LINE
  5
123
  8
0
 62
     7
 10
133.44599999999991
 20
84.268900000000002
 30
0.0
 11
133.44599999999991
 21
84.494900000000001
 31
0.0
  0
LINE
  5
124
  8
0
 62
     7
 10
128.69499999999999
 20
81.444000000000003
 30
0.0
 11
128.69499999999999
 21
81.643799999999985
 31
0.0
  0
LINE
  5
125
  8
0
 62
     7
 10
128.69499999999999
 20
84.268900000000002
 30
0.0
 11
128.69499999999999
 21
84.494900000000001
 31
0.0
  0
LINE
  5
126
  8
0
 62
     7
 10
132.32099999999991
 20
84.669300000000007
 30
0.0
 11
131.071
 21
84.669300000000007
 31
0.0
  0
LINE
  5
127
  8
0
 62
     7
 10
131.071
 20
84.669300000000007
 30
0.0
 11
129.821
 21
84.669300000000007
 31
0.0
  0
LINE
  5
128
  8
0
 62
     7
 10
133.44599999999991
 20
81.444000000000003
 30
0.0
 11
133.37
 21
81.394300000000001
 31
0.0
  0
LINE
  5
129
  8
0
 62
     7
 10
133.37
 20
81.394300000000001
 30
0.0
 11
128.77000000000001
 21
81.394300000000001
 31
0.0
  0
LINE
  5
12A
  8
0
 62
     7
 10
128.77000000000001
 20
81.394300000000001
 30
0.0
 11
128.69499999999999
 21
81.444000000000003
 31
0.0
  0
ARC
  5
12B
  8
0
 62
     7
 10
133.427087
 20
84.461204000000009
 30
0.0
 40
0.038479
 50
61.269488000000003
 51
90.14337900000001
  0
ARC
  5
12C
  8
0
 62
     7
 10
133.26549800000001
 20
83.142164000000008
 30
0.0
 40
1.3670910000000001
 50
83.215862000000001
 51
88.382508000000001
  0
ARC
  5
12D
  8
0
 62
     7
 10
132.7575929999999
 20
70.924413999999999
 30
0.0
 40
13.595285000000001
 50
87.696236999999996
 51
89.304100000000005
  0
ARC
  5
12E
  8
0
 62
     7
 10
131.8444749999999
 20
9.2378649999999993
 30
0.0
 40
75.288551999999996
 50
89.179406999999998
 51
89.888685999999993
  0
ARC
  5
12F
  8
0
 62
     7
 10
131.146186
 20
-293.57889299999999
 30
0.0
 40
378.106111
 50
89.872012999999995
 51
90.360083999999986
  0
LINE
  5
130
  8
0
 62
     7
 10
128.77000000000001
 20
84.519800000000004
 30
0.0
 11
128.69499999999999
 21
84.494900000000001
 31
0.0
  0
LINE
  5
131
  8
0
 62
     7
 10
132.62100000000001
 20
84.519800000000004
 30
0.0
 11
132.62100000000001
 21
84.644499999999994
 31
0.0
  0
LINE
  5
132
  8
0
 62
     7
 10
132.62100000000001
 20
84.644499999999994
 30
0.0
 11
129.52000000000001
 21
84.644499999999994
 31
0.0
  0
LINE
  5
133
  8
0
 62
     7
 10
129.52000000000001
 20
84.519800000000004
 30
0.0
 11
129.52000000000001
 21
84.644499999999994
 31
0.0
  0
LINE
  5
134
  8
0
 62
     7
 10
129.821
 20
84.669300000000007
 30
0.0
 11
129.44499999999991
 21
84.970399999999998
 31
0.0
  0
LINE
  5
135
  8
0
 62
     7
 10
129.44499999999991
 20
84.970399999999998
 30
0.0
 11
129.4199999999999
 21
85.469899999999996
 31
0.0
  0
LINE
  5
136
  8
0
 62
     7
 10
132.721
 20
85.469899999999996
 30
0.0
 11
132.69499999999991
 21
84.970399999999998
 31
0.0
  0
LINE
  5
137
  8
0
 62
     7
 10
132.69499999999991
 20
84.970399999999998
 30
0.0
 11
132.32099999999991
 21
84.669300000000007
 31
0.0
  0
LINE
  5
138
  8
0
 62
     7
 10
132.52099999999999
 20
85.894999999999996
 30
0.0
 11
129.62100000000001
 21
85.894999999999996
 31
0.0
  0
LINE
  5
139
  8
0
 62
     7
 10
129.62100000000001
 20
85.894999999999996
 30
0.0
 11
129.4199999999999
 21
85.469899999999996
 31
0.0
  0
LINE
  5
13A
  8
0
 62
     7
 10
132.721
 20
85.469899999999996
 30
0.0
 11
132.52099999999999
 21
85.894999999999996
 31
0.0
  0
LINE
  5
13B
  8
0
 62
     7
 10
132.52099999999999
 20
87.895300000000006
 30
0.0
 11
129.62100000000001
 21
87.895300000000006
 31
0.0
  0
LINE
  5
13C
  8
0
 62
     7
 10
129.62100000000001
 20
85.894999999999996
 30
0.0
 11
129.62100000000001
 21
87.895300000000006
 31
0.0
  0
LINE
  5
13D
  8
0
 62
     7
 10
132.52099999999999
 20
85.894999999999996
 30
0.0
 11
132.52099999999999
 21
87.895300000000006
 31
0.0
  0
LINE
  5
13E
  8
0
 62
     7
 10
129.62100000000001
 20
87.895300000000006
 30
0.0
 11
129.44499999999991
 21
88.195700000000002
 31
0.0
  0
LINE
  5
13F
  8
0
 62
     7
 10
132.69499999999991
 20
88.195700000000002
 30
0.0
 11
132.52099999999999
 21
87.895300000000006
 31
0.0
  0
LINE
  5
140
  8
0
 62
     7
 10
129.44499999999991
 20
88.195700000000002
 30
0.0
 11
129.39500000000001
 21
88.320400000000006
 31
0.0
  0
LINE
  5
141
  8
0
 62
     7
 10
129.39500000000001
 20
88.320400000000006
 30
0.0
 11
129.39500000000001
 21
88.445099999999996
 31
0.0
  0
ARC
  5
142
  8
0
 62
     7
 10
132.15257099999991
 20
88.503945000000002
 30
0.0
 40
0.620564
 50
339.65870099999989
 51
354.56034
  0
ARC
  5
143
  8
0
 62
     7
 10
132.0753149999999
 20
88.512857999999994
 30
0.0
 40
0.6963460000000001
 50
332.90463599999993
 51
341.18094600000001
  0
LINE
  5
144
  8
0
 62
     7
 10
132.77000000000001
 20
88.445099999999996
 30
0.0
 11
132.77000000000001
 21
89.145899999999997
 31
0.0
  0
LINE
  5
145
  8
0
 62
     7
 10
132.77000000000001
 20
89.145899999999997
 30
0.0
 11
129.39500000000001
 21
89.145899999999997
 31
0.0
  0
LINE
  5
146
  8
0
 62
     7
 10
129.39500000000001
 20
88.445099999999996
 30
0.0
 11
129.39500000000001
 21
89.145899999999997
 31
0.0
  0
ARC
  5
147
  8
0
  6
AIGENLINE002
 62
     7
 10
146.35988499999999
 20
182.6244749999999
 30
0.0
 40
3.430788999999999
 50
141.799296
 51
148.20080300000001
  0
ARC
  5
148
  8
0
  6
AIGENLINE002
 62
     7
 10
147.993425
 20
181.58031999999989
 30
0.0
 40
5.3694110000000004
 50
147.91649099999989
 51
167.67921100000001
  0
ARC
  5
149
  8
0
  6
AIGENLINE002
 62
     7
 10
146.210429
 20
182.00192100000001
 30
0.0
 40
3.5376579999999991
 50
168.18820700000001
 51
175.29368700000001
  0
ARC
  5
14A
  8
0
  6
AIGENLINE002
 62
     7
 10
147.48565199999999
 20
183.38630800000001
 30
0.0
 40
0.5026270000000001
 50
243.21237799999989
 51
265.221835
  0
LINE
  5
14B
  8
0
  6
AIGENLINE002
 62
     7
 10
150.8549999999999
 20
182.59399999999999
 30
0.0
 11
147.4439999999999
 21
182.88499999999991
 31
0.0
  0
LINE
  5
14C
  8
0
  6
AIGENLINE002
 62
     7
 10
147.2589999999999
 20
182.93799999999999
 30
0.0
 11
143.52699999999999
 21
184.815
 31
0.0
  0
LINE
  5
14D
  8
0
  6
AIGENLINE002
 62
     7
 10
143.303
 20
184.92699999999999
 30
0.0
 11
143.52699999999999
 21
184.815
 31
0.0
  0
ARC
  5
14E
  8
0
  6
AIGENLINE002
 62
     7
 10
136.1770149999999
 20
197.51817700000001
 30
0.0
 40
0.259563
 50
146.51993300000001
 51
232.33125299999989
  0
LINE
  5
14F
  8
0
  6
AIGENLINE002
 62
     7
 10
135.96100000000001
 20
197.66099999999989
 30
0.0
 11
136.25200000000001
 21
198.06599999999989
 31
0.0
  0
ARC
  5
150
  8
0
  6
AIGENLINE002
 62
     7
 10
153.523135
 20
185.677482
 30
0.0
 40
0.258775
 50
335.17355499999991
 51
52.839920999999983
  0
LINE
  5
151
  8
0
  6
AIGENLINE002
 62
     7
 10
153.7579999999999
 20
185.56899999999999
 30
0.0
 11
152.20400000000001
 21
182.47900000000001
 31
0.0
  0
ARC
  5
152
  8
0
  6
AIGENLINE002
 62
     7
 10
136.456805
 20
197.90623299999999
 30
0.0
 40
0.259766
 50
56.017035999999997
 51
142.046907
  0
LINE
  5
153
  8
0
  6
AIGENLINE002
 62
     7
 10
136.01799999999989
 20
197.3129999999999
 30
0.0
 11
136.83600000000001
 21
196.727
 31
0.0
  0
LINE
  5
154
  8
0
  6
AIGENLINE002
 62
     7
 10
145.08000000000001
 20
190.81999999999991
 30
0.0
 11
136.83600000000001
 21
196.727
 31
0.0
  0
ARC
  5
155
  8
0
  6
AIGENLINE002
 62
     7
 10
144.2959219999999
 20
189.78630100000001
 30
0.0
 40
1.2970360000000001
 50
335.25524000000001
 51
52.820190999999987
  0
LINE
  5
156
  8
0
  6
AIGENLINE002
 62
     7
 10
143.303
 20
184.92699999999999
 30
0.0
 11
145.4739999999999
 21
189.24299999999999
 31
0.0
  0
LINE
  5
157
  8
0
  6
AIGENLINE002
 62
     7
 10
153.679
 20
185.88399999999999
 30
0.0
 11
152.852
 21
186.477
 31
0.0
  0
LINE
  5
158
  8
0
  6
AIGENLINE002
 62
     7
 10
136.602
 20
198.12200000000001
 30
0.0
 11
137.4189999999999
 21
197.53599999999989
 31
0.0
  0
LINE
  5
159
  8
0
  6
AIGENLINE002
 62
     7
 10
137.4189999999999
 20
197.53599999999989
 30
0.0
 11
152.852
 21
186.477
 31
0.0
  0
LINE
  5
15A
  8
0
  6
AIGENLINE002
 62
     7
 10
152.20400000000001
 20
182.47900000000001
 30
0.0
 11
150.8549999999999
 21
182.59399999999999
 31
0.0
  0
ARC
  5
15B
  8
0
  6
AIGENLINE002
 62
     7
 10
145.921425
 20
182.1348669999999
 30
0.0
 40
5.2868820000000003
 50
1.7461779999999989
 51
4.6782409999999999
  0
LINE
  5
15C
  8
0
 62
     7
 10
141.08099999999999
 20
148.16599999999991
 30
0.0
 11
141.08099999999999
 21
147.792
 31
0.0
  0
LINE
  5
15D
  8
0
 62
     7
 10
153.654
 20
148.16599999999991
 30
0.0
 11
153.654
 21
147.792
 31
0.0
  0
LINE
  5
15E
  8
0
 62
     7
 10
152.6109999999999
 20
147.792
 30
0.0
 11
153.654
 21
147.792
 31
0.0
  0
LINE
  5
15F
  8
0
 62
     7
 10
141.08099999999999
 20
147.792
 30
0.0
 11
152.6109999999999
 21
147.792
 31
0.0
  0
LINE
  5
160
  8
0
 62
     7
 10
142.565
 20
137.16800000000001
 30
0.0
 11
142.54699999999991
 21
137.0439999999999
 31
0.0
  0
ARC
  5
161
  8
0
 62
     7
 10
144.20929499999991
 20
132.42005199999991
 30
0.0
 40
5.3892059999999988
 50
59.085995999999987
 51
61.773000000000003
  0
ARC
  5
162
  8
0
 62
     7
 10
146.93199599999991
 20
129.635446
 30
0.0
 40
8.5968539999999987
 50
118.80758399999991
 51
120.48792899999999
  0
ARC
  5
163
  8
0
 62
     7
 10
148.6928739999999
 20
131.42902100000001
 30
0.0
 40
6.416275999999999
 50
61.05239499999999
 51
63.444240000000001
  0
ARC
  5
164
  8
0
 62
     7
 10
150.5380429999999
 20
130.66736199999991
 30
0.0
 40
7.2767660000000003
 50
116.6971769999999
 51
118.80614799999999
  0
LINE
  5
165
  8
0
 62
     7
 10
151.82900000000001
 20
137.0439999999999
 30
0.0
 11
151.84700000000001
 21
137.16800000000001
 31
0.0
  0
LINE
  5
166
  8
0
 62
     7
 10
152.1699999999999
 20
137.16800000000001
 30
0.0
 11
152.1879999999999
 21
137.0439999999999
 31
0.0
  0
LINE
  5
167
  8
0
 62
     7
 10
142.565
 20
135.67299999999989
 30
0.0
 11
142.54699999999991
 21
135.79799999999989
 31
0.0
  0
ARC
  5
168
  8
0
 62
     7
 10
142.16146499999991
 20
144.030337
 30
0.0
 40
9.5382160000000002
 50
298.81145400000003
 51
300.32954899999999
  0
ARC
  5
169
  8
0
 62
     7
 10
146.91507799999991
 20
143.17606000000001
 30
0.0
 40
8.5626570000000015
 50
239.508715
 51
241.19577200000001
  0
ARC
  5
16A
  8
0
 62
     7
 10
147.86661699999991
 20
142.98255399999991
 30
0.0
 40
8.1904269999999997
 50
296.81483800000001
 51
298.68852700000002
  0
ARC
  5
16B
  8
0
 62
     7
 10
150.98720299999991
 20
143.0275189999999
 30
0.0
 40
8.2412289999999988
 50
241.3172689999999
 51
243.17940599999989
  0
LINE
  5
16C
  8
0
 62
     7
 10
151.82900000000001
 20
135.79799999999989
 30
0.0
 11
151.84700000000001
 21
135.67299999999989
 31
0.0
  0
LINE
  5
16D
  8
0
 62
     7
 10
152.1699999999999
 20
135.67299999999989
 30
0.0
 11
152.1879999999999
 21
135.79799999999989
 31
0.0
  0
LINE
  5
16E
  8
0
 62
     7
 10
142.54699999999991
 20
137.0439999999999
 30
0.0
 11
142.54699999999991
 21
135.79799999999989
 31
0.0
  0
LINE
  5
16F
  8
0
 62
     7
 10
142.56999999999991
 20
135.79799999999989
 30
0.0
 11
142.56999999999991
 21
137.0439999999999
 31
0.0
  0
LINE
  5
170
  8
0
 62
     7
 10
146.97799999999989
 20
137.0439999999999
 30
0.0
 11
146.97799999999989
 21
135.79799999999989
 31
0.0
  0
LINE
  5
171
  8
0
 62
     7
 10
147.03200000000001
 20
135.79799999999989
 30
0.0
 11
147.03200000000001
 21
137.0439999999999
 31
0.0
  0
LINE
  5
172
  8
0
 62
     7
 10
151.798
 20
137.0439999999999
 30
0.0
 11
151.798
 21
135.79799999999989
 31
0.0
  0
LINE
  5
173
  8
0
 62
     7
 10
151.82900000000001
 20
135.79799999999989
 30
0.0
 11
151.82900000000001
 21
137.0439999999999
 31
0.0
  0
LINE
  5
174
  8
0
 62
     7
 10
152.1879999999999
 20
137.0439999999999
 30
0.0
 11
152.1879999999999
 21
135.79799999999989
 31
0.0
  0
LINE
  5
175
  8
0
 62
     7
 10
142.56999999999991
 20
137.0439999999999
 30
0.0
 11
142.54699999999991
 21
137.0439999999999
 31
0.0
  0
LINE
  5
176
  8
0
 62
     7
 10
147.03200000000001
 20
137.0439999999999
 30
0.0
 11
146.97799999999989
 21
137.0439999999999
 31
0.0
  0
LINE
  5
177
  8
0
 62
     7
 10
151.82900000000001
 20
137.0439999999999
 30
0.0
 11
151.798
 21
137.0439999999999
 31
0.0
  0
LINE
  5
178
  8
0
 62
     7
 10
142.56999999999991
 20
135.79799999999989
 30
0.0
 11
142.54699999999991
 21
135.79799999999989
 31
0.0
  0
LINE
  5
179
  8
0
 62
     7
 10
147.03200000000001
 20
135.79799999999989
 30
0.0
 11
146.97799999999989
 21
135.79799999999989
 31
0.0
  0
LINE
  5
17A
  8
0
 62
     7
 10
151.82900000000001
 20
135.79799999999989
 30
0.0
 11
151.798
 21
135.79799999999989
 31
0.0
  0
LINE
  5
17B
  8
0
 62
     7
 10
142.7889999999999
 20
135.67299999999989
 30
0.0
 11
142.565
 21
135.67299999999989
 31
0.0
  0
LINE
  5
17C
  8
0
 62
     7
 10
146.7579999999999
 20
135.67299999999989
 30
0.0
 11
142.7889999999999
 21
135.67299999999989
 31
0.0
  0
LINE
  5
17D
  8
0
 62
     7
 10
147.26900000000001
 20
135.67299999999989
 30
0.0
 11
146.7579999999999
 21
135.67299999999989
 31
0.0
  0
LINE
  5
17E
  8
0
 62
     7
 10
151.56100000000001
 20
135.67299999999989
 30
0.0
 11
147.26900000000001
 21
135.67299999999989
 31
0.0
  0
LINE
  5
17F
  8
0
 62
     7
 10
151.84700000000001
 20
135.67299999999989
 30
0.0
 11
151.56100000000001
 21
135.67299999999989
 31
0.0
  0
LINE
  5
180
  8
0
 62
     7
 10
152.1699999999999
 20
135.67299999999989
 30
0.0
 11
151.84700000000001
 21
135.67299999999989
 31
0.0
  0
LINE
  5
181
  8
0
 62
     7
 10
141.08099999999999
 20
138.16499999999999
 30
0.0
 11
141.08099999999999
 21
137.54300000000001
 31
0.0
  0
LINE
  5
182
  8
0
 62
     7
 10
153.654
 20
138.16499999999999
 30
0.0
 11
153.654
 21
137.54300000000001
 31
0.0
  0
LINE
  5
183
  8
0
 62
     7
 10
151.15700000000001
 20
137.54300000000001
 30
0.0
 11
153.654
 21
137.54300000000001
 31
0.0
  0
LINE
  5
184
  8
0
 62
     7
 10
141.08099999999999
 20
137.54300000000001
 30
0.0
 11
151.15700000000001
 21
137.54300000000001
 31
0.0
  0
LINE
  5
185
  8
0
 62
     7
 10
151.15700000000001
 20
138.16499999999999
 30
0.0
 11
153.654
 21
138.16499999999999
 31
0.0
  0
LINE
  5
186
  8
0
 62
     7
 10
141.08099999999999
 20
138.16499999999999
 30
0.0
 11
151.15700000000001
 21
138.16499999999999
 31
0.0
  0
LINE
  5
187
  8
0
 62
     7
 10
141.08099999999999
 20
137.16800000000001
 30
0.0
 11
141.08099999999999
 21
137.29299999999989
 31
0.0
  0
LINE
  5
188
  8
0
 62
     7
 10
153.654
 20
137.16800000000001
 30
0.0
 11
153.654
 21
137.29299999999989
 31
0.0
  0
ARC
  5
189
  8
0
 62
     7
 10
141.84013799999991
 20
137.28540499999991
 30
0.0
 40
0.257148
 50
90.961590999999984
 51
168.93072799999999
  0
ARC
  5
18A
  8
0
 62
     7
 10
152.89308799999989
 20
137.28293600000001
 30
0.0
 40
0.25966
 50
11.51637899999999
 51
88.591262
  0
ARC
  5
18B
  8
0
 62
     7
 10
141.53684199999989
 20
137.34502699999999
 30
0.0
 40
0.051953
 50
271.4584319999999
 51
348.62075800000002
  0
ARC
  5
18C
  8
0
 62
     7
 10
153.19850600000001
 20
137.34508999999991
 30
0.0
 40
0.052018
 50
191.43607199999991
 51
268.48477800000001
  0
LINE
  5
18D
  8
0
 62
     7
 10
153.14799999999991
 20
137.33500000000001
 30
0.0
 11
141.58799999999999
 21
137.33500000000001
 31
0.0
  0
LINE
  5
18E
  8
0
 62
     7
 10
153.654
 20
137.29299999999989
 30
0.0
 11
141.08099999999999
 21
137.29299999999989
 31
0.0
  0
LINE
  5
18F
  8
0
 62
     7
 10
153.654
 20
137.16800000000001
 30
0.0
 11
141.08099999999999
 21
137.16800000000001
 31
0.0
  0
LINE
  5
190
  8
0
  6
AIGENLINE001
 62
     7
 10
147.36699999999999
 20
191.93199999999999
 30
0.0
 11
147.36699999999999
 21
160.83699999999999
 31
0.0
  0
LINE
  5
191
  8
0
 62
     7
 10
151.86699999999999
 20
159.00499999999991
 30
0.0
 11
152.43199999999999
 21
160.20599999999999
 31
0.0
  0
LINE
  5
192
  8
0
 62
     7
 10
151.86699999999999
 20
156.05600000000001
 30
0.0
 11
153.57199999999989
 21
159.679
 31
0.0
  0
ARC
  5
193
  8
0
 62
     7
 10
154.2761669999999
 20
159.3053139999999
 30
0.0
 40
2.0520249999999991
 50
90.577894999999998
 51
153.968479
  0
ARC
  5
194
  8
0
 62
     7
 10
154.26289999999989
 20
159.34178499999999
 30
0.0
 40
0.769042
 50
90.553550999999985
 51
153.954239
  0
LINE
  5
195
  8
0
 62
     7
 10
154.255
 20
161.35699999999991
 30
0.0
 11
156.76899999999989
 21
161.35699999999991
 31
0.0
  0
LINE
  5
196
  8
0
 62
     7
 10
154.255
 20
160.11099999999999
 30
0.0
 11
156.76899999999989
 21
160.11099999999999
 31
0.0
  0
ARC
  5
197
  8
0
 62
     7
 10
156.75469200000001
 20
160.96587099999991
 30
0.0
 40
0.391626
 50
2.5711319999999991
 51
87.902156999999988
  0
ARC
  5
198
  8
0
 62
     7
 10
156.75722400000001
 20
160.4995879999999
 30
0.0
 40
0.388976
 50
271.73897199999999
 51
357.84052000000003
  0
LINE
  5
199
  8
0
 62
     7
 10
157.14599999999999
 20
160.73400000000001
 30
0.0
 11
157.14599999999999
 21
160.48500000000001
 31
0.0
  0
LINE
  5
19A
  8
0
 62
     7
 10
157.14599999999999
 20
160.983
 30
0.0
 11
157.14599999999999
 21
160.73400000000001
 31
0.0
  0
LINE
  5
19B
  8
0
  6
AIGENLINE001
 62
     7
 10
117.3669999999999
 20
176.51300000000001
 30
0.0
 11
117.3669999999999
 21
182.887
 31
0.0
  0
LINE
  5
19C
  8
0
 62
     7
 10
119.693
 20
177.66599999999991
 30
0.0
 11
119.693
 21
178.05199999999999
 31
0.0
  0
LINE
  5
19D
  8
0
 62
     7
 10
115.0419999999999
 20
177.66599999999991
 30
0.0
 11
115.0419999999999
 21
178.05199999999999
 31
0.0
  0
LINE
  5
19E
  8
0
 62
     7
 10
119.693
 20
177.66599999999991
 30
0.0
 11
115.0419999999999
 21
177.66599999999991
 31
0.0
  0
LINE
  5
19F
  8
0
 62
     7
 10
139.86699999999999
 20
148.16599999999991
 30
0.0
 11
139.86699999999999
 21
148.9129999999999
 31
0.0
  0
LINE
  5
1A0
  8
0
 62
     7
 10
154.86699999999999
 20
148.16599999999991
 30
0.0
 11
154.86699999999999
 21
148.9129999999999
 31
0.0
  0
LINE
  5
1A1
  8
0
 62
     7
 10
154.86699999999999
 20
148.9129999999999
 30
0.0
 11
139.86699999999999
 21
148.9129999999999
 31
0.0
  0
LINE
  5
1A2
  8
0
 62
     7
 10
154.86699999999999
 20
148.16599999999991
 30
0.0
 11
139.86699999999999
 21
148.16599999999991
 31
0.0
  0
ARC
  5
1A3
  8
0
 62
     7
 10
147.25513199999989
 20
183.4110499999999
 30
0.0
 40
0.5208020000000002
 50
270.21193399999993
 51
291.48156899999992
  0
LINE
  5
1A4
  8
0
 62
     7
 10
150.624
 20
184.19900000000001
 30
0.0
 11
147.446
 21
182.9259999999999
 31
0.0
  0
LINE
  5
1A5
  8
0
 62
     7
 10
147.25700000000001
 20
182.8899999999999
 30
0.0
 11
143.08000000000001
 21
182.8899999999999
 31
0.0
  0
LINE
  5
1A6
  8
0
 62
     7
 10
142.82900000000001
 20
182.8899999999999
 30
0.0
 11
143.08000000000001
 21
182.8899999999999
 31
0.0
  0
ARC
  5
1A7
  8
0
 62
     7
 10
130.8054919999999
 20
190.93700100000001
 30
0.0
 40
0.260303
 50
173.50016899999989
 51
259.11248799999993
  0
LINE
  5
1A8
  8
0
 62
     7
 10
130.54699999999991
 20
190.96599999999989
 30
0.0
 11
130.625
 21
191.459
 31
0.0
  0
ARC
  5
1A9
  8
0
 62
     7
 10
151.6208499999999
 20
188.1512909999999
 30
0.0
 40
0.260437
 50
2.1981509999999989
 51
79.373482999999993
  0
LINE
  5
1AA
  8
0
 62
     7
 10
151.881
 20
188.16099999999989
 30
0.0
 11
151.881
 21
184.703
 31
0.0
  0
ARC
  5
1AB
  8
0
 62
     7
 10
130.8808939999999
 20
191.40740600000001
 30
0.0
 40
0.26063
 50
82.830344999999994
 51
168.59430699999999
  0
LINE
  5
1AC
  8
0
 62
     7
 10
130.756
 20
190.6809999999999
 30
0.0
 11
131.75
 21
190.52500000000001
 31
0.0
  0
LINE
  5
1AD
  8
0
 62
     7
 10
141.768
 20
188.952
 30
0.0
 11
131.75
 21
190.52500000000001
 31
0.0
  0
ARC
  5
1AE
  8
0
 62
     7
 10
141.5327739999999
 20
187.6764399999999
 30
0.0
 40
1.297396999999999
 50
1.983258
 51
79.540770999999992
  0
LINE
  5
1AF
  8
0
 62
     7
 10
142.82900000000001
 20
182.8899999999999
 30
0.0
 11
142.82900000000001
 21
187.72099999999989
 31
0.0
  0
LINE
  5
1B0
  8
0
 62
     7
 10
151.6689999999999
 20
188.40700000000001
 30
0.0
 11
150.6629999999999
 21
188.565
 31
0.0
  0
LINE
  5
1B1
  8
0
 62
     7
 10
130.9129999999999
 20
191.666
 30
0.0
 11
131.90700000000001
 21
191.50999999999991
 31
0.0
  0
LINE
  5
1B2
  8
0
 62
     7
 10
131.90700000000001
 20
191.50999999999991
 30
0.0
 11
150.6629999999999
 21
188.565
 31
0.0
  0
LINE
  5
1B3
  8
0
 62
     7
 10
151.881
 20
184.703
 30
0.0
 11
150.624
 21
184.19900000000001
 31
0.0
  0
ARC
  5
1B4
  8
0
 62
     7
 10
147.5588009999999
 20
182.033073
 30
0.0
 40
4.4104269999999994
 50
168.7930739999999
 51
176.63200399999999
  0
ARC
  5
1B5
  8
0
 62
     7
 10
147.214268
 20
182.02941799999991
 30
0.0
 40
4.3729370000000003
 50
3.4448620000000001
 51
31.65925099999999
  0
ARC
  5
1B6
  8
0
 62
     7
 10
113.73251499999991
 20
178.31340099999991
 30
0.0
 40
0.261302
 50
182.6043939999999
 51
267.90808099999992
  0
ARC
  5
1B7
  8
0
 62
     7
 10
113.73046599999989
 20
182.033119
 30
0.0
 40
0.259168
 50
91.655926000000008
 51
177.8315979999999
  0
LINE
  5
1B8
  8
0
 62
     7
 10
113.471
 20
182.04299999999989
 30
0.0
 11
113.471
 21
178.30199999999999
 31
0.0
  0
ARC
  5
1B9
  8
0
 62
     7
 10
151.60628299999999
 20
182.03105099999991
 30
0.0
 40
0.261302
 50
2.6043739999999991
 51
87.908062000000001
  0
LINE
  5
1BA
  8
0
 62
     7
 10
151.86699999999999
 20
182.04299999999989
 30
0.0
 11
151.86699999999999
 21
148.9129999999999
 31
0.0
  0
LINE
  5
1BB
  8
0
 62
     7
 10
113.7229999999999
 20
182.292
 30
0.0
 11
114.72799999999999
 21
182.292
 31
0.0
  0
LINE
  5
1BC
  8
0
 62
     7
 10
114.72799999999999
 20
182.292
 30
0.0
 11
150.6109999999999
 21
182.292
 31
0.0
  0
LINE
  5
1BD
  8
0
 62
     7
 10
150.6109999999999
 20
182.292
 30
0.0
 11
151.61600000000001
 21
182.292
 31
0.0
  0
LINE
  5
1BE
  8
0
 62
     7
 10
142.86699999999999
 20
174.3129999999999
 30
0.0
 11
142.86699999999999
 21
148.9129999999999
 31
0.0
  0
ARC
  5
1BF
  8
0
 62
     7
 10
138.9545389999999
 20
174.13816999999989
 30
0.0
 40
3.9166679999999992
 50
2.5625960000000001
 51
87.926268000000022
  0
LINE
  5
1C0
  8
0
 62
     7
 10
114.72799999999999
 20
178.05199999999999
 30
0.0
 11
139.09599999999989
 21
178.05199999999999
 31
0.0
  0
LINE
  5
1C1
  8
0
 62
     7
 10
113.7229999999999
 20
178.05199999999999
 30
0.0
 11
114.72799999999999
 21
178.05199999999999
 31
0.0
  0
LINE
  5
1C2
  8
0
  6
AIGENLINE001
 62
     7
 10
78.444299999999998
 20
194.16900000000001
 30
0.0
 11
78.444299999999998
 21
55.490499999999997
 31
0.0
  0
LINE
  5
1C3
  8
0
 62
     7
 10
72.212800000000001
 20
148.16599999999991
 30
0.0
 11
72.212800000000001
 21
147.792
 31
0.0
  0
LINE
  5
1C4
  8
0
 62
     7
 10
84.675799999999995
 20
148.16599999999991
 30
0.0
 11
84.675799999999995
 21
147.792
 31
0.0
  0
LINE
  5
1C5
  8
0
 62
     7
 10
84.675799999999995
 20
147.792
 30
0.0
 11
72.212800000000001
 21
147.792
 31
0.0
  0
ARC
  5
1C6
  8
0
 62
     7
 10
79.871426
 20
129.547754
 30
0.0
 40
8.3772130000000011
 50
114.538155
 51
116.51754099999999
  0
ARC
  5
1C7
  8
0
 62
     7
 10
77.381304999999998
 20
129.001687
 30
0.0
 40
8.9822729999999993
 50
63.549112999999998
 51
65.395151999999996
  0
ARC
  5
1C8
  8
0
 62
     7
 10
76.261223000000001
 20
133.54647600000001
 30
0.0
 40
4.6813859999999989
 50
129.31435200000001
 51
131.665268
  0
ARC
  5
1C9
  8
0
 62
     7
 10
73.341596999999993
 20
133.99497799999989
 30
0.0
 40
4.0999749999999988
 50
48.037827
 51
50.714861999999989
  0
ARC
  5
1CA
  8
0
 62
     7
 10
75.87536999999999
 20
134.64056599999989
 30
0.0
 40
3.6367569999999989
 50
135.9669429999999
 51
138.64054699999991
  0
ARC
  5
1CB
  8
0
 62
     7
 10
85.829356000000004
 20
133.09668999999991
 30
0.0
 40
5.9131039999999988
 50
136.48161399999989
 51
138.125877
  0
ARC
  5
1CC
  8
0
 62
     7
 10
80.546970000000002
 20
134.20975899999999
 30
0.0
 40
4.2719129999999987
 50
41.558219999999992
 51
43.834249999999997
  0
ARC
  5
1CD
  8
0
 62
     7
 10
81.534665999999987
 20
146.77617099999989
 30
0.0
 40
12.236293
 50
243.79460599999999
 51
245.14969799999989
  0
ARC
  5
1CE
  8
0
 62
     7
 10
76.420007999999996
 20
145.8524239999999
 30
0.0
 40
11.21268699999999
 50
294.78846600000003
 51
296.26727
  0
ARC
  5
1CF
  8
0
 62
     7
 10
76.020955000000001
 20
139.01333500000001
 30
0.0
 40
4.3114369999999997
 50
228.23385400000001
 51
230.78652600000001
  0
ARC
  5
1D0
  8
0
 62
     7
 10
71.878946999999997
 20
140.55132900000001
 30
0.0
 40
6.3460510000000001
 50
309.75892900000002
 51
311.488381
  0
ARC
  5
1D1
  8
0
 62
     7
 10
75.630697999999995
 20
137.97491699999989
 30
0.0
 40
3.3039510000000001
 50
221.22476900000001
 51
224.16774100000001
  0
ARC
  5
1D2
  8
0
 62
     7
 10
85.29470400000001
 20
139.25124199999991
 30
0.0
 40
5.1857319999999989
 50
221.7587979999999
 51
223.63371199999989
  0
ARC
  5
1D3
  8
0
 62
     7
 10
77.240589
 20
141.68210999999999
 30
0.0
 40
8.7702100000000005
 50
316.74947300000002
 51
317.85805699999992
  0
LINE
  5
1D4
  8
0
 62
     7
 10
81.382300000000001
 20
135.79799999999989
 30
0.0
 11
81.382300000000001
 21
137.0439999999999
 31
0.0
  0
LINE
  5
1D5
  8
0
 62
     7
 10
76.131200000000007
 20
137.0439999999999
 30
0.0
 11
76.131200000000007
 21
135.79799999999989
 31
0.0
  0
LINE
  5
1D6
  8
0
 62
     7
 10
76.082999999999984
 20
135.79799999999989
 30
0.0
 11
76.082999999999984
 21
137.0439999999999
 31
0.0
  0
LINE
  5
1D7
  8
0
 62
     7
 10
73.149100000000004
 20
137.0439999999999
 30
0.0
 11
73.149100000000004
 21
135.79799999999989
 31
0.0
  0
LINE
  5
1D8
  8
0
 62
     7
 10
73.145700000000005
 20
135.79799999999989
 30
0.0
 11
73.145700000000005
 21
137.0439999999999
 31
0.0
  0
LINE
  5
1D9
  8
0
 62
     7
 10
83.743600000000015
 20
135.79799999999989
 30
0.0
 11
83.743600000000015
 21
137.0439999999999
 31
0.0
  0
LINE
  5
1DA
  8
0
 62
     7
 10
81.426400000000001
 20
137.0439999999999
 30
0.0
 11
81.426400000000001
 21
135.79799999999989
 31
0.0
  0
LINE
  5
1DB
  8
0
 62
     7
 10
81.382300000000001
 20
137.0439999999999
 30
0.0
 11
81.426400000000001
 21
137.0439999999999
 31
0.0
  0
LINE
  5
1DC
  8
0
 62
     7
 10
76.082999999999984
 20
137.0439999999999
 30
0.0
 11
76.131200000000007
 21
137.0439999999999
 31
0.0
  0
LINE
  5
1DD
  8
0
 62
     7
 10
81.382300000000001
 20
135.79799999999989
 30
0.0
 11
81.426400000000001
 21
135.79799999999989
 31
0.0
  0
LINE
  5
1DE
  8
0
 62
     7
 10
76.082999999999984
 20
135.79799999999989
 30
0.0
 11
76.131200000000007
 21
135.79799999999989
 31
0.0
  0
LINE
  5
1DF
  8
0
 62
     7
 10
76.392399999999995
 20
135.67299999999989
 30
0.0
 11
81.121099999999984
 21
135.67299999999989
 31
0.0
  0
LINE
  5
1E0
  8
0
 62
     7
 10
81.121099999999984
 20
135.67299999999989
 30
0.0
 11
81.541399999999996
 21
135.67299999999989
 31
0.0
  0
LINE
  5
1E1
  8
0
 62
     7
 10
75.937600000000003
 20
135.67299999999989
 30
0.0
 11
76.392399999999995
 21
135.67299999999989
 31
0.0
  0
LINE
  5
1E2
  8
0
 62
     7
 10
73.295199999999994
 20
135.67299999999989
 30
0.0
 11
75.937600000000003
 21
135.67299999999989
 31
0.0
  0
LINE
  5
1E3
  8
0
 62
     7
 10
73.260800000000003
 20
135.67299999999989
 30
0.0
 11
73.295199999999994
 21
135.67299999999989
 31
0.0
  0
LINE
  5
1E4
  8
0
 62
     7
 10
81.541399999999996
 20
135.67299999999989
 30
0.0
 11
83.628499999999988
 21
135.67299999999989
 31
0.0
  0
LINE
  5
1E5
  8
0
 62
     7
 10
72.212800000000001
 20
138.16499999999999
 30
0.0
 11
72.212800000000001
 21
137.54300000000001
 31
0.0
  0
LINE
  5
1E6
  8
0
 62
     7
 10
84.675799999999995
 20
138.16499999999999
 30
0.0
 11
84.675799999999995
 21
137.54300000000001
 31
0.0
  0
LINE
  5
1E7
  8
0
 62
     7
 10
84.675799999999995
 20
137.54300000000001
 30
0.0
 11
72.212800000000001
 21
137.54300000000001
 31
0.0
  0
LINE
  5
1E8
  8
0
 62
     7
 10
84.675799999999995
 20
138.16499999999999
 30
0.0
 11
72.212800000000001
 21
138.16499999999999
 31
0.0
  0
LINE
  5
1E9
  8
0
 62
     7
 10
84.675799999999995
 20
137.16800000000001
 30
0.0
 11
84.675799999999995
 21
137.29299999999989
 31
0.0
  0
LINE
  5
1EA
  8
0
 62
     7
 10
72.212800000000001
 20
137.16800000000001
 30
0.0
 11
72.212800000000001
 21
137.29299999999989
 31
0.0
  0
ARC
  5
1EB
  8
0
 62
     7
 10
83.921238000000002
 20
137.28558200000001
 30
0.0
 40
0.257031
 50
11.03435399999999
 51
88.442433999999992
  0
ARC
  5
1EC
  8
0
 62
     7
 10
72.966819000000001
 20
137.286191
 30
0.0
 40
0.256408
 50
91.44590500000001
 51
169.07726700000001
  0
ARC
  5
1ED
  8
0
 62
     7
 10
84.224525999999983
 20
137.3451189999999
 30
0.0
 40
0.052047
 50
191.46165300000001
 51
268.45919700000002
  0
ARC
  5
1EE
  8
0
 62
     7
 10
72.664470999999992
 20
137.344593
 30
0.0
 40
0.051529
 50
271.85167100000001
 51
349.01781499999993
  0
LINE
  5
1EF
  8
0
 62
     7
 10
72.715100000000007
 20
137.33500000000001
 30
0.0
 11
84.173500000000004
 21
137.33500000000001
 31
0.0
  0
LINE
  5
1F0
  8
0
 62
     7
 10
72.212800000000001
 20
137.29299999999989
 30
0.0
 11
84.675799999999995
 21
137.29299999999989
 31
0.0
  0
LINE
  5
1F1
  8
0
 62
     7
 10
72.212800000000001
 20
137.16800000000001
 30
0.0
 11
84.675799999999995
 21
137.16800000000001
 31
0.0
  0
LINE
  5
1F2
  8
0
 62
     7
 10
76.138800000000003
 20
177.66599999999991
 30
0.0
 11
76.138800000000003
 21
178.05199999999999
 31
0.0
  0
LINE
  5
1F3
  8
0
 62
     7
 10
80.750399999999985
 20
177.66599999999991
 30
0.0
 11
80.750399999999985
 21
178.05199999999999
 31
0.0
  0
LINE
  5
1F4
  8
0
 62
     7
 10
78.826700000000002
 20
177.66599999999991
 30
0.0
 11
80.750399999999985
 21
177.66599999999991
 31
0.0
  0
LINE
  5
1F5
  8
0
 62
     7
 10
76.138800000000003
 20
177.66599999999991
 30
0.0
 11
78.826700000000002
 21
177.66599999999991
 31
0.0
  0
LINE
  5
1F6
  8
0
 62
     7
 10
85.922300000000007
 20
148.16599999999991
 30
0.0
 11
85.922300000000007
 21
148.9129999999999
 31
0.0
  0
LINE
  5
1F7
  8
0
 62
     7
 10
70.966300000000004
 20
148.16599999999991
 30
0.0
 11
70.966300000000004
 21
148.9129999999999
 31
0.0
  0
LINE
  5
1F8
  8
0
 62
     7
 10
70.966300000000004
 20
148.9129999999999
 30
0.0
 11
85.922300000000007
 21
148.9129999999999
 31
0.0
  0
LINE
  5
1F9
  8
0
 62
     7
 10
70.966300000000004
 20
148.16599999999991
 30
0.0
 11
85.922300000000007
 21
148.16599999999991
 31
0.0
  0
ARC
  5
1FA
  8
0
 62
     7
 10
74.247224000000003
 20
191.263161
 30
0.0
 40
0.277457
 50
152.34556499999999
 51
179.872016
  0
ARC
  5
1FB
  8
0
 62
     7
 10
74.264601999999996
 20
191.2529679999999
 30
0.0
 40
0.297582
 50
129.876822
 51
152.16021599999999
  0
ARC
  5
1FC
  8
0
 62
     7
 10
74.299876999999995
 20
191.2190469999999
 30
0.0
 40
0.346271
 50
119.32029900000001
 51
130.75745000000001
  0
ARC
  5
1FD
  8
0
 62
     7
 10
74.404178000000002
 20
191.03429499999999
 30
0.0
 40
0.5584310000000001
 50
108.672061
 51
119.368407
  0
ARC
  5
1FE
  8
0
 62
     7
 10
74.556146999999996
 20
190.602768
 30
0.0
 40
1.015914999999999
 50
102.297217
 51
109.000055
  0
ARC
  5
1FF
  8
0
 62
     7
 10
74.781263999999993
 20
189.642425
 30
0.0
 40
2.0022289999999998
 50
96.813467000000003
 51
102.73836
  0
ARC
  5
200
  8
0
 62
     7
 10
74.966816000000009
 20
188.46347499999999
 30
0.0
 40
3.195174999999999
 50
94.731537999999986
 51
97.609205000000003
  0
ARC
  5
201
  8
0
 62
     7
 10
75.172075000000007
 20
186.28368699999999
 30
0.0
 40
5.3845219999999996
 50
91.935527000000008
 51
94.99494
  0
ARC
  5
202
  8
0
 62
     7
 10
75.216259999999991
 20
185.21844899999991
 30
0.0
 40
6.4506500000000004
 50
90.000420999999989
 51
92.008199000000005
  0
LINE
  5
203
  8
0
 62
     7
 10
81.697199999999995
 20
191.66900000000001
 30
0.0
 11
75.216200000000001
 21
191.66900000000001
 31
0.0
  0
ARC
  5
204
  8
0
 62
     7
 10
81.698322000000005
 20
185.2135659999999
 30
0.0
 40
6.4555329999999991
 50
87.385831999999979
 51
90.010243000000003
  0
ARC
  5
205
  8
0
 62
     7
 10
81.776202999999995
 20
186.912342
 30
0.0
 40
4.7549729999999997
 50
82.135343999999975
 51
87.389685
  0
ARC
  5
206
  8
0
 62
     7
 10
82.111719999999991
 20
189.53632899999991
 30
0.0
 40
2.1099259999999989
 50
75.893268999999989
 51
81.410606999999999
  0
ARC
  5
207
  8
0
 62
     7
 10
82.406887999999995
 20
190.76810800000001
 30
0.0
 40
0.843468
 50
66.916224999999997
 51
74.945371999999992
  0
ARC
  5
208
  8
0
 62
     7
 10
82.516527999999994
 20
191.05553599999999
 30
0.0
 40
0.536196
 50
57.350521999999998
 51
65.651801000000006
  0
ARC
  5
209
  8
0
 62
     7
 10
82.617384000000001
 20
191.2207239999999
 30
0.0
 40
0.342725
 50
46.489026000000003
 51
56.648490999999993
  0
ARC
  5
20A
  8
0
 62
     7
 10
82.645119999999991
 20
191.25076299999989
 30
0.0
 40
0.301844
 50
25.253606000000001
 51
46.381529999999998
  0
ARC
  5
20B
  8
0
 62
     7
 10
82.654471000000015
 20
191.26078699999999
 30
0.0
 40
0.289154
 50
0.5932680000000001
 51
24.247589000000001
  0
LINE
  5
20C
  8
0
 62
     7
 10
82.694199999999995
 20
182.8899999999999
 30
0.0
 11
82.943600000000004
 21
182.8899999999999
 31
0.0
  0
LINE
  5
20D
  8
0
 62
     7
 10
74.219200000000001
 20
182.8899999999999
 30
0.0
 11
73.969800000000006
 21
182.8899999999999
 31
0.0
  0
LINE
  5
20E
  8
0
 62
     7
 10
82.943600000000004
 20
187.72099999999989
 30
0.0
 11
82.694199999999995
 21
187.72099999999989
 31
0.0
  0
LINE
  5
20F
  8
0
 62
     7
 10
82.694199999999995
 20
182.8899999999999
 30
0.0
 11
74.219200000000001
 21
182.8899999999999
 31
0.0
  0
LINE
  5
210
  8
0
 62
     7
 10
82.694199999999995
 20
187.72099999999989
 30
0.0
 11
74.219200000000001
 21
187.72099999999989
 31
0.0
  0
ARC
  5
211
  8
0
 62
     7
 10
82.684774000000004
 20
189.21126199999989
 30
0.0
 40
0.259154
 50
272.08078999999998
 51
357.16245700000002
  0
LINE
  5
212
  8
0
 62
     7
 10
82.694199999999995
 20
188.952
 30
0.0
 11
74.219200000000001
 21
188.952
 31
0.0
  0
LINE
  5
213
  8
0
 62
     7
 10
82.943600000000004
 20
190.7709999999999
 30
0.0
 11
82.943600000000004
 21
191.26400000000001
 31
0.0
  0
ARC
  5
214
  8
0
 62
     7
 10
74.228619999999992
 20
189.21127799999991
 30
0.0
 40
0.2591699999999999
 50
182.840867
 51
267.9159259999999
  0
LINE
  5
215
  8
0
 62
     7
 10
73.969800000000006
 20
190.7709999999999
 30
0.0
 11
73.969800000000006
 21
191.26400000000001
 31
0.0
  0
LINE
  5
216
  8
0
 62
     7
 10
73.969800000000006
 20
187.72099999999989
 30
0.0
 11
74.219200000000001
 21
187.72099999999989
 31
0.0
  0
LINE
  5
217
  8
0
 62
     7
 10
82.943600000000004
 20
182.8899999999999
 30
0.0
 11
82.943600000000004
 21
187.72099999999989
 31
0.0
  0
LINE
  5
218
  8
0
 62
     7
 10
82.943600000000004
 20
189.19799999999989
 30
0.0
 11
82.943600000000004
 21
187.72099999999989
 31
0.0
  0
LINE
  5
219
  8
0
 62
     7
 10
82.943600000000004
 20
189.19799999999989
 30
0.0
 11
82.943600000000004
 21
190.7709999999999
 31
0.0
  0
ARC
  5
21A
  8
0
 62
     7
 10
81.695623999999995
 20
183.861954
 30
0.0
 40
7.1045139999999991
 50
83.580202
 51
89.987555999999998
  0
ARC
  5
21B
  8
0
 62
     7
 10
82.144627
 20
188.17055999999999
 30
0.0
 40
2.7729499999999989
 50
78.722094999999996
 51
82.845275999999998
  0
ARC
  5
21C
  8
0
 62
     7
 10
82.447913000000014
 20
189.67023699999999
 30
0.0
 40
1.2429250000000001
 50
72.547314999999998
 51
78.912998000000002
  0
ARC
  5
21D
  8
0
 62
     7
 10
82.689265000000006
 20
190.430092
 30
0.0
 40
0.44567
 50
62.316099000000001
 51
72.848977000000005
  0
ARC
  5
21E
  8
0
 62
     7
 10
82.836340000000007
 20
190.70722599999991
 30
0.0
 40
0.13194
 50
43.834291
 51
62.960582999999993
  0
ARC
  5
21F
  8
0
 62
     7
 10
82.901555999999999
 20
190.76900099999989
 30
0.0
 40
0.042116
 50
3.1305239999999999
 51
44.658119999999997
  0
LINE
  5
220
  8
0
 62
     7
 10
81.697199999999995
 20
190.96599999999989
 30
0.0
 11
75.216200000000001
 21
190.96599999999989
 31
0.0
  0
ARC
  5
221
  8
0
 62
     7
 10
75.217753999999999
 20
183.861954
 30
0.0
 40
7.1045139999999991
 50
90.012423999999996
 51
96.419778000000008
  0
ARC
  5
222
  8
0
 62
     7
 10
74.768750999999995
 20
188.17055999999999
 30
0.0
 40
2.7729499999999989
 50
97.154704000000024
 51
101.277885
  0
ARC
  5
223
  8
0
 62
     7
 10
74.465465000000009
 20
189.67023699999999
 30
0.0
 40
1.2429250000000001
 50
101.08698199999991
 51
107.452665
  0
ARC
  5
224
  8
0
 62
     7
 10
74.224113000000003
 20
190.430092
 30
0.0
 40
0.44567
 50
107.151003
 51
117.683881
  0
ARC
  5
225
  8
0
 62
     7
 10
74.077038000000002
 20
190.70722599999991
 30
0.0
 40
0.13194
 50
117.03939699999999
 51
136.1656889999999
  0
ARC
  5
226
  8
0
 62
     7
 10
74.011821999999995
 20
190.76900099999989
 30
0.0
 40
0.042116
 50
135.34185999999991
 51
176.86945600000001
  0
LINE
  5
227
  8
0
 62
     7
 10
73.969800000000006
 20
189.19799999999989
 30
0.0
 11
73.969800000000006
 21
190.7709999999999
 31
0.0
  0
LINE
  5
228
  8
0
 62
     7
 10
73.969800000000006
 20
189.19799999999989
 30
0.0
 11
73.969800000000006
 21
187.72099999999989
 31
0.0
  0
LINE
  5
229
  8
0
 62
     7
 10
73.969800000000006
 20
182.8899999999999
 30
0.0
 11
73.969800000000006
 21
187.72099999999989
 31
0.0
  0
ARC
  5
22A
  8
0
 62
     7
 10
78.217558999999994
 20
182.03813400000001
 30
0.0
 40
4.409533999999999
 50
3.302791
 51
11.142177999999999
  0
ARC
  5
22B
  8
0
 62
     7
 10
78.527291000000005
 20
182.05643499999999
 30
0.0
 40
4.2643190000000004
 50
168.72410300000001
 51
176.83088799999999
  0
LINE
  5
22C
  8
0
 62
     7
 10
75.2286
 20
178.05199999999999
 30
0.0
 11
75.2286
 21
178.30199999999999
 31
0.0
  0
LINE
  5
22D
  8
0
 62
     7
 10
81.659999999999997
 20
178.30199999999999
 30
0.0
 11
81.659999999999997
 21
178.05199999999999
 31
0.0
  0
LINE
  5
22E
  8
0
 62
     7
 10
75.2286
 20
182.04299999999989
 30
0.0
 11
75.2286
 21
182.292
 31
0.0
  0
LINE
  5
22F
  8
0
 62
     7
 10
81.659999999999997
 20
182.292
 30
0.0
 11
81.659999999999997
 21
182.04299999999989
 31
0.0
  0
LINE
  5
230
  8
0
 62
     7
 10
81.659999999999997
 20
182.04299999999989
 30
0.0
 11
81.659999999999997
 21
178.30199999999999
 31
0.0
  0
LINE
  5
231
  8
0
 62
     7
 10
75.2286
 20
182.04299999999989
 30
0.0
 11
75.2286
 21
178.30199999999999
 31
0.0
  0
ARC
  5
232
  8
0
 62
     7
 10
74.241242
 20
182.033816
 30
0.0
 40
0.258543
 50
92.137941999999995
 51
177.98093999999989
  0
LINE
  5
233
  8
0
 62
     7
 10
73.982900000000001
 20
182.04299999999989
 30
0.0
 11
73.982900000000001
 21
178.30199999999999
 31
0.0
  0
ARC
  5
234
  8
0
 62
     7
 10
82.647494999999978
 20
182.033265
 30
0.0
 40
0.259087
 50
2.1366320000000001
 51
87.902940999999998
  0
LINE
  5
235
  8
0
 62
     7
 10
82.906400000000005
 20
182.04299999999989
 30
0.0
 11
82.906400000000005
 21
178.30199999999999
 31
0.0
  0
LINE
  5
236
  8
0
 62
     7
 10
73.982900000000001
 20
174.3129999999999
 30
0.0
 11
74.2316
 21
174.3129999999999
 31
0.0
  0
LINE
  5
237
  8
0
 62
     7
 10
82.656999999999996
 20
174.3129999999999
 30
0.0
 11
74.2316
 21
174.3129999999999
 31
0.0
  0
ARC
  5
238
  8
0
 62
     7
 10
74.241734999999991
 20
178.31112799999991
 30
0.0
 40
0.259053
 50
182.12387799999991
 51
267.75723999999991
  0
LINE
  5
239
  8
0
 62
     7
 10
82.906400000000005
 20
174.3129999999999
 30
0.0
 11
82.656999999999996
 21
174.3129999999999
 31
0.0
  0
ARC
  5
23A
  8
0
 62
     7
 10
82.647349000000006
 20
178.31133399999999
 30
0.0
 40
0.259239
 50
272.1282819999999
 51
357.83214500000003
  0
LINE
  5
23B
  8
0
 62
     7
 10
82.656999999999996
 20
182.292
 30
0.0
 11
81.659999999999997
 21
182.292
 31
0.0
  0
LINE
  5
23C
  8
0
 62
     7
 10
81.659999999999997
 20
182.292
 30
0.0
 11
75.2286
 21
182.292
 31
0.0
  0
LINE
  5
23D
  8
0
 62
     7
 10
75.2286
 20
182.292
 30
0.0
 11
74.2316
 21
182.292
 31
0.0
  0
LINE
  5
23E
  8
0
 62
     7
 10
73.982900000000001
 20
174.3129999999999
 30
0.0
 11
73.982900000000001
 21
148.9129999999999
 31
0.0
  0
LINE
  5
23F
  8
0
 62
     7
 10
73.982900000000001
 20
174.3129999999999
 30
0.0
 11
73.982900000000001
 21
178.30199999999999
 31
0.0
  0
LINE
  5
240
  8
0
 62
     7
 10
75.2286
 20
178.05199999999999
 30
0.0
 11
74.2316
 21
178.05199999999999
 31
0.0
  0
LINE
  5
241
  8
0
 62
     7
 10
82.906400000000005
 20
174.3129999999999
 30
0.0
 11
82.906400000000005
 21
148.9129999999999
 31
0.0
  0
LINE
  5
242
  8
0
 62
     7
 10
82.906400000000005
 20
178.30199999999999
 30
0.0
 11
82.906400000000005
 21
174.3129999999999
 31
0.0
  0
LINE
  5
243
  8
0
 62
     7
 10
82.656999999999996
 20
178.05199999999999
 30
0.0
 11
81.659999999999997
 21
178.05199999999999
 31
0.0
  0
LINE
  5
244
  8
0
 62
     7
 10
81.659999999999997
 20
178.05199999999999
 30
0.0
 11
75.2286
 21
178.05199999999999
 31
0.0
  0
LINE
  5
245
  8
0
 62
     7
 10
81.632099999999994
 20
133.423
 30
0.0
 11
81.632099999999994
 21
121.92700000000001
 31
0.0
  0
LINE
  5
246
  8
0
 62
     7
 10
79.006900000000002
 20
133.423
 30
0.0
 11
79.006900000000002
 21
121.92700000000001
 31
0.0
  0
LINE
  5
247
  8
0
  6
AIGENLINE001
 62
     7
 10
76.569500000000005
 20
146.6279999999999
 30
0.0
 11
76.569500000000005
 21
115.595
 31
0.0
  0
LINE
  5
248
  8
0
  6
AIGENLINE001
 62
     7
 10
61.944200000000002
 20
132.16499999999991
 30
0.0
 11
76.569500000000005
 21
115.595
 31
0.0
  0
LINE
  5
249
  8
0
  6
AIGENLINE001
 62
     7
 10
80.319500000000005
 20
146.6279999999999
 30
0.0
 11
80.319500000000005
 21
115.595
 31
0.0
  0
LINE
  5
24A
  8
0
 62
     7
 10
77.882000000000005
 20
133.423
 30
0.0
 11
77.882000000000005
 21
121.92700000000001
 31
0.0
  0
LINE
  5
24B
  8
0
 62
     7
 10
75.256900000000002
 20
133.423
 30
0.0
 11
75.256900000000002
 21
121.92700000000001
 31
0.0
  0
LINE
  5
24C
  8
0
 62
     7
 10
97.697700000000012
 20
84.269599999999997
 30
0.0
 11
97.697700000000012
 21
81.643799999999985
 31
0.0
  0
LINE
  5
24D
  8
0
 62
     7
 10
96.321700000000021
 20
84.269599999999997
 30
0.0
 11
96.321700000000021
 21
81.643799999999985
 31
0.0
  0
ARC
  5
24E
  8
0
 62
     7
 10
94.240482999999998
 20
89.683565000000002
 30
0.0
 40
8.7515990000000006
 50
291.66568100000001
 51
293.26814899999988
  0
ARC
  5
24F
  8
0
 62
     7
 10
96.783721999999997
 20
83.317598000000004
 30
0.0
 40
1.896471
 50
281.78779100000003
 51
291.26332000000002
  0
ARC
  5
250
  8
0
 62
     7
 10
96.989764000000008
 20
82.408709000000002
 30
0.0
 40
0.964791
 50
270.46664700000002
 51
280.83628799999991
  0
ARC
  5
251
  8
0
 62
     7
 10
96.997764000000004
 20
82.350072999999995
 30
0.0
 40
0.906123
 50
257.53167000000002
 51
269.99095399999987
  0
ARC
  5
252
  8
0
 62
     7
 10
97.121123000000011
 20
82.977260000000001
 30
0.0
 40
1.545223999999999
 50
247.1930439999999
 51
258.086386
  0
ARC
  5
253
  8
0
 62
     7
 10
97.585525000000004
 20
84.163887000000003
 30
0.0
 40
2.8192699999999991
 50
243.36632399999999
 51
247.84088099999991
  0
ARC
  5
254
  8
0
 62
     7
 10
97.077581000000009
 20
83.151583999999986
 30
0.0
 40
1.349596999999999
 50
97.382283000000015
 51
124.06179999999991
  0
ARC
  5
255
  8
0
 62
     7
 10
96.998715000000004
 20
83.590163000000004
 30
0.0
 40
0.9047829999999999
 50
90.069248000000016
 51
95.997880000000009
  0
ARC
  5
256
  8
0
 62
     7
 10
96.996824000000004
 20
83.576627999999985
 30
0.0
 40
0.9183189999999999
 50
77.80587100000001
 51
89.950249999999997
  0
ARC
  5
257
  8
0
 62
     7
 10
96.906654000000003
 20
83.111048999999994
 30
0.0
 40
1.392476
 50
66.812563999999995
 51
78.225831999999997
  0
ARC
  5
258
  8
0
 62
     7
 10
96.675597999999994
 20
82.529497000000006
 30
0.0
 40
2.018095999999999
 50
59.572125999999997
 51
67.283528000000004
  0
LINE
  5
259
  8
0
 62
     7
 10
92.197199999999995
 20
84.269599999999997
 30
0.0
 11
92.197199999999995
 21
81.643799999999985
 31
0.0
  0
LINE
  5
25A
  8
0
 62
     7
 10
93.571799999999996
 20
84.269599999999997
 30
0.0
 11
93.571799999999996
 21
81.643799999999985
 31
0.0
  0
ARC
  5
25B
  8
0
 62
     7
 10
90.144441999999984
 20
89.612549999999985
 30
0.0
 40
8.6745760000000001
 50
291.69509599999992
 51
293.27242999999987
  0
ARC
  5
25C
  8
0
 62
     7
 10
92.615839000000008
 20
83.426867999999999
 30
0.0
 40
2.01349
 50
282.24405200000001
 51
291.41933199999988
  0
ARC
  5
25D
  8
0
 62
     7
 10
92.886799999999994
 20
82.247551000000016
 30
0.0
 40
0.803669
 50
270.74450899999988
 51
281.19655499999999
  0
ARC
  5
25E
  8
0
 62
     7
 10
92.898044999999996
 20
82.351371000000015
 30
0.0
 40
0.9074209999999998
 50
257.81123599999989
 51
269.94932999999992
  0
ARC
  5
25F
  8
0
 62
     7
 10
92.997201000000004
 20
82.885051000000004
 30
0.0
 40
1.450091999999999
 50
252.94235800000001
 51
258.43382699999989
  0
ARC
  5
260
  8
0
 62
     7
 10
93.24505400000001
 20
83.689416000000008
 30
0.0
 40
2.2917770000000002
 50
248.54088300000001
 51
252.91730599999991
  0
ARC
  5
261
  8
0
 62
     7
 10
94.672087999999988
 20
87.289137999999994
 30
0.0
 40
6.164032999999999
 50
246.3276809999999
 51
248.43679700000001
  0
ARC
  5
262
  8
0
 62
     7
 10
93.199167000000003
 20
82.556504999999987
 30
0.0
 40
1.9846319999999991
 50
107.8805049999999
 51
120.322423
  0
ARC
  5
263
  8
0
 62
     7
 10
92.921747999999994
 20
83.367047999999997
 30
0.0
 40
1.1281639999999991
 50
91.244639000000006
 51
107.110754
  0
ARC
  5
264
  8
0
 62
     7
 10
92.896511000000004
 20
83.728223000000014
 30
0.0
 40
0.7667229999999999
 50
76.140088000000006
 51
89.945307999999983
  0
ARC
  5
265
  8
0
 62
     7
 10
92.753112999999999
 20
83.051393000000004
 30
0.0
 40
1.458377
 50
65.825644999999994
 51
77.040245999999996
  0
ARC
  5
266
  8
0
 62
     7
 10
92.506007999999994
 20
82.441378
 30
0.0
 40
2.1162299999999989
 50
59.759819999999998
 51
66.485617000000005
  0
ARC
  5
267
  8
0
 62
     7
 10
97.636520000000004
 20
75.068318999999988
 30
0.0
 40
6.7056170000000002
 50
101.307756
 51
103.2125989999999
  0
ARC
  5
268
  8
0
 62
     7
 10
94.621842999999998
 20
87.22285500000001
 30
0.0
 40
5.8183339999999992
 50
278.61309399999999
 51
284.75660900000003
  0
ARC
  5
269
  8
0
 62
     7
 10
95.146912999999998
 20
83.734812999999988
 30
0.0
 40
2.2909969999999991
 50
270.620137
 51
278.69372199999998
  0
LINE
  5
26A
  8
0
 62
     7
 10
95.171700000000001
 20
81.444000000000003
 30
0.0
 11
94.722499999999997
 21
81.444000000000003
 31
0.0
  0
ARC
  5
26B
  8
0
 62
     7
 10
94.722787999999994
 20
83.405452999999994
 30
0.0
 40
1.9615029999999991
 50
261.54105600000003
 51
269.99059
  0
ARC
  5
26C
  8
0
 62
     7
 10
94.936794999999975
 20
85.061708999999979
 30
0.0
 40
3.6313620000000002
 50
258.55749800000001
 51
262.04529100000002
  0
ARC
  5
26D
  8
0
 62
     7
 10
96.344768000000016
 20
91.904351000000005
 30
0.0
 40
10.617345
 50
256.53720400000009
 51
258.43600900000001
  0
ARC
  5
26E
  8
0
 62
     7
 10
92.447677999999996
 20
75.707482999999996
 30
0.0
 40
6.0417800000000002
 50
76.35564699999999
 51
79.277201000000005
  0
ARC
  5
26F
  8
0
 62
     7
 10
94.812555000000003
 20
80.612821999999994
 30
0.0
 40
3.8615750000000002
 50
102.812488
 51
108.742082
  0
ARC
  5
270
  8
0
 62
     7
 10
95.051876000000007
 20
79.75482199999999
 30
0.0
 40
4.7514789999999989
 50
94.328378999999998
 51
103.332112
  0
ARC
  5
271
  8
0
 62
     7
 10
94.839961999999986
 20
82.207397999999998
 30
0.0
 40
2.2900549999999988
 50
87.318806000000009
 51
93.672693999999964
  0
ARC
  5
272
  8
0
 62
     7
 10
95.030319999999989
 20
83.080417000000025
 30
0.0
 40
1.416976
 50
88.958221000000009
 51
93.367453000000026
  0
ARC
  5
273
  8
0
 62
     7
 10
95.016706999999997
 20
81.922882999999985
 30
0.0
 40
2.5745759999999991
 50
85.184916999999999
 51
89.123677000000001
  0
ARC
  5
274
  8
0
 62
     7
 10
94.819276999999985
 20
79.610225999999983
 30
0.0
 40
4.895645
 50
72.128240000000005
 51
85.154391000000004
  0
LINE
  5
275
  8
0
 62
     7
 10
96.197000000000017
 20
84.670599999999993
 30
0.0
 11
94.947100000000006
 21
84.670599999999993
 31
0.0
  0
LINE
  5
276
  8
0
 62
     7
 10
93.697199999999995
 20
84.670599999999993
 30
0.0
 11
94.947100000000006
 21
84.670599999999993
 31
0.0
  0
LINE
  5
277
  8
0
 62
     7
 10
92.646399999999986
 20
81.394300000000001
 30
0.0
 11
94.947100000000006
 21
81.394300000000001
 31
0.0
  0
LINE
  5
278
  8
0
 62
     7
 10
94.947100000000006
 20
81.394300000000001
 30
0.0
 11
97.247699999999995
 21
81.394300000000001
 31
0.0
  0
LINE
  5
279
  8
0
 62
     7
 10
97.547500000000014
 20
81.594200000000001
 30
0.0
 11
97.247699999999995
 21
81.419100000000014
 31
0.0
  0
LINE
  5
27A
  8
0
 62
     7
 10
97.247699999999995
 20
81.419100000000014
 30
0.0
 11
97.247699999999995
 21
81.394300000000001
 31
0.0
  0
LINE
  5
27B
  8
0
 62
     7
 10
97.697700000000012
 20
81.643799999999985
 30
0.0
 11
97.247699999999995
 21
81.419100000000014
 31
0.0
  0
LINE
  5
27C
  8
0
 62
     7
 10
92.197199999999995
 20
81.643799999999985
 30
0.0
 11
92.646399999999986
 21
81.394300000000001
 31
0.0
  0
LINE
  5
27D
  8
0
 62
     7
 10
92.646399999999986
 20
84.519800000000004
 30
0.0
 11
97.247699999999995
 21
84.519800000000004
 31
0.0
  0
LINE
  5
27E
  8
0
 62
     7
 10
93.396799999999985
 20
84.644499999999994
 30
0.0
 11
96.497400000000013
 21
84.644499999999994
 31
0.0
  0
ARC
  5
27F
  8
0
 62
     7
 10
95.946392000000003
 20
85.340322999999984
 30
0.0
 40
0.715023
 50
290.51522799999992
 51
326.55637400000001
  0
ARC
  5
280
  8
0
 62
     7
 10
96.116687999999996
 20
85.20202900000001
 30
0.0
 40
0.4971740000000001
 50
329.03986499999991
 51
341.56241099999988
  0
LINE
  5
281
  8
0
 62
     7
 10
96.588300000000004
 20
85.044799999999995
 30
0.0
 11
96.622100000000003
 21
85.144700000000014
 31
0.0
  0
LINE
  5
282
  8
0
 62
     7
 10
96.622100000000003
 20
85.144700000000014
 30
0.0
 11
96.622100000000003
 21
85.294899999999998
 31
0.0
  0
LINE
  5
283
  8
0
 62
     7
 10
96.622100000000003
 20
85.294899999999998
 30
0.0
 11
96.572500000000005
 21
85.469899999999996
 31
0.0
  0
LINE
  5
284
  8
0
 62
     7
 10
93.296899999999994
 20
85.469899999999996
 30
0.0
 11
93.321700000000007
 21
85.469899999999996
 31
0.0
  0
ARC
  5
285
  8
0
 62
     7
 10
123.13427299999989
 20
81.151728000000006
 30
0.0
 40
30.148250000000001
 50
171.765085
 51
172.10101399999991
  0
LINE
  5
286
  8
0
 62
     7
 10
93.272099999999995
 20
85.294899999999998
 30
0.0
 11
93.272099999999995
 21
85.144700000000014
 31
0.0
  0
LINE
  5
287
  8
0
 62
     7
 10
93.272099999999995
 20
85.144700000000014
 30
0.0
 11
93.304500000000004
 21
85.044799999999995
 31
0.0
  0
ARC
  5
288
  8
0
 62
     7
 10
94.379296999999994
 20
85.404634999999985
 30
0.0
 40
1.1334799999999989
 50
198.51013499999999
 51
203.26190600000001
  0
ARC
  5
289
  8
0
 62
     7
 10
93.776234000000002
 20
85.144393999999977
 30
0.0
 40
0.476662
 50
203.15195800000001
 51
222.27475899999999
  0
ARC
  5
28A
  8
0
 62
     7
 10
93.705962999999997
 20
85.099288999999999
 30
0.0
 40
0.39457
 50
224.2929989999999
 51
234.706245
  0
ARC
  5
28B
  8
0
 62
     7
 10
93.897919999999985
 20
85.375962000000015
 30
0.0
 40
0.731304
 50
234.9551239999999
 51
242.40607900000001
  0
ARC
  5
28C
  8
0
 62
     7
 10
95.625382000000002
 20
88.677203000000006
 30
0.0
 40
4.4572029999999989
 50
242.382621
 51
244.01318399999991
  0
LINE
  5
28D
  8
0
 62
     7
 10
93.672399999999996
 20
84.670599999999993
 30
0.0
 11
93.697199999999995
 21
84.670599999999993
 31
0.0
  0
LINE
  5
28E
  8
0
 62
     7
 10
93.496700000000004
 20
85.894999999999996
 30
0.0
 11
96.372699999999995
 21
85.894999999999996
 31
0.0
  0
LINE
  5
28F
  8
0
 62
     7
 10
93.496700000000004
 20
87.895300000000006
 30
0.0
 11
94.947100000000006
 21
87.895300000000006
 31
0.0
  0
LINE
  5
290
  8
0
 62
     7
 10
94.947100000000006
 20
87.895300000000006
 30
0.0
 11
96.372699999999995
 21
87.895300000000006
 31
0.0
  0
LINE
  5
291
  8
0
 62
     7
 10
96.622100000000003
 20
88.445099999999996
 30
0.0
 11
96.622100000000003
 21
88.320400000000006
 31
0.0
  0
LINE
  5
292
  8
0
 62
     7
 10
96.622100000000003
 20
88.320400000000006
 30
0.0
 11
96.547000000000011
 21
88.194999999999993
 31
0.0
  0
LINE
  5
293
  8
0
 62
     7
 10
93.246599999999987
 20
88.445099999999996
 30
0.0
 11
93.272099999999995
 21
88.320400000000006
 31
0.0
  0
LINE
  5
294
  8
0
 62
     7
 10
93.272099999999995
 20
88.320400000000006
 30
0.0
 11
93.321700000000007
 21
88.194999999999993
 31
0.0
  0
LINE
  5
295
  8
0
 62
     7
 10
93.246599999999987
 20
89.145899999999997
 30
0.0
 11
96.622100000000003
 21
89.145899999999997
 31
0.0
  0
LINE
  5
296
  8
0
 62
     7
 10
93.246599999999987
 20
89.145899999999997
 30
0.0
 11
93.246599999999987
 21
88.445099999999996
 31
0.0
  0
LINE
  5
297
  8
0
 62
     7
 10
96.622100000000003
 20
89.145899999999997
 30
0.0
 11
96.622100000000003
 21
88.445099999999996
 31
0.0
  0
LINE
  5
298
  8
0
 62
     7
 10
97.247699999999995
 20
84.519800000000004
 30
0.0
 11
97.697700000000012
 21
84.269599999999997
 31
0.0
  0
LINE
  5
299
  8
0
 62
     7
 10
92.646399999999986
 20
84.519800000000004
 30
0.0
 11
92.197199999999995
 21
84.269599999999997
 31
0.0
  0
LINE
  5
29A
  8
0
 62
     7
 10
93.321700000000007
 20
88.194999999999993
 30
0.0
 11
93.496700000000004
 21
87.895300000000006
 31
0.0
  0
LINE
  5
29B
  8
0
 62
     7
 10
93.496700000000004
 20
85.894999999999996
 30
0.0
 11
93.321700000000007
 21
85.469899999999996
 31
0.0
  0
LINE
  5
29C
  8
0
 62
     7
 10
96.547000000000011
 20
88.194999999999993
 30
0.0
 11
96.372699999999995
 21
87.895300000000006
 31
0.0
  0
LINE
  5
29D
  8
0
 62
     7
 10
96.372699999999995
 20
85.894999999999996
 30
0.0
 11
96.572500000000005
 21
85.469899999999996
 31
0.0
  0
LINE
  5
29E
  8
0
 62
     7
 10
93.496700000000004
 20
87.895300000000006
 30
0.0
 11
93.496700000000004
 21
85.894999999999996
 31
0.0
  0
LINE
  5
29F
  8
0
 62
     7
 10
96.372699999999995
 20
87.895300000000006
 30
0.0
 11
96.372699999999995
 21
85.894999999999996
 31
0.0
  0
LINE
  5
2A0
  8
0
 62
     7
 10
93.396799999999985
 20
84.644499999999994
 30
0.0
 11
93.396799999999985
 21
84.519800000000004
 31
0.0
  0
LINE
  5
2A1
  8
0
 62
     7
 10
96.497400000000013
 20
84.644499999999994
 30
0.0
 11
96.497400000000013
 21
84.519800000000004
 31
0.0
  0
LINE
  5
2A2
  8
0
 62
     7
 10
92.197199999999995
 20
81.643799999999985
 30
0.0
 11
92.646399999999986
 21
81.394300000000001
 31
0.0
  0
LINE
  5
2A3
  8
0
 62
     7
 10
97.697700000000012
 20
81.643799999999985
 30
0.0
 11
97.247699999999995
 21
81.394300000000001
 31
0.0
  0
LINE
  5
2A4
  8
0
 62
     7
 10
96.256200000000007
 20
127.31399999999989
 30
0.0
 11
96.256200000000007
 21
89.145899999999997
 31
0.0
  0
LINE
  5
2A5
  8
0
 62
     7
 10
93.631699999999995
 20
127.31399999999989
 30
0.0
 11
93.631699999999995
 21
89.145899999999997
 31
0.0
  0
LINE
  5
2A6
  8
0
  6
AIGENLINE001
 62
     7
 10
94.944299999999984
 20
132.16499999999991
 30
0.0
 11
94.944299999999984
 21
80.087299999999985
 31
0.0
  0
LINE
  5
2A7
  8
0
 62
     7
 10
64.697599999999994
 20
84.269599999999997
 30
0.0
 11
64.697599999999994
 21
81.643799999999985
 31
0.0
  0
LINE
  5
2A8
  8
0
 62
     7
 10
63.321599999999997
 20
84.269599999999997
 30
0.0
 11
63.321599999999997
 21
81.643799999999985
 31
0.0
  0
ARC
  5
2A9
  8
0
 62
     7
 10
61.332400999999997
 20
89.461077000000003
 30
0.0
 40
8.5108619999999995
 50
291.64301499999999
 51
293.29081500000001
  0
ARC
  5
2AA
  8
0
 62
     7
 10
63.783633000000002
 20
83.317598000000004
 30
0.0
 40
1.896471
 50
281.78779100000003
 51
291.26332000000002
  0
ARC
  5
2AB
  8
0
 62
     7
 10
63.989691999999998
 20
82.408532999999991
 30
0.0
 40
0.9646139999999999
 50
270.46569699999998
 51
280.83723800000001
  0
ARC
  5
2AC
  8
0
 62
     7
 10
63.997668999999988
 20
82.349971999999994
 30
0.0
 40
0.9060209999999999
 50
257.53096799999997
 51
269.99131499999987
  0
ARC
  5
2AD
  8
0
 62
     7
 10
64.120974000000004
 20
82.977125000000015
 30
0.0
 40
1.545078
 50
247.1929649999999
 51
258.08771999999999
  0
ARC
  5
2AE
  8
0
 62
     7
 10
64.587365000000005
 20
84.168077999999994
 30
0.0
 40
2.8238819999999989
 50
243.36945
 51
247.83659700000001
  0
ARC
  5
2AF
  8
0
 62
     7
 10
64.077492000000007
 20
83.151583999999986
 30
0.0
 40
1.349596999999999
 50
97.382283000000015
 51
124.06179999999991
  0
ARC
  5
2B0
  8
0
 62
     7
 10
63.998626000000002
 20
83.590163000000004
 30
0.0
 40
0.9047829999999999
 50
90.069248000000016
 51
95.997880000000009
  0
ARC
  5
2B1
  8
0
 62
     7
 10
63.996741
 20
83.576685999999995
 30
0.0
 40
0.91826
 50
77.805482999999995
 51
89.950637999999998
  0
ARC
  5
2B2
  8
0
 62
     7
 10
63.906565000000001
 20
83.111048999999994
 30
0.0
 40
1.392476
 50
66.812563999999995
 51
78.225831999999997
  0
ARC
  5
2B3
  8
0
 62
     7
 10
63.675508000000001
 20
82.529497000000006
 30
0.0
 40
2.018095999999999
 50
59.572125999999997
 51
67.283528000000004
  0
LINE
  5
2B4
  8
0
 62
     7
 10
59.197099999999999
 20
84.269599999999997
 30
0.0
 11
59.197099999999999
 21
81.643799999999985
 31
0.0
  0
LINE
  5
2B5
  8
0
 62
     7
 10
60.5717
 20
84.269599999999997
 30
0.0
 11
60.5717
 21
81.643799999999985
 31
0.0
  0
ARC
  5
2B6
  8
0
 62
     7
 10
57.146468999999989
 20
89.607628000000005
 30
0.0
 40
8.6692179999999972
 50
291.694098
 51
293.27244000000002
  0
ARC
  5
2B7
  8
0
 62
     7
 10
59.615744999999997
 20
83.426867999999999
 30
0.0
 40
2.01349
 50
282.24405200000001
 51
291.41933199999988
  0
ARC
  5
2B8
  8
0
 62
     7
 10
59.886704000000002
 20
82.247557999999998
 30
0.0
 40
0.8036760000000001
 50
270.74496599999998
 51
281.19653699999998
  0
ARC
  5
2B9
  8
0
 62
     7
 10
59.897962
 20
82.35148199999999
 30
0.0
 40
0.9075319999999999
 50
257.81198299999988
 51
269.94892599999991
  0
ARC
  5
2BA
  8
0
 62
     7
 10
59.996967000000012
 20
82.884434999999996
 30
0.0
 40
1.44946
 50
252.9407139999999
 51
258.43437299999999
  0
ARC
  5
2BB
  8
0
 62
     7
 10
60.244965000000001
 20
83.689416000000008
 30
0.0
 40
2.2917770000000002
 50
248.54088300000001
 51
252.91730599999991
  0
ARC
  5
2BC
  8
0
 62
     7
 10
61.667310000000001
 20
87.277881999999991
 30
0.0
 40
6.1518420000000003
 50
246.32558999999989
 51
248.43888699999999
  0
ARC
  5
2BD
  8
0
 62
     7
 10
60.199041999999999
 20
82.556567000000015
 30
0.0
 40
1.984561
 50
107.8799179999999
 51
120.3224249999999
  0
ARC
  5
2BE
  8
0
 62
     7
 10
59.921605
 20
83.367413999999997
 30
0.0
 40
1.1277969999999991
 50
91.242338000000004
 51
107.113371
  0
ARC
  5
2BF
  8
0
 62
     7
 10
59.896428
 20
83.728273999999999
 30
0.0
 40
0.766672
 50
76.139626000000007
 51
89.945769999999996
  0
ARC
  5
2C0
  8
0
 62
     7
 10
59.753024000000003
 20
83.051393000000004
 30
0.0
 40
1.458377
 50
65.825644999999994
 51
77.040245999999996
  0
ARC
  5
2C1
  8
0
 62
     7
 10
59.506596999999999
 20
82.442716000000004
 30
0.0
 40
2.1147320000000001
 50
59.757435000000001
 51
66.488002000000009
  0
ARC
  5
2C2
  8
0
 62
     7
 10
64.636431000000002
 20
75.068318999999988
 30
0.0
 40
6.7056170000000002
 50
101.307756
 51
103.2125989999999
  0
ARC
  5
2C3
  8
0
 62
     7
 10
61.621706999999986
 20
87.223117999999985
 30
0.0
 40
5.8185999999999991
 50
278.61310900000001
 51
284.756394
  0
ARC
  5
2C4
  8
0
 62
     7
 10
62.146836
 20
83.734591000000009
 30
0.0
 40
2.290775
 50
270.619889
 51
278.69412499999987
  0
LINE
  5
2C5
  8
0
 62
     7
 10
62.171599999999991
 20
81.444000000000003
 30
0.0
 11
61.7224
 21
81.444000000000003
 31
0.0
  0
ARC
  5
2C6
  8
0
 62
     7
 10
61.722698999999992
 20
83.405452999999994
 30
0.0
 40
1.9615029999999991
 50
261.54105600000003
 51
269.99059
  0
ARC
  5
2C7
  8
0
 62
     7
 10
61.937032999999992
 20
85.063624000000004
 30
0.0
 40
3.633303999999999
 50
258.55842999999987
 51
262.04435799999987
  0
ARC
  5
2C8
  8
0
 62
     7
 10
63.344678000000002
 20
91.904351000000005
 30
0.0
 40
10.617345
 50
256.53720400000009
 51
258.43600900000001
  0
ARC
  5
2C9
  8
0
 62
     7
 10
59.453414000000002
 20
75.734461999999994
 30
0.0
 40
6.014189
 50
76.348943999999989
 51
79.283904000000007
  0
ARC
  5
2CA
  8
0
 62
     7
 10
61.812538000000004
 20
80.612606
 30
0.0
 40
3.8618030000000001
 50
102.812912
 51
108.74207800000001
  0
ARC
  5
2CB
  8
0
 62
     7
 10
62.051967000000012
 20
79.753608
 30
0.0
 40
4.7527039999999996
 50
94.32944599999999
 51
103.330918
  0
ARC
  5
2CC
  8
0
 62
     7
 10
61.839872
 20
82.207480999999987
 30
0.0
 40
2.2899720000000001
 50
87.318690000000004
 51
93.672809999999998
  0
ARC
  5
2CD
  8
0
 62
     7
 10
62.030256000000008
 20
83.079118000000008
 30
0.0
 40
1.418274
 50
88.960406000000006
 51
93.365382999999994
  0
ARC
  5
2CE
  8
0
 62
     7
 10
62.016593999999998
 20
81.922250000000005
 30
0.0
 40
2.5752090000000001
 50
85.185453999999993
 51
89.123485000000002
  0
ARC
  5
2CF
  8
0
 62
     7
 10
61.819200000000002
 20
79.610295999999991
 30
0.0
 40
4.895573999999999
 50
72.128121999999991
 51
85.154398999999998
  0
LINE
  5
2D0
  8
0
 62
     7
 10
63.196899999999999
 20
84.670599999999993
 30
0.0
 11
61.947000000000003
 21
84.670599999999993
 31
0.0
  0
LINE
  5
2D1
  8
0
 62
     7
 10
60.697099999999999
 20
84.670599999999993
 30
0.0
 11
61.947000000000003
 21
84.670599999999993
 31
0.0
  0
LINE
  5
2D2
  8
0
 62
     7
 10
59.646299999999989
 20
81.394300000000001
 30
0.0
 11
61.947000000000003
 21
81.394300000000001
 31
0.0
  0
LINE
  5
2D3
  8
0
 62
     7
 10
61.947000000000003
 20
81.394300000000001
 30
0.0
 11
64.247600000000006
 21
81.394300000000001
 31
0.0
  0
LINE
  5
2D4
  8
0
 62
     7
 10
64.547399999999996
 20
81.594200000000001
 30
0.0
 11
64.247600000000006
 21
81.419100000000014
 31
0.0
  0
LINE
  5
2D5
  8
0
 62
     7
 10
64.247600000000006
 20
81.419100000000014
 30
0.0
 11
64.247600000000006
 21
81.394300000000001
 31
0.0
  0
LINE
  5
2D6
  8
0
 62
     7
 10
64.697599999999994
 20
81.643799999999985
 30
0.0
 11
64.247600000000006
 21
81.419100000000014
 31
0.0
  0
LINE
  5
2D7
  8
0
 62
     7
 10
59.197099999999999
 20
81.643799999999985
 30
0.0
 11
59.646299999999989
 21
81.394300000000001
 31
0.0
  0
LINE
  5
2D8
  8
0
 62
     7
 10
59.646299999999989
 20
84.519800000000004
 30
0.0
 11
64.247600000000006
 21
84.519800000000004
 31
0.0
  0
LINE
  5
2D9
  8
0
 62
     7
 10
60.396700000000003
 20
84.644499999999994
 30
0.0
 11
63.497300000000003
 21
84.644499999999994
 31
0.0
  0
ARC
  5
2DA
  8
0
 62
     7
 10
62.946302000000003
 20
85.340322999999984
 30
0.0
 40
0.715023
 50
290.51522799999992
 51
326.55637400000001
  0
ARC
  5
2DB
  8
0
 62
     7
 10
63.116599000000001
 20
85.20202900000001
 30
0.0
 40
0.4971740000000001
 50
329.03986499999991
 51
341.56241099999988
  0
LINE
  5
2DC
  8
0
 62
     7
 10
63.588299999999997
 20
85.044799999999995
 30
0.0
 11
63.622
 21
85.144700000000014
 31
0.0
  0
LINE
  5
2DD
  8
0
 62
     7
 10
63.622
 20
85.144700000000014
 30
0.0
 11
63.622
 21
85.294899999999998
 31
0.0
  0
LINE
  5
2DE
  8
0
 62
     7
 10
63.622
 20
85.294899999999998
 30
0.0
 11
63.572400000000002
 21
85.469899999999996
 31
0.0
  0
LINE
  5
2DF
  8
0
 62
     7
 10
60.29679999999999
 20
85.469899999999996
 30
0.0
 11
60.321599999999997
 21
85.469899999999996
 31
0.0
  0
ARC
  5
2E0
  8
0
 62
     7
 10
167.4851229999999
 20
70.188603000000001
 30
0.0
 40
108.272147
 50
171.88628
 51
171.97981899999991
  0
LINE
  5
2E1
  8
0
 62
     7
 10
60.271999999999998
 20
85.294899999999998
 30
0.0
 11
60.271999999999998
 21
85.144700000000014
 31
0.0
  0
LINE
  5
2E2
  8
0
 62
     7
 10
60.271999999999998
 20
85.144700000000014
 30
0.0
 11
60.304400000000001
 21
85.044799999999995
 31
0.0
  0
ARC
  5
2E3
  8
0
 62
     7
 10
61.379207999999991
 20
85.404634999999985
 30
0.0
 40
1.1334799999999989
 50
198.51013499999999
 51
203.26190600000001
  0
ARC
  5
2E4
  8
0
 62
     7
 10
60.776522
 20
85.144637000000003
 30
0.0
 40
0.477105
 50
203.16090999999989
 51
222.265807
  0
ARC
  5
2E5
  8
0
 62
     7
 10
60.706681000000003
 20
85.100207999999995
 30
0.0
 40
0.39579
 50
224.306589
 51
234.68705999999989
  0
ARC
  5
2E6
  8
0
 62
     7
 10
60.897537
 20
85.375523999999999
 30
0.0
 40
0.7307800000000001
 50
234.95395400000001
 51
242.41062199999999
  0
ARC
  5
2E7
  8
0
 62
     7
 10
62.625292999999999
 20
88.677203000000006
 30
0.0
 40
4.4572029999999989
 50
242.382621
 51
244.01318399999991
  0
LINE
  5
2E8
  8
0
 62
     7
 10
60.6723
 20
84.670599999999993
 30
0.0
 11
60.697099999999999
 21
84.670599999999993
 31
0.0
  0
LINE
  5
2E9
  8
0
 62
     7
 10
60.496600000000001
 20
85.894999999999996
 30
0.0
 11
63.372599999999998
 21
85.894999999999996
 31
0.0
  0
LINE
  5
2EA
  8
0
 62
     7
 10
60.496600000000001
 20
87.895300000000006
 30
0.0
 11
61.947000000000003
 21
87.895300000000006
 31
0.0
  0
LINE
  5
2EB
  8
0
 62
     7
 10
61.947000000000003
 20
87.895300000000006
 30
0.0
 11
63.372599999999998
 21
87.895300000000006
 31
0.0
  0
LINE
  5
2EC
  8
0
 62
     7
 10
63.622
 20
88.445099999999996
 30
0.0
 11
63.622
 21
88.320400000000006
 31
0.0
  0
LINE
  5
2ED
  8
0
 62
     7
 10
63.622
 20
88.320400000000006
 30
0.0
 11
63.546900000000001
 21
88.194999999999993
 31
0.0
  0
LINE
  5
2EE
  8
0
 62
     7
 10
60.246499999999997
 20
88.445099999999996
 30
0.0
 11
60.271999999999998
 21
88.320400000000006
 31
0.0
  0
LINE
  5
2EF
  8
0
 62
     7
 10
60.271999999999998
 20
88.320400000000006
 30
0.0
 11
60.321599999999997
 21
88.194999999999993
 31
0.0
  0
LINE
  5
2F0
  8
0
 62
     7
 10
60.246499999999997
 20
89.145899999999997
 30
0.0
 11
63.622
 21
89.145899999999997
 31
0.0
  0
LINE
  5
2F1
  8
0
 62
     7
 10
60.246499999999997
 20
89.145899999999997
 30
0.0
 11
60.246499999999997
 21
88.445099999999996
 31
0.0
  0
LINE
  5
2F2
  8
0
 62
     7
 10
63.622
 20
89.145899999999997
 30
0.0
 11
63.622
 21
88.445099999999996
 31
0.0
  0
LINE
  5
2F3
  8
0
 62
     7
 10
64.247600000000006
 20
84.519800000000004
 30
0.0
 11
64.697599999999994
 21
84.269599999999997
 31
0.0
  0
LINE
  5
2F4
  8
0
 62
     7
 10
59.646299999999989
 20
84.519800000000004
 30
0.0
 11
59.197099999999999
 21
84.269599999999997
 31
0.0
  0
LINE
  5
2F5
  8
0
 62
     7
 10
60.321599999999997
 20
88.194999999999993
 30
0.0
 11
60.496600000000001
 21
87.895300000000006
 31
0.0
  0
LINE
  5
2F6
  8
0
 62
     7
 10
60.496600000000001
 20
85.894999999999996
 30
0.0
 11
60.321599999999997
 21
85.469899999999996
 31
0.0
  0
LINE
  5
2F7
  8
0
 62
     7
 10
63.546900000000001
 20
88.194999999999993
 30
0.0
 11
63.372599999999998
 21
87.895300000000006
 31
0.0
  0
LINE
  5
2F8
  8
0
 62
     7
 10
63.372599999999998
 20
85.894999999999996
 30
0.0
 11
63.572400000000002
 21
85.469899999999996
 31
0.0
  0
LINE
  5
2F9
  8
0
 62
     7
 10
60.496600000000001
 20
87.895300000000006
 30
0.0
 11
60.496600000000001
 21
85.894999999999996
 31
0.0
  0
LINE
  5
2FA
  8
0
 62
     7
 10
63.372599999999998
 20
87.895300000000006
 30
0.0
 11
63.372599999999998
 21
85.894999999999996
 31
0.0
  0
LINE
  5
2FB
  8
0
 62
     7
 10
60.396700000000003
 20
84.644499999999994
 30
0.0
 11
60.396700000000003
 21
84.519800000000004
 31
0.0
  0
LINE
  5
2FC
  8
0
 62
     7
 10
63.497300000000003
 20
84.644499999999994
 30
0.0
 11
63.497300000000003
 21
84.519800000000004
 31
0.0
  0
LINE
  5
2FD
  8
0
 62
     7
 10
59.197099999999999
 20
81.643799999999985
 30
0.0
 11
59.646299999999989
 21
81.394300000000001
 31
0.0
  0
LINE
  5
2FE
  8
0
 62
     7
 10
64.697599999999994
 20
81.643799999999985
 30
0.0
 11
64.247600000000006
 21
81.394300000000001
 31
0.0
  0
LINE
  5
2FF
  8
0
 62
     7
 10
79.069199999999995
 20
114.0199999999999
 30
0.0
 11
79.069199999999995
 21
109.9079999999999
 31
0.0
  0
LINE
  5
300
  8
0
 62
     7
 10
77.819299999999998
 20
114.0199999999999
 30
0.0
 11
77.819299999999998
 21
109.9079999999999
 31
0.0
  0
LINE
  5
301
  8
0
 62
     7
 10
79.194599999999994
 20
109.9079999999999
 30
0.0
 11
79.194599999999994
 21
106.157
 31
0.0
  0
LINE
  5
302
  8
0
 62
     7
 10
77.694599999999994
 20
109.9079999999999
 30
0.0
 11
77.694599999999994
 21
106.157
 31
0.0
  0
LINE
  5
303
  8
0
 62
     7
 10
77.694599999999994
 20
109.9079999999999
 30
0.0
 11
79.194599999999994
 21
109.9079999999999
 31
0.0
  0
LINE
  5
304
  8
0
 62
     7
 10
79.069199999999995
 20
106.157
 30
0.0
 11
79.069199999999995
 21
57.406700000000001
 31
0.0
  0
LINE
  5
305
  8
0
 62
     7
 10
77.819299999999998
 20
106.157
 30
0.0
 11
77.819299999999998
 21
57.406700000000001
 31
0.0
  0
LINE
  5
306
  8
0
 62
     7
 10
77.694599999999994
 20
106.157
 30
0.0
 11
79.194599999999994
 21
106.157
 31
0.0
  0
LINE
  5
307
  8
0
 62
     7
 10
77.819299999999998
 20
57.406700000000001
 30
0.0
 11
79.069199999999995
 21
57.406700000000001
 31
0.0
  0
LINE
  5
308
  8
0
  6
AIGENLINE001
 62
     7
 10
94.944299999999984
 20
132.16499999999991
 30
0.0
 11
80.319500000000005
 21
115.595
 31
0.0
  0
LINE
  5
309
  8
0
 62
     7
 10
82.569500000000005
 20
133.67299999999989
 30
0.0
 11
82.319399999999987
 21
133.423
 31
0.0
  0
LINE
  5
30A
  8
0
 62
     7
 10
74.569199999999995
 20
133.423
 30
0.0
 11
74.319800000000001
 21
133.67299999999989
 31
0.0
  0
LINE
  5
30B
  8
0
 62
     7
 10
82.319399999999987
 20
147.792
 30
0.0
 11
82.319399999999987
 21
138.16499999999999
 31
0.0
  0
LINE
  5
30C
  8
0
 62
     7
 10
82.569500000000005
 20
147.792
 30
0.0
 11
82.569500000000005
 21
138.16499999999999
 31
0.0
  0
LINE
  5
30D
  8
0
 62
     7
 10
74.569199999999995
 20
147.792
 30
0.0
 11
74.569199999999995
 21
138.16499999999999
 31
0.0
  0
LINE
  5
30E
  8
0
 62
     7
 10
74.319800000000001
 20
147.792
 30
0.0
 11
74.319800000000001
 21
138.16499999999999
 31
0.0
  0
LINE
  5
30F
  8
0
 62
     7
 10
82.319399999999987
 20
135.67299999999989
 30
0.0
 11
82.319399999999987
 21
133.423
 31
0.0
  0
LINE
  5
310
  8
0
 62
     7
 10
82.569500000000005
 20
135.67299999999989
 30
0.0
 11
82.569500000000005
 21
133.67299999999989
 31
0.0
  0
LINE
  5
311
  8
0
 62
     7
 10
74.569199999999995
 20
135.67299999999989
 30
0.0
 11
74.569199999999995
 21
133.423
 31
0.0
  0
LINE
  5
312
  8
0
 62
     7
 10
74.319800000000001
 20
135.67299999999989
 30
0.0
 11
74.319800000000001
 21
133.67299999999989
 31
0.0
  0
LINE
  5
313
  8
0
 62
     7
 10
74.319800000000001
 20
133.67299999999989
 30
0.0
 11
82.569500000000005
 21
133.67299999999989
 31
0.0
  0
LINE
  5
314
  8
0
 62
     7
 10
74.569199999999995
 20
133.423
 30
0.0
 11
82.319399999999987
 21
133.423
 31
0.0
  0
LINE
  5
315
  8
0
 62
     7
 10
63.256100000000011
 20
127.31399999999989
 30
0.0
 11
63.256100000000011
 21
89.145899999999997
 31
0.0
  0
LINE
  5
316
  8
0
 62
     7
 10
60.631700000000002
 20
127.31399999999989
 30
0.0
 11
60.631700000000002
 21
89.145899999999997
 31
0.0
  0
LINE
  5
317
  8
0
  6
AIGENLINE001
 62
     7
 10
61.944200000000002
 20
132.16499999999991
 30
0.0
 11
61.944200000000002
 21
80.087299999999985
 31
0.0
  0
ARC
  5
318
  8
0
 62
     7
 10
35.509202000000002
 20
72.623739999999998
 30
0.0
 40
0.5188020000000001
 50
272.05127599999992
 51
357.90923299999997
  0
ARC
  5
319
  8
0
 62
     7
 10
33.547158000000003
 20
72.624805000000009
 30
0.0
 40
0.5198920000000001
 50
182.203889
 51
267.87511499999999
  0
ARC
  5
31A
  8
0
 62
     7
 10
35.508432999999997
 20
73.985927000000004
 30
0.0
 40
0.519573
 50
2.093650999999999
 51
87.866866000000016
  0
ARC
  5
31B
  8
0
 62
     7
 10
33.527881000000001
 20
74.004908
 30
0.0
 40
0.5002310000000002
 50
90.0
 51
179.99996999999991
  0
LINE
  5
31C
  8
0
 62
     7
 10
36.296399999999998
 20
47.89439999999999
 30
0.0
 11
34.527700000000003
 21
47.42029999999999
 31
0.0
  0
LINE
  5
31D
  8
0
 62
     7
 10
34.527700000000003
 20
47.42029999999999
 30
0.0
 11
36.296399999999998
 21
46.947000000000003
 31
0.0
  0
LINE
  5
31E
  8
0
 62
     7
 10
36.296399999999998
 20
46.947000000000003
 30
0.0
 11
36.296399999999998
 21
47.89439999999999
 31
0.0
  0
LINE
  5
31F
  8
0
 62
     7
 10
68.759699999999995
 20
46.9587
 30
0.0
 11
70.528099999999995
 21
47.431999999999988
 31
0.0
  0
LINE
  5
320
  8
0
 62
     7
 10
70.528099999999995
 20
47.431999999999988
 30
0.0
 11
68.759699999999995
 21
47.906100000000002
 31
0.0
  0
LINE
  5
321
  8
0
 62
     7
 10
68.759699999999995
 20
47.906100000000002
 30
0.0
 11
68.759699999999995
 21
46.9587
 31
0.0
  0
LINE
  5
322
  8
0
 62
     7
 10
34.548999999999999
 20
47.426499999999997
 30
0.0
 11
70.506699999999995
 21
47.426499999999997
 31
0.0
  0
LINE
  5
323
  8
0
 62
     7
 10
70.528099999999995
 20
63.468400000000003
 30
0.0
 11
70.528099999999995
 21
46.73129999999999
 31
0.0
  0
LINE
  5
324
  8
0
 62
     7
 10
38.289000000000001
 20
54.631599999999999
 30
0.0
 11
47.338299999999997
 21
54.631599999999999
 31
0.0
  0
LINE
  5
325
  8
0
 62
     7
 10
32.535699999999991
 20
55.099499999999992
 30
0.0
 11
30.767700000000001
 21
54.626100000000001
 31
0.0
  0
LINE
  5
326
  8
0
 62
     7
 10
30.767700000000001
 20
54.626100000000001
 30
0.0
 11
32.535699999999991
 21
54.152099999999997
 31
0.0
  0
LINE
  5
327
  8
0
 62
     7
 10
32.535699999999991
 20
54.152099999999997
 30
0.0
 11
32.535699999999991
 21
55.099499999999992
 31
0.0
  0
LINE
  5
328
  8
0
 62
     7
 10
36.520299999999992
 20
54.163800000000002
 30
0.0
 11
38.289000000000001
 21
54.637799999999991
 31
0.0
  0
LINE
  5
329
  8
0
 62
     7
 10
38.289000000000001
 20
54.637799999999991
 30
0.0
 11
36.520299999999992
 21
55.111899999999999
 31
0.0
  0
LINE
  5
32A
  8
0
 62
     7
 10
36.520299999999992
 20
55.111899999999999
 30
0.0
 11
36.520299999999992
 21
54.163800000000002
 31
0.0
  0
LINE
  5
32B
  8
0
 62
     7
 10
30.789000000000001
 20
54.631599999999999
 30
0.0
 11
38.266999999999989
 21
54.631599999999999
 31
0.0
  0
LINE
  5
32C
  8
0
 62
     7
 10
30.767700000000001
 20
60.394599999999997
 30
0.0
 11
30.767700000000001
 21
54.110700000000001
 31
0.0
  0
LINE
  5
32D
  8
0
 62
     7
 10
38.289000000000001
 20
60.394599999999997
 30
0.0
 11
38.289000000000001
 21
54.167900000000003
 31
0.0
  0
LINE
  5
32E
  8
0
 62
     7
 10
24.939900000000002
 20
77.018000000000001
 30
0.0
 11
24.465800000000002
 21
78.786000000000001
 31
0.0
  0
LINE
  5
32F
  8
0
 62
     7
 10
24.465800000000002
 20
78.786000000000001
 30
0.0
 11
23.991800000000001
 21
77.018000000000001
 31
0.0
  0
LINE
  5
330
  8
0
 62
     7
 10
23.991800000000001
 20
77.018000000000001
 30
0.0
 11
24.939900000000002
 21
77.018000000000001
 31
0.0
  0
LINE
  5
331
  8
0
 62
     7
 10
24.003499999999988
 20
72.544899999999998
 30
0.0
 11
24.477599999999999
 21
70.776099999999985
 31
0.0
  0
LINE
  5
332
  8
0
 62
     7
 10
24.477599999999999
 20
70.776099999999985
 30
0.0
 11
24.951599999999999
 21
72.544899999999998
 31
0.0
  0
LINE
  5
333
  8
0
 62
     7
 10
24.951599999999999
 20
72.544899999999998
 30
0.0
 11
24.003499999999988
 21
72.544899999999998
 31
0.0
  0
LINE
  5
334
  8
0
 62
     7
 10
24.471399999999999
 20
78.786000000000001
 30
0.0
 11
24.471399999999999
 21
70.776099999999985
 31
0.0
  0
LINE
  5
335
  8
0
 62
     7
 10
24.939900000000002
 20
69.007400000000004
 30
0.0
 11
24.465800000000002
 21
70.776099999999985
 31
0.0
  0
LINE
  5
336
  8
0
 62
     7
 10
24.465800000000002
 20
70.776099999999985
 30
0.0
 11
23.991800000000001
 21
69.007400000000004
 31
0.0
  0
LINE
  5
337
  8
0
 62
     7
 10
23.991800000000001
 20
69.007400000000004
 30
0.0
 11
24.939900000000002
 21
69.007400000000004
 31
0.0
  0
LINE
  5
338
  8
0
 62
     7
 10
24.003499999999988
 20
62.477499999999992
 30
0.0
 11
24.477599999999999
 21
60.709499999999991
 31
0.0
  0
LINE
  5
339
  8
0
 62
     7
 10
24.477599999999999
 20
60.709499999999991
 30
0.0
 11
24.951599999999999
 21
62.477499999999992
 31
0.0
  0
LINE
  5
33A
  8
0
 62
     7
 10
24.951599999999999
 20
62.477499999999992
 30
0.0
 11
24.003499999999988
 21
62.477499999999992
 31
0.0
  0
LINE
  5
33B
  8
0
 62
     7
 10
24.471399999999999
 20
70.797499999999999
 30
0.0
 11
24.471399999999999
 21
60.709499999999991
 31
0.0
  0
LINE
  5
33C
  8
0
 62
     7
 10
30.164100000000001
 20
60.709499999999991
 30
0.0
 11
24.128900000000002
 21
60.709499999999991
 31
0.0
  0
LINE
  5
33D
  8
0
 62
     7
 10
28.017099999999989
 20
70.776099999999985
 30
0.0
 11
24.128900000000002
 21
70.776099999999985
 31
0.0
  0
LINE
  5
33E
  8
0
 62
     7
 10
27.939900000000002
 20
78.786000000000001
 30
0.0
 11
24.126200000000001
 21
78.786000000000001
 31
0.0
  0
LINE
  5
33F
  8
0
 62
     7
 10
40.817700000000002
 20
78.539400000000001
 30
0.0
 11
40.817700000000002
 21
78.438800000000001
 31
0.0
  0
ARC
  5
340
  8
0
 62
     7
 10
43.153039999999997
 20
65.561932999999996
 30
0.0
 40
5.1192349999999989
 50
197.7938509999999
 51
205.456209
  0
ARC
  5
341
  8
0
 62
     7
 10
40.278810999999997
 20
64.217641999999998
 30
0.0
 40
1.9463680000000001
 50
206.09278499999999
 51
211.00056599999999
  0
ARC
  5
342
  8
0
 62
     7
 10
39.213766
 20
63.567430999999999
 30
0.0
 40
0.698619
 50
210.27972099999991
 51
225.387215
  0
ARC
  5
343
  8
0
 62
     7
 10
40.620459999999987
 20
64.629640000000009
 30
0.0
 40
2.302220999999999
 50
149.52437900000001
 51
157.20595499999999
  0
ARC
  5
344
  8
0
 62
     7
 10
42.257266999999999
 20
63.908633999999999
 30
0.0
 40
4.0906459999999987
 50
156.7778129999999
 51
168.87007099999991
  0
LINE
  5
345
  8
0
 62
     7
 10
44.225000000000001
 20
66.347099999999998
 30
0.0
 11
43.76059999999999
 21
66.347099999999998
 31
0.0
  0
LINE
  5
346
  8
0
 62
     7
 10
42.675400000000003
 20
62.384500000000003
 30
0.0
 11
41.966999999999992
 21
62.384500000000003
 31
0.0
  0
LINE
  5
347
  8
0
 62
     7
 10
44.232500000000002
 20
62.384500000000003
 30
0.0
 11
43.813599999999987
 21
62.384500000000003
 31
0.0
  0
ARC
  5
348
  8
0
 62
     7
 10
43.225660999999988
 20
62.31539699999999
 30
0.0
 40
0.856685
 50
71.079227000000003
 51
90.030982999999992
  0
ARC
  5
349
  8
0
 62
     7
 10
43.308554999999998
 20
62.615000000000002
 30
0.0
 40
0.546712
 50
15.048963000000001
 51
69.115506000000011
  0
ARC
  5
34A
  8
0
 62
     7
 10
42.972678000000002
 20
62.510393000000008
 30
0.0
 40
0.8983370000000001
 50
358.78384499999999
 51
15.929828000000001
  0
ARC
  5
34B
  8
0
 62
     7
 10
43.794817999999992
 20
62.491580999999996
 30
0.0
 40
0.075995
 50
340.13471800000002
 51
359.808041
  0
ARC
  5
34C
  8
0
 62
     7
 10
43.70308
 20
62.521807000000003
 30
0.0
 40
0.172567
 50
326.42623500000002
 51
341.0467109999999
  0
ARC
  5
34D
  8
0
 62
     7
 10
43.537368000000001
 20
62.628995999999987
 30
0.0
 40
0.369918
 50
315.87787099999991
 51
326.78745299999991
  0
ARC
  5
34E
  8
0
 62
     7
 10
43.292251
 20
62.865837999999997
 30
0.0
 40
0.7107640000000001
 50
299.99903499999999
 51
315.92864899999989
  0
ARC
  5
34F
  8
0
 62
     7
 10
43.183104
 20
63.025025999999997
 30
0.0
 40
0.903322
 50
271.49006500000002
 51
300.946236
  0
ARC
  5
350
  8
0
 62
     7
 10
43.208156000000002
 20
62.757514
 30
0.0
 40
0.635506
 50
237.98517499999991
 51
269.85917899999998
  0
ARC
  5
351
  8
0
 62
     7
 10
43.268593000000003
 20
62.885045999999988
 30
0.0
 40
0.7758550000000001
 50
216.68923899999999
 51
239.1937209999999
  0
ARC
  5
352
  8
0
 62
     7
 10
42.93571
 20
62.632684999999988
 30
0.0
 40
0.358157
 50
203.9782449999999
 51
216.13301999999999
  0
ARC
  5
353
  8
0
 62
     7
 10
42.707481999999992
 20
62.533780000000007
 30
0.0
 40
0.109457
 50
183.10827800000001
 51
205.22434799999999
  0
ARC
  5
354
  8
0
 62
     7
 10
43.721396999999989
 20
62.528356000000002
 30
0.0
 40
1.1232109999999991
 50
169.33995100000001
 51
180.0261109999999
  0
ARC
  5
355
  8
0
 62
     7
 10
43.215738000000002
 20
62.616951
 30
0.0
 40
0.609924
 50
143.48303200000001
 51
168.73196599999989
  0
ARC
  5
356
  8
0
 62
     7
 10
43.096674
 20
62.679574000000002
 30
0.0
 40
0.477412
 50
101.674458
 51
141.01953399999999
  0
ARC
  5
357
  8
0
 62
     7
 10
43.209240999999999
 20
62.288648999999999
 30
0.0
 40
0.883576
 50
88.965243000000015
 51
103.69376699999999
  0
ARC
  5
358
  8
0
 62
     7
 10
43.170513999999997
 20
64.708068999999995
 30
0.0
 40
1.7637459999999989
 50
76.622655000000009
 51
90.014252999999997
  0
ARC
  5
359
  8
0
 62
     7
 10
43.409101
 20
65.754294999999999
 30
0.0
 40
0.690778
 50
59.890551000000002
 51
75.797769999999986
  0
ARC
  5
35A
  8
0
 62
     7
 10
43.655284000000002
 20
66.188575
 30
0.0
 40
0.19166
 50
29.401823
 51
58.427581000000011
  0
ARC
  5
35B
  8
0
 62
     7
 10
43.74445399999999
 20
66.246718999999999
 30
0.0
 40
0.085707
 50
0.317384
 51
24.799139
  0
ARC
  5
35C
  8
0
 62
     7
 10
42.596091999999992
 20
66.24618000000001
 30
0.0
 40
1.2340679999999991
 50
344.49416000000002
 51
0.047051
  0
ARC
  5
35D
  8
0
 62
     7
 10
43.095686999999991
 20
66.122538000000006
 30
0.0
 40
0.719747
 50
319.05866800000001
 51
343.34634499999999
  0
ARC
  5
35E
  8
0
 62
     7
 10
43.238334000000002
 20
66.023291999999984
 30
0.0
 40
0.5472730000000001
 50
268.62459499999989
 51
317.12087300000002
  0
ARC
  5
35F
  8
0
 62
     7
 10
43.231507000000001
 20
66.096151000000006
 30
0.0
 40
0.6200070000000001
 50
212.58928399999991
 51
269.41688399999992
  0
ARC
  5
360
  8
0
 62
     7
 10
43.379129999999989
 20
66.198635999999993
 30
0.0
 40
0.799616
 50
190.5786479999999
 51
213.079275
  0
ARC
  5
361
  8
0
 62
     7
 10
43.644782999999997
 20
66.263660000000002
 30
0.0
 40
1.072797999999999
 50
179.6650689999999
 51
191.38775000000001
  0
ARC
  5
362
  8
0
 62
     7
 10
42.64134
 20
66.269153000000003
 30
0.0
 40
0.069341
 50
134.14515
 51
179.35735600000001
  0
ARC
  5
363
  8
0
 62
     7
 10
42.740149000000002
 20
66.19054100000001
 30
0.0
 40
0.195239
 50
124.2858139999999
 51
138.89040800000001
  0
ARC
  5
364
  8
0
 62
     7
 10
42.854562000000001
 20
66.026584999999997
 30
0.0
 40
0.3951639999999999
 50
114.1920489999999
 51
124.600769
  0
ARC
  5
365
  8
0
 62
     7
 10
43.025945999999998
 20
65.643618000000004
 30
0.0
 40
0.8147300000000001
 50
99.289972999999975
 51
114.149432
  0
ARC
  5
366
  8
0
 62
     7
 10
43.159952999999987
 20
65.002319
 30
0.0
 40
1.469530999999999
 50
89.605311999999998
 51
100.409947
  0
ARC
  5
367
  8
0
 62
     7
 10
43.223804999999999
 20
64.776115000000004
 30
0.0
 40
0.4788870000000001
 50
54.486069999999998
 51
89.833435999999992
  0
ARC
  5
368
  8
0
 62
     7
 10
43.110867999999989
 20
64.599397999999994
 30
0.0
 40
0.6884190000000001
 50
30.710989000000001
 51
55.378897000000002
  0
ARC
  5
369
  8
0
 62
     7
 10
42.808055999999993
 20
64.397413999999984
 30
0.0
 40
1.0520890000000001
 50
4.3936260000000003
 51
31.746200000000002
  0
ARC
  5
36A
  8
0
 62
     7
 10
42.576024999999987
 20
64.352032999999992
 30
0.0
 40
1.287207999999999
 50
359.98475000000002
 51
5.6165760000000002
  0
ARC
  5
36B
  8
0
 62
     7
 10
42.654877999999997
 20
64.352376000000007
 30
0.0
 40
1.2083559999999991
 50
331.58606600000002
 51
359.967468
  0
ARC
  5
36C
  8
0
 62
     7
 10
43.042093000000001
 20
64.167618000000004
 30
0.0
 40
0.780175
 50
307.38971800000002
 51
329.988471
  0
ARC
  5
36D
  8
0
 62
     7
 10
43.212262000000003
 20
63.964523999999997
 30
0.0
 40
0.515617
 50
271.43757499999992
 51
306.06975999999997
  0
ARC
  5
36E
  8
0
 62
     7
 10
43.226603999999988
 20
63.928049999999999
 30
0.0
 40
0.4789830000000001
 50
234.517503
 51
269.83175099999988
  0
ARC
  5
36F
  8
0
 62
     7
 10
43.33793
 20
64.103444999999994
 30
0.0
 40
0.6865160000000001
 50
211.5090099999999
 51
235.448668
  0
ARC
  5
370
  8
0
 62
     7
 10
43.631315000000001
 20
64.303426000000002
 30
0.0
 40
1.0413019999999991
 50
184.91835099999989
 51
212.4533879999999
  0
ARC
  5
371
  8
0
 62
     7
 10
43.865611000000001
 20
64.351306999999991
 30
0.0
 40
1.279137999999999
 50
179.98282399999999
 51
186.15549699999991
  0
ARC
  5
372
  8
0
 62
     7
 10
43.794447999999988
 20
64.350444999999993
 30
0.0
 40
1.2079759999999991
 50
151.531059
 51
179.940922
  0
ARC
  5
373
  8
0
 62
     7
 10
43.410402000000012
 20
64.534047000000001
 30
0.0
 40
0.7831500000000001
 50
127.40236299999999
 51
149.94561399999989
  0
ARC
  5
374
  8
0
 62
     7
 10
43.238618999999993
 20
64.739209000000002
 30
0.0
 40
0.5159660000000002
 50
91.490566999999999
 51
126.08686899999999
  0
LINE
  5
375
  8
0
 62
     7
 10
51.363900000000001
 20
62.060699999999997
 30
0.0
 11
50.890599999999992
 21
63.828699999999998
 31
0.0
  0
LINE
  5
376
  8
0
 62
     7
 10
50.890599999999992
 20
63.828699999999998
 30
0.0
 11
50.416499999999999
 21
62.060699999999997
 31
0.0
  0
LINE
  5
377
  8
0
 62
     7
 10
50.416499999999999
 20
62.060699999999997
 30
0.0
 11
51.363900000000001
 21
62.060699999999997
 31
0.0
  0
LINE
  5
378
  8
0
 62
     7
 10
50.42819999999999
 20
66.595799999999997
 30
0.0
 11
50.902299999999997
 21
64.827799999999996
 31
0.0
  0
LINE
  5
379
  8
0
 62
     7
 10
50.902299999999997
 20
64.827799999999996
 30
0.0
 11
51.375700000000002
 21
66.595799999999997
 31
0.0
  0
LINE
  5
37A
  8
0
 62
     7
 10
51.375700000000002
 20
66.595799999999997
 30
0.0
 11
50.42819999999999
 21
66.595799999999997
 31
0.0
  0
LINE
  5
37B
  8
0
 62
     7
 10
50.896099999999997
 20
70.750699999999995
 30
0.0
 11
50.896099999999997
 21
60.7943
 31
0.0
  0
LINE
  5
37C
  8
0
 62
     7
 10
68.600899999999996
 20
63.969299999999997
 30
0.0
 11
68.067899999999995
 21
63.969299999999997
 31
0.0
  0
LINE
  5
37D
  8
0
 62
     7
 10
68.600899999999996
 20
64.674800000000005
 30
0.0
 11
68.067899999999995
 21
64.674800000000005
 31
0.0
  0
LINE
  5
37E
  8
0
 62
     7
 10
68.689400000000006
 20
63.8583
 30
0.0
 11
68.693899999999999
 21
63.8583
 31
0.0
  0
LINE
  5
37F
  8
0
 62
     7
 10
68.067899999999995
 20
63.848700000000001
 30
0.0
 11
68.600899999999996
 21
63.848700000000001
 31
0.0
  0
LINE
  5
380
  8
0
 62
     7
 10
68.067899999999995
 20
64.793999999999997
 30
0.0
 11
68.600899999999996
 21
64.793999999999997
 31
0.0
  0
ARC
  5
381
  8
0
 62
     7
 10
68.854078000000001
 20
63.685326000000003
 30
0.0
 40
0.251803
 50
157.07963499999991
 51
179.82537600000001
  0
ARC
  5
382
  8
0
 62
     7
 10
68.791725999999997
 20
63.701928000000002
 30
0.0
 40
0.188123
 50
106.65652
 51
154.34015299999999
  0
ARC
  5
383
  8
0
 62
     7
 10
68.868584999999996
 20
63.502445999999992
 30
0.0
 40
0.4016030000000001
 50
88.083088000000004
 51
109.004983
  0
ARC
  5
384
  8
0
 62
     7
 10
68.888256000000013
 20
63.497301999999998
 30
0.0
 40
0.40657
 50
73.498393000000007
 51
90.878998999999993
  0
ARC
  5
385
  8
0
 62
     7
 10
68.933218000000011
 20
63.668703000000001
 30
0.0
 40
0.229525
 50
25.086769
 51
72.1066
  0
ARC
  5
386
  8
0
 62
     7
 10
68.840135000000004
 20
64.942893000000012
 30
0.0
 40
0.238872
 50
182.98126999999991
 51
206.064773
  0
ARC
  5
387
  8
0
 62
     7
 10
68.789462
 20
64.928374000000005
 30
0.0
 40
0.1872
 50
208.88879899999989
 51
256.348725
  0
ARC
  5
388
  8
0
 62
     7
 10
68.869223000000005
 20
65.162599999999983
 30
0.0
 40
0.434203
 50
253.41431700000001
 51
271.68875400000002
  0
ARC
  5
389
  8
0
 62
     7
 10
68.882441999999983
 20
65.167837000000006
 30
0.0
 40
0.4392520000000001
 50
269.94489399999992
 51
286.62006500000001
  0
ARC
  5
38A
  8
0
 62
     7
 10
68.940030000000007
 20
64.958185
 30
0.0
 40
0.221939
 50
287.85491300000001
 51
335.37293399999999
  0
ARC
  5
38B
  8
0
 62
     7
 10
68.899283999999994
 20
64.431857999999991
 30
0.0
 40
0.29723
 50
93.329902000000004
 51
177.7879989999999
  0
ARC
  5
38C
  8
0
 62
     7
 10
68.881695999999991
 20
64.46764499999999
 30
0.0
 40
0.26094
 50
26.729371
 51
89.929113999999998
  0
ARC
  5
38D
  8
0
 62
     7
 10
68.812811999999994
 20
64.414644999999993
 30
0.0
 40
0.346689
 50
8.6451449999999994
 51
29.433229000000001
  0
ARC
  5
38E
  8
0
 62
     7
 10
68.897458
 20
64.200353000000007
 30
0.0
 40
0.29693
 50
184.84000999999989
 51
267.01964500000003
  0
ARC
  5
38F
  8
0
 62
     7
 10
68.88203399999999
 20
64.335651999999996
 30
0.0
 40
0.431827
 50
269.99801599999989
 51
286.71117900000002
  0
ARC
  5
390
  8
0
 62
     7
 10
68.936406000000005
 20
64.134559999999993
 30
0.0
 40
0.223668
 50
288.183787
 51
348.47206699999992
  0
LINE
  5
391
  8
0
 62
     7
 10
68.958200000000005
 20
63.644799999999996
 30
0.0
 11
68.600899999999996
 21
63.644799999999996
 31
0.0
  0
LINE
  5
392
  8
0
 62
     7
 10
69.155600000000007
 20
64.793999999999997
 30
0.0
 11
69.155600000000007
 21
63.842500000000001
 31
0.0
  0
ARC
  5
393
  8
0
 62
     7
 10
68.950253000000004
 20
63.850046999999989
 30
0.0
 40
0.205447
 50
272.20466099999999
 51
357.89525400000002
  0
LINE
  5
394
  8
0
 62
     7
 10
68.958200000000005
 20
64.991100000000003
 30
0.0
 11
68.600899999999996
 21
64.991100000000003
 31
0.0
  0
ARC
  5
395
  8
0
 62
     7
 10
68.950620999999998
 20
64.786150000000006
 30
0.0
 40
0.205092
 50
2.205592999999999
 51
87.894476999999995
  0
LINE
  5
396
  8
0
 62
     7
 10
68.600899999999996
 20
64.991100000000003
 30
0.0
 11
68.600899999999996
 21
63.644799999999996
 31
0.0
  0
LINE
  5
397
  8
0
 62
     7
 10
67.980800000000002
 20
63.876300000000001
 30
0.0
 11
67.981499999999997
 21
63.876300000000001
 31
0.0
  0
LINE
  5
398
  8
0
 62
     7
 10
68.067899999999995
 20
65.007000000000005
 30
0.0
 11
67.866399999999999
 21
65.179900000000004
 31
0.0
  0
LINE
  5
399
  8
0
 62
     7
 10
68.067899999999995
 20
63.6599
 30
0.0
 11
67.866399999999999
 21
63.488300000000002
 31
0.0
  0
LINE
  5
39A
  8
0
 62
     7
 10
65.332499999999996
 20
63.488300000000002
 30
0.0
 11
65.131
 21
63.6599
 31
0.0
  0
LINE
  5
39B
  8
0
 62
     7
 10
65.332499999999996
 20
65.1785
 30
0.0
 11
65.131
 21
65.006299999999996
 31
0.0
  0
LINE
  5
39C
  8
0
 62
     7
 10
65.131
 20
65.006299999999996
 30
0.0
 11
65.131
 21
63.6599
 31
0.0
  0
ARC
  5
39D
  8
0
 62
     7
 10
65.735905000000002
 20
63.840938000000001
 30
0.0
 40
0.352595
 50
239.6336849999999
 51
269.89342999999991
  0
ARC
  5
39E
  8
0
 62
     7
 10
65.810331999999988
 20
63.983317
 30
0.0
 40
0.5131250000000001
 50
222.37933100000001
 51
240.50017800000001
  0
ARC
  5
39F
  8
0
 62
     7
 10
66.032064000000005
 20
64.194435999999996
 30
0.0
 40
0.8192459999999998
 50
200.65539699999999
 51
222.833798
  0
ARC
  5
3A0
  8
0
 62
     7
 10
66.338645999999983
 20
64.336995999999999
 30
0.0
 40
1.156682999999999
 50
179.954724
 51
201.906251
  0
ARC
  5
3A1
  8
0
 62
     7
 10
66.368769999999998
 20
64.336006999999995
 30
0.0
 40
1.1868080000000001
 50
151.7001479999999
 51
179.908151
  0
ARC
  5
3A2
  8
0
 62
     7
 10
65.956052999999983
 20
64.547614999999993
 30
0.0
 40
0.7231600000000001
 50
128.06763100000001
 51
150.959598
  0
ARC
  5
3A3
  8
0
 62
     7
 10
65.744175999999996
 20
64.793797999999995
 30
0.0
 40
0.398985
 50
105.3674479999999
 51
125.91109899999989
  0
ARC
  5
3A4
  8
0
 62
     7
 10
67.503692000000001
 20
64.814549
 30
0.0
 40
0.368371
 50
50.14780300000001
 51
81.133147999999991
  0
ARC
  5
3A5
  8
0
 62
     7
 10
67.363093000000006
 20
64.619927000000004
 30
0.0
 40
0.608111
 50
34.468119000000002
 51
51.728774000000001
  0
ARC
  5
3A6
  8
0
 62
     7
 10
67.064658999999992
 20
64.40378299999999
 30
0.0
 40
0.9765219999999999
 50
14.163423
 51
35.013820000000003
  0
ARC
  5
3A7
  8
0
 62
     7
 10
66.847315000000009
 20
64.325946000000002
 30
0.0
 40
1.206512
 50
0.273648
 51
15.221987
  0
ARC
  5
3A8
  8
0
 62
     7
 10
66.879358999999994
 20
64.333336000000003
 30
0.0
 40
1.174455
 50
331.65244999999987
 51
359.92059999999992
  0
ARC
  5
3A9
  8
0
 62
     7
 10
67.272614000000004
 20
64.13081600000001
 30
0.0
 40
0.732247
 50
308.39405199999999
 51
330.98804100000001
  0
ARC
  5
3AA
  8
0
 62
     7
 10
67.48888199999999
 20
63.880356999999989
 30
0.0
 40
0.401873
 50
282.71768199999991
 51
306.40482099999991
  0
LINE
  5
3AB
  8
0
 62
     7
 10
65.3215
 20
64.419200000000004
 30
0.0
 11
66.518000000000001
 21
64.419200000000004
 31
0.0
  0
LINE
  5
3AC
  8
0
 62
     7
 10
65.3215
 20
64.247
 30
0.0
 11
66.518000000000001
 21
64.247
 31
0.0
  0
ARC
  5
3AD
  8
0
 62
     7
 10
66.029110000000003
 20
64.319381000000007
 30
0.0
 40
0.713583
 50
112.6549969999999
 51
179.01017699999991
  0
ARC
  5
3AE
  8
0
 62
     7
 10
65.921156000000011
 20
64.500951000000001
 30
0.0
 40
0.5053130000000001
 50
90.180612999999994
 51
109.28695
  0
ARC
  5
3AF
  8
0
 62
     7
 10
65.917911000000004
 20
64.487983999999997
 30
0.0
 40
0.51828
 50
54.270740000000011
 51
89.817377000000008
  0
ARC
  5
3B0
  8
0
 62
     7
 10
65.805284
 20
64.321386000000004
 30
0.0
 40
0.719315
 50
0.822211
 51
54.737286000000012
  0
ARC
  5
3B1
  8
0
 62
     7
 10
65.815426999999985
 20
64.344146999999992
 30
0.0
 40
0.709207
 50
292.34706199999988
 51
358.99499900000001
  0
ARC
  5
3B2
  8
0
 62
     7
 10
65.917928000000003
 20
64.167760999999985
 30
0.0
 40
0.507853
 50
270.18441999999999
 51
289.21613400000001
  0
ARC
  5
3B3
  8
0
 62
     7
 10
65.921214000000006
 20
64.177943999999997
 30
0.0
 40
0.518037
 50
234.30796799999999
 51
269.81742200000002
  0
ARC
  5
3B4
  8
0
 62
     7
 10
66.032438999999997
 20
64.342860999999999
 30
0.0
 40
0.716892
 50
180.8913979999999
 51
234.7781939999999
  0
LINE
  5
3B5
  8
0
 62
     7
 10
65.328699999999984
 20
63.488300000000002
 30
0.0
 11
67.869799999999984
 21
63.488300000000002
 31
0.0
  0
LINE
  5
3B6
  8
0
 62
     7
 10
65.332499999999996
 20
65.1785
 30
0.0
 11
67.868099999999998
 21
65.1785
 31
0.0
  0
LINE
  5
3B7
  8
0
 62
     7
 10
68.067899999999995
 20
65.007000000000005
 30
0.0
 11
68.067899999999995
 21
63.6599
 31
0.0
  0
LINE
  5
3B8
  8
0
 62
     7
 10
28.238900000000001
 20
79.165000000000006
 30
0.0
 11
28.238900000000001
 21
83.277100000000004
 31
0.0
  0
LINE
  5
3B9
  8
0
 62
     7
 10
28.485600000000002
 20
78.786000000000001
 30
0.0
 11
40.570399999999992
 21
78.786000000000001
 31
0.0
  0
ARC
  5
3BA
  8
0
 62
     7
 10
40.560876
 20
78.52914100000001
 30
0.0
 40
0.257077
 50
2.280692999999999
 51
87.879118000000005
  0
ARC
  5
3BB
  8
0
 62
     7
 10
28.494441999999999
 20
78.529821999999996
 30
0.0
 40
0.255684
 50
91.980152000000004
 51
177.85955000000001
  0
LINE
  5
3BC
  8
0
 62
     7
 10
28.238900000000001
 20
78.438800000000001
 30
0.0
 11
28.238900000000001
 21
78.539400000000001
 31
0.0
  0
LINE
  5
3BD
  8
0
 62
     7
 10
38.449599999999997
 20
72.1053
 30
0.0
 11
38.52259999999999
 21
72.1053
 31
0.0
  0
LINE
  5
3BE
  8
0
 62
     7
 10
38.128500000000003
 20
72.427700000000002
 30
0.0
 11
38.128500000000003
 21
74.184100000000001
 31
0.0
  0
ARC
  5
3BF
  8
0
 62
     7
 10
38.462014000000003
 20
72.438744
 30
0.0
 40
0.333705
 50
181.89070599999991
 51
267.86394599999988
  0
LINE
  5
3C0
  8
0
 62
     7
 10
30.937200000000001
 20
72.427700000000002
 30
0.0
 11
30.937200000000001
 21
74.184100000000001
 31
0.0
  0
LINE
  5
3C1
  8
0
 62
     7
 10
30.5334
 20
72.1053
 30
0.0
 11
30.616099999999989
 21
72.1053
 31
0.0
  0
ARC
  5
3C2
  8
0
 62
     7
 10
30.60232899999999
 20
72.440038999999999
 30
0.0
 40
0.33505
 50
272.35006800000002
 51
357.89532000000003
  0
LINE
  5
3C3
  8
0
 62
     7
 10
38.449599999999997
 20
74.505099999999999
 30
0.0
 11
38.52259999999999
 21
74.505099999999999
 31
0.0
  0
ARC
  5
3C4
  8
0
 62
     7
 10
38.461915999999988
 20
74.171713999999994
 30
0.0
 40
0.333654
 50
92.119619999999983
 51
177.88035099999991
  0
LINE
  5
3C5
  8
0
 62
     7
 10
30.5334
 20
74.505099999999999
 30
0.0
 11
30.616099999999989
 21
74.505099999999999
 31
0.0
  0
ARC
  5
3C6
  8
0
 62
     7
 10
30.603726999999999
 20
74.171713999999994
 30
0.0
 40
0.333654
 50
2.1196470000000001
 51
87.880343000000011
  0
LINE
  5
3C7
  8
0
 62
     7
 10
30.5334
 20
74.505099999999999
 30
0.0
 11
30.5334
 21
76.575000000000003
 31
0.0
  0
LINE
  5
3C8
  8
0
 62
     7
 10
30.5334
 20
71.704899999999995
 30
0.0
 11
30.5334
 21
72.1053
 31
0.0
  0
LINE
  5
3C9
  8
0
 62
     7
 10
30.5334
 20
76.575000000000003
 30
0.0
 11
30.384599999999999
 21
76.730699999999999
 31
0.0
  0
LINE
  5
3CA
  8
0
 62
     7
 10
38.634900000000002
 20
76.730699999999999
 30
0.0
 11
38.52259999999999
 21
76.575000000000003
 31
0.0
  0
LINE
  5
3CB
  8
0
 62
     7
 10
38.52259999999999
 20
72.1053
 30
0.0
 11
38.52259999999999
 21
71.704899999999995
 31
0.0
  0
LINE
  5
3CC
  8
0
 62
     7
 10
38.52259999999999
 20
76.575000000000003
 30
0.0
 11
38.52259999999999
 21
74.505099999999999
 31
0.0
  0
LINE
  5
3CD
  8
0
 62
     7
 10
28.238900000000001
 20
78.438800000000001
 30
0.0
 11
40.8384
 21
78.438800000000001
 31
0.0
  0
LINE
  5
3CE
  8
0
 62
     7
 10
44.471600000000002
 20
62.6312
 30
0.0
 11
44.471600000000002
 21
66.102500000000006
 31
0.0
  0
ARC
  5
3CF
  8
0
 62
     7
 10
44.223002000000001
 20
62.640744999999988
 30
0.0
 40
0.256395
 50
272.133962
 51
357.86604799999992
  0
ARC
  5
3D0
  8
0
 62
     7
 10
44.215569000000002
 20
66.090941999999998
 30
0.0
 40
0.256333
 50
2.5840730000000001
 51
87.898066
  0
LINE
  5
3D1
  8
0
 62
     7
 10
38.695599999999992
 20
62.514800000000001
 30
0.0
 11
30.360399999999991
 21
62.514800000000001
 31
0.0
  0
LINE
  5
3D2
  8
0
 62
     7
 10
40.552500000000002
 20
70.786500000000004
 30
0.0
 11
28.503499999999999
 21
70.786500000000004
 31
0.0
  0
LINE
  5
3D3
  8
0
 62
     7
 10
41.111999999999988
 20
65.969499999999996
 30
0.0
 11
41.111999999999988
 21
62.686999999999991
 31
0.0
  0
LINE
  5
3D4
  8
0
 62
     7
 10
40.817700000000002
 20
78.969300000000004
 30
0.0
 11
40.817700000000002
 21
83.277100000000004
 31
0.0
  0
LINE
  5
3D5
  8
0
 62
     7
 10
39.049700000000001
 20
82.463999999999984
 30
0.0
 11
40.817700000000002
 21
82.938100000000006
 31
0.0
  0
LINE
  5
3D6
  8
0
 62
     7
 10
40.817700000000002
 20
82.938100000000006
 30
0.0
 11
39.049700000000001
 21
83.412099999999995
 31
0.0
  0
LINE
  5
3D7
  8
0
 62
     7
 10
39.049700000000001
 20
83.412099999999995
 30
0.0
 11
39.049700000000001
 21
82.463999999999984
 31
0.0
  0
LINE
  5
3D8
  8
0
 62
     7
 10
30.007000000000001
 20
83.400400000000005
 30
0.0
 11
28.238900000000001
 21
82.926400000000001
 31
0.0
  0
LINE
  5
3D9
  8
0
 62
     7
 10
28.238900000000001
 20
82.926400000000001
 30
0.0
 11
30.007000000000001
 21
82.452299999999994
 31
0.0
  0
LINE
  5
3DA
  8
0
 62
     7
 10
30.007000000000001
 20
82.452299999999994
 30
0.0
 11
30.007000000000001
 21
83.400400000000005
 31
0.0
  0
LINE
  5
3DB
  8
0
 62
     7
 10
40.796399999999998
 20
82.932599999999994
 30
0.0
 11
28.318899999999989
 21
82.932599999999994
 31
0.0
  0
LINE
  5
3DC
  8
0
 62
     7
 10
34.527700000000003
 20
58.2669
 30
0.0
 11
34.527700000000003
 21
46.613500000000002
 31
0.0
  0
LINE
  5
3DD
  8
0
 62
     7
 10
69.157600000000002
 20
63.814300000000003
 30
0.0
 11
70.315200000000004
 21
63.814300000000003
 31
0.0
  0
LINE
  5
3DE
  8
0
 62
     7
 10
44.472299999999997
 20
63.828699999999998
 30
0.0
 11
66.282300000000006
 21
63.828699999999998
 31
0.0
  0
LINE
  5
3DF
  8
0
  6
AIGENLINE001
 62
     7
 10
37.025399999999991
 20
64.328299999999999
 30
0.0
 11
72.216899999999995
 21
64.328299999999999
 31
0.0
  0
LINE
  5
3E0
  8
0
 62
     7
 10
69.157600000000002
 20
64.813999999999993
 30
0.0
 11
70.315200000000004
 21
64.813999999999993
 31
0.0
  0
LINE
  5
3E1
  8
0
 62
     7
 10
44.472299999999997
 20
64.827799999999996
 30
0.0
 11
66.282300000000006
 21
64.827799999999996
 31
0.0
  0
ARC
  5
3E2
  8
0
 62
     7
 10
38.999457999999997
 20
62.332872999999999
 30
0.0
 40
0.35417
 50
90.787019999999984
 51
149.10000999999991
  0
LINE
  5
3E3
  8
0
 62
     7
 10
41.88089999999999
 20
62.471299999999999
 30
0.0
 11
41.88089999999999
 21
66.185199999999995
 31
0.0
  0
ARC
  5
3E4
  8
0
 62
     7
 10
39.053840000000001
 20
66.327826999999985
 30
0.0
 40
0.358548
 50
182.2054709999999
 51
267.90903500000002
  0
LINE
  5
3E5
  8
0
 62
     7
 10
41.88089999999999
 20
62.471299999999999
 30
0.0
 11
41.966999999999992
 21
62.384500000000003
 31
0.0
  0
LINE
  5
3E6
  8
0
 62
     7
 10
41.966999999999992
 20
66.269900000000007
 30
0.0
 11
41.88089999999999
 21
66.185199999999995
 31
0.0
  0
LINE
  5
3E7
  8
0
 62
     7
 10
39.040799999999997
 20
65.969499999999996
 30
0.0
 11
41.88089999999999
 21
65.969499999999996
 31
0.0
  0
LINE
  5
3E8
  8
0
 62
     7
 10
41.88089999999999
 20
62.686999999999991
 30
0.0
 11
38.994599999999991
 21
62.686999999999991
 31
0.0
  0
LINE
  5
3E9
  8
0
 62
     7
 10
41.459899999999998
 20
65.767600000000002
 30
0.0
 11
41.88089999999999
 21
65.767600000000002
 31
0.0
  0
LINE
  5
3EA
  8
0
 62
     7
 10
41.88089999999999
 20
62.886800000000001
 30
0.0
 11
41.459899999999998
 21
62.886800000000001
 31
0.0
  0
LINE
  5
3EB
  8
0
 62
     7
 10
70.315200000000004
 20
64.813999999999993
 30
0.0
 11
70.315200000000004
 21
63.814300000000003
 31
0.0
  0
ARC
  5
3EC
  8
0
 62
     7
 10
39.898122000000001
 20
76.728546999999992
 30
0.0
 40
1.263201
 50
152.342443
 51
179.90299899999999
  0
ARC
  5
3ED
  8
0
 62
     7
 10
40.348702000000003
 20
76.519047
 30
0.0
 40
1.7597020000000001
 50
131.92082600000001
 51
153.11056899999991
  0
ARC
  5
3EE
  8
0
 62
     7
 10
40.814710999999988
 20
76.053212999999985
 30
0.0
 40
2.4179169999999992
 50
98.762539000000004
 51
132.7624889999999
  0
ARC
  5
3EF
  8
0
 62
     7
 10
28.291971999999991
 20
76.310562000000004
 30
0.0
 40
2.1507099999999988
 50
60.905686999999993
 51
82.507292000000007
  0
ARC
  5
3F0
  8
0
 62
     7
 10
28.211431000000001
 20
76.085707999999997
 30
0.0
 40
2.3866740000000002
 50
41.048794000000001
 51
61.840944
  0
ARC
  5
3F1
  8
0
 62
     7
 10
28.704374000000001
 20
76.542920999999993
 30
0.0
 40
1.7147969999999999
 50
19.772131999999988
 51
40.344059999999992
  0
ARC
  5
3F2
  8
0
 62
     7
 10
29.113790999999988
 20
76.717140000000001
 30
0.0
 40
1.2708369999999991
 50
0.610684
 51
18.624625000000002
  0
LINE
  5
3F3
  8
0
 62
     7
 10
36.027700000000003
 20
72.604799999999997
 30
0.0
 11
36.027700000000003
 21
74.004900000000006
 31
0.0
  0
LINE
  5
3F4
  8
0
 62
     7
 10
33.027700000000003
 20
72.604799999999997
 30
0.0
 11
33.027700000000003
 21
74.004900000000006
 31
0.0
  0
LINE
  5
3F5
  8
0
  6
AIGENLINE001
 62
     7
 10
34.527700000000003
 20
59.089599999999997
 30
0.0
 11
34.527700000000003
 21
79.911900000000003
 31
0.0
  0
ARC
  5
3F6
  8
0
 62
     7
 10
29.331640999999991
 20
71.191507999999985
 30
0.0
 40
0.526354
 50
180.58722700000001
 51
230.30881600000001
  0
ARC
  5
3F7
  8
0
 62
     7
 10
29.344073999999988
 20
71.166188000000005
 30
0.0
 40
0.5391280000000001
 50
92.118031000000002
 51
177.8819399999999
  0
ARC
  5
3F8
  8
0
 62
     7
 10
39.713215999999989
 20
71.168245999999996
 30
0.0
 40
0.537075
 50
1.9064700000000001
 51
87.864793999999989
  0
ARC
  5
3F9
  8
0
 62
     7
 10
39.726888999999993
 20
71.189400000000006
 30
0.0
 40
0.523115
 50
309.62520000000001
 51
359.63999699999999
  0
LINE
  5
3FA
  8
0
 62
     7
 10
38.695599999999992
 20
69.041899999999984
 30
0.0
 11
38.695599999999992
 21
66.313999999999993
 31
0.0
  0
ARC
  5
3FB
  8
0
 62
     7
 10
29.479225
 20
69.031955999999994
 30
0.0
 40
0.8812709999999999
 50
0.644705
 51
59.355098999999989
  0
ARC
  5
3FC
  8
0
 62
     7
 10
39.577145999999999
 20
69.031740999999997
 30
0.0
 40
0.8816469999999999
 50
120.658624
 51
179.341533
  0
LINE
  5
3FD
  8
0
 62
     7
 10
30.360399999999991
 20
62.514800000000001
 30
0.0
 11
30.360399999999991
 21
69.041899999999984
 31
0.0
  0
LINE
  5
3FE
  8
0
 62
     7
 10
41.459899999999998
 20
62.886800000000001
 30
0.0
 11
41.111999999999988
 21
62.686999999999991
 31
0.0
  0
LINE
  5
3FF
  8
0
 62
     7
 10
38.289000000000001
 20
60.786000000000001
 30
0.0
 11
38.289000000000001
 21
61.995899999999999
 31
0.0
  0
LINE
  5
400
  8
0
 62
     7
 10
30.5334
 20
61.020299999999999
 30
0.0
 11
38.52259999999999
 21
61.020299999999999
 31
0.0
  0
LINE
  5
401
  8
0
 62
     7
 10
40.552500000000002
 20
70.612799999999993
 30
0.0
 11
39.127600000000001
 21
69.790199999999999
 31
0.0
  0
LINE
  5
402
  8
0
 62
     7
 10
40.552500000000002
 20
70.612799999999993
 30
0.0
 11
40.552500000000002
 21
70.786500000000004
 31
0.0
  0
LINE
  5
403
  8
0
 62
     7
 10
38.52259999999999
 20
61.995899999999999
 30
0.0
 11
30.5761
 21
61.995899999999999
 31
0.0
  0
LINE
  5
404
  8
0
 62
     7
 10
38.479199999999999
 20
61.995899999999999
 30
0.0
 11
38.479199999999999
 21
62.514800000000001
 31
0.0
  0
LINE
  5
405
  8
0
 62
     7
 10
30.5761
 20
61.995899999999999
 30
0.0
 11
30.5761
 21
62.514800000000001
 31
0.0
  0
LINE
  5
406
  8
0
 62
     7
 10
30.5334
 20
61.020299999999999
 30
0.0
 11
30.767700000000001
 21
60.786000000000001
 31
0.0
  0
LINE
  5
407
  8
0
 62
     7
 10
38.52259999999999
 20
61.020299999999999
 30
0.0
 11
38.289000000000001
 21
60.786000000000001
 31
0.0
  0
LINE
  5
408
  8
0
 62
     7
 10
38.52259999999999
 20
61.995899999999999
 30
0.0
 11
38.52259999999999
 21
61.020299999999999
 31
0.0
  0
LINE
  5
409
  8
0
 62
     7
 10
30.5334
 20
61.020299999999999
 30
0.0
 11
30.5334
 21
61.995899999999999
 31
0.0
  0
LINE
  5
40A
  8
0
 62
     7
 10
38.289000000000001
 20
60.786000000000001
 30
0.0
 11
30.767700000000001
 21
60.786000000000001
 31
0.0
  0
LINE
  5
40B
  8
0
 62
     7
 10
28.503499999999999
 20
70.612799999999993
 30
0.0
 11
29.9284
 21
69.790199999999999
 31
0.0
  0
LINE
  5
40C
  8
0
 62
     7
 10
28.503499999999999
 20
70.612799999999993
 30
0.0
 11
28.503499999999999
 21
70.786500000000004
 31
0.0
  0
LINE
  5
40D
  8
0
 62
     7
 10
70.486800000000002
 20
63.98579999999999
 30
0.0
 11
70.315200000000004
 21
63.814300000000003
 31
0.0
  0
LINE
  5
40E
  8
0
 62
     7
 10
70.315200000000004
 20
64.813999999999993
 30
0.0
 11
70.486800000000002
 21
64.639700000000005
 31
0.0
  0
LINE
  5
40F
  8
0
 62
     7
 10
70.486800000000002
 20
63.98579999999999
 30
0.0
 11
70.486800000000002
 21
64.639700000000005
 31
0.0
  0
LINE
  5
410
  8
0
 62
     7
 10
30.767700000000001
 20
60.786000000000001
 30
0.0
 11
30.767700000000001
 21
61.995899999999999
 31
0.0
  0
LINE
  5
411
  8
0
 62
     7
 10
33.527900000000002
 20
74.505099999999999
 30
0.0
 11
35.527799999999999
 21
74.505099999999999
 31
0.0
  0
LINE
  5
412
  8
0
 62
     7
 10
33.527900000000002
 20
72.1053
 30
0.0
 11
35.527799999999999
 21
72.1053
 31
0.0
  0
LINE
  5
413
  8
0
 62
     7
 10
29.324100000000001
 20
71.704899999999995
 30
0.0
 11
39.733199999999989
 21
71.704899999999995
 31
0.0
  0
LINE
  5
414
  8
0
 62
     7
 10
41.459899999999998
 20
62.686999999999991
 30
0.0
 11
41.459899999999998
 21
65.969499999999996
 31
0.0
  0
LINE
  5
415
  8
0
 62
     7
 10
41.111999999999988
 20
65.969499999999996
 30
0.0
 11
41.459899999999998
 21
65.767600000000002
 31
0.0
  0
LINE
  5
416
  8
0
 62
     7
 10
42.572000000000003
 20
66.269900000000007
 30
0.0
 11
41.966999999999992
 21
66.269900000000007
 31
0.0
  0
TEXT
  5
417
  8
_________2
 62
     7
 10
24.5868
 20
0.707283
 30
0.0
 40
3.9357000000000002
  1
（社）日本水道協会認証品
 41
0.5
  0
TEXT
  5
418
  8
_________2
 62
     7
 10
109.179
 20
24.2257
 30
0.0
 40
3.9357000000000002
  1
ジングル 湯水混合栓
 41
0.5
  0
LINE
  5
419
  8
_________2
 62
     7
 10
205.30099999999999
 20
127.411
 30
0.0
 11
183.55099999999999
 21
127.411
 31
0.0
  0
LINE
  5
41A
  8
_________2
 62
     7
 10
100.2999999999999
 20
-4.0910799999999998
 30
0.0
 11
100.2999999999999
 21
-21.071400000000001
 31
0.0
  0
LINE
  5
41B
  8
_________2
 62
     7
 10
100.2999999999999
 20
275.93099999999993
 30
0.0
 11
100.2999999999999
 21
258.911
 31
0.0
  0
LINE
  5
41C
  8
_________2
 62
     7
 10
17.049499999999998
 20
127.411
 30
0.0
 11
-4.7008599999999987
 21
127.411
 31
0.0
  0
LINE
  5
41D
  8
_________2
 62
     7
 10
76.741
 20
29.8047
 30
0.0
 11
74.554699999999997
 21
29.8047
 31
0.0
  0
LINE
  5
41E
  8
_________2
 62
     7
 10
77.233699999999999
 20
29.8047
 30
0.0
 11
76.981499999999997
 21
29.8047
 31
0.0
  0
LINE
  5
41F
  8
_________2
 62
     7
 10
77.726299999999995
 20
29.8047
 30
0.0
 11
80.651200000000003
 21
29.8047
 31
0.0
  0
LINE
  5
420
  8
_________2
 62
     7
 10
77.233699999999999
 20
29.8047
 30
0.0
 11
77.485900000000001
 21
29.8047
 31
0.0
  0
LINE
  5
421
  8
_________2
 62
     7
 10
70.837500000000006
 20
29.8047
 30
0.0
 11
68.650499999999994
 21
29.8047
 31
0.0
  0
LINE
  5
422
  8
_________2
 62
     7
 10
71.329400000000007
 20
29.8047
 30
0.0
 11
71.0779
 21
29.8047
 31
0.0
  0
LINE
  5
423
  8
_________2
 62
     7
 10
71.329400000000007
 20
30.2974
 30
0.0
 11
71.329400000000007
 21
32.484400000000001
 31
0.0
  0
LINE
  5
424
  8
_________2
 62
     7
 10
71.329400000000007
 20
29.8047
 30
0.0
 11
71.329400000000007
 21
30.056899999999992
 31
0.0
  0
LINE
  5
425
  8
_________2
 62
     7
 10
71.822100000000006
 20
29.8047
 30
0.0
 11
74.009
 21
29.8047
 31
0.0
  0
LINE
  5
426
  8
_________2
 62
     7
 10
71.329400000000007
 20
29.8047
 30
0.0
 11
71.581599999999995
 21
29.8047
 31
0.0
  0
LINE
  5
427
  8
_________2
 62
     7
 10
71.329400000000007
 20
29.312799999999999
 30
0.0
 11
71.329400000000007
 21
27.125800000000002
 31
0.0
  0
LINE
  5
428
  8
_________2
 62
     7
 10
71.329400000000007
 20
29.8047
 30
0.0
 11
71.329400000000007
 21
29.5532
 31
0.0
  0
LINE
  5
429
  8
_________2
 62
     7
 10
75.040499999999994
 20
28.5852
 30
0.0
 11
80.218500000000006
 21
27.720400000000001
 31
0.0
  0
LINE
  5
42A
  8
_________2
 62
     7
 10
75.040499999999994
 20
31.0243
 30
0.0
 11
80.218500000000006
 21
31.889700000000001
 31
0.0
  0
LINE
  5
42B
  8
_________2
 62
     7
 10
80.218500000000006
 20
27.720400000000001
 30
0.0
 11
80.218500000000006
 21
31.889700000000001
 31
0.0
  0
LINE
  5
42C
  8
_________2
 62
     7
 10
75.040499999999994
 20
28.5852
 30
0.0
 11
75.040499999999994
 21
31.0243
 31
0.0
  0
ARC
  5
42D
  8
_________2
 62
     7
 10
71.283190000000005
 20
29.757787
 30
0.0
 40
1.2673709999999989
 50
2.1232950000000002
 51
87.909056000000007
  0
ARC
  5
42E
  8
_________2
 62
     7
 10
71.375959999999992
 20
29.758213000000001
 30
0.0
 40
1.2669559999999991
 50
92.104701000000006
 51
177.8952689999999
  0
ARC
  5
42F
  8
_________2
 62
     7
 10
71.376357999999996
 20
29.851671
 30
0.0
 40
1.2673680000000001
 50
182.12203600000001
 51
267.877993
  0
ARC
  5
430
  8
_________2
 62
     7
 10
71.282541000000009
 20
29.852347999999999
 30
0.0
 40
1.2680439999999991
 50
272.11916400000001
 51
357.84848499999993
  0
ARC
  5
431
  8
_________2
 62
     7
 10
71.329430000000002
 20
29.804742999999998
 30
0.0
 40
2.0849849999999992
 50
0.00001
 51
89.999980000000008
  0
ARC
  5
432
  8
_________2
 62
     7
 10
71.409075999999999
 20
29.725812999999992
 30
0.0
 40
2.165379999999999
 50
92.107876000000005
 51
177.91103200000001
  0
ARC
  5
433
  8
_________2
 62
     7
 10
71.409439000000006
 20
29.884751999999999
 30
0.0
 40
2.1657829999999998
 50
182.117133
 51
267.88289700000001
  0
ARC
  5
434
  8
_________2
 62
     7
 10
71.249459000000002
 20
29.885429999999989
 30
0.0
 40
2.1664590000000001
 50
272.11546800000002
 51
357.86560400000002
  0
TEXT
  5
435
  8
_________2
 62
     7
 10
104.605
 20
1.6794899999999999
 30
0.0
 40
3.0923400000000001
  1
図番
 41
0.5
  0
LINE
  5
436
  8
_________2
 62
     7
 10
103.55
 20
5.9087199999999989
 30
0.0
 11
183.55099999999999
 21
5.9087199999999989
 31
0.0
  0
TEXT
  5
437
  8
_________2
 62
     7
 10
104.605
 20
11.679299999999991
 30
0.0
 40
3.0923400000000001
  1
品番
 41
0.5
  0
TEXT
  5
438
  8
_________2
 62
     7
 10
104.605
 20
31.818100000000001
 30
0.0
 40
3.0923400000000001
  1
名称
 41
0.5
  0
TEXT
  5
439
  8
_________2
 62
     7
 10
91.845058333333341
 20
26.821999999999989
 30
0.0
 40
3.6545800000000002
  1
mm
 41
0.5
 72
     1
 11
93.367800000000003
 21
26.821999999999989
 31
0.0
  0
TEXT
  5
43A
  8
_________2
 62
     7
 10
85.643199999999993
 20
31.818100000000001
 30
0.0
 40
3.0923400000000001
  1
単位
 41
0.5
  0
TEXT
  5
43B
  8
_________2
 62
     7
 10
85.643199999999993
 20
19.410799999999991
 30
0.0
 40
3.0923400000000001
  1
尺度
 41
0.5
  0
TEXT
  5
43C
  8
_________2
 62
     7
 10
90.548758666666686
 20
13.2179
 30
0.0
 40
3.6545800000000002
  1
1 ： 4
 41
0.5
 72
     1
 11
93.959699999999998
 21
13.2179
 31
0.0
  0
TEXT
  5
43D
  8
_________2
 62
     7
 10
138.30240000000001
 20
9.1078600000000005
 30
0.0
 40
3.9357000000000002
  1
ZU0690
 41
0.5
 72
     1
 11
143.55000000000001
 21
9.1078600000000005
 31
0.0
  0
TEXT
  5
43E
  8
_________2
 62
     7
 10
138.30240000000001
 20
-0.8926299999999999
 30
0.0
 40
3.9357000000000002
  1
ZU0690
 41
0.5
 72
     1
 11
143.55000000000001
 21
-0.8926299999999999
 31
0.0
  0
TEXT
  5
43F
  8
_________2
 62
     7
 10
39.364390666666658
 20
13.603
 30
0.0
 40
3.6545800000000002
  1
石原
 41
0.5
 72
     1
 11
41.313499999999998
 21
13.603
 31
0.0
  0
TEXT
  5
440
  8
_________2
 62
     7
 10
20.851300333333331
 20
13.603
 30
0.0
 40
3.6545800000000002
  1
西田
 41
0.5
 72
     1
 11
22.7395
 21
13.603
 31
0.0
  0
TEXT
  5
441
  8
_________2
 62
     7
 10
67.785799999999995
 20
13.2179
 30
0.0
 40
3.6545800000000002
  1
12.12.3
 41
0.5
  0
TEXT
  5
442
  8
_________2
 62
     7
 10
66.593100000000007
 20
19.410799999999991
 30
0.0
 40
3.0923400000000001
  1
日付
 41
0.5
  0
TEXT
  5
443
  8
_________2
 62
     7
 10
29.639399999999998
 20
19.410799999999991
 30
0.0
 40
3.0923400000000001
  1
検図
 41
0.5
  0
TEXT
  5
444
  8
_________2
 62
     7
 10
18.021100000000001
 20
5.21143
 30
0.0
 40
3.0923400000000001
  1
備考
 41
0.5
  0
TEXT
  5
445
  8
_________2
 62
     7
 10
18.021100000000001
 20
19.410799999999991
 30
0.0
 40
3.0923400000000001
  1
製図
 41
0.5
  0
TEXT
  5
446
  8
_________2
 62
     7
 10
23.788465333333338
 20
27.936800000000002
 30
0.0
 40
4.4979399999999989
  1
セラトレーディング株式会社
 41
0.5
 72
     1
 11
41.180500000000002
 21
27.936800000000002
 31
0.0
  0
LINE
  5
447
  8
_________2
 62
     7
 10
183.55099999999999
 20
-4.0910799999999998
 30
0.0
 11
17.049499999999998
 21
-4.0910799999999998
 31
0.0
  0
LINE
  5
448
  8
_________2
 62
     7
 10
17.049499999999998
 20
-4.0910799999999998
 30
0.0
 11
17.049499999999998
 21
258.911
 31
0.0
  0
LINE
  5
449
  8
_________2
 62
     7
 10
17.049499999999998
 20
258.911
 30
0.0
 11
183.55099999999999
 21
258.911
 31
0.0
  0
LINE
  5
44A
  8
_________2
 62
     7
 10
183.55099999999999
 20
258.911
 30
0.0
 11
183.55099999999999
 21
-4.0910799999999998
 31
0.0
  0
LINE
  5
44B
  8
_________2
 62
     7
 10
65.549899999999994
 20
9.4089600000000004
 30
0.0
 11
65.549899999999994
 21
35.908799999999999
 31
0.0
  0
LINE
  5
44C
  8
_________2
 62
     7
 10
84.549700000000016
 20
9.4089600000000004
 30
0.0
 11
84.549700000000016
 21
35.908799999999999
 31
0.0
  0
LINE
  5
44D
  8
_________2
 62
     7
 10
103.55
 20
-4.0910799999999998
 30
0.0
 11
103.55
 21
35.908799999999999
 31
0.0
  0
LINE
  5
44E
  8
_________2
 62
     7
 10
28.549299999999992
 20
9.4089600000000004
 30
0.0
 11
28.549299999999992
 21
23.409199999999998
 31
0.0
  0
LINE
  5
44F
  8
_________2
 62
     7
 10
17.049499999999998
 20
9.4089600000000004
 30
0.0
 11
103.55
 21
9.4089600000000004
 31
0.0
  0
LINE
  5
450
  8
_________2
 62
     7
 10
17.049499999999998
 20
23.409199999999998
 30
0.0
 11
103.55
 21
23.409199999999998
 31
0.0
  0
LINE
  5
451
  8
_________2
 62
     7
 10
103.55
 20
15.9085
 30
0.0
 11
183.55099999999999
 21
15.9085
 31
0.0
  0
LINE
  5
452
  8
_________2
 62
     7
 10
17.049499999999998
 20
35.908799999999999
 30
0.0
 11
183.55099999999999
 21
35.908799999999999
 31
0.0
  0
ENDSEC
  0
EOF
