  0
SECTION
  2
HEADER
  9
$ACADVER
  1
AC1009
  9
$INSBASE
 10
0.0
 20
0.0
 30
0.0
  9
$EXTMIN
 10
-104.794
 20
0.176045
 30
0.0
  9
$EXTMAX
 10
315.209
 20
297.178
 30
0.0
  9
$LIMMIN
 10
0.0
 20
0.0
  9
$LIMMAX
 10
12.0
 20
9.0
  9
$ORTHOMODE
 70
     0
  9
$REGENMODE
 70
     1
  9
$FILLMODE
 70
     1
  9
$QTEXTMODE
 70
     0
  9
$MIRRTEXT
 70
     1
  9
$DRAGMODE
 70
     2
  9
$LTSCALE
 40
1.0
  9
$OSMODE
 70
    37
  9
$ATTMODE
 70
     1
  9
$TEXTSIZE
 40
0.0
  9
$TRACEWID
 40
0.05
  9
$TEXTSTYLE
  7
STANDARD
  9
$CLAYER
  8
0
  9
$CELTYPE
  6
CONTINUOUS
  9
$CECOLOR
 62
   256
  9
$DIMSCALE
 40
1.0
  9
$DIMASZ
 40
0.18
  9
$DIMEXO
 40
0.0625
  9
$DIMDLI
 40
0.38
  9
$DIMRND
 40
0.0
  9
$DIMDLE
 40
0.0
  9
$DIMEXE
 40
0.18
  9
$DIMTP
 40
0.0
  9
$DIMTM
 40
0.0
  9
$DIMTXT
 40
0.18
  9
$DIMCEN
 40
0.09
  9
$DIMTSZ
 40
0.0
  9
$DIMTOL
 70
     0
  9
$DIMLIM
 70
     0
  9
$DIMTIH
 70
     1
  9
$DIMTOH
 70
     1
  9
$DIMSE1
 70
     0
  9
$DIMSE2
 70
     0
  9
$DIMTAD
 70
     0
  9
$DIMZIN
 70
     0
  9
$DIMBLK
  1

  9
$DIMASO
 70
     1
  9
$DIMSHO
 70
     1
  9
$DIMPOST
  1

  9
$DIMAPOST
  1

  9
$DIMALT
 70
     0
  9
$DIMALTD
 70
     2
  9
$DIMALTF
 40
25.399999999999999
  9
$DIMLFAC
 40
1.0
  9
$DIMTOFL
 70
     0
  9
$DIMTVP
 40
0.0
  9
$DIMTIX
 70
     0
  9
$DIMSOXD
 70
     0
  9
$DIMSAH
 70
     0
  9
$DIMBLK1
  1

  9
$DIMBLK2
  1

  9
$DIMSTYLE
  2
STANDARD
  9
$DIMCLRD
 70
     0
  9
$DIMCLRE
 70
     0
  9
$DIMCLRT
 70
     0
  9
$DIMTFAC
 40
1.0
  9
$DIMGAP
 40
0.09
  9
$LUNITS
 70
     2
  9
$LUPREC
 70
     4
  9
$SKETCHINC
 40
0.1
  9
$FILLETRAD
 40
0.0
  9
$AUNITS
 70
     0
  9
$AUPREC
 70
     0
  9
$MENU
  1
.
  9
$ELEVATION
 40
0.0
  9
$PELEVATION
 40
0.0
  9
$THICKNESS
 40
0.0
  9
$LIMCHECK
 70
     0
  9
$BLIPMODE
 70
     0
  9
$CHAMFERA
 40
0.0
  9
$CHAMFERB
 40
0.0
  9
$SKPOLY
 70
     0
  9
$TDCREATE
 40
2444972.375
  9
$TDUPDATE
 40
2458787.2540907292
  9
$TDINDWG
 40
0.0000380556
  9
$TDUSRTIMER
 40
0.0000380556
  9
$USRTIMER
 70
     1
  9
$ANGBASE
 50
0.0
  9
$ANGDIR
 70
     0
  9
$PDMODE
 70
     0
  9
$PDSIZE
 40
0.0
  9
$PLINEWID
 40
0.0
  9
$COORDS
 70
     1
  9
$SPLFRAME
 70
     0
  9
$SPLINETYPE
 70
     6
  9
$SPLINESEGS
 70
     8
  9
$ATTDIA
 70
     1
  9
$ATTREQ
 70
     1
  9
$HANDLING
 70
     1
  9
$HANDSEED
  5
42D
  9
$SURFTAB1
 70
     6
  9
$SURFTAB2
 70
     6
  9
$SURFTYPE
 70
     6
  9
$SURFU
 70
     6
  9
$SURFV
 70
     6
  9
$UCSNAME
  2

  9
$UCSORG
 10
0.0
 20
0.0
 30
0.0
  9
$UCSXDIR
 10
1.0
 20
0.0
 30
0.0
  9
$UCSYDIR
 10
0.0
 20
1.0
 30
0.0
  9
$PUCSNAME
  2

  9
$PUCSORG
 10
0.0
 20
0.0
 30
0.0
  9
$PUCSXDIR
 10
1.0
 20
0.0
 30
0.0
  9
$PUCSYDIR
 10
0.0
 20
1.0
 30
0.0
  9
$USERI1
 70
     0
  9
$USERI2
 70
     0
  9
$USERI3
 70
     0
  9
$USERI4
 70
     0
  9
$USERI5
 70
     0
  9
$USERR1
 40
0.0
  9
$USERR2
 40
0.0
  9
$USERR3
 40
0.0
  9
$USERR4
 40
0.0
  9
$USERR5
 40
0.0
  9
$WORLDVIEW
 70
     1
  9
$SHADEDGE
 70
     3
  9
$SHADEDIF
 70
    70
  9
$TILEMODE
 70
     1
  9
$MAXACTVP
 70
    48
  9
$PLIMCHECK
 70
     0
  9
$PEXTMIN
 10
1.0000000000000000E+020
 20
1.0000000000000000E+020
 30
1.0000000000000000E+020
  9
$PEXTMAX
 10
-1.0000000000000000E+020
 20
-1.0000000000000000E+020
 30
-1.0000000000000000E+020
  9
$PLIMMIN
 10
0.0
 20
0.0
  9
$PLIMMAX
 10
12.0
 20
9.0
  9
$UNITMODE
 70
     0
  9
$VISRETAIN
 70
     1
  9
$PLINEGEN
 70
     0
  9
$PSLTSCALE
 70
     1
  0
ENDSEC
  0
SECTION
  2
TABLES
  0
TABLE
  2
VPORT
 70
     1
  0
VPORT
  2
*ACTIVE
 70
     0
 10
0.0
 20
0.0
 11
1.0
 21
1.0
 12
195.84271114783351
 22
148.589
 13
0.0
 23
0.0
 14
1.0
 24
1.0
 15
0.0
 25
0.0
 16
0.0
 26
0.0
 36
1.0
 17
0.0
 27
0.0
 37
0.0
 40
281.11539623648741
 41
2.298642533936651
 42
50.0
 43
0.0
 44
0.0
 50
0.0
 51
0.0
 71
     0
 72
   100
 73
     1
 74
     1
 75
     0
 76
     0
 77
     0
 78
     0
  0
ENDTAB
  0
TABLE
  2
LTYPE
 70
     3
  0
LTYPE
  2
CONTINUOUS
 70
     0
  3
Solid line
 72
    65
 73
     0
 40
0.0
  0
LTYPE
  2
AIGENLINE001
 70
     0
  3
generate AI->DXF Converter
 72
    65
 73
     6
 40
7.4083750000000004
 49
3.5278
 49
-0.776115
 49
0.776115
 49
-0.776115
 49
0.776115
 49
-0.776115
  0
LTYPE
  2
AIGENLINE002
 70
     0
  3
generate AI->DXF Converter
 72
    65
 73
     4
 40
5.8561449999999988
 49
3.5278
 49
-0.776115
 49
0.776115
 49
-0.776115
  0
ENDTAB
  0
TABLE
  2
LAYER
 70
     4
  0
LAYER
  2
0
 70
     0
 62
     7
  6
CONTINUOUS
  0
LAYER
  2
____
 70
     0
 62
     7
  6
CONTINUOUS
  0
LAYER
  2
_________1
 70
     0
 62
     7
  6
CONTINUOUS
  0
LAYER
  2
_________2
 70
     0
 62
     7
  6
CONTINUOUS
  0
ENDTAB
  0
TABLE
  2
STYLE
 70
     1
  0
STYLE
  2
STANDARD
 70
     0
 40
0.0
 41
0.0
 50
0.0
 71
     0
 42
0.0
  3
TXT
  4
EXTFONT.SHX
  0
ENDTAB
  0
TABLE
  2
VIEW
 70
     0
  0
ENDTAB
  0
TABLE
  2
UCS
 70
     0
  0
ENDTAB
  0
TABLE
  2
APPID
 70
     3
  0
APPID
  2
ACAD
 70
     0
  0
APPID
  2
ACAD_NAV_VCDISPLAY
 70
     0
  0
APPID
  2
ACAD_MLEADERVER
 70
     0
  0
ENDTAB
  0
TABLE
  2
DIMSTYLE
 70
     1
  0
DIMSTYLE
  2
STANDARD
 70
     0
  3

  4

  5

  6

  7

 40
1.0
 41
0.18
 42
0.0625
 43
0.38
 44
0.18
 45
0.0
 46
0.0
 47
0.0
 48
0.0
140
0.18
141
0.09
142
0.0
143
25.399999999999999
144
1.0
145
0.0
146
1.0
147
0.09
 71
     0
 72
     0
 73
     1
 74
     1
 75
     0
 76
     0
 77
     0
 78
     0
170
     0
171
     2
172
     0
173
     0
174
     0
175
     0
176
     0
177
     0
178
     0
  0
ENDTAB
  0
ENDSEC
  0
SECTION
  2
BLOCKS
  0
BLOCK
  8
0
  2
$MODEL_SPACE
 70
     0
 10
0.0
 20
0.0
 30
0.0
  3
$MODEL_SPACE
  1

  0
ENDBLK
  5
1A
  8
0
  0
BLOCK
 67
     1
  8
0
  2
$PAPER_SPACE
 70
     0
 10
0.0
 20
0.0
 30
0.0
  3
$PAPER_SPACE
  1

  0
ENDBLK
  5
17
 67
     1
  8
0
  0
BLOCK
  8
_________1
  2
AIGNBL02020010
 70
     0
 10
0.0
 20
0.0
 30
0.0
  3
AIGNBL02020010
  1

  0
LINE
  5
27
  8
_________1
 62
     7
 10
48.285400000000003
 20
36.660899999999998
 30
0.0
 11
46.074299999999987
 21
36.068300000000001
 31
0.0
  0
LINE
  5
28
  8
_________1
 62
     7
 10
46.074299999999987
 20
36.068300000000001
 30
0.0
 11
48.285400000000003
 21
35.476399999999998
 31
0.0
  0
LINE
  5
29
  8
_________1
 62
     7
 10
48.285400000000003
 20
35.476399999999998
 30
0.0
 11
48.285400000000003
 21
36.660899999999998
 31
0.0
  0
LINE
  5
2A
  8
_________1
 62
     7
 10
39.738700000000001
 20
35.476399999999998
 30
0.0
 11
41.949100000000001
 21
36.068300000000001
 31
0.0
  0
LINE
  5
2B
  8
_________1
 62
     7
 10
41.949100000000001
 20
36.068300000000001
 30
0.0
 11
39.738700000000001
 21
36.660899999999998
 31
0.0
  0
LINE
  5
2C
  8
_________1
 62
     7
 10
39.738700000000001
 20
36.660899999999998
 30
0.0
 11
39.738700000000001
 21
35.476399999999998
 31
0.0
  0
LINE
  5
2D
  8
_________1
 62
     7
 10
31.174199999999999
 20
36.068300000000001
 30
0.0
 11
49.790199999999999
 21
36.068300000000001
 31
0.0
  0
ENDBLK
  5
2E
  8
_________1
  0
BLOCK
  8
_________1
  2
AIGNBL02010002
 70
     0
 10
0.0
 20
0.0
 30
0.0
  3
AIGNBL02010002
  1

  0
LINE
  5
31
  8
_________1
 62
     7
 10
-25.0825
 20
233.761
 30
0.0
 11
-27.3032
 21
234.315
 31
0.0
  0
LINE
  5
32
  8
_________1
 62
     7
 10
-27.3032
 20
234.315
 30
0.0
 11
-25.103200000000001
 21
234.94499999999999
 31
0.0
  0
LINE
  5
33
  8
_________1
 62
     7
 10
-25.103200000000001
 20
234.94499999999999
 30
0.0
 11
-25.0825
 21
233.761
 31
0.0
  0
LINE
  5
34
  8
_________1
 62
     7
 10
-12.4183
 20
241.91
 30
0.0
 11
-10.604100000000001
 21
243.30500000000001
 31
0.0
  0
LINE
  5
35
  8
_________1
 62
     7
 10
-10.604100000000001
 20
243.30500000000001
 30
0.0
 11
-11.4778
 21
241.18899999999999
 31
0.0
  0
LINE
  5
36
  8
_________1
 62
     7
 10
-11.4778
 20
241.18899999999999
 30
0.0
 11
-12.4183
 21
241.91
 31
0.0
  0
ARC
  5
37
  8
_________1
 62
     7
 10
-27.497986000000001
 20
254.68115700000001
 30
0.0
 40
20.367432000000001
 50
270.54784999999998
 51
326.04303099999998
  0
ENDBLK
  5
38
  8
_________1
  0
BLOCK
  8
_________1
  2
AIGNBL02010003
 70
     0
 10
0.0
 20
0.0
 30
0.0
  3
AIGNBL02010003
  1

  0
LINE
  5
3B
  8
_________1
 62
     7
 10
-29.524000000000001
 20
233.761
 30
0.0
 11
-27.3032
 21
234.315
 31
0.0
  0
LINE
  5
3C
  8
_________1
 62
     7
 10
-27.3032
 20
234.315
 30
0.0
 11
-29.503299999999999
 21
234.94499999999999
 31
0.0
  0
LINE
  5
3D
  8
_________1
 62
     7
 10
-29.503299999999999
 20
234.94499999999999
 30
0.0
 11
-29.524000000000001
 21
233.761
 31
0.0
  0
LINE
  5
3E
  8
_________1
 62
     7
 10
-42.188200000000002
 20
241.91
 30
0.0
 11
-44.002400000000002
 21
243.30500000000001
 31
0.0
  0
LINE
  5
3F
  8
_________1
 62
     7
 10
-44.002400000000002
 20
243.30500000000001
 30
0.0
 11
-43.128700000000002
 21
241.18899999999999
 31
0.0
  0
LINE
  5
40
  8
_________1
 62
     7
 10
-43.128700000000002
 20
241.18899999999999
 30
0.0
 11
-42.188200000000002
 21
241.91
 31
0.0
  0
ARC
  5
41
  8
_________1
 62
     7
 10
-27.108505999999998
 20
254.68114700000001
 30
0.0
 40
20.367422999999999
 50
213.956974
 51
269.4521840000001
  0
ENDBLK
  5
42
  8
_________1
  0
BLOCK
  8
_________1
  2
AIGNBL02010004
 70
     0
 10
0.0
 20
0.0
 30
0.0
  3
AIGNBL02010004
  1

  0
LINE
  5
45
  8
_________1
  6
AIGENLINE001
 62
     7
 10
-42.001499999999993
 20
250.899
 30
0.0
 11
-29.036100000000001
 21
261.779
 31
0.0
  0
ARC
  5
46
  8
_________1
  6
AIGENLINE001
 62
     7
 10
-41.122526999999998
 20
249.94915399999999
 30
0.0
 40
1.2944649999999991
 50
132.76690300000001
 51
217.93879999999999
  0
LINE
  5
47
  8
_________1
  6
AIGENLINE001
 62
     7
 10
-42.143399999999993
 20
249.15299999999999
 30
0.0
 11
-37.977600000000002
 21
244.18899999999999
 31
0.0
  0
ARC
  5
48
  8
_________1
  6
AIGENLINE001
 62
     7
 10
-37.016376999999999
 20
245.05571499999999
 30
0.0
 40
1.294581999999999
 50
222.055823
 51
307.238156
  0
LINE
  5
49
  8
_________1
  6
AIGENLINE001
 62
     7
 10
-36.232999999999997
 20
244.02500000000001
 30
0.0
 11
-27.3032
 21
251.518
 31
0.0
  0
LINE
  5
4A
  8
_________1
  6
AIGENLINE002
 62
     7
 10
-27.286000000000001
 20
257.375
 30
0.0
 11
-41.372799999999991
 21
245.518
 31
0.0
  0
LINE
  5
4B
  8
_________1
 62
     7
 10
-42.075599999999987
 20
244.92699999999999
 30
0.0
 11
-45.410800000000002
 21
242.12
 31
0.0
  0
ENDBLK
  5
4C
  8
_________1
  0
BLOCK
  8
_________1
  2
AIGNBL02010005
 70
     0
 10
0.0
 20
0.0
 30
0.0
  3
AIGNBL02010005
  1

  0
LINE
  5
4F
  8
_________1
  6
AIGENLINE001
 62
     7
 10
-12.600899999999999
 20
250.899
 30
0.0
 11
-25.566199999999998
 21
261.77800000000002
 31
0.0
  0
ARC
  5
50
  8
_________1
  6
AIGENLINE001
 62
     7
 10
-13.480325000000001
 20
249.94931500000001
 30
0.0
 40
1.294686
 50
322.05981600000001
 51
47.212021000000007
  0
LINE
  5
51
  8
_________1
  6
AIGENLINE001
 62
     7
 10
-12.459300000000001
 20
249.15299999999999
 30
0.0
 11
-16.6248
 21
244.18899999999999
 31
0.0
  0
ARC
  5
52
  8
_________1
  6
AIGENLINE001
 62
     7
 10
-17.586054999999991
 20
245.056558
 30
0.0
 40
1.295205999999999
 50
232.78722300000001
 51
317.91883799999999
  0
LINE
  5
53
  8
_________1
  6
AIGENLINE001
 62
     7
 10
-18.369399999999999
 20
244.02500000000001
 30
0.0
 11
-27.303899999999999
 21
251.52199999999999
 31
0.0
  0
LINE
  5
54
  8
_________1
  6
AIGENLINE002
 62
     7
 10
-27.286000000000001
 20
257.375
 30
0.0
 11
-13.4763
 21
245.767
 31
0.0
  0
LINE
  5
55
  8
_________1
 62
     7
 10
-12.7376
 20
245.14599999999999
 30
0.0
 11
-9.137830000000001
 21
242.12
 31
0.0
  0
ENDBLK
  5
56
  8
_________1
  0
BLOCK
  8
_________1
  2
AIGNBL02010006
 70
     0
 10
0.0
 20
0.0
 30
0.0
  3
AIGNBL02010006
  1

  0
LINE
  5
59
  8
_________1
 62
     7
 10
56.070700000000002
 20
252.29900000000001
 30
0.0
 11
57.2151
 21
254.28100000000001
 31
0.0
  0
LINE
  5
5A
  8
_________1
 62
     7
 10
57.2151
 20
254.28100000000001
 30
0.0
 11
55.232100000000003
 21
253.137
 31
0.0
  0
LINE
  5
5B
  8
_________1
 62
     7
 10
55.232100000000003
 20
253.137
 30
0.0
 11
56.070700000000002
 21
252.29900000000001
 31
0.0
  0
LINE
  5
5C
  8
_________1
 62
     7
 10
64.547700000000006
 20
262.45100000000002
 30
0.0
 11
63.4026
 21
260.46899999999999
 31
0.0
  0
LINE
  5
5D
  8
_________1
 62
     7
 10
63.4026
 20
260.46899999999999
 30
0.0
 11
65.385599999999997
 21
261.613
 31
0.0
  0
LINE
  5
5E
  8
_________1
 62
     7
 10
65.385599999999997
 20
261.613
 30
0.0
 11
64.547700000000006
 21
262.45100000000002
 31
0.0
  0
LINE
  5
5F
  8
_________1
 62
     7
 10
67.421599999999998
 20
264.488
 30
0.0
 11
53.235999999999997
 21
250.30199999999999
 31
0.0
  0
ENDBLK
  5
60
  8
_________1
  0
BLOCK
  8
_________1
  2
AIGNBL02010007
 70
     0
 10
0.0
 20
0.0
 30
0.0
  3
AIGNBL02010007
  1

  0
LINE
  5
63
  8
_________1
 62
     7
 10
-29.552900000000001
 20
165.065
 30
0.0
 11
-31.764700000000001
 21
164.47300000000001
 31
0.0
  0
LINE
  5
64
  8
_________1
 62
     7
 10
-31.764700000000001
 20
164.47300000000001
 30
0.0
 11
-29.552900000000001
 21
163.88
 31
0.0
  0
LINE
  5
65
  8
_________1
 62
     7
 10
-29.552900000000001
 20
163.88
 30
0.0
 11
-29.552900000000001
 21
165.065
 31
0.0
  0
LINE
  5
66
  8
_________1
 62
     7
 10
-25.052900000000001
 20
163.89500000000001
 30
0.0
 11
-22.841100000000001
 21
164.48699999999999
 31
0.0
  0
LINE
  5
67
  8
_________1
 62
     7
 10
-22.841100000000001
 20
164.48699999999999
 30
0.0
 11
-25.052900000000001
 21
165.08000000000001
 31
0.0
  0
LINE
  5
68
  8
_________1
 62
     7
 10
-25.052900000000001
 20
165.08000000000001
 30
0.0
 11
-25.052900000000001
 21
163.89500000000001
 31
0.0
  0
LINE
  5
69
  8
_________1
 62
     7
 10
-31.764700000000001
 20
164.47300000000001
 30
0.0
 11
-22.841100000000001
 21
164.47300000000001
 31
0.0
  0
ENDBLK
  5
6A
  8
_________1
  0
BLOCK
  8
_________1
  2
AIGNBL02010008
 70
     0
 10
0.0
 20
0.0
 30
0.0
  3
AIGNBL02010008
  1

  0
LINE
  5
6D
  8
_________1
 62
     7
 10
55.020600000000002
 20
167.28100000000001
 30
0.0
 11
52.808799999999991
 21
166.68899999999999
 31
0.0
  0
LINE
  5
6E
  8
_________1
 62
     7
 10
52.808799999999991
 20
166.68899999999999
 30
0.0
 11
55.020600000000002
 21
166.096
 31
0.0
  0
LINE
  5
6F
  8
_________1
 62
     7
 10
55.020600000000002
 20
166.096
 30
0.0
 11
55.020600000000002
 21
167.28100000000001
 31
0.0
  0
LINE
  5
70
  8
_________1
 62
     7
 10
65.597099999999983
 20
166.11099999999999
 30
0.0
 11
67.808899999999994
 21
166.703
 31
0.0
  0
LINE
  5
71
  8
_________1
 62
     7
 10
67.808899999999994
 20
166.703
 30
0.0
 11
65.597099999999983
 21
167.29599999999999
 31
0.0
  0
LINE
  5
72
  8
_________1
 62
     7
 10
65.597099999999983
 20
167.29599999999999
 30
0.0
 11
65.597099999999983
 21
166.11099999999999
 31
0.0
  0
LINE
  5
73
  8
_________1
 62
     7
 10
52.808799999999991
 20
166.68899999999999
 30
0.0
 11
67.808899999999994
 21
166.68899999999999
 31
0.0
  0
ENDBLK
  5
74
  8
_________1
  0
BLOCK
  8
_________1
  2
AIGNBL02010009
 70
     0
 10
0.0
 20
0.0
 30
0.0
  3
AIGNBL02010009
  1

  0
LINE
  5
77
  8
_________1
 62
     7
 10
58.09709999999999
 20
177.89500000000001
 30
0.0
 11
60.308799999999991
 21
178.488
 31
0.0
  0
LINE
  5
78
  8
_________1
 62
     7
 10
60.308799999999991
 20
178.488
 30
0.0
 11
58.09709999999999
 21
179.08000000000001
 31
0.0
  0
LINE
  5
79
  8
_________1
 62
     7
 10
58.09709999999999
 20
179.08000000000001
 30
0.0
 11
58.09709999999999
 21
177.89500000000001
 31
0.0
  0
LINE
  5
7A
  8
_________1
 62
     7
 10
32.519799999999996
 20
179.06599999999989
 30
0.0
 11
30.308800000000002
 21
178.47300000000001
 31
0.0
  0
LINE
  5
7B
  8
_________1
 62
     7
 10
30.308800000000002
 20
178.47300000000001
 30
0.0
 11
32.519799999999996
 21
177.881
 31
0.0
  0
LINE
  5
7C
  8
_________1
 62
     7
 10
32.519799999999996
 20
177.881
 30
0.0
 11
32.519799999999996
 21
179.06599999999989
 31
0.0
  0
LINE
  5
7D
  8
_________1
 62
     7
 10
60.308799999999991
 20
178.488
 30
0.0
 11
30.308800000000002
 21
178.488
 31
0.0
  0
ENDBLK
  5
7E
  8
_________1
  0
BLOCK
  8
_________1
  2
AIGNBL0201000A
 70
     0
 10
0.0
 20
0.0
 30
0.0
  3
AIGNBL0201000A
  1

  0
LINE
  5
81
  8
_________1
 62
     7
 10
54.0976
 20
150.42699999999999
 30
0.0
 11
56.308700000000002
 21
151.01900000000001
 31
0.0
  0
LINE
  5
82
  8
_________1
 62
     7
 10
56.308700000000002
 20
151.01900000000001
 30
0.0
 11
54.0976
 21
151.61199999999999
 31
0.0
  0
LINE
  5
83
  8
_________1
 62
     7
 10
54.0976
 20
151.61199999999999
 30
0.0
 11
54.0976
 21
150.42699999999999
 31
0.0
  0
LINE
  5
84
  8
_________1
 62
     7
 10
66.520700000000005
 20
151.61199999999999
 30
0.0
 11
64.308999999999997
 21
151.01900000000001
 31
0.0
  0
LINE
  5
85
  8
_________1
 62
     7
 10
64.308999999999997
 20
151.01900000000001
 30
0.0
 11
66.520700000000005
 21
150.42699999999999
 31
0.0
  0
LINE
  5
86
  8
_________1
 62
     7
 10
66.520700000000005
 20
150.42699999999999
 30
0.0
 11
66.520700000000005
 21
151.61199999999999
 31
0.0
  0
LINE
  5
87
  8
_________1
 62
     7
 10
72.193100000000001
 20
151.01900000000001
 30
0.0
 11
53.258099999999999
 21
151.01900000000001
 31
0.0
  0
ENDBLK
  5
88
  8
_________1
  0
BLOCK
  8
_________1
  2
AIGNBL0201000B
 70
     0
 10
0.0
 20
0.0
 30
0.0
  3
AIGNBL0201000B
  1

  0
LINE
  5
8B
  8
_________1
 62
     7
 10
86.240600000000001
 20
206.54300000000001
 30
0.0
 11
85.647999999999996
 21
208.755
 31
0.0
  0
LINE
  5
8C
  8
_________1
 62
     7
 10
85.647999999999996
 20
208.755
 30
0.0
 11
85.055499999999995
 21
206.54300000000001
 31
0.0
  0
LINE
  5
8D
  8
_________1
 62
     7
 10
85.055499999999995
 20
206.54300000000001
 30
0.0
 11
86.240600000000001
 21
206.54300000000001
 31
0.0
  0
LINE
  5
8E
  8
_________1
 62
     7
 10
85.069900000000004
 20
161.00999999999999
 30
0.0
 11
85.662499999999994
 21
158.79900000000001
 31
0.0
  0
LINE
  5
8F
  8
_________1
 62
     7
 10
85.662499999999994
 20
158.79900000000001
 30
0.0
 11
86.255099999999999
 21
161.00999999999999
 31
0.0
  0
LINE
  5
90
  8
_________1
 62
     7
 10
86.255099999999999
 20
161.00999999999999
 30
0.0
 11
85.069900000000004
 21
161.00999999999999
 31
0.0
  0
LINE
  5
91
  8
_________1
 62
     7
 10
85.647999999999996
 20
208.755
 30
0.0
 11
85.647999999999996
 21
158.79900000000001
 31
0.0
  0
ENDBLK
  5
92
  8
_________1
  0
BLOCK
  8
_________1
  2
AIGNBL0201000C
 70
     0
 10
0.0
 20
0.0
 30
0.0
  3
AIGNBL0201000C
  1

  0
LINE
  5
95
  8
_________1
 62
     7
 10
78.093599999999995
 20
200.08699999999999
 30
0.0
 11
77.501000000000005
 21
202.29900000000001
 31
0.0
  0
LINE
  5
96
  8
_________1
 62
     7
 10
77.501000000000005
 20
202.29900000000001
 30
0.0
 11
76.908500000000004
 21
200.08699999999999
 31
0.0
  0
LINE
  5
97
  8
_________1
 62
     7
 10
76.908500000000004
 20
200.08699999999999
 30
0.0
 11
78.093599999999995
 21
200.08699999999999
 31
0.0
  0
LINE
  5
98
  8
_________1
 62
     7
 10
76.922899999999984
 20
161.00999999999999
 30
0.0
 11
77.515500000000003
 21
158.79900000000001
 31
0.0
  0
LINE
  5
99
  8
_________1
 62
     7
 10
77.515500000000003
 20
158.79900000000001
 30
0.0
 11
78.108000000000004
 21
161.00999999999999
 31
0.0
  0
LINE
  5
9A
  8
_________1
 62
     7
 10
78.108000000000004
 20
161.00999999999999
 30
0.0
 11
76.922899999999984
 21
161.00999999999999
 31
0.0
  0
LINE
  5
9B
  8
_________1
 62
     7
 10
77.501000000000005
 20
202.29900000000001
 30
0.0
 11
77.501000000000005
 21
158.79900000000001
 31
0.0
  0
ENDBLK
  5
9C
  8
_________1
  0
BLOCK
  8
_________1
  2
AIGNBL0201000D
 70
     0
 10
0.0
 20
0.0
 30
0.0
  3
AIGNBL0201000D
  1

  0
LINE
  5
9F
  8
_________1
 62
     7
 10
22.1004
 20
156.58699999999999
 30
0.0
 11
21.507899999999999
 21
158.79900000000001
 31
0.0
  0
LINE
  5
A0
  8
_________1
 62
     7
 10
21.507899999999999
 20
158.79900000000001
 30
0.0
 11
20.915299999999998
 21
156.58699999999999
 31
0.0
  0
LINE
  5
A1
  8
_________1
 62
     7
 10
20.915299999999998
 20
156.58699999999999
 30
0.0
 11
22.1004
 21
156.58699999999999
 31
0.0
  0
LINE
  5
A2
  8
_________1
 62
     7
 10
20.9298
 20
46.009500000000003
 30
0.0
 11
21.522300000000001
 21
43.798499999999997
 31
0.0
  0
LINE
  5
A3
  8
_________1
 62
     7
 10
21.522300000000001
 20
43.798499999999997
 30
0.0
 11
22.114899999999999
 21
46.009500000000003
 31
0.0
  0
LINE
  5
A4
  8
_________1
 62
     7
 10
22.114899999999999
 20
46.009500000000003
 30
0.0
 11
20.9298
 21
46.009500000000003
 31
0.0
  0
LINE
  5
A5
  8
_________1
 62
     7
 10
21.507899999999999
 20
158.79900000000001
 30
0.0
 11
21.507899999999999
 21
43.798499999999997
 31
0.0
  0
ENDBLK
  5
A6
  8
_________1
  0
BLOCK
  8
_________1
  2
AIGNBL0201000E
 70
     0
 10
0.0
 20
0.0
 30
0.0
  3
AIGNBL0201000E
  1

  0
LINE
  5
A9
  8
_________1
 62
     7
 10
22.1004
 20
186.08699999999999
 30
0.0
 11
21.507899999999999
 21
188.29900000000001
 31
0.0
  0
LINE
  5
AA
  8
_________1
 62
     7
 10
21.507899999999999
 20
188.29900000000001
 30
0.0
 11
20.915299999999998
 21
186.08699999999999
 31
0.0
  0
LINE
  5
AB
  8
_________1
 62
     7
 10
20.915299999999998
 20
186.08699999999999
 30
0.0
 11
22.1004
 21
186.08699999999999
 31
0.0
  0
LINE
  5
AC
  8
_________1
 62
     7
 10
20.9298
 20
161.00999999999999
 30
0.0
 11
21.522300000000001
 21
158.79900000000001
 31
0.0
  0
LINE
  5
AD
  8
_________1
 62
     7
 10
21.522300000000001
 20
158.79900000000001
 30
0.0
 11
22.114899999999999
 21
161.00999999999999
 31
0.0
  0
LINE
  5
AE
  8
_________1
 62
     7
 10
22.114899999999999
 20
161.00999999999999
 30
0.0
 11
20.9298
 21
161.00999999999999
 31
0.0
  0
LINE
  5
AF
  8
_________1
 62
     7
 10
21.507899999999999
 20
188.29900000000001
 30
0.0
 11
21.507899999999999
 21
158.79900000000001
 31
0.0
  0
ENDBLK
  5
B0
  8
_________1
  0
BLOCK
  8
_________1
  2
AIGNBL0201000F
 70
     0
 10
0.0
 20
0.0
 30
0.0
  3
AIGNBL0201000F
  1

  0
INSERT
  5
B3
  8
_________1
 62
     7
  2
AIGNBL02020010
 10
0.0
 20
0.0
 30
0.0
  0
ENDBLK
  5
B4
  8
_________1
  0
BLOCK
  8
_________2
  2
AIGNBL03010002
 70
     0
 10
0.0
 20
0.0
 30
0.0
  3
AIGNBL03010002
  1

  0
LINE
  5
B7
  8
_________2
 62
     7
 10
186.649
 20
51.052199999999999
 30
0.0
 11
184.46299999999999
 21
51.052199999999999
 31
0.0
  0
LINE
  5
B8
  8
_________2
 62
     7
 10
187.142
 20
51.052199999999999
 30
0.0
 11
186.88900000000001
 21
51.052199999999999
 31
0.0
  0
LINE
  5
B9
  8
_________2
 62
     7
 10
187.63399999999999
 20
51.052199999999999
 30
0.0
 11
190.559
 21
51.052199999999999
 31
0.0
  0
LINE
  5
BA
  8
_________2
 62
     7
 10
187.142
 20
51.052199999999999
 30
0.0
 11
187.39400000000001
 21
51.052199999999999
 31
0.0
  0
LINE
  5
BB
  8
_________2
 62
     7
 10
180.745
 20
51.052199999999999
 30
0.0
 11
178.55799999999999
 21
51.052199999999999
 31
0.0
  0
LINE
  5
BC
  8
_________2
 62
     7
 10
181.23699999999999
 20
51.052199999999999
 30
0.0
 11
180.98599999999999
 21
51.052199999999999
 31
0.0
  0
LINE
  5
BD
  8
_________2
 62
     7
 10
181.23699999999999
 20
51.544800000000002
 30
0.0
 11
181.23699999999999
 21
53.7318
 31
0.0
  0
LINE
  5
BE
  8
_________2
 62
     7
 10
181.23699999999999
 20
51.052199999999999
 30
0.0
 11
181.23699999999999
 21
51.304299999999998
 31
0.0
  0
LINE
  5
BF
  8
_________2
 62
     7
 10
181.72999999999999
 20
51.052199999999999
 30
0.0
 11
183.917
 21
51.052199999999999
 31
0.0
  0
LINE
  5
C0
  8
_________2
 62
     7
 10
181.23699999999999
 20
51.052199999999999
 30
0.0
 11
181.489
 21
51.052199999999999
 31
0.0
  0
LINE
  5
C1
  8
_________2
 62
     7
 10
181.23699999999999
 20
50.560200000000002
 30
0.0
 11
181.23699999999999
 21
48.373199999999997
 31
0.0
  0
LINE
  5
C2
  8
_________2
 62
     7
 10
181.23699999999999
 20
51.052199999999999
 30
0.0
 11
181.23699999999999
 21
50.800699999999999
 31
0.0
  0
LINE
  5
C3
  8
_________2
 62
     7
 10
184.94799999999989
 20
49.832599999999999
 30
0.0
 11
190.12599999999989
 21
48.9679
 31
0.0
  0
LINE
  5
C4
  8
_________2
 62
     7
 10
184.94799999999989
 20
52.271700000000003
 30
0.0
 11
190.12599999999989
 21
53.137099999999997
 31
0.0
  0
LINE
  5
C5
  8
_________2
 62
     7
 10
190.12599999999989
 20
48.9679
 30
0.0
 11
190.12599999999989
 21
53.137099999999997
 31
0.0
  0
LINE
  5
C6
  8
_________2
 62
     7
 10
184.94799999999989
 20
49.832599999999999
 30
0.0
 11
184.94799999999989
 21
52.271700000000003
 31
0.0
  0
ARC
  5
C7
  8
_________2
 62
     7
 10
181.190651
 20
51.004810999999989
 30
0.0
 40
1.2677780000000001
 50
2.1403449999999991
 51
87.892005999999995
  0
ARC
  5
C8
  8
_________2
 62
     7
 10
181.28420199999999
 20
51.005241999999988
 30
0.0
 40
1.2673579999999991
 50
92.121564999999975
 51
177.87840600000001
  0
ARC
  5
C9
  8
_________2
 62
     7
 10
181.28381400000001
 20
51.098689
 30
0.0
 40
1.2669559999999991
 50
182.10473099999999
 51
267.89529900000002
  0
ARC
  5
CA
  8
_________2
 62
     7
 10
181.19038399999999
 20
51.099775000000001
 30
0.0
 40
1.268054
 50
272.11960599999998
 51
357.84804300000002
  0
ARC
  5
CB
  8
_________2
 62
     7
 10
181.23728399999999
 20
51.05215900000001
 30
0.0
 40
2.0849849999999992
 50
0.00001
 51
89.999980000000008
  0
ARC
  5
CC
  8
_________2
 62
     7
 10
181.317331
 20
50.972827000000002
 30
0.0
 40
2.1657969999999991
 50
92.118111999999996
 51
177.90079600000001
  0
ARC
  5
CD
  8
_________2
 62
     7
 10
181.31728799999999
 20
51.132162999999998
 30
0.0
 40
2.1657779999999991
 50
182.11700400000001
 51
267.88302499999998
  0
ARC
  5
CE
  8
_________2
 62
     7
 10
181.15730300000001
 20
51.132855999999997
 30
0.0
 40
2.166469999999999
 50
272.115725
 51
357.86534699999999
  0
ENDBLK
  5
CF
  8
_________2
  0
ENDSEC
  0
SECTION
  2
ENTITIES
  0
TEXT
  5
D0
  8
____
 62
     7
 10
46.733885999999998
 20
207.72300000000001
 30
0.0
 40
3.0923400000000001
  1
開
 41
0.5
 72
     2
 11
48.073900000000002
 21
207.72300000000001
 31
0.0
  0
TEXT
  5
D1
  8
____
 62
     7
 10
41.309486
 20
200.411
 30
0.0
 40
3.0923400000000001
  1
閉
 41
0.5
 72
     2
 11
42.649500000000003
 21
200.411
 31
0.0
  0
TEXT
  5
D2
  8
____
 62
     7
 10
-36.640217500000013
 20
238.47800000000001
 30
0.0
 40
3.0923400000000001
  1
50%%d
 41
0.5
 72
     1
 11
-34.965200000000003
 21
238.47800000000001
 31
0.0
  0
TEXT
  5
D3
  8
____
 62
     7
 10
-17.5618175
 20
238.47800000000001
 30
0.0
 40
3.0923400000000001
  1
50%%d
 41
0.5
 72
     1
 11
-15.886799999999999
 21
238.47800000000001
 31
0.0
  0
TEXT
  5
D4
  8
____
 62
     7
 10
43.633782499999988
 20
179.22999999999999
 30
0.0
 40
3.0923400000000001
  1
120
 41
0.5
 72
     1
 11
45.308799999999991
 21
179.22999999999999
 31
0.0
  0
TEXT
  5
D5
  8
____
 62
     7
 10
68.969179999999994
 20
265.19299999999998
 30
0.0
 40
3.0923400000000001
  1
%%c35
 41
0.5
 72
     2
 11
73.092299999999994
 21
265.19299999999998
 31
0.0
  0
TEXT
  5
D6
  8
____
 62
     7
 10
31.174199999999999
 20
36.616100000000003
 30
0.0
 40
3.0923400000000001
  1
PF 3/8
 41
0.5
  0
TEXT
  5
D7
  8
____
 62
     7
 10
-28.591674999999999
 20
165.173
 30
0.0
 40
3.0923400000000001
  1
36
 41
0.5
 72
     1
 11
-27.3032
 21
165.173
 31
0.0
  0
TEXT
  5
D8
  8
____
 62
     7
 10
57.747787500000001
 20
167.72499999999999
 30
0.0
 40
3.0923400000000001
  1
%%c60
 41
0.5
 72
     1
 11
59.680500000000002
 21
167.72499999999999
 31
0.0
  0
TEXT
  5
D9
  8
____
 62
     7
 10
68.069980000000001
 20
151.71899999999999
 30
0.0
 40
3.0923400000000001
  1
%%c32
 41
0.5
 72
     2
 11
72.193100000000001
 21
151.71899999999999
 31
0.0
  0
TEXT
  5
DA
  8
____
 62
     7
 10
45.937199999999997
 20
150.0624225
 30
0.0
 40
3.0923400000000001
  1
max.40
 50
90.0
 41
0.5
 72
     1
 11
45.937199999999997
 21
153.79900000000001
 31
0.0
  0
TEXT
  5
DB
  8
____
 62
     7
 10
84.905299999999997
 20
181.97313500000001
 30
0.0
 40
3.0923400000000001
  1
200
 50
90.0
 41
0.5
 72
     1
 11
84.905299999999997
 21
183.77699999999999
 31
0.0
  0
TEXT
  5
DC
  8
____
 62
     7
 10
76.758200000000002
 20
178.745135
 30
0.0
 40
3.0923400000000001
  1
174
 50
90.0
 41
0.5
 72
     1
 11
76.758200000000002
 21
180.54900000000001
 31
0.0
  0
TEXT
  5
DD
  8
____
 62
     7
 10
20.7651
 20
99.366287499999999
 30
0.0
 40
3.0923400000000001
  1
460
 50
90.0
 41
0.5
 72
     1
 11
20.7651
 21
101.29900000000001
 31
0.0
  0
TEXT
  5
DE
  8
____
 62
     7
 10
20.7651
 20
172.00282999999999
 30
0.0
 40
3.0923400000000001
  1
118
 50
90.0
 41
0.5
 72
     1
 11
20.7651
 21
173.54900000000001
 31
0.0
  0
TEXT
  5
DF
  8
____
 62
     7
 10
-46.824145999999999
 20
243.87
 30
0.0
 40
3.0923400000000001
  1
湯
 41
0.5
 72
     1
 11
-46.102600000000002
 21
243.87
 31
0.0
  0
TEXT
  5
E0
  8
____
 62
     7
 10
-8.8547760000000011
 20
243.87
 30
0.0
 40
3.0923400000000001
  1
水
 41
0.5
 72
     1
 11
-8.1332300000000011
 21
243.87
 31
0.0
  0
TEXT
  5
E1
  8
____
 62
     7
 10
55.876446000000001
 20
243.029
 30
0.0
 40
3.0923400000000001
  1
水栓取付穴
 41
0.5
 72
     1
 11
60.308799999999991
 21
243.029
 31
0.0
  0
TEXT
  5
E2
  8
____
 62
     7
 10
-45.452548
 20
38.2911
 30
0.0
 40
3.0923400000000001
  1
湯側
 41
0.5
 72
     1
 11
-43.803299999999993
 21
38.2911
 31
0.0
  0
TEXT
  5
E3
  8
____
 62
     7
 10
-12.452448
 20
38.2911
 30
0.0
 40
3.0923400000000001
  1
水側
 41
0.5
 72
     1
 11
-10.8032
 21
38.2911
 31
0.0
  0
INSERT
  5
E4
  8
_________1
 62
     7
  2
AIGNBL02010002
 10
0.0
 20
0.0
 30
0.0
  0
INSERT
  5
E5
  8
_________1
 62
     7
  2
AIGNBL02010003
 10
0.0
 20
0.0
 30
0.0
  0
INSERT
  5
E6
  8
_________1
 62
     7
  2
AIGNBL02010004
 10
0.0
 20
0.0
 30
0.0
  0
INSERT
  5
E7
  8
_________1
 62
     7
  2
AIGNBL02010005
 10
0.0
 20
0.0
 30
0.0
  0
LINE
  5
E8
  8
_________1
 62
     7
 10
67.421599999999998
 20
264.488
 30
0.0
 11
73.208699999999993
 21
264.488
 31
0.0
  0
INSERT
  5
E9
  8
_________1
 62
     7
  2
AIGNBL02010006
 10
0.0
 20
0.0
 30
0.0
  0
LINE
  5
EA
  8
_________1
  6
AIGENLINE002
 62
     7
 10
60.308799999999991
 20
263.51400000000001
 30
0.0
 11
60.308799999999991
 21
251.23599999999999
 31
0.0
  0
ARC
  5
EB
  8
_________1
 62
     7
 10
60.309015999999993
 20
257.37489099999999
 30
0.0
 40
4.3751269999999991
 50
0.002266
 51
90.002235999999996
  0
ARC
  5
EC
  8
_________1
 62
     7
 10
60.309018000000002
 20
257.37523599999997
 30
0.0
 40
4.374782999999999
 50
90.002256000000017
 51
180.00226599999999
  0
ARC
  5
ED
  8
_________1
 62
     7
 10
60.309015999999993
 20
257.37489099999999
 30
0.0
 40
4.3747809999999987
 50
179.997714
 51
269.99776400000002
  0
ARC
  5
EE
  8
_________1
 62
     7
 10
60.309015999999993
 20
257.37523800000002
 30
0.0
 40
4.3751269999999991
 50
269.99776400000002
 51
359.99773399999998
  0
LINE
  5
EF
  8
_________1
  6
AIGENLINE002
 62
     7
 10
-39.786299999999997
 20
257.375
 30
0.0
 11
-14.786099999999999
 21
257.375
 31
0.0
  0
LINE
  5
F0
  8
_________1
  6
AIGENLINE002
 62
     7
 10
54.170299999999997
 20
257.375
 30
0.0
 11
66.447999999999993
 21
257.375
 31
0.0
  0
INSERT
  5
F1
  8
_________1
 62
     7
  2
AIGNBL02010007
 10
0.0
 20
0.0
 30
0.0
  0
INSERT
  5
F2
  8
_________1
 62
     7
  2
AIGNBL02010008
 10
0.0
 20
0.0
 30
0.0
  0
LINE
  5
F3
  8
_________1
 62
     7
 10
67.808899999999994
 20
167.38900000000001
 30
0.0
 11
67.808899999999994
 21
160.387
 31
0.0
  0
LINE
  5
F4
  8
_________1
 62
     7
 10
52.808799999999991
 20
167.38900000000001
 30
0.0
 11
52.808799999999991
 21
160.387
 31
0.0
  0
INSERT
  5
F5
  8
_________1
 62
     7
  2
AIGNBL02010009
 10
0.0
 20
0.0
 30
0.0
  0
LINE
  5
F6
  8
_________1
 62
     7
 10
30.308800000000002
 20
186.446
 30
0.0
 11
30.308800000000002
 21
177.773
 31
0.0
  0
INSERT
  5
F7
  8
_________1
 62
     7
  2
AIGNBL0201000A
 10
0.0
 20
0.0
 30
0.0
  0
LINE
  5
F8
  8
_________1
 62
     7
 10
47.22979999999999
 20
156.58699999999999
 30
0.0
 11
46.6372
 21
158.79900000000001
 31
0.0
  0
LINE
  5
F9
  8
_________1
 62
     7
 10
46.6372
 20
158.79900000000001
 30
0.0
 11
46.044699999999999
 21
156.58699999999999
 31
0.0
  0
LINE
  5
FA
  8
_________1
 62
     7
 10
46.044699999999999
 20
156.58699999999999
 30
0.0
 11
47.22979999999999
 21
156.58699999999999
 31
0.0
  0
LINE
  5
FB
  8
_________1
 62
     7
 10
46.059199999999997
 20
151.00999999999999
 30
0.0
 11
46.651699999999991
 21
148.79900000000001
 31
0.0
  0
LINE
  5
FC
  8
_________1
 62
     7
 10
46.651699999999991
 20
148.79900000000001
 30
0.0
 11
47.244300000000003
 21
151.00999999999999
 31
0.0
  0
LINE
  5
FD
  8
_________1
 62
     7
 10
47.244300000000003
 20
151.00999999999999
 30
0.0
 11
46.059199999999997
 21
151.00999999999999
 31
0.0
  0
LINE
  5
FE
  8
_________1
 62
     7
 10
46.6372
 20
158.79900000000001
 30
0.0
 11
46.6372
 21
148.79900000000001
 31
0.0
  0
LINE
  5
FF
  8
_________1
 62
     7
 10
53.358699999999992
 20
148.79900000000001
 30
0.0
 11
45.937199999999997
 21
148.79900000000001
 31
0.0
  0
INSERT
  5
100
  8
_________1
 62
     7
  2
AIGNBL0201000B
 10
0.0
 20
0.0
 30
0.0
  0
INSERT
  5
101
  8
_________1
 62
     7
  2
AIGNBL0201000C
 10
0.0
 20
0.0
 30
0.0
  0
INSERT
  5
102
  8
_________1
 62
     7
  2
AIGNBL0201000D
 10
0.0
 20
0.0
 30
0.0
  0
INSERT
  5
103
  8
_________1
 62
     7
  2
AIGNBL0201000E
 10
0.0
 20
0.0
 30
0.0
  0
LINE
  5
104
  8
_________1
 62
     7
 10
86.348099999999988
 20
208.755
 30
0.0
 11
50.243600000000001
 21
208.755
 31
0.0
  0
LINE
  5
105
  8
_________1
 62
     7
 10
78.201099999999997
 20
202.29900000000001
 30
0.0
 11
45.955099999999987
 21
202.29900000000001
 31
0.0
  0
LINE
  5
106
  8
_________1
 62
     7
 10
40.76189999999999
 20
43.798499999999997
 30
0.0
 11
20.822299999999998
 21
43.798499999999997
 31
0.0
  0
LINE
  5
107
  8
_________1
 62
     7
 10
51.933100000000003
 20
158.79900000000001
 30
0.0
 11
20.822299999999998
 21
158.79900000000001
 31
0.0
  0
LINE
  5
108
  8
_________1
 62
     7
 10
86.362499999999997
 20
158.79900000000001
 30
0.0
 11
68.508899999999997
 21
158.79900000000001
 31
0.0
  0
LINE
  5
109
  8
_________1
 62
     7
 10
27.283300000000001
 20
188.29900000000001
 30
0.0
 11
20.8078
 21
188.29900000000001
 31
0.0
  0
INSERT
  5
10A
  8
_________1
 62
     7
  2
AIGNBL0201000F
 10
0.0
 20
0.0
 30
0.0
  0
LINE
  5
10B
  8
_________1
 62
     7
 10
41.949100000000001
 20
35.3979
 30
0.0
 11
41.949100000000001
 21
43.358199999999997
 31
0.0
  0
LINE
  5
10C
  8
_________1
 62
     7
 10
46.074299999999987
 20
35.3979
 30
0.0
 11
46.074299999999987
 21
43.358199999999997
 31
0.0
  0
ARC
  5
10D
  8
_________1
 62
     7
 10
-27.302737
 20
257.30398500000001
 30
0.0
 40
7.4782710000000003
 50
94.781676000000004
 51
184.77696299999999
  0
ARC
  5
10E
  8
_________1
 62
     7
 10
-27.202186000000001
 20
257.36003699999998
 30
0.0
 40
7.5832889999999988
 50
185.13573199999999
 51
232.887936
  0
ARC
  5
10F
  8
_________1
 62
     7
 10
-27.303858999999999
 20
257.30437799999999
 30
0.0
 40
7.4784470000000001
 50
306.99326300000001
 51
36.984631
  0
ARC
  5
110
  8
_________1
 62
     7
 10
-27.357018
 20
257.20680099999998
 30
0.0
 40
7.579752
 50
37.33207800000001
 51
84.873093000000011
  0
LINE
  5
111
  8
_________1
 62
     7
 10
-26.6797
 20
264.75599999999997
 30
0.0
 11
-26.8127
 21
264.76600000000002
 31
0.0
  0
ARC
  5
112
  8
_________1
 62
     7
 10
-27.300974
 20
257.26569799999999
 30
0.0
 40
7.516572
 50
86.275141000000019
 51
94.770741999999984
  0
ARC
  5
113
  8
_________1
 62
     7
 10
-24.097456000000001
 20
241.924643
 30
0.0
 40
1.2950829999999991
 50
272.08387900000002
 51
357.19904600000001
  0
LINE
  5
114
  8
_________1
 62
     7
 10
-24.0504
 20
240.63
 30
0.0
 11
-30.531300000000002
 21
240.63
 31
0.0
  0
ARC
  5
115
  8
_________1
 62
     7
 10
-30.484231000000001
 20
241.92463799999999
 30
0.0
 40
1.295078
 50
182.8007539999999
 51
267.91636
  0
ARC
  5
116
  8
_________1
 62
     7
 10
-30.483166000000001
 20
260.48400400000003
 30
0.0
 40
1.295504999999999
 50
92.13010700000001
 51
177.85402500000001
  0
LINE
  5
117
  8
_________1
 62
     7
 10
-24.0504
 20
261.779
 30
0.0
 11
-30.531300000000002
 21
261.779
 31
0.0
  0
ARC
  5
118
  8
_________1
 62
     7
 10
-24.097805000000001
 20
260.48471599999999
 30
0.0
 40
1.294767
 50
2.1156649999999999
 51
87.900164000000004
  0
LINE
  5
119
  8
_________1
 62
     7
 10
-22.803899999999999
 20
241.93899999999999
 30
0.0
 11
-22.803899999999999
 21
260.53300000000002
 31
0.0
  0
LINE
  5
11A
  8
_________1
 62
     7
 10
-31.777799999999999
 20
241.93899999999999
 30
0.0
 11
-31.777799999999999
 21
260.53300000000002
 31
0.0
  0
ARC
  5
11B
  8
_________1
 62
     7
 10
-24.087485000000001
 20
224.77693500000001
 30
0.0
 40
1.2463580000000001
 50
269.99606
 51
359.99603100000002
  0
LINE
  5
11C
  8
_________1
 62
     7
 10
-24.087599999999998
 20
223.53100000000001
 30
0.0
 11
-30.518899999999999
 21
223.53100000000001
 31
0.0
  0
ARC
  5
11D
  8
_________1
 62
     7
 10
-30.470634000000011
 20
224.82459299999999
 30
0.0
 40
1.2949170000000001
 50
182.113066
 51
267.863201
  0
LINE
  5
11E
  8
_________1
 62
     7
 10
-31.764700000000001
 20
224.77699999999999
 30
0.0
 11
-31.764700000000001
 21
241.68799999999999
 31
0.0
  0
LINE
  5
11F
  8
_________1
 62
     7
 10
-22.841100000000001
 20
241.56100000000001
 30
0.0
 11
-22.841100000000001
 21
224.77699999999999
 31
0.0
  0
LINE
  5
120
  8
_________1
  6
AIGENLINE002
 62
     7
 10
-27.3032
 20
263.26600000000002
 30
0.0
 11
-27.3032
 21
221.03100000000001
 31
0.0
  0
LINE
  5
121
  8
_________1
  6
AIGENLINE002
 62
     7
 10
44.01209999999999
 20
109.593
 30
0.0
 11
60.308799999999991
 21
93.022000000000006
 31
0.0
  0
LINE
  5
122
  8
_________1
 62
     7
 10
45.323999999999991
 20
104.742
 30
0.0
 11
45.323999999999991
 21
51.549999999999997
 31
0.0
  0
LINE
  5
123
  8
_________1
 62
     7
 10
42.6995
 20
104.742
 30
0.0
 11
42.6995
 21
51.549999999999997
 31
0.0
  0
LINE
  5
124
  8
_________1
  6
AIGENLINE002
 62
     7
 10
44.01209999999999
 20
109.593
 30
0.0
 11
44.01209999999999
 21
42.491399999999992
 31
0.0
  0
LINE
  5
125
  8
_________1
 62
     7
 10
61.621400000000001
 20
144.05600000000001
 30
0.0
 11
61.621400000000001
 21
99.354100000000003
 31
0.0
  0
LINE
  5
126
  8
_________1
 62
     7
 10
58.996299999999998
 20
144.05600000000001
 30
0.0
 11
58.996299999999998
 21
99.354100000000003
 31
0.0
  0
LINE
  5
127
  8
_________1
 62
     7
 10
64.308999999999997
 20
144.30600000000001
 30
0.0
 11
64.058899999999994
 21
144.05600000000001
 31
0.0
  0
LINE
  5
128
  8
_________1
 62
     7
 10
56.558799999999991
 20
144.05600000000001
 30
0.0
 11
56.308700000000002
 21
144.30600000000001
 31
0.0
  0
LINE
  5
129
  8
_________1
 62
     7
 10
64.058899999999994
 20
158.42500000000001
 30
0.0
 11
64.058899999999994
 21
148.79900000000001
 31
0.0
  0
LINE
  5
12A
  8
_________1
 62
     7
 10
64.308999999999997
 20
158.42500000000001
 30
0.0
 11
64.308999999999997
 21
148.79900000000001
 31
0.0
  0
LINE
  5
12B
  8
_________1
 62
     7
 10
56.558799999999991
 20
158.42500000000001
 30
0.0
 11
56.558799999999991
 21
148.79900000000001
 31
0.0
  0
LINE
  5
12C
  8
_________1
 62
     7
 10
56.308700000000002
 20
158.42500000000001
 30
0.0
 11
56.308700000000002
 21
148.79900000000001
 31
0.0
  0
LINE
  5
12D
  8
_________1
 62
     7
 10
64.058899999999994
 20
146.30600000000001
 30
0.0
 11
64.058899999999994
 21
144.05600000000001
 31
0.0
  0
LINE
  5
12E
  8
_________1
 62
     7
 10
64.308999999999997
 20
146.30600000000001
 30
0.0
 11
64.308999999999997
 21
144.30600000000001
 31
0.0
  0
LINE
  5
12F
  8
_________1
 62
     7
 10
56.558799999999991
 20
146.30600000000001
 30
0.0
 11
56.558799999999991
 21
144.05600000000001
 31
0.0
  0
LINE
  5
130
  8
_________1
 62
     7
 10
56.308700000000002
 20
146.30600000000001
 30
0.0
 11
56.308700000000002
 21
144.30600000000001
 31
0.0
  0
LINE
  5
131
  8
_________1
 62
     7
 10
56.308700000000002
 20
144.30600000000001
 30
0.0
 11
64.308999999999997
 21
144.30600000000001
 31
0.0
  0
LINE
  5
132
  8
_________1
 62
     7
 10
56.558799999999991
 20
144.05600000000001
 30
0.0
 11
64.058899999999994
 21
144.05600000000001
 31
0.0
  0
LINE
  5
133
  8
_________1
  6
AIGENLINE002
 62
     7
 10
60.308799999999991
 20
165.739
 30
0.0
 11
60.308799999999991
 21
93.022000000000006
 31
0.0
  0
LINE
  5
134
  8
_________1
 62
     7
 10
44.01209999999999
 20
44.047899999999998
 30
0.0
 11
44.01209999999999
 21
46.673099999999991
 31
0.0
  0
LINE
  5
135
  8
_________1
 62
     7
 10
41.636299999999999
 20
44.047899999999998
 30
0.0
 11
41.636299999999999
 21
46.673099999999991
 31
0.0
  0
ARC
  5
136
  8
_________1
 62
     7
 10
47.456761999999998
 20
67.323874000000004
 30
0.0
 40
23.992687
 50
255.96039200000001
 51
256.93863800000003
  0
ARC
  5
137
  8
_________1
 62
     7
 10
43.130279999999999
 20
48.796872999999998
 30
0.0
 40
4.9673220000000002
 50
257.25637799999998
 51
263.09917899999999
  0
ARC
  5
138
  8
_________1
 62
     7
 10
42.847602000000002
 20
46.679565999999987
 30
0.0
 40
2.8315099999999989
 50
263.630022
 51
269.79109399999999
  0
ARC
  5
139
  8
_________1
 62
     7
 10
42.835962000000002
 20
46.366743
 30
0.0
 40
2.518669
 50
270.02992899999998
 51
277.21034200000003
  0
ARC
  5
13A
  8
_________1
 62
     7
 10
42.698614999999997
 20
47.611091999999992
 30
0.0
 40
3.7704689999999998
 50
276.90763800000002
 51
280.328193
  0
ARC
  5
13B
  8
_________1
 62
     7
 10
42.326803999999989
 20
49.639839999999992
 30
0.0
 40
5.8330060000000001
 50
280.34842600000002
 51
283.12067400000001
  0
ARC
  5
13C
  8
_________1
 62
     7
 10
39.707543999999999
 20
60.779066999999998
 30
0.0
 40
17.276026999999999
 50
283.19445999999999
 51
284.42789699999997
  0
ARC
  5
13D
  8
_________1
 62
     7
 10
42.387545000000003
 20
41.916585999999988
 30
0.0
 40
5.0262519999999986
 50
71.143036999999993
 51
78.857978000000003
  0
ARC
  5
13E
  8
_________1
 62
     7
 10
42.806026000000003
 20
43.885551
 30
0.0
 40
3.0136819999999989
 50
79.430400000000006
 51
89.405840999999995
  0
ARC
  5
13F
  8
_________1
 62
     7
 10
42.837621999999989
 20
44.013148999999999
 30
0.0
 40
2.8859209999999988
 50
90.006829999999994
 51
100.847157
  0
ARC
  5
140
  8
_________1
 62
     7
 10
43.081727999999998
 20
42.548026
 30
0.0
 40
4.3709530000000001
 50
100.37556600000001
 51
109.31049400000001
  0
ARC
  5
141
  8
_________1
 62
     7
 10
49.780479999999997
 20
67.075052999999997
 30
0.0
 40
23.738678
 50
255.936542
 51
256.90167000000002
  0
ARC
  5
142
  8
_________1
 62
     7
 10
45.51229399999999
 20
48.834946999999993
 30
0.0
 40
5.0059189999999996
 50
257.17074400000001
 51
263.07599199999999
  0
ARC
  5
143
  8
_________1
 62
     7
 10
45.222318000000001
 20
46.667707999999998
 30
0.0
 40
2.819653999999999
 50
263.61638299999998
 51
269.78326400000009
  0
ARC
  5
144
  8
_________1
 62
     7
 10
45.210338
 20
46.371600000000001
 30
0.0
 40
2.523525999999999
 50
270.02984900000001
 51
277.20339100000001
  0
ARC
  5
145
  8
_________1
 62
     7
 10
45.073838000000002
 20
47.608167999999992
 30
0.0
 40
3.7675010000000002
 50
276.90481599999998
 51
280.328551
  0
ARC
  5
146
  8
_________1
 62
     7
 10
44.700781999999997
 20
49.643878999999998
 30
0.0
 40
5.8371120000000003
 50
280.34840800000001
 51
283.11891300000002
  0
ARC
  5
147
  8
_________1
 62
     7
 10
42.013491999999999
 20
61.075060999999998
 30
0.0
 40
17.579908
 50
283.19253500000002
 51
284.40568999999999
  0
LINE
  5
148
  8
_________1
 62
     7
 10
46.38709999999999
 20
44.047899999999998
 30
0.0
 11
46.38709999999999
 21
46.673099999999991
 31
0.0
  0
ARC
  5
149
  8
_________1
 62
     7
 10
44.761481999999987
 20
41.913277999999998
 30
0.0
 40
5.0297460000000003
 50
71.143068999999997
 51
78.850862000000006
  0
ARC
  5
14A
  8
_________1
 62
     7
 10
45.181103999999998
 20
43.883521999999992
 30
0.0
 40
3.0157029999999989
 50
79.434710999999993
 51
89.419590999999997
  0
ARC
  5
14B
  8
_________1
 62
     7
 10
45.211998000000001
 20
44.022199000000001
 30
0.0
 40
2.8768709999999991
 50
90.006878000000015
 51
100.864256
  0
ARC
  5
14C
  8
_________1
 62
     7
 10
45.458174999999997
 20
42.547744999999992
 30
0.0
 40
4.371448
 50
100.390503
 51
109.317851
  0
LINE
  5
14D
  8
_________1
 62
     7
 10
46.38709999999999
 20
43.848100000000002
 30
0.0
 11
46.38709999999999
 21
44.047899999999998
 31
0.0
  0
LINE
  5
14E
  8
_________1
 62
     7
 10
46.38709999999999
 20
46.673099999999991
 30
0.0
 11
46.38709999999999
 21
46.899099999999997
 31
0.0
  0
LINE
  5
14F
  8
_________1
 62
     7
 10
41.636299999999999
 20
43.848100000000002
 30
0.0
 11
41.636299999999999
 21
44.047899999999998
 31
0.0
  0
LINE
  5
150
  8
_________1
 62
     7
 10
41.636299999999999
 20
46.673099999999991
 30
0.0
 11
41.636299999999999
 21
46.899099999999997
 31
0.0
  0
LINE
  5
151
  8
_________1
 62
     7
 10
45.262599999999992
 20
47.073399999999999
 30
0.0
 11
44.01209999999999
 21
47.073399999999999
 31
0.0
  0
LINE
  5
152
  8
_________1
 62
     7
 10
44.01209999999999
 20
47.073399999999999
 30
0.0
 11
42.7622
 21
47.073399999999999
 31
0.0
  0
LINE
  5
153
  8
_________1
 62
     7
 10
46.38709999999999
 20
43.848100000000002
 30
0.0
 11
46.311999999999991
 21
43.798499999999997
 31
0.0
  0
LINE
  5
154
  8
_________1
 62
     7
 10
46.311999999999991
 20
43.798499999999997
 30
0.0
 11
41.711399999999998
 21
43.798499999999997
 31
0.0
  0
LINE
  5
155
  8
_________1
 62
     7
 10
41.711399999999998
 20
43.798499999999997
 30
0.0
 11
41.636299999999999
 21
43.848100000000002
 31
0.0
  0
ARC
  5
156
  8
_________1
 62
     7
 10
46.368628999999991
 20
46.865328000000012
 30
0.0
 40
0.038479
 50
61.269488000000003
 51
90.14337900000001
  0
ARC
  5
157
  8
_________1
 62
     7
 10
46.207045999999998
 20
45.546345000000002
 30
0.0
 40
1.3670340000000001
 50
83.215826000000007
 51
88.382910999999993
  0
ARC
  5
158
  8
_________1
 62
     7
 10
45.699157999999997
 20
33.329797999999997
 30
0.0
 40
13.594025
 50
87.696143000000006
 51
89.304108999999997
  0
ARC
  5
159
  8
_________1
 62
     7
 10
44.786003999999998
 20
-28.360451999999999
 30
0.0
 40
75.290993
 50
89.179418999999996
 51
89.888678999999996
  0
ARC
  5
15A
  8
_________1
 62
     7
 10
44.087727999999998
 20
-331.17476799999997
 30
0.0
 40
378.106111
 50
89.872012999999995
 51
90.360083999999986
  0
LINE
  5
15B
  8
_________1
 62
     7
 10
41.711399999999998
 20
46.923900000000003
 30
0.0
 11
41.636299999999999
 21
46.899099999999997
 31
0.0
  0
LINE
  5
15C
  8
_________1
 62
     7
 10
45.56239999999999
 20
46.923900000000003
 30
0.0
 11
45.56239999999999
 21
47.0486
 31
0.0
  0
LINE
  5
15D
  8
_________1
 62
     7
 10
45.56239999999999
 20
47.0486
 30
0.0
 11
42.46179999999999
 21
47.0486
 31
0.0
  0
LINE
  5
15E
  8
_________1
 62
     7
 10
42.46179999999999
 20
46.923900000000003
 30
0.0
 11
42.46179999999999
 21
47.0486
 31
0.0
  0
LINE
  5
15F
  8
_________1
 62
     7
 10
42.7622
 20
47.073399999999999
 30
0.0
 11
42.38669999999999
 21
47.374499999999991
 31
0.0
  0
LINE
  5
160
  8
_________1
 62
     7
 10
42.38669999999999
 20
47.374499999999991
 30
0.0
 11
42.361899999999991
 21
47.873999999999988
 31
0.0
  0
LINE
  5
161
  8
_________1
 62
     7
 10
45.662999999999997
 20
47.873999999999988
 30
0.0
 11
45.636800000000001
 21
47.374499999999991
 31
0.0
  0
LINE
  5
162
  8
_________1
 62
     7
 10
45.636800000000001
 20
47.374499999999991
 30
0.0
 11
45.262599999999992
 21
47.073399999999999
 31
0.0
  0
LINE
  5
163
  8
_________1
 62
     7
 10
45.462499999999991
 20
48.299199999999999
 30
0.0
 11
42.562399999999997
 21
48.299199999999999
 31
0.0
  0
LINE
  5
164
  8
_________1
 62
     7
 10
42.562399999999997
 20
48.299199999999999
 30
0.0
 11
42.361899999999991
 21
47.873999999999988
 31
0.0
  0
LINE
  5
165
  8
_________1
 62
     7
 10
45.662999999999997
 20
47.873999999999988
 30
0.0
 11
45.462499999999991
 21
48.299199999999999
 31
0.0
  0
LINE
  5
166
  8
_________1
 62
     7
 10
45.462499999999991
 20
50.299399999999991
 30
0.0
 11
42.562399999999997
 21
50.299399999999991
 31
0.0
  0
LINE
  5
167
  8
_________1
 62
     7
 10
42.562399999999997
 20
48.299199999999999
 30
0.0
 11
42.562399999999997
 21
50.299399999999991
 31
0.0
  0
LINE
  5
168
  8
_________1
 62
     7
 10
45.462499999999991
 20
48.299199999999999
 30
0.0
 11
45.462499999999991
 21
50.299399999999991
 31
0.0
  0
LINE
  5
169
  8
_________1
 62
     7
 10
42.562399999999997
 20
50.299399999999991
 30
0.0
 11
42.38669999999999
 21
50.599800000000002
 31
0.0
  0
LINE
  5
16A
  8
_________1
 62
     7
 10
45.636800000000001
 20
50.599800000000002
 30
0.0
 11
45.462499999999991
 21
50.299399999999991
 31
0.0
  0
LINE
  5
16B
  8
_________1
 62
     7
 10
42.38669999999999
 20
50.599800000000002
 30
0.0
 11
42.336399999999998
 21
50.724499999999992
 31
0.0
  0
LINE
  5
16C
  8
_________1
 62
     7
 10
42.336399999999998
 20
50.724499999999992
 30
0.0
 11
42.336399999999998
 21
50.849200000000003
 31
0.0
  0
ARC
  5
16D
  8
_________1
 62
     7
 10
45.093963000000002
 20
50.908084000000002
 30
0.0
 40
0.6207150000000001
 50
339.66245099999998
 51
354.56032699999997
  0
ARC
  5
16E
  8
_________1
 62
     7
 10
45.014241999999989
 20
50.918129
 30
0.0
 40
0.6991970000000001
 50
332.91862600000002
 51
341.16130399999997
  0
LINE
  5
16F
  8
_________1
 62
     7
 10
45.7119
 20
50.849200000000003
 30
0.0
 11
45.7119
 21
51.549999999999997
 31
0.0
  0
LINE
  5
170
  8
_________1
 62
     7
 10
45.7119
 20
51.549999999999997
 30
0.0
 11
42.336399999999998
 21
51.549999999999997
 31
0.0
  0
LINE
  5
171
  8
_________1
 62
     7
 10
42.336399999999998
 20
50.849200000000003
 30
0.0
 11
42.336399999999998
 21
51.549999999999997
 31
0.0
  0
ARC
  5
172
  8
_________1
  6
AIGENLINE001
 62
     7
 10
59.302030999999999
 20
193.257184
 30
0.0
 40
3.4315559999999992
 50
141.79932700000001
 51
148.19945300000001
  0
ARC
  5
173
  8
_________1
  6
AIGENLINE001
 62
     7
 10
60.937279000000011
 20
192.21257299999999
 30
0.0
 40
5.3718690000000002
 50
147.921223
 51
167.67478899999989
  0
ARC
  5
174
  8
_________1
  6
AIGENLINE001
 62
     7
 10
59.151971000000003
 20
192.63510299999999
 30
0.0
 40
3.5376579999999991
 50
168.18820700000001
 51
175.29368700000001
  0
ARC
  5
175
  8
_________1
  6
AIGENLINE001
 62
     7
 10
60.427193999999993
 20
194.01948999999999
 30
0.0
 40
0.5026270000000001
 50
243.212378
 51
265.221835
  0
LINE
  5
176
  8
_________1
  6
AIGENLINE001
 62
     7
 10
63.796700000000001
 20
193.227
 30
0.0
 11
60.385300000000001
 21
193.51900000000001
 31
0.0
  0
LINE
  5
177
  8
_________1
  6
AIGENLINE001
 62
     7
 10
60.200699999999998
 20
193.571
 30
0.0
 11
56.468899999999991
 21
195.44800000000001
 31
0.0
  0
LINE
  5
178
  8
_________1
  6
AIGENLINE001
 62
     7
 10
56.244999999999997
 20
195.56100000000001
 30
0.0
 11
56.468899999999991
 21
195.44800000000001
 31
0.0
  0
ARC
  5
179
  8
_________1
  6
AIGENLINE001
 62
     7
 10
49.118557000000003
 20
208.15135900000001
 30
0.0
 40
0.259563
 50
146.51993300000001
 51
232.331253
  0
LINE
  5
17A
  8
_________1
  6
AIGENLINE001
 62
     7
 10
48.90209999999999
 20
208.29499999999999
 30
0.0
 11
49.1935
 21
208.69900000000001
 31
0.0
  0
ARC
  5
17B
  8
_________1
  6
AIGENLINE001
 62
     7
 10
66.464677000000009
 20
196.310664
 30
0.0
 40
0.258775
 50
335.17355500000002
 51
52.839920999999983
  0
LINE
  5
17C
  8
_________1
  6
AIGENLINE001
 62
     7
 10
66.6995
 20
196.202
 30
0.0
 11
65.145799999999994
 21
193.11199999999999
 31
0.0
  0
ARC
  5
17D
  8
_________1
  6
AIGENLINE001
 62
     7
 10
49.398346999999987
 20
208.53941499999999
 30
0.0
 40
0.259766
 50
56.017035999999997
 51
142.046907
  0
LINE
  5
17E
  8
_________1
  6
AIGENLINE001
 62
     7
 10
48.959899999999998
 20
207.946
 30
0.0
 11
49.777799999999999
 21
207.36000000000001
 31
0.0
  0
LINE
  5
17F
  8
_________1
  6
AIGENLINE001
 62
     7
 10
58.021299999999997
 20
201.453
 30
0.0
 11
49.777799999999999
 21
207.36000000000001
 31
0.0
  0
ARC
  5
180
  8
_________1
  6
AIGENLINE001
 62
     7
 10
57.237859999999998
 20
200.41958199999999
 30
0.0
 40
1.296718
 50
335.24395299999998
 51
52.831477
  0
LINE
  5
181
  8
_________1
  6
AIGENLINE001
 62
     7
 10
56.244999999999997
 20
195.56100000000001
 30
0.0
 11
58.415399999999998
 21
199.87700000000001
 31
0.0
  0
LINE
  5
182
  8
_________1
  6
AIGENLINE001
 62
     7
 10
66.621000000000009
 20
196.517
 30
0.0
 11
65.793499999999995
 21
197.11000000000001
 31
0.0
  0
LINE
  5
183
  8
_________1
  6
AIGENLINE001
 62
     7
 10
49.543500000000002
 20
208.755
 30
0.0
 11
50.360700000000001
 21
208.16900000000001
 31
0.0
  0
LINE
  5
184
  8
_________1
  6
AIGENLINE001
 62
     7
 10
50.360700000000001
 20
208.16900000000001
 30
0.0
 11
65.793499999999995
 21
197.11000000000001
 31
0.0
  0
LINE
  5
185
  8
_________1
  6
AIGENLINE001
 62
     7
 10
65.145799999999994
 20
193.11199999999999
 30
0.0
 11
63.796700000000001
 21
193.227
 31
0.0
  0
ARC
  5
186
  8
_________1
  6
AIGENLINE001
 62
     7
 10
59.341955000000013
 20
192.79493199999999
 30
0.0
 40
4.8073129999999988
 50
1.5998920000000001
 51
4.8245259999999996
  0
LINE
  5
187
  8
_________1
 62
     7
 10
54.0229
 20
158.79900000000001
 30
0.0
 11
54.0229
 21
158.42500000000001
 31
0.0
  0
LINE
  5
188
  8
_________1
 62
     7
 10
66.595500000000001
 20
158.79900000000001
 30
0.0
 11
66.595500000000001
 21
158.42500000000001
 31
0.0
  0
LINE
  5
189
  8
_________1
 62
     7
 10
65.552999999999983
 20
158.42500000000001
 30
0.0
 11
66.595500000000001
 21
158.42500000000001
 31
0.0
  0
LINE
  5
18A
  8
_________1
 62
     7
 10
54.0229
 20
158.42500000000001
 30
0.0
 11
65.552999999999983
 21
158.42500000000001
 31
0.0
  0
LINE
  5
18B
  8
_________1
 62
     7
 10
55.506399999999999
 20
147.80199999999999
 30
0.0
 11
55.488399999999999
 21
147.67699999999999
 31
0.0
  0
ARC
  5
18C
  8
_________1
 62
     7
 10
57.150838
 20
143.05340699999999
 30
0.0
 40
5.3892059999999988
 50
59.085995999999987
 51
61.773000000000003
  0
ARC
  5
18D
  8
_________1
 62
     7
 10
59.503573000000003
 20
140.91879399999999
 30
0.0
 40
7.8490339999999987
 50
118.72753
 51
120.567984
  0
ARC
  5
18E
  8
_________1
 62
     7
 10
61.634416000000002
 20
142.062375
 30
0.0
 40
6.416275999999999
 50
61.05239499999999
 51
63.444240000000001
  0
ARC
  5
18F
  8
_________1
 62
     7
 10
63.479585
 20
141.30071699999999
 30
0.0
 40
7.2767660000000003
 50
116.697177
 51
118.80614799999999
  0
LINE
  5
190
  8
_________1
 62
     7
 10
64.770300000000006
 20
147.67699999999999
 30
0.0
 11
64.788200000000003
 21
147.80199999999999
 31
0.0
  0
LINE
  5
191
  8
_________1
 62
     7
 10
65.111999999999995
 20
147.80199999999999
 30
0.0
 11
65.129900000000006
 21
147.67699999999999
 31
0.0
  0
LINE
  5
192
  8
_________1
 62
     7
 10
55.506399999999999
 20
146.30600000000001
 30
0.0
 11
55.488399999999999
 21
146.43100000000001
 31
0.0
  0
ARC
  5
193
  8
_________1
 62
     7
 10
55.103006999999998
 20
154.663691
 30
0.0
 40
9.5382160000000002
 50
298.81145400000003
 51
300.3295490000001
  0
ARC
  5
194
  8
_________1
 62
     7
 10
59.506393000000003
 20
153.19409899999999
 30
0.0
 40
7.8547349999999998
 50
239.43268399999999
 51
241.27180200000001
  0
ARC
  5
195
  8
_________1
 62
     7
 10
61.079129999999999
 20
153.10091399999999
 30
0.0
 40
7.6085779999999987
 50
296.74318799999998
 51
298.760177
  0
ARC
  5
196
  8
_________1
 62
     7
 10
63.928744999999992
 20
153.66087400000001
 30
0.0
 40
8.2412289999999988
 50
241.31726900000001
 51
243.179406
  0
LINE
  5
197
  8
_________1
 62
     7
 10
64.770300000000006
 20
146.43100000000001
 30
0.0
 11
64.788200000000003
 21
146.30600000000001
 31
0.0
  0
LINE
  5
198
  8
_________1
 62
     7
 10
65.111999999999995
 20
146.30600000000001
 30
0.0
 11
65.129900000000006
 21
146.43100000000001
 31
0.0
  0
LINE
  5
199
  8
_________1
 62
     7
 10
55.488399999999999
 20
147.67699999999999
 30
0.0
 11
55.488399999999999
 21
146.43100000000001
 31
0.0
  0
LINE
  5
19A
  8
_________1
 62
     7
 10
55.511899999999997
 20
146.43100000000001
 30
0.0
 11
55.511899999999997
 21
147.67699999999999
 31
0.0
  0
LINE
  5
19B
  8
_________1
 62
     7
 10
59.919499999999999
 20
147.67699999999999
 30
0.0
 11
59.919499999999999
 21
146.43100000000001
 31
0.0
  0
LINE
  5
19C
  8
_________1
 62
     7
 10
59.973300000000002
 20
146.43100000000001
 30
0.0
 11
59.973300000000002
 21
147.67699999999999
 31
0.0
  0
LINE
  5
19D
  8
_________1
 62
     7
 10
64.739999999999995
 20
147.67699999999999
 30
0.0
 11
64.739999999999995
 21
146.43100000000001
 31
0.0
  0
LINE
  5
19E
  8
_________1
 62
     7
 10
64.770300000000006
 20
146.43100000000001
 30
0.0
 11
64.770300000000006
 21
147.67699999999999
 31
0.0
  0
LINE
  5
19F
  8
_________1
 62
     7
 10
65.129900000000006
 20
147.67699999999999
 30
0.0
 11
65.129900000000006
 21
146.43100000000001
 31
0.0
  0
LINE
  5
1A0
  8
_________1
 62
     7
 10
55.511899999999997
 20
147.67699999999999
 30
0.0
 11
55.488399999999999
 21
147.67699999999999
 31
0.0
  0
LINE
  5
1A1
  8
_________1
 62
     7
 10
59.973300000000002
 20
147.67699999999999
 30
0.0
 11
59.919499999999999
 21
147.67699999999999
 31
0.0
  0
LINE
  5
1A2
  8
_________1
 62
     7
 10
64.770300000000006
 20
147.67699999999999
 30
0.0
 11
64.739999999999995
 21
147.67699999999999
 31
0.0
  0
LINE
  5
1A3
  8
_________1
 62
     7
 10
55.511899999999997
 20
146.43100000000001
 30
0.0
 11
55.488399999999999
 21
146.43100000000001
 31
0.0
  0
LINE
  5
1A4
  8
_________1
 62
     7
 10
59.973300000000002
 20
146.43100000000001
 30
0.0
 11
59.919499999999999
 21
146.43100000000001
 31
0.0
  0
LINE
  5
1A5
  8
_________1
 62
     7
 10
64.770300000000006
 20
146.43100000000001
 30
0.0
 11
64.739999999999995
 21
146.43100000000001
 31
0.0
  0
LINE
  5
1A6
  8
_________1
 62
     7
 10
55.731000000000002
 20
146.30600000000001
 30
0.0
 11
55.506399999999999
 21
146.30600000000001
 31
0.0
  0
LINE
  5
1A7
  8
_________1
 62
     7
 10
59.699699999999993
 20
146.30600000000001
 30
0.0
 11
55.731000000000002
 21
146.30600000000001
 31
0.0
  0
LINE
  5
1A8
  8
_________1
 62
     7
 10
60.210299999999989
 20
146.30600000000001
 30
0.0
 11
59.699699999999993
 21
146.30600000000001
 31
0.0
  0
LINE
  5
1A9
  8
_________1
 62
     7
 10
64.502899999999997
 20
146.30600000000001
 30
0.0
 11
60.210299999999989
 21
146.30600000000001
 31
0.0
  0
LINE
  5
1AA
  8
_________1
 62
     7
 10
64.788200000000003
 20
146.30600000000001
 30
0.0
 11
64.502899999999997
 21
146.30600000000001
 31
0.0
  0
LINE
  5
1AB
  8
_________1
 62
     7
 10
65.111999999999995
 20
146.30600000000001
 30
0.0
 11
64.788200000000003
 21
146.30600000000001
 31
0.0
  0
LINE
  5
1AC
  8
_________1
 62
     7
 10
54.0229
 20
148.79900000000001
 30
0.0
 11
54.0229
 21
148.17599999999999
 31
0.0
  0
LINE
  5
1AD
  8
_________1
 62
     7
 10
66.595500000000001
 20
148.79900000000001
 30
0.0
 11
66.595500000000001
 21
148.17599999999999
 31
0.0
  0
LINE
  5
1AE
  8
_________1
 62
     7
 10
64.098500000000001
 20
148.17599999999999
 30
0.0
 11
66.595500000000001
 21
148.17599999999999
 31
0.0
  0
LINE
  5
1AF
  8
_________1
 62
     7
 10
54.0229
 20
148.17599999999999
 30
0.0
 11
64.098500000000001
 21
148.17599999999999
 31
0.0
  0
LINE
  5
1B0
  8
_________1
 62
     7
 10
64.098500000000001
 20
148.79900000000001
 30
0.0
 11
66.595500000000001
 21
148.79900000000001
 31
0.0
  0
LINE
  5
1B1
  8
_________1
 62
     7
 10
54.0229
 20
148.79900000000001
 30
0.0
 11
64.098500000000001
 21
148.79900000000001
 31
0.0
  0
LINE
  5
1B2
  8
_________1
 62
     7
 10
54.0229
 20
147.80199999999999
 30
0.0
 11
54.0229
 21
147.92599999999999
 31
0.0
  0
LINE
  5
1B3
  8
_________1
 62
     7
 10
66.595500000000001
 20
147.80199999999999
 30
0.0
 11
66.595500000000001
 21
147.92599999999999
 31
0.0
  0
ARC
  5
1B4
  8
_________1
 62
     7
 10
54.781680000000001
 20
147.91875999999999
 30
0.0
 40
0.257148
 50
90.961590999999984
 51
168.93072799999999
  0
ARC
  5
1B5
  8
_________1
 62
     7
 10
65.834626
 20
147.91628499999999
 30
0.0
 40
0.259665
 50
11.517291
 51
88.590350000000015
  0
ARC
  5
1B6
  8
_________1
 62
     7
 10
54.478383999999998
 20
147.97838200000001
 30
0.0
 40
0.051953
 50
271.45843200000002
 51
348.62075800000002
  0
ARC
  5
1B7
  8
_________1
 62
     7
 10
66.140041999999994
 20
147.97843800000001
 30
0.0
 40
0.052011
 50
191.4303929999999
 51
268.49045699999999
  0
LINE
  5
1B8
  8
_________1
 62
     7
 10
66.089100000000002
 20
147.96799999999999
 30
0.0
 11
54.529299999999999
 21
147.96799999999999
 31
0.0
  0
LINE
  5
1B9
  8
_________1
 62
     7
 10
66.595500000000001
 20
147.92599999999999
 30
0.0
 11
54.0229
 21
147.92599999999999
 31
0.0
  0
LINE
  5
1BA
  8
_________1
 62
     7
 10
66.595500000000001
 20
147.80199999999999
 30
0.0
 11
54.0229
 21
147.80199999999999
 31
0.0
  0
LINE
  5
1BB
  8
_________1
  6
AIGENLINE002
 62
     7
 10
60.308799999999991
 20
202.566
 30
0.0
 11
60.308799999999991
 21
171.471
 31
0.0
  0
LINE
  5
1BC
  8
_________1
  6
AIGENLINE002
 62
     7
 10
30.308800000000002
 20
187.14599999999999
 30
0.0
 11
30.308800000000002
 21
193.52099999999999
 31
0.0
  0
LINE
  5
1BD
  8
_________1
 62
     7
 10
32.634900000000002
 20
188.29900000000001
 30
0.0
 11
32.634900000000002
 21
188.685
 31
0.0
  0
LINE
  5
1BE
  8
_________1
 62
     7
 10
27.9833
 20
188.29900000000001
 30
0.0
 11
27.9833
 21
188.685
 31
0.0
  0
LINE
  5
1BF
  8
_________1
 62
     7
 10
32.634900000000002
 20
188.29900000000001
 30
0.0
 11
27.9833
 21
188.29900000000001
 31
0.0
  0
LINE
  5
1C0
  8
_________1
 62
     7
 10
52.808799999999991
 20
158.79900000000001
 30
0.0
 11
52.808799999999991
 21
159.547
 31
0.0
  0
LINE
  5
1C1
  8
_________1
 62
     7
 10
67.808899999999994
 20
158.79900000000001
 30
0.0
 11
67.808899999999994
 21
159.547
 31
0.0
  0
LINE
  5
1C2
  8
_________1
 62
     7
 10
67.808899999999994
 20
159.547
 30
0.0
 11
52.808799999999991
 21
159.547
 31
0.0
  0
LINE
  5
1C3
  8
_________1
 62
     7
 10
67.808899999999994
 20
158.79900000000001
 30
0.0
 11
52.808799999999991
 21
158.79900000000001
 31
0.0
  0
ARC
  5
1C4
  8
_________1
 62
     7
 10
60.196329000000013
 20
194.04603499999999
 30
0.0
 40
0.5226060000000001
 50
270.24906600000008
 51
291.44443699999999
  0
LINE
  5
1C5
  8
_________1
 62
     7
 10
63.56519999999999
 20
194.833
 30
0.0
 11
60.3874
 21
193.56
 31
0.0
  0
LINE
  5
1C6
  8
_________1
 62
     7
 10
60.198599999999999
 20
193.523
 30
0.0
 11
56.021700000000003
 21
193.523
 31
0.0
  0
LINE
  5
1C7
  8
_________1
 62
     7
 10
55.770899999999997
 20
193.523
 30
0.0
 11
56.021700000000003
 21
193.523
 31
0.0
  0
ARC
  5
1C8
  8
_________1
 62
     7
 10
43.747107999999997
 20
201.57023799999999
 30
0.0
 40
0.26037
 50
173.51389
 51
259.09876700000001
  0
LINE
  5
1C9
  8
_________1
 62
     7
 10
43.488399999999999
 20
201.59999999999999
 30
0.0
 11
43.567
 21
202.09200000000001
 31
0.0
  0
ARC
  5
1CA
  8
_________1
 62
     7
 10
64.562392000000003
 20
198.78447399999999
 30
0.0
 40
0.260437
 50
2.1981509999999989
 51
79.373482999999993
  0
LINE
  5
1CB
  8
_________1
 62
     7
 10
64.822599999999994
 20
198.79400000000001
 30
0.0
 11
64.822599999999994
 21
195.33600000000001
 31
0.0
  0
ARC
  5
1CC
  8
_________1
 62
     7
 10
43.822435999999989
 20
202.04058800000001
 30
0.0
 40
0.26063
 50
82.830344999999994
 51
168.59430699999999
  0
LINE
  5
1CD
  8
_________1
 62
     7
 10
43.697899999999997
 20
201.315
 30
0.0
 11
44.691400000000002
 21
201.15899999999999
 31
0.0
  0
LINE
  5
1CE
  8
_________1
 62
     7
 10
54.709800000000001
 20
199.58500000000001
 30
0.0
 11
44.691400000000002
 21
201.15899999999999
 31
0.0
  0
ARC
  5
1CF
  8
_________1
 62
     7
 10
54.474229999999999
 20
198.30954700000001
 30
0.0
 40
1.2974870000000001
 50
1.986429999999999
 51
79.537599
  0
LINE
  5
1D0
  8
_________1
 62
     7
 10
55.770899999999997
 20
193.523
 30
0.0
 11
55.770899999999997
 21
198.35499999999999
 31
0.0
  0
LINE
  5
1D1
  8
_________1
 62
     7
 10
64.610399999999998
 20
199.03999999999999
 30
0.0
 11
63.604399999999998
 21
199.19800000000001
 31
0.0
  0
LINE
  5
1D2
  8
_________1
 62
     7
 10
43.85499999999999
 20
202.29900000000001
 30
0.0
 11
44.848500000000001
 21
202.143
 31
0.0
  0
LINE
  5
1D3
  8
_________1
 62
     7
 10
44.848500000000001
 20
202.143
 30
0.0
 11
63.604399999999998
 21
199.19800000000001
 31
0.0
  0
LINE
  5
1D4
  8
_________1
 62
     7
 10
64.822599999999994
 20
195.33600000000001
 30
0.0
 11
63.56519999999999
 21
194.833
 31
0.0
  0
ARC
  5
1D5
  8
_________1
 62
     7
 10
60.428254000000003
 20
192.67547400000001
 30
0.0
 40
4.3379240000000001
 50
168.72746000000001
 51
176.69761800000001
  0
ARC
  5
1D6
  8
_________1
 62
     7
 10
60.160404000000007
 20
192.664053
 30
0.0
 40
4.368263999999999
 50
3.4294579999999999
 51
31.67465399999999
  0
ARC
  5
1D7
  8
_________1
 62
     7
 10
26.674061999999999
 20
188.94658799999999
 30
0.0
 40
0.261307
 50
182.60547600000001
 51
267.90699999999998
  0
ARC
  5
1D8
  8
_________1
 62
     7
 10
26.672008000000002
 20
192.666301
 30
0.0
 40
0.259168
 50
91.655926000000008
 51
177.83159800000001
  0
LINE
  5
1D9
  8
_________1
 62
     7
 10
26.413
 20
192.67599999999999
 30
0.0
 11
26.413
 21
188.935
 31
0.0
  0
ARC
  5
1DA
  8
_________1
 62
     7
 10
64.547820000000002
 20
192.66422800000001
 30
0.0
 40
0.261307
 50
2.6054560000000002
 51
87.906980000000004
  0
LINE
  5
1DB
  8
_________1
 62
     7
 10
64.808899999999994
 20
192.67599999999999
 30
0.0
 11
64.808899999999994
 21
159.547
 31
0.0
  0
LINE
  5
1DC
  8
_________1
 62
     7
 10
26.6645
 20
192.92500000000001
 30
0.0
 11
27.669799999999999
 21
192.92500000000001
 31
0.0
  0
LINE
  5
1DD
  8
_________1
 62
     7
 10
27.669799999999999
 20
192.92500000000001
 30
0.0
 11
63.552100000000003
 21
192.92500000000001
 31
0.0
  0
LINE
  5
1DE
  8
_________1
 62
     7
 10
63.552100000000003
 20
192.92500000000001
 30
0.0
 11
64.557400000000001
 21
192.92500000000001
 31
0.0
  0
LINE
  5
1DF
  8
_________1
 62
     7
 10
55.808799999999998
 20
184.946
 30
0.0
 11
55.808799999999998
 21
159.547
 31
0.0
  0
ARC
  5
1E0
  8
_________1
 62
     7
 10
51.896076000000001
 20
184.77134699999999
 30
0.0
 40
3.9166729999999998
 50
2.5626660000000001
 51
87.926197999999999
  0
LINE
  5
1E1
  8
_________1
 62
     7
 10
27.669799999999999
 20
188.685
 30
0.0
 11
52.037799999999997
 21
188.685
 31
0.0
  0
LINE
  5
1E2
  8
_________1
 62
     7
 10
26.6645
 20
188.685
 30
0.0
 11
27.669799999999999
 21
188.685
 31
0.0
  0
LINE
  5
1E3
  8
_________1
  6
AIGENLINE002
 62
     7
 10
-27.3032
 20
204.80199999999999
 30
0.0
 11
-27.3032
 21
168.97
 31
0.0
  0
LINE
  5
1E4
  8
_________1
  6
AIGENLINE002
 62
     7
 10
-27.3032
 20
163.54900000000001
 30
0.0
 11
-27.3032
 21
141.86799999999999
 31
0.0
  0
LINE
  5
1E5
  8
_________1
 62
     7
 10
-33.534799999999997
 20
158.79900000000001
 30
0.0
 11
-33.534799999999997
 21
158.42500000000001
 31
0.0
  0
LINE
  5
1E6
  8
_________1
 62
     7
 10
-21.0717
 20
158.79900000000001
 30
0.0
 11
-21.0717
 21
158.42500000000001
 31
0.0
  0
LINE
  5
1E7
  8
_________1
 62
     7
 10
-21.0717
 20
158.42500000000001
 30
0.0
 11
-33.534799999999997
 21
158.42500000000001
 31
0.0
  0
ARC
  5
1E8
  8
_________1
 62
     7
 10
-25.876104000000002
 20
140.18110799999999
 30
0.0
 40
8.3772130000000011
 50
114.538155
 51
116.51754099999999
  0
ARC
  5
1E9
  8
_________1
 62
     7
 10
-28.366225
 20
139.635041
 30
0.0
 40
8.9822729999999993
 50
63.549112999999998
 51
65.395151999999996
  0
ARC
  5
1EA
  8
_________1
 62
     7
 10
-29.486307
 20
144.17983100000001
 30
0.0
 40
4.6813859999999989
 50
129.31435200000001
 51
131.665268
  0
ARC
  5
1EB
  8
_________1
 62
     7
 10
-32.405932999999997
 20
144.628332
 30
0.0
 40
4.0999749999999988
 50
48.037827
 51
50.714861999999989
  0
ARC
  5
1EC
  8
_________1
 62
     7
 10
-29.872160000000001
 20
145.27392
 30
0.0
 40
3.6367569999999989
 50
135.96694299999999
 51
138.640547
  0
ARC
  5
1ED
  8
_________1
 62
     7
 10
-19.918174
 20
143.73004399999999
 30
0.0
 40
5.9131039999999988
 50
136.48161400000001
 51
138.125877
  0
ARC
  5
1EE
  8
_________1
 62
     7
 10
-25.200559999999999
 20
144.84311299999999
 30
0.0
 40
4.2719129999999987
 50
41.558219999999992
 51
43.834249999999997
  0
ARC
  5
1EF
  8
_________1
 62
     7
 10
-24.212864
 20
157.409526
 30
0.0
 40
12.236293
 50
243.7946060000001
 51
245.149698
  0
ARC
  5
1F0
  8
_________1
 62
     7
 10
-29.327521999999998
 20
156.48577900000001
 30
0.0
 40
11.212687000000001
 50
294.78846600000003
 51
296.26727
  0
ARC
  5
1F1
  8
_________1
 62
     7
 10
-29.726575
 20
149.6466889999999
 30
0.0
 40
4.3114369999999997
 50
228.23385400000001
 51
230.78652600000001
  0
ARC
  5
1F2
  8
_________1
 62
     7
 10
-33.868583000000001
 20
151.184684
 30
0.0
 40
6.3460510000000001
 50
309.75892900000002
 51
311.488381
  0
ARC
  5
1F3
  8
_________1
 62
     7
 10
-30.116831999999999
 20
148.608271
 30
0.0
 40
3.3039510000000001
 50
221.22476900000001
 51
224.16774100000001
  0
ARC
  5
1F4
  8
_________1
 62
     7
 10
-20.452826000000002
 20
149.88459599999999
 30
0.0
 40
5.1857319999999989
 50
221.75879800000001
 51
223.633712
  0
ARC
  5
1F5
  8
_________1
 62
     7
 10
-28.506941000000001
 20
152.31546399999999
 30
0.0
 40
8.7702100000000005
 50
316.74947300000002
 51
317.85805699999997
  0
LINE
  5
1F6
  8
_________1
 62
     7
 10
-24.365200000000002
 20
146.43100000000001
 30
0.0
 11
-24.365200000000002
 21
147.67699999999999
 31
0.0
  0
LINE
  5
1F7
  8
_________1
 62
     7
 10
-29.616299999999999
 20
147.67699999999999
 30
0.0
 11
-29.616299999999999
 21
146.43100000000001
 31
0.0
  0
LINE
  5
1F8
  8
_________1
 62
     7
 10
-29.6645
 20
146.43100000000001
 30
0.0
 11
-29.6645
 21
147.67699999999999
 31
0.0
  0
LINE
  5
1F9
  8
_________1
 62
     7
 10
-32.598399999999998
 20
147.67699999999999
 30
0.0
 11
-32.598399999999998
 21
146.43100000000001
 31
0.0
  0
LINE
  5
1FA
  8
_________1
 62
     7
 10
-32.601799999999997
 20
146.43100000000001
 30
0.0
 11
-32.601799999999997
 21
147.67699999999999
 31
0.0
  0
LINE
  5
1FB
  8
_________1
 62
     7
 10
-22.004000000000001
 20
146.43100000000001
 30
0.0
 11
-22.004000000000001
 21
147.67699999999999
 31
0.0
  0
LINE
  5
1FC
  8
_________1
 62
     7
 10
-24.321100000000001
 20
147.67699999999999
 30
0.0
 11
-24.321100000000001
 21
146.43100000000001
 31
0.0
  0
LINE
  5
1FD
  8
_________1
 62
     7
 10
-24.365200000000002
 20
147.67699999999999
 30
0.0
 11
-24.321100000000001
 21
147.67699999999999
 31
0.0
  0
LINE
  5
1FE
  8
_________1
 62
     7
 10
-29.6645
 20
147.67699999999999
 30
0.0
 11
-29.616299999999999
 21
147.67699999999999
 31
0.0
  0
LINE
  5
1FF
  8
_________1
 62
     7
 10
-24.365200000000002
 20
146.43100000000001
 30
0.0
 11
-24.321100000000001
 21
146.43100000000001
 31
0.0
  0
LINE
  5
200
  8
_________1
 62
     7
 10
-29.6645
 20
146.43100000000001
 30
0.0
 11
-29.616299999999999
 21
146.43100000000001
 31
0.0
  0
LINE
  5
201
  8
_________1
 62
     7
 10
-29.3552
 20
146.30600000000001
 30
0.0
 11
-24.6264
 21
146.30600000000001
 31
0.0
  0
LINE
  5
202
  8
_________1
 62
     7
 10
-24.6264
 20
146.30600000000001
 30
0.0
 11
-24.206099999999999
 21
146.30600000000001
 31
0.0
  0
LINE
  5
203
  8
_________1
 62
     7
 10
-29.809899999999999
 20
146.30600000000001
 30
0.0
 11
-29.3552
 21
146.30600000000001
 31
0.0
  0
LINE
  5
204
  8
_________1
 62
     7
 10
-32.452300000000001
 20
146.30600000000001
 30
0.0
 11
-29.809899999999999
 21
146.30600000000001
 31
0.0
  0
LINE
  5
205
  8
_________1
 62
     7
 10
-32.486800000000002
 20
146.30600000000001
 30
0.0
 11
-32.452300000000001
 21
146.30600000000001
 31
0.0
  0
LINE
  5
206
  8
_________1
 62
     7
 10
-24.206099999999999
 20
146.30600000000001
 30
0.0
 11
-22.119
 21
146.30600000000001
 31
0.0
  0
LINE
  5
207
  8
_________1
 62
     7
 10
-33.534799999999997
 20
148.79900000000001
 30
0.0
 11
-33.534799999999997
 21
148.17599999999999
 31
0.0
  0
LINE
  5
208
  8
_________1
 62
     7
 10
-21.0717
 20
148.79900000000001
 30
0.0
 11
-21.0717
 21
148.17599999999999
 31
0.0
  0
LINE
  5
209
  8
_________1
 62
     7
 10
-21.0717
 20
148.17599999999999
 30
0.0
 11
-33.534799999999997
 21
148.17599999999999
 31
0.0
  0
LINE
  5
20A
  8
_________1
 62
     7
 10
-21.0717
 20
148.79900000000001
 30
0.0
 11
-33.534799999999997
 21
148.79900000000001
 31
0.0
  0
LINE
  5
20B
  8
_________1
 62
     7
 10
-21.0717
 20
147.80199999999999
 30
0.0
 11
-21.0717
 21
147.92599999999999
 31
0.0
  0
LINE
  5
20C
  8
_________1
 62
     7
 10
-33.534799999999997
 20
147.80199999999999
 30
0.0
 11
-33.534799999999997
 21
147.92599999999999
 31
0.0
  0
ARC
  5
20D
  8
_________1
 62
     7
 10
-21.826291999999999
 20
147.918936
 30
0.0
 40
0.257031
 50
11.034354
 51
88.442433999999992
  0
ARC
  5
20E
  8
_________1
 62
     7
 10
-32.780715000000001
 20
147.91955100000001
 30
0.0
 40
0.256402
 50
91.444980000000015
 51
169.078192
  0
ARC
  5
20F
  8
_________1
 62
     7
 10
-21.523004
 20
147.97847300000001
 30
0.0
 40
0.052047
 50
191.46165300000001
 51
268.45919700000002
  0
ARC
  5
210
  8
_________1
 62
     7
 10
-33.083066000000002
 20
147.97795500000001
 30
0.0
 40
0.051537
 50
271.85882500000002
 51
349.01066200000002
  0
LINE
  5
211
  8
_________1
 62
     7
 10
-33.032499999999999
 20
147.96799999999999
 30
0.0
 11
-21.574000000000002
 21
147.96799999999999
 31
0.0
  0
LINE
  5
212
  8
_________1
 62
     7
 10
-33.534799999999997
 20
147.92599999999999
 30
0.0
 11
-21.0717
 21
147.92599999999999
 31
0.0
  0
LINE
  5
213
  8
_________1
 62
     7
 10
-33.534799999999997
 20
147.80199999999999
 30
0.0
 11
-21.0717
 21
147.80199999999999
 31
0.0
  0
LINE
  5
214
  8
_________1
 62
     7
 10
-29.608699999999999
 20
188.29900000000001
 30
0.0
 11
-29.608699999999999
 21
188.685
 31
0.0
  0
LINE
  5
215
  8
_________1
 62
     7
 10
-24.9971
 20
188.29900000000001
 30
0.0
 11
-24.9971
 21
188.685
 31
0.0
  0
LINE
  5
216
  8
_________1
 62
     7
 10
-26.9208
 20
188.29900000000001
 30
0.0
 11
-24.9971
 21
188.29900000000001
 31
0.0
  0
LINE
  5
217
  8
_________1
 62
     7
 10
-29.608699999999999
 20
188.29900000000001
 30
0.0
 11
-26.9208
 21
188.29900000000001
 31
0.0
  0
LINE
  5
218
  8
_________1
 62
     7
 10
-19.825299999999999
 20
158.79900000000001
 30
0.0
 11
-19.825299999999999
 21
159.547
 31
0.0
  0
LINE
  5
219
  8
_________1
 62
     7
 10
-34.781199999999998
 20
158.79900000000001
 30
0.0
 11
-34.781199999999998
 21
159.547
 31
0.0
  0
LINE
  5
21A
  8
_________1
 62
     7
 10
-34.781199999999998
 20
159.547
 30
0.0
 11
-19.825299999999999
 21
159.547
 31
0.0
  0
LINE
  5
21B
  8
_________1
 62
     7
 10
-34.781199999999998
 20
158.79900000000001
 30
0.0
 11
-19.825299999999999
 21
158.79900000000001
 31
0.0
  0
ARC
  5
21C
  8
_________1
 62
     7
 10
-31.500305999999998
 20
201.896343
 30
0.0
 40
0.277457
 50
152.34556499999999
 51
179.872016
  0
ARC
  5
21D
  8
_________1
 62
     7
 10
-31.482927
 20
201.88615100000001
 30
0.0
 40
0.297582
 50
129.876822
 51
152.16021599999999
  0
ARC
  5
21E
  8
_________1
 62
     7
 10
-31.447652999999999
 20
201.85222899999999
 30
0.0
 40
0.346271
 50
119.32029900000001
 51
130.75745000000001
  0
ARC
  5
21F
  8
_________1
 62
     7
 10
-31.344338
 20
201.669691
 30
0.0
 40
0.556018
 50
108.648787
 51
119.39168100000001
  0
ARC
  5
220
  8
_________1
 62
     7
 10
-31.191382999999998
 20
201.23595
 30
0.0
 40
1.015914999999999
 50
102.297217
 51
109.000055
  0
ARC
  5
221
  8
_________1
 62
     7
 10
-30.966818
 20
200.27881300000001
 30
0.0
 40
1.9989799999999991
 50
96.808648000000005
 51
102.74318
  0
ARC
  5
222
  8
_________1
 62
     7
 10
-30.780712999999999
 20
199.09665699999999
 30
0.0
 40
3.195174999999999
 50
94.731537999999986
 51
97.609205000000003
  0
ARC
  5
223
  8
_________1
 62
     7
 10
-30.575455000000002
 20
196.91686899999999
 30
0.0
 40
5.3845219999999996
 50
91.935527000000008
 51
94.99494
  0
ARC
  5
224
  8
_________1
 62
     7
 10
-30.531278
 20
195.85209499999999
 30
0.0
 40
6.4501860000000004
 50
90.000347999999988
 51
92.008271999999991
  0
LINE
  5
225
  8
_________1
 62
     7
 10
-24.0504
 20
202.30199999999999
 30
0.0
 11
-30.531300000000002
 21
202.30199999999999
 31
0.0
  0
ARC
  5
226
  8
_________1
 62
     7
 10
-24.049208
 20
195.84674799999999
 30
0.0
 40
6.4555329999999991
 50
87.385831999999979
 51
90.010243000000003
  0
ARC
  5
227
  8
_________1
 62
     7
 10
-23.971962999999999
 20
197.53858
 30
0.0
 40
4.761938999999999
 50
82.139189000000016
 51
87.385840000000016
  0
ARC
  5
228
  8
_________1
 62
     7
 10
-23.636178000000001
 20
200.16767400000001
 30
0.0
 40
2.1117970000000001
 50
75.895714999999996
 51
81.408159999999995
  0
ARC
  5
229
  8
_________1
 62
     7
 10
-23.340641999999999
 20
201.40128999999999
 30
0.0
 40
0.843468
 50
66.916224999999997
 51
74.945371999999992
  0
ARC
  5
22A
  8
_________1
 62
     7
 10
-23.231000999999999
 20
201.68871899999999
 30
0.0
 40
0.536196
 50
57.350521999999998
 51
65.651801000000006
  0
ARC
  5
22B
  8
_________1
 62
     7
 10
-23.131537000000002
 20
201.85215299999999
 30
0.0
 40
0.344953
 50
46.521926999999998
 51
56.615589999999997
  0
ARC
  5
22C
  8
_________1
 62
     7
 10
-23.102409999999999
 20
201.88394500000001
 30
0.0
 40
0.301844
 50
25.253606000000001
 51
46.381529999999998
  0
ARC
  5
22D
  8
_________1
 62
     7
 10
-23.093059
 20
201.893969
 30
0.0
 40
0.289154
 50
0.5932680000000001
 51
24.247589000000001
  0
LINE
  5
22E
  8
_________1
 62
     7
 10
-23.0533
 20
193.523
 30
0.0
 11
-22.803899999999999
 21
193.523
 31
0.0
  0
LINE
  5
22F
  8
_________1
 62
     7
 10
-31.528300000000002
 20
193.523
 30
0.0
 11
-31.777799999999999
 21
193.523
 31
0.0
  0
LINE
  5
230
  8
_________1
 62
     7
 10
-22.803899999999999
 20
198.35499999999999
 30
0.0
 11
-23.0533
 21
198.35499999999999
 31
0.0
  0
LINE
  5
231
  8
_________1
 62
     7
 10
-23.0533
 20
193.523
 30
0.0
 11
-31.528300000000002
 21
193.523
 31
0.0
  0
LINE
  5
232
  8
_________1
 62
     7
 10
-23.0533
 20
198.35499999999999
 30
0.0
 11
-31.528300000000002
 21
198.35499999999999
 31
0.0
  0
ARC
  5
233
  8
_________1
 62
     7
 10
-23.062756
 20
199.84444500000001
 30
0.0
 40
0.259154
 50
272.08078999999998
 51
357.16245700000002
  0
LINE
  5
234
  8
_________1
 62
     7
 10
-23.0533
 20
199.58500000000001
 30
0.0
 11
-31.528300000000002
 21
199.58500000000001
 31
0.0
  0
LINE
  5
235
  8
_________1
 62
     7
 10
-22.803899999999999
 20
201.404
 30
0.0
 11
-22.803899999999999
 21
201.89699999999999
 31
0.0
  0
ARC
  5
236
  8
_________1
 62
     7
 10
-31.518910000000002
 20
199.84446
 30
0.0
 40
0.2591699999999999
 50
182.840867
 51
267.91592600000001
  0
LINE
  5
237
  8
_________1
 62
     7
 10
-31.777799999999999
 20
201.404
 30
0.0
 11
-31.777799999999999
 21
201.89699999999999
 31
0.0
  0
LINE
  5
238
  8
_________1
 62
     7
 10
-31.777799999999999
 20
198.35499999999999
 30
0.0
 11
-31.528300000000002
 21
198.35499999999999
 31
0.0
  0
LINE
  5
239
  8
_________1
 62
     7
 10
-22.803899999999999
 20
193.523
 30
0.0
 11
-22.803899999999999
 21
198.35499999999999
 31
0.0
  0
LINE
  5
23A
  8
_________1
 62
     7
 10
-22.803899999999999
 20
199.83199999999999
 30
0.0
 11
-22.803899999999999
 21
198.35499999999999
 31
0.0
  0
LINE
  5
23B
  8
_________1
 62
     7
 10
-22.803899999999999
 20
199.83199999999999
 30
0.0
 11
-22.803899999999999
 21
201.404
 31
0.0
  0
ARC
  5
23C
  8
_________1
 62
     7
 10
-24.051911
 20
194.49502899999999
 30
0.0
 40
7.1046209999999999
 50
83.580250000000007
 51
89.987507999999991
  0
ARC
  5
23D
  8
_________1
 62
     7
 10
-23.602903000000001
 20
198.803742
 30
0.0
 40
2.7729499999999989
 50
78.722094999999996
 51
82.845275999999998
  0
ARC
  5
23E
  8
_________1
 62
     7
 10
-23.299482000000001
 20
200.30400700000001
 30
0.0
 40
1.242321999999999
 50
72.545339999999996
 51
78.913871999999998
  0
ARC
  5
23F
  8
_________1
 62
     7
 10
-23.058382000000002
 20
201.06296800000001
 30
0.0
 40
0.445995
 50
62.321066000000009
 51
72.846885
  0
ARC
  5
240
  8
_________1
 62
     7
 10
-22.911190000000001
 20
201.340408
 30
0.0
 40
0.13194
 50
43.834291
 51
62.960582999999993
  0
ARC
  5
241
  8
_________1
 62
     7
 10
-22.846041
 20
201.402154
 30
0.0
 40
0.042185
 50
3.1657659999999992
 51
44.622878000000007
  0
LINE
  5
242
  8
_________1
 62
     7
 10
-24.0504
 20
201.59999999999999
 30
0.0
 11
-30.531300000000002
 21
201.59999999999999
 31
0.0
  0
ARC
  5
243
  8
_________1
 62
     7
 10
-30.529775999999998
 20
194.495136
 30
0.0
 40
7.1045139999999991
 50
90.012423999999996
 51
96.419778000000008
  0
ARC
  5
244
  8
_________1
 62
     7
 10
-30.978999999999999
 20
198.805103
 30
0.0
 40
2.771571999999999
 50
97.153677999999999
 51
101.27891099999999
  0
ARC
  5
245
  8
_________1
 62
     7
 10
-31.28206500000001
 20
200.30341899999999
 30
0.0
 40
1.2429250000000001
 50
101.08698200000001
 51
107.452665
  0
ARC
  5
246
  8
_________1
 62
     7
 10
-31.523416999999998
 20
201.06327400000001
 30
0.0
 40
0.44567
 50
107.151003
 51
117.683881
  0
ARC
  5
247
  8
_________1
 62
     7
 10
-31.670399
 20
201.34026299999999
 30
0.0
 40
0.132111
 50
117.046722
 51
136.14997500000001
  0
ARC
  5
248
  8
_________1
 62
     7
 10
-31.735679999999999
 20
201.40217699999999
 30
0.0
 40
0.042145
 50
135.36778799999999
 51
176.862416
  0
LINE
  5
249
  8
_________1
 62
     7
 10
-31.777799999999999
 20
199.83199999999999
 30
0.0
 11
-31.777799999999999
 21
201.404
 31
0.0
  0
LINE
  5
24A
  8
_________1
 62
     7
 10
-31.777799999999999
 20
199.83199999999999
 30
0.0
 11
-31.777799999999999
 21
198.35499999999999
 31
0.0
  0
LINE
  5
24B
  8
_________1
 62
     7
 10
-31.777799999999999
 20
193.523
 30
0.0
 11
-31.777799999999999
 21
198.35499999999999
 31
0.0
  0
ARC
  5
24C
  8
_________1
 62
     7
 10
-27.604505
 20
192.66186999999999
 30
0.0
 40
4.4844919999999986
 50
3.3684080000000001
 51
11.076561999999999
  0
ARC
  5
24D
  8
_________1
 62
     7
 10
-27.220238999999999
 20
192.689617
 30
0.0
 40
4.2643190000000004
 50
168.72410300000001
 51
176.83088799999999
  0
LINE
  5
24E
  8
_________1
 62
     7
 10
-30.518899999999999
 20
188.685
 30
0.0
 11
-30.518899999999999
 21
188.935
 31
0.0
  0
LINE
  5
24F
  8
_________1
 62
     7
 10
-24.087599999999998
 20
188.935
 30
0.0
 11
-24.087599999999998
 21
188.685
 31
0.0
  0
LINE
  5
250
  8
_________1
 62
     7
 10
-30.518899999999999
 20
192.67599999999999
 30
0.0
 11
-30.518899999999999
 21
192.92500000000001
 31
0.0
  0
LINE
  5
251
  8
_________1
 62
     7
 10
-24.087599999999998
 20
192.92500000000001
 30
0.0
 11
-24.087599999999998
 21
192.67599999999999
 31
0.0
  0
LINE
  5
252
  8
_________1
 62
     7
 10
-24.087599999999998
 20
192.67599999999999
 30
0.0
 11
-24.087599999999998
 21
188.935
 31
0.0
  0
LINE
  5
253
  8
_________1
 62
     7
 10
-30.518899999999999
 20
192.67599999999999
 30
0.0
 11
-30.518899999999999
 21
188.935
 31
0.0
  0
ARC
  5
254
  8
_________1
 62
     7
 10
-31.506288000000001
 20
192.66699800000001
 30
0.0
 40
0.258543
 50
92.137941999999995
 51
177.98094
  0
LINE
  5
255
  8
_________1
 62
     7
 10
-31.764700000000001
 20
192.67599999999999
 30
0.0
 11
-31.764700000000001
 21
188.935
 31
0.0
  0
ARC
  5
256
  8
_________1
 62
     7
 10
-23.100034999999998
 20
192.66644700000001
 30
0.0
 40
0.259087
 50
2.1366320000000001
 51
87.902940999999998
  0
LINE
  5
257
  8
_________1
 62
     7
 10
-22.841100000000001
 20
192.67599999999999
 30
0.0
 11
-22.841100000000001
 21
188.935
 31
0.0
  0
LINE
  5
258
  8
_________1
 62
     7
 10
-31.764700000000001
 20
184.946
 30
0.0
 11
-31.515899999999998
 21
184.946
 31
0.0
  0
LINE
  5
259
  8
_________1
 62
     7
 10
-23.090599999999998
 20
184.946
 30
0.0
 11
-31.515899999999998
 21
184.946
 31
0.0
  0
ARC
  5
25A
  8
_________1
 62
     7
 10
-31.505804999999999
 20
188.9443
 30
0.0
 40
0.259042
 50
182.12168399999999
 51
267.759433
  0
LINE
  5
25B
  8
_________1
 62
     7
 10
-22.841100000000001
 20
184.946
 30
0.0
 11
-23.090599999999998
 21
184.946
 31
0.0
  0
ARC
  5
25C
  8
_________1
 62
     7
 10
-23.100180999999999
 20
188.94451599999999
 30
0.0
 40
0.259239
 50
272.1282819999999
 51
357.83214500000003
  0
LINE
  5
25D
  8
_________1
 62
     7
 10
-23.090599999999998
 20
192.92500000000001
 30
0.0
 11
-24.087599999999998
 21
192.92500000000001
 31
0.0
  0
LINE
  5
25E
  8
_________1
 62
     7
 10
-24.087599999999998
 20
192.92500000000001
 30
0.0
 11
-30.518899999999999
 21
192.92500000000001
 31
0.0
  0
LINE
  5
25F
  8
_________1
 62
     7
 10
-30.518899999999999
 20
192.92500000000001
 30
0.0
 11
-31.515899999999998
 21
192.92500000000001
 31
0.0
  0
LINE
  5
260
  8
_________1
 62
     7
 10
-31.764700000000001
 20
184.946
 30
0.0
 11
-31.764700000000001
 21
159.547
 31
0.0
  0
LINE
  5
261
  8
_________1
 62
     7
 10
-31.764700000000001
 20
184.946
 30
0.0
 11
-31.764700000000001
 21
188.935
 31
0.0
  0
LINE
  5
262
  8
_________1
 62
     7
 10
-30.518899999999999
 20
188.685
 30
0.0
 11
-31.515899999999998
 21
188.685
 31
0.0
  0
LINE
  5
263
  8
_________1
 62
     7
 10
-22.841100000000001
 20
184.946
 30
0.0
 11
-22.841100000000001
 21
159.547
 31
0.0
  0
LINE
  5
264
  8
_________1
 62
     7
 10
-22.841100000000001
 20
188.935
 30
0.0
 11
-22.841100000000001
 21
184.946
 31
0.0
  0
LINE
  5
265
  8
_________1
 62
     7
 10
-23.090599999999998
 20
188.685
 30
0.0
 11
-24.087599999999998
 21
188.685
 31
0.0
  0
LINE
  5
266
  8
_________1
 62
     7
 10
-24.087599999999998
 20
188.685
 30
0.0
 11
-30.518899999999999
 21
188.685
 31
0.0
  0
LINE
  5
267
  8
_________1
 62
     7
 10
-24.115500000000001
 20
144.05600000000001
 30
0.0
 11
-24.115500000000001
 21
99.354100000000003
 31
0.0
  0
LINE
  5
268
  8
_________1
 62
     7
 10
-26.7407
 20
144.05600000000001
 30
0.0
 11
-26.7407
 21
99.354100000000003
 31
0.0
  0
LINE
  5
269
  8
_________1
  6
AIGENLINE002
 62
     7
 10
-29.178100000000001
 20
157.262
 30
0.0
 11
-29.178100000000001
 21
93.022000000000006
 31
0.0
  0
LINE
  5
26A
  8
_________1
  6
AIGENLINE002
 62
     7
 10
-43.803299999999993
 20
109.593
 30
0.0
 11
-29.178100000000001
 21
93.022000000000006
 31
0.0
  0
LINE
  5
26B
  8
_________1
  6
AIGENLINE002
 62
     7
 10
-25.428100000000001
 20
157.262
 30
0.0
 11
-25.428100000000001
 21
93.022000000000006
 31
0.0
  0
LINE
  5
26C
  8
_________1
 62
     7
 10
-27.865500000000001
 20
144.05600000000001
 30
0.0
 11
-27.865500000000001
 21
99.354100000000003
 31
0.0
  0
LINE
  5
26D
  8
_________1
 62
     7
 10
-30.4907
 20
144.05600000000001
 30
0.0
 11
-30.4907
 21
99.354100000000003
 31
0.0
  0
LINE
  5
26E
  8
_________1
 62
     7
 10
-8.0498600000000007
 20
46.6738
 30
0.0
 11
-8.0498600000000007
 21
44.047899999999998
 31
0.0
  0
LINE
  5
26F
  8
_________1
 62
     7
 10
-9.4258399999999991
 20
46.6738
 30
0.0
 11
-9.4258399999999991
 21
44.047899999999998
 31
0.0
  0
ARC
  5
270
  8
_________1
 62
     7
 10
-11.632242
 20
52.390917999999999
 30
0.0
 40
9.0796229999999998
 50
291.69347099999999
 51
293.23802999999998
  0
ARC
  5
271
  8
_________1
 62
     7
 10
-8.9634369999999972
 20
45.720365999999991
 30
0.0
 40
1.895068
 50
281.78519599999998
 51
291.26780300000001
  0
ARC
  5
272
  8
_________1
 62
     7
 10
-8.7577490000000004
 20
44.812657000000002
 30
0.0
 40
0.9646139999999999
 50
270.46569699999998
 51
280.83723800000001
  0
ARC
  5
273
  8
_________1
 62
     7
 10
-8.7488299999999999
 20
44.762708000000003
 30
0.0
 40
0.914634
 50
257.58986499999997
 51
269.93241799999998
  0
ARC
  5
274
  8
_________1
 62
     7
 10
-8.6265979999999995
 20
45.380829999999989
 30
0.0
 40
1.54464
 50
247.191416
 51
258.089269
  0
ARC
  5
275
  8
_________1
 62
     7
 10
-8.1600750000000009
 20
46.572203000000002
 30
0.0
 40
2.8238819999999989
 50
243.36945
 51
247.83659700000001
  0
ARC
  5
276
  8
_________1
 62
     7
 10
-8.6699490000000008
 20
45.555708000000003
 30
0.0
 40
1.349596999999999
 50
97.382283000000015
 51
124.06180000000001
  0
ARC
  5
277
  8
_________1
 62
     7
 10
-8.7488149999999987
 20
45.994287999999997
 30
0.0
 40
0.9047829999999999
 50
90.069248000000016
 51
95.997880000000009
  0
ARC
  5
278
  8
_________1
 62
     7
 10
-8.7507059999999992
 20
45.980752000000003
 30
0.0
 40
0.9183189999999999
 50
77.80587100000001
 51
89.950249999999997
  0
ARC
  5
279
  8
_________1
 62
     7
 10
-8.8408759999999997
 20
45.51517299999999
 30
0.0
 40
1.392476
 50
66.812563999999995
 51
78.225831999999997
  0
ARC
  5
27A
  8
_________1
 62
     7
 10
-9.0719320000000003
 20
44.933621000000002
 30
0.0
 40
2.018095999999999
 50
59.572125999999997
 51
67.283528000000004
  0
LINE
  5
27B
  8
_________1
 62
     7
 10
-13.5503
 20
46.6738
 30
0.0
 11
-13.5503
 21
44.047899999999998
 31
0.0
  0
LINE
  5
27C
  8
_________1
 62
     7
 10
-12.175700000000001
 20
46.6738
 30
0.0
 11
-12.175700000000001
 21
44.047899999999998
 31
0.0
  0
ARC
  5
27D
  8
_________1
 62
     7
 10
-15.528428
 20
51.842950999999992
 30
0.0
 40
8.4854880000000001
 50
291.6212450000001
 51
293.2727900000001
  0
ARC
  5
27E
  8
_________1
 62
     7
 10
-13.128997999999999
 20
45.821170000000002
 30
0.0
 40
2.003318999999999
 50
282.22823799999998
 51
291.284762
  0
ARC
  5
27F
  8
_________1
 62
     7
 10
-12.860735999999999
 20
44.651681999999987
 30
0.0
 40
0.8036760000000001
 50
270.74496599999998
 51
281.19653699999998
  0
ARC
  5
280
  8
_________1
 62
     7
 10
-12.849478
 20
44.755606
 30
0.0
 40
0.9075319999999999
 50
257.811983
 51
269.94892599999997
  0
ARC
  5
281
  8
_________1
 62
     7
 10
-12.750334000000001
 20
45.289175999999991
 30
0.0
 40
1.450091999999999
 50
252.94235800000001
 51
258.43382700000001
  0
ARC
  5
282
  8
_________1
 62
     7
 10
-12.503481000000001
 20
46.090482999999999
 30
0.0
 40
2.288559999999999
 50
248.53612000000001
 51
252.91874200000001
  0
ARC
  5
283
  8
_________1
 62
     7
 10
-11.037829
 20
49.783757999999999
 30
0.0
 40
6.2620170000000002
 50
246.34494799999999
 51
248.42099400000001
  0
ARC
  5
284
  8
_________1
 62
     7
 10
-12.548399
 20
44.96069099999999
 30
0.0
 40
1.984561
 50
107.879918
 51
120.322425
  0
ARC
  5
285
  8
_________1
 62
     7
 10
-12.825835
 20
45.771538
 30
0.0
 40
1.1277969999999991
 50
91.242338000000004
 51
107.113371
  0
ARC
  5
286
  8
_________1
 62
     7
 10
-12.851013
 20
46.132444999999997
 30
0.0
 40
0.7666260000000001
 50
76.139209999999991
 51
89.945779999999999
  0
ARC
  5
287
  8
_________1
 62
     7
 10
-12.99432
 20
45.455785999999989
 30
0.0
 40
1.4580930000000001
 50
65.824793
 51
77.041786999999985
  0
ARC
  5
288
  8
_________1
 62
     7
 10
-13.240843
 20
44.84684
 30
0.0
 40
2.1147320000000001
 50
59.757435000000001
 51
66.488002000000009
  0
ARC
  5
289
  8
_________1
 62
     7
 10
-8.1110100000000003
 20
37.472444000000003
 30
0.0
 40
6.7056170000000002
 50
101.307756
 51
103.212599
  0
ARC
  5
28A
  8
_________1
 62
     7
 10
-11.125734
 20
49.627242000000003
 30
0.0
 40
5.8185999999999991
 50
278.61310900000001
 51
284.756394
  0
ARC
  5
28B
  8
_________1
 62
     7
 10
-10.600604000000001
 20
46.138715000000012
 30
0.0
 40
2.290775
 50
270.619889
 51
278.69412499999999
  0
LINE
  5
28C
  8
_________1
 62
     7
 10
-10.575799999999999
 20
43.848100000000002
 30
0.0
 11
-11.0251
 21
43.848100000000002
 31
0.0
  0
ARC
  5
28D
  8
_________1
 62
     7
 10
-11.023510999999999
 20
45.8262
 30
0.0
 40
1.9781259999999989
 50
261.57662099999999
 51
269.95502499999998
  0
ARC
  5
28E
  8
_________1
 62
     7
 10
-10.810407
 20
47.467747999999993
 30
0.0
 40
3.633303999999999
 50
258.55842999999999
 51
262.04435799999999
  0
ARC
  5
28F
  8
_________1
 62
     7
 10
-9.3940490000000008
 20
54.347735
 30
0.0
 40
10.657556
 50
256.54078600000003
 51
258.43242600000002
  0
ARC
  5
290
  8
_________1
 62
     7
 10
-13.294027
 20
38.138585999999997
 30
0.0
 40
6.014189
 50
76.348943999999989
 51
79.283904000000007
  0
ARC
  5
291
  8
_________1
 62
     7
 10
-10.934901999999999
 20
43.016730000000003
 30
0.0
 40
3.8618030000000001
 50
102.812912
 51
108.74207800000001
  0
ARC
  5
292
  8
_________1
 62
     7
 10
-10.695473
 20
42.157732000000003
 30
0.0
 40
4.7527039999999996
 50
94.32944599999999
 51
103.330918
  0
ARC
  5
293
  8
_________1
 62
     7
 10
-10.907569000000001
 20
44.611604999999997
 30
0.0
 40
2.2899720000000001
 50
87.318690000000004
 51
93.672809999999998
  0
ARC
  5
294
  8
_________1
 62
     7
 10
-10.717185000000001
 20
45.48324199999999
 30
0.0
 40
1.418274
 50
88.960406000000006
 51
93.365382999999994
  0
ARC
  5
295
  8
_________1
 62
     7
 10
-10.730847000000001
 20
44.326374999999999
 30
0.0
 40
2.5752090000000001
 50
85.185453999999993
 51
89.123485000000002
  0
ARC
  5
296
  8
_________1
 62
     7
 10
-10.928241
 20
42.014420000000001
 30
0.0
 40
4.895573999999999
 50
72.128121999999991
 51
85.154398999999998
  0
LINE
  5
297
  8
_________1
 62
     7
 10
-9.5505499999999994
 20
47.074800000000003
 30
0.0
 11
-10.8004
 21
47.074800000000003
 31
0.0
  0
LINE
  5
298
  8
_________1
 62
     7
 10
-12.0503
 20
47.074800000000003
 30
0.0
 11
-10.8004
 21
47.074800000000003
 31
0.0
  0
LINE
  5
299
  8
_________1
 62
     7
 10
-13.101100000000001
 20
43.798499999999997
 30
0.0
 11
-10.8004
 21
43.798499999999997
 31
0.0
  0
LINE
  5
29A
  8
_________1
 62
     7
 10
-10.8004
 20
43.798499999999997
 30
0.0
 11
-8.4997899999999991
 21
43.798499999999997
 31
0.0
  0
LINE
  5
29B
  8
_________1
 62
     7
 10
-8.2000700000000002
 20
43.9983
 30
0.0
 11
-8.4997899999999991
 21
43.823300000000003
 31
0.0
  0
LINE
  5
29C
  8
_________1
 62
     7
 10
-8.4997899999999991
 20
43.823300000000003
 30
0.0
 11
-8.4997899999999991
 21
43.798499999999997
 31
0.0
  0
LINE
  5
29D
  8
_________1
 62
     7
 10
-8.0498600000000007
 20
44.047899999999998
 30
0.0
 11
-8.4997899999999991
 21
43.823300000000003
 31
0.0
  0
LINE
  5
29E
  8
_________1
 62
     7
 10
-13.5503
 20
44.047899999999998
 30
0.0
 11
-13.101100000000001
 21
43.798499999999997
 31
0.0
  0
LINE
  5
29F
  8
_________1
 62
     7
 10
-13.101100000000001
 20
46.923900000000003
 30
0.0
 11
-8.4997899999999991
 21
46.923900000000003
 31
0.0
  0
LINE
  5
2A0
  8
_________1
 62
     7
 10
-12.3507
 20
47.0486
 30
0.0
 11
-9.25014
 21
47.0486
 31
0.0
  0
ARC
  5
2A1
  8
_________1
 62
     7
 10
-9.8011379999999981
 20
47.744446999999987
 30
0.0
 40
0.715023
 50
290.51522799999998
 51
326.55637400000001
  0
ARC
  5
2A2
  8
_________1
 62
     7
 10
-9.6316089999999992
 20
47.606506000000003
 30
0.0
 40
0.498013
 50
329.05046299999998
 51
341.55181299999998
  0
LINE
  5
2A3
  8
_________1
 62
     7
 10
-9.1591899999999988
 20
47.448900000000002
 30
0.0
 11
-9.1254299999999997
 21
47.548799999999993
 31
0.0
  0
LINE
  5
2A4
  8
_________1
 62
     7
 10
-9.1254299999999997
 20
47.548799999999993
 30
0.0
 11
-9.1254299999999997
 21
47.698999999999991
 31
0.0
  0
LINE
  5
2A5
  8
_________1
 62
     7
 10
-9.1254299999999997
 20
47.698999999999991
 30
0.0
 11
-9.1750399999999992
 21
47.873999999999988
 31
0.0
  0
LINE
  5
2A6
  8
_________1
 62
     7
 10
-12.450699999999999
 20
47.873999999999988
 30
0.0
 11
-12.425800000000001
 21
47.873999999999988
 31
0.0
  0
ARC
  5
2A7
  8
_________1
 62
     7
 10
94.737682000000007
 20
32.592726999999996
 30
0.0
 40
108.272147
 50
171.88628
 51
171.97981899999999
  0
LINE
  5
2A8
  8
_________1
 62
     7
 10
-12.4755
 20
47.698999999999991
 30
0.0
 11
-12.4755
 21
47.548799999999993
 31
0.0
  0
LINE
  5
2A9
  8
_________1
 62
     7
 10
-12.4755
 20
47.548799999999993
 30
0.0
 11
-12.443099999999999
 21
47.448900000000002
 31
0.0
  0
ARC
  5
2AA
  8
_________1
 62
     7
 10
-11.368233
 20
47.808759000000002
 30
0.0
 40
1.1334799999999989
 50
198.51013499999999
 51
203.26190600000001
  0
ARC
  5
2AB
  8
_________1
 62
     7
 10
-11.970919
 20
47.548760999999992
 30
0.0
 40
0.477105
 50
203.16091
 51
222.265807
  0
ARC
  5
2AC
  8
_________1
 62
     7
 10
-12.040760000000001
 20
47.504333000000003
 30
0.0
 40
0.39579
 50
224.306589
 51
234.68706
  0
ARC
  5
2AD
  8
_________1
 62
     7
 10
-11.849904
 20
47.779648000000002
 30
0.0
 40
0.7307800000000001
 50
234.95395400000001
 51
242.41062199999999
  0
ARC
  5
2AE
  8
_________1
 62
     7
 10
-10.122147999999999
 20
51.081327999999999
 30
0.0
 40
4.4572029999999989
 50
242.382621
 51
244.013184
  0
LINE
  5
2AF
  8
_________1
 62
     7
 10
-12.075100000000001
 20
47.074800000000003
 30
0.0
 11
-12.0503
 21
47.074800000000003
 31
0.0
  0
LINE
  5
2B0
  8
_________1
 62
     7
 10
-12.2508
 20
48.299199999999999
 30
0.0
 11
-9.3748500000000003
 21
48.299199999999999
 31
0.0
  0
LINE
  5
2B1
  8
_________1
 62
     7
 10
-12.2508
 20
50.299399999999991
 30
0.0
 11
-10.8004
 21
50.299399999999991
 31
0.0
  0
LINE
  5
2B2
  8
_________1
 62
     7
 10
-10.8004
 20
50.299399999999991
 30
0.0
 11
-9.3748500000000003
 21
50.299399999999991
 31
0.0
  0
LINE
  5
2B3
  8
_________1
 62
     7
 10
-9.1254299999999997
 20
50.849200000000003
 30
0.0
 11
-9.1254299999999997
 21
50.724499999999992
 31
0.0
  0
LINE
  5
2B4
  8
_________1
 62
     7
 10
-9.1254299999999997
 20
50.724499999999992
 30
0.0
 11
-9.2005300000000005
 21
50.5991
 31
0.0
  0
LINE
  5
2B5
  8
_________1
 62
     7
 10
-12.500999999999999
 20
50.849200000000003
 30
0.0
 11
-12.4755
 21
50.724499999999992
 31
0.0
  0
LINE
  5
2B6
  8
_________1
 62
     7
 10
-12.4755
 20
50.724499999999992
 30
0.0
 11
-12.425800000000001
 21
50.5991
 31
0.0
  0
LINE
  5
2B7
  8
_________1
 62
     7
 10
-12.500999999999999
 20
51.549999999999997
 30
0.0
 11
-9.1254299999999997
 21
51.549999999999997
 31
0.0
  0
LINE
  5
2B8
  8
_________1
 62
     7
 10
-12.500999999999999
 20
51.549999999999997
 30
0.0
 11
-12.500999999999999
 21
50.849200000000003
 31
0.0
  0
LINE
  5
2B9
  8
_________1
 62
     7
 10
-9.1254299999999997
 20
51.549999999999997
 30
0.0
 11
-9.1254299999999997
 21
50.849200000000003
 31
0.0
  0
LINE
  5
2BA
  8
_________1
 62
     7
 10
-8.4997899999999991
 20
46.923900000000003
 30
0.0
 11
-8.0498600000000007
 21
46.6738
 31
0.0
  0
LINE
  5
2BB
  8
_________1
 62
     7
 10
-13.101100000000001
 20
46.923900000000003
 30
0.0
 11
-13.5503
 21
46.6738
 31
0.0
  0
LINE
  5
2BC
  8
_________1
 62
     7
 10
-12.425800000000001
 20
50.5991
 30
0.0
 11
-12.2508
 21
50.299399999999991
 31
0.0
  0
LINE
  5
2BD
  8
_________1
 62
     7
 10
-12.2508
 20
48.299199999999999
 30
0.0
 11
-12.425800000000001
 21
47.873999999999988
 31
0.0
  0
LINE
  5
2BE
  8
_________1
 62
     7
 10
-9.2005300000000005
 20
50.5991
 30
0.0
 11
-9.3748500000000003
 21
50.299399999999991
 31
0.0
  0
LINE
  5
2BF
  8
_________1
 62
     7
 10
-9.3748500000000003
 20
48.299199999999999
 30
0.0
 11
-9.1750399999999992
 21
47.873999999999988
 31
0.0
  0
LINE
  5
2C0
  8
_________1
 62
     7
 10
-12.2508
 20
50.299399999999991
 30
0.0
 11
-12.2508
 21
48.299199999999999
 31
0.0
  0
LINE
  5
2C1
  8
_________1
 62
     7
 10
-9.3748500000000003
 20
50.299399999999991
 30
0.0
 11
-9.3748500000000003
 21
48.299199999999999
 31
0.0
  0
LINE
  5
2C2
  8
_________1
 62
     7
 10
-12.3507
 20
47.0486
 30
0.0
 11
-12.3507
 21
46.923900000000003
 31
0.0
  0
LINE
  5
2C3
  8
_________1
 62
     7
 10
-9.25014
 20
47.0486
 30
0.0
 11
-9.25014
 21
46.923900000000003
 31
0.0
  0
LINE
  5
2C4
  8
_________1
 62
     7
 10
-13.5503
 20
44.047899999999998
 30
0.0
 11
-13.101100000000001
 21
43.798499999999997
 31
0.0
  0
LINE
  5
2C5
  8
_________1
 62
     7
 10
-8.0498600000000007
 20
44.047899999999998
 30
0.0
 11
-8.4997899999999991
 21
43.798499999999997
 31
0.0
  0
LINE
  5
2C6
  8
_________1
 62
     7
 10
-9.4913000000000007
 20
104.742
 30
0.0
 11
-9.4913000000000007
 21
51.549999999999997
 31
0.0
  0
LINE
  5
2C7
  8
_________1
 62
     7
 10
-12.1158
 20
104.742
 30
0.0
 11
-12.1158
 21
51.549999999999997
 31
0.0
  0
LINE
  5
2C8
  8
_________1
  6
AIGENLINE002
 62
     7
 10
-10.8032
 20
109.593
 30
0.0
 11
-10.8032
 21
42.491399999999992
 31
0.0
  0
LINE
  5
2C9
  8
_________1
 62
     7
 10
-41.04999999999999
 20
46.6738
 30
0.0
 11
-41.04999999999999
 21
44.047899999999998
 31
0.0
  0
LINE
  5
2CA
  8
_________1
 62
     7
 10
-42.425899999999992
 20
46.6738
 30
0.0
 11
-42.425899999999992
 21
44.047899999999998
 31
0.0
  0
ARC
  5
2CB
  8
_________1
 62
     7
 10
-44.632331999999998
 20
52.390917999999999
 30
0.0
 40
9.0796229999999998
 50
291.69347099999999
 51
293.23802999999998
  0
ARC
  5
2CC
  8
_________1
 62
     7
 10
-41.963525999999987
 20
45.720365999999991
 30
0.0
 40
1.895068
 50
281.78519599999998
 51
291.26780300000001
  0
ARC
  5
2CD
  8
_________1
 62
     7
 10
-41.757838
 20
44.812657000000002
 30
0.0
 40
0.9646139999999999
 50
270.46569699999998
 51
280.83723800000001
  0
ARC
  5
2CE
  8
_________1
 62
     7
 10
-41.748919000000001
 20
44.76276
 30
0.0
 40
0.914686
 50
257.590215
 51
269.93240900000001
  0
ARC
  5
2CF
  8
_________1
 62
     7
 10
-41.62659399999999
 20
45.381106999999993
 30
0.0
 40
1.544932
 50
247.19223
 51
258.087828
  0
ARC
  5
2D0
  8
_________1
 62
     7
 10
-41.161394999999999
 20
46.569490000000002
 30
0.0
 40
2.820905999999999
 50
243.36709300000001
 51
247.838954
  0
ARC
  5
2D1
  8
_________1
 62
     7
 10
-41.670037999999991
 20
45.555708000000003
 30
0.0
 40
1.349596999999999
 50
97.382283000000015
 51
124.06180000000001
  0
ARC
  5
2D2
  8
_________1
 62
     7
 10
-41.748903999999989
 20
45.994287999999997
 30
0.0
 40
0.9047829999999999
 50
90.069248000000016
 51
95.997880000000009
  0
ARC
  5
2D3
  8
_________1
 62
     7
 10
-41.750794999999997
 20
45.980752000000003
 30
0.0
 40
0.9183189999999999
 50
77.80587100000001
 51
89.950249999999997
  0
ARC
  5
2D4
  8
_________1
 62
     7
 10
-41.840964999999997
 20
45.51517299999999
 30
0.0
 40
1.392476
 50
66.812563999999995
 51
78.225831999999997
  0
ARC
  5
2D5
  8
_________1
 62
     7
 10
-42.072020999999992
 20
44.933621000000002
 30
0.0
 40
2.018095999999999
 50
59.572125999999997
 51
67.283528000000004
  0
LINE
  5
2D6
  8
_________1
 62
     7
 10
-46.550400000000003
 20
46.6738
 30
0.0
 11
-46.550400000000003
 21
44.047899999999998
 31
0.0
  0
LINE
  5
2D7
  8
_________1
 62
     7
 10
-45.175800000000002
 20
46.6738
 30
0.0
 11
-45.175800000000002
 21
44.047899999999998
 31
0.0
  0
ARC
  5
2D8
  8
_________1
 62
     7
 10
-48.528517000000001
 20
51.842950999999992
 30
0.0
 40
8.4854880000000001
 50
291.6212450000001
 51
293.2727900000001
  0
ARC
  5
2D9
  8
_________1
 62
     7
 10
-46.129088000000003
 20
45.821170000000002
 30
0.0
 40
2.003318999999999
 50
282.22823799999998
 51
291.284762
  0
ARC
  5
2DA
  8
_________1
 62
     7
 10
-45.860826000000003
 20
44.651681999999987
 30
0.0
 40
0.8036760000000001
 50
270.74496599999998
 51
281.19653699999998
  0
ARC
  5
2DB
  8
_________1
 62
     7
 10
-45.849567999999991
 20
44.755606
 30
0.0
 40
0.9075319999999999
 50
257.811983
 51
269.94892599999997
  0
ARC
  5
2DC
  8
_________1
 62
     7
 10
-45.750562999999993
 20
45.288558999999992
 30
0.0
 40
1.44946
 50
252.94071400000001
 51
258.43437299999999
  0
ARC
  5
2DD
  8
_________1
 62
     7
 10
-45.503565000000002
 20
46.090482999999999
 30
0.0
 40
2.288559999999999
 50
248.53612000000001
 51
252.91874200000001
  0
ARC
  5
2DE
  8
_________1
 62
     7
 10
-44.040252000000002
 20
49.77829899999999
 30
0.0
 40
6.256079999999999
 50
246.34446199999999
 51
248.42252500000001
  0
ARC
  5
2DF
  8
_________1
 62
     7
 10
-45.548487999999999
 20
44.96069099999999
 30
0.0
 40
1.984561
 50
107.879918
 51
120.322425
  0
ARC
  5
2E0
  8
_________1
 62
     7
 10
-45.825924000000001
 20
45.771538
 30
0.0
 40
1.1277969999999991
 50
91.242338000000004
 51
107.113371
  0
ARC
  5
2E1
  8
_________1
 62
     7
 10
-45.851101999999997
 20
46.132398999999992
 30
0.0
 40
0.766672
 50
76.139626000000007
 51
89.945769999999996
  0
ARC
  5
2E2
  8
_________1
 62
     7
 10
-45.994505999999987
 20
45.455517999999998
 30
0.0
 40
1.458377
 50
65.825644999999994
 51
77.040245999999996
  0
ARC
  5
2E3
  8
_________1
 62
     7
 10
-46.240932999999998
 20
44.84684
 30
0.0
 40
2.1147320000000001
 50
59.757435000000001
 51
66.488002000000009
  0
ARC
  5
2E4
  8
_________1
 62
     7
 10
-41.111098999999989
 20
37.472444000000003
 30
0.0
 40
6.7056170000000002
 50
101.307756
 51
103.212599
  0
ARC
  5
2E5
  8
_________1
 62
     7
 10
-44.12582299999999
 20
49.627242000000003
 30
0.0
 40
5.8185999999999991
 50
278.61310900000001
 51
284.756394
  0
ARC
  5
2E6
  8
_________1
 62
     7
 10
-43.600693
 20
46.138715000000012
 30
0.0
 40
2.290775
 50
270.619889
 51
278.69412499999999
  0
LINE
  5
2E7
  8
_________1
 62
     7
 10
-43.575899999999997
 20
43.848100000000002
 30
0.0
 11
-44.025199999999991
 21
43.848100000000002
 31
0.0
  0
ARC
  5
2E8
  8
_________1
 62
     7
 10
-44.023600000000002
 20
45.8262
 30
0.0
 40
1.9781259999999989
 50
261.57662099999999
 51
269.95502499999998
  0
ARC
  5
2E9
  8
_________1
 62
     7
 10
-43.810496999999998
 20
47.467747999999993
 30
0.0
 40
3.633303999999999
 50
258.55842999999999
 51
262.04435799999999
  0
ARC
  5
2EA
  8
_________1
 62
     7
 10
-42.394137999999998
 20
54.347735
 30
0.0
 40
10.657556
 50
256.54078600000003
 51
258.43242600000002
  0
ARC
  5
2EB
  8
_________1
 62
     7
 10
-46.294116000000002
 20
38.138585999999997
 30
0.0
 40
6.014189
 50
76.348943999999989
 51
79.283904000000007
  0
ARC
  5
2EC
  8
_________1
 62
     7
 10
-43.934990999999989
 20
43.016730000000003
 30
0.0
 40
3.8618030000000001
 50
102.812912
 51
108.74207800000001
  0
ARC
  5
2ED
  8
_________1
 62
     7
 10
-43.695563
 20
42.157732000000003
 30
0.0
 40
4.7527039999999996
 50
94.32944599999999
 51
103.330918
  0
ARC
  5
2EE
  8
_________1
 62
     7
 10
-43.907657999999998
 20
44.611604999999997
 30
0.0
 40
2.2899720000000001
 50
87.318690000000004
 51
93.672809999999998
  0
ARC
  5
2EF
  8
_________1
 62
     7
 10
-43.717300999999992
 20
45.484577000000002
 30
0.0
 40
1.416939999999999
 50
88.958331000000001
 51
93.367457999999999
  0
ARC
  5
2F0
  8
_________1
 62
     7
 10
-43.730926999999987
 20
44.326690999999997
 30
0.0
 40
2.574892999999999
 50
85.185185000000004
 51
89.123581000000001
  0
ARC
  5
2F1
  8
_________1
 62
     7
 10
-43.928289999999997
 20
42.014608000000003
 30
0.0
 40
4.8953839999999991
 50
72.127891000000005
 51
85.154740000000004
  0
LINE
  5
2F2
  8
_________1
 62
     7
 10
-42.550600000000003
 20
47.074800000000003
 30
0.0
 11
-43.800499999999992
 21
47.074800000000003
 31
0.0
  0
LINE
  5
2F3
  8
_________1
 62
     7
 10
-45.050400000000003
 20
47.074800000000003
 30
0.0
 11
-43.800499999999992
 21
47.074800000000003
 31
0.0
  0
LINE
  5
2F4
  8
_________1
 62
     7
 10
-46.101199999999999
 20
43.798499999999997
 30
0.0
 11
-43.800499999999992
 21
43.798499999999997
 31
0.0
  0
LINE
  5
2F5
  8
_________1
 62
     7
 10
-43.800499999999992
 20
43.798499999999997
 30
0.0
 11
-41.49989999999999
 21
43.798499999999997
 31
0.0
  0
LINE
  5
2F6
  8
_________1
 62
     7
 10
-41.200200000000002
 20
43.9983
 30
0.0
 11
-41.49989999999999
 21
43.823300000000003
 31
0.0
  0
LINE
  5
2F7
  8
_________1
 62
     7
 10
-41.49989999999999
 20
43.823300000000003
 30
0.0
 11
-41.49989999999999
 21
43.798499999999997
 31
0.0
  0
LINE
  5
2F8
  8
_________1
 62
     7
 10
-41.04999999999999
 20
44.047899999999998
 30
0.0
 11
-41.49989999999999
 21
43.823300000000003
 31
0.0
  0
LINE
  5
2F9
  8
_________1
 62
     7
 10
-46.550400000000003
 20
44.047899999999998
 30
0.0
 11
-46.101199999999999
 21
43.798499999999997
 31
0.0
  0
LINE
  5
2FA
  8
_________1
 62
     7
 10
-46.101199999999999
 20
46.923900000000003
 30
0.0
 11
-41.49989999999999
 21
46.923900000000003
 31
0.0
  0
LINE
  5
2FB
  8
_________1
 62
     7
 10
-45.350799999999992
 20
47.0486
 30
0.0
 11
-42.250199999999992
 21
47.0486
 31
0.0
  0
ARC
  5
2FC
  8
_________1
 62
     7
 10
-42.801854999999989
 20
47.745234999999987
 30
0.0
 40
0.7159810000000002
 50
290.54016999999999
 51
326.531432
  0
ARC
  5
2FD
  8
_________1
 62
     7
 10
-42.631698999999998
 20
47.606506000000003
 30
0.0
 40
0.498013
 50
329.05046299999998
 51
341.55181299999998
  0
LINE
  5
2FE
  8
_________1
 62
     7
 10
-42.159300000000002
 20
47.448900000000002
 30
0.0
 11
-42.125500000000002
 21
47.548799999999993
 31
0.0
  0
LINE
  5
2FF
  8
_________1
 62
     7
 10
-42.125500000000002
 20
47.548799999999993
 30
0.0
 11
-42.125500000000002
 21
47.698999999999991
 31
0.0
  0
LINE
  5
300
  8
_________1
 62
     7
 10
-42.125500000000002
 20
47.698999999999991
 30
0.0
 11
-42.175099999999993
 21
47.873999999999988
 31
0.0
  0
LINE
  5
301
  8
_________1
 62
     7
 10
-45.450699999999991
 20
47.873999999999988
 30
0.0
 11
-45.425899999999992
 21
47.873999999999988
 31
0.0
  0
ARC
  5
302
  8
_________1
 62
     7
 10
61.737592999999997
 20
32.592726999999996
 30
0.0
 40
108.272147
 50
171.88628
 51
171.97981899999999
  0
LINE
  5
303
  8
_________1
 62
     7
 10
-45.475499999999997
 20
47.698999999999991
 30
0.0
 11
-45.475499999999997
 21
47.548799999999993
 31
0.0
  0
LINE
  5
304
  8
_________1
 62
     7
 10
-45.475499999999997
 20
47.548799999999993
 30
0.0
 11
-45.44319999999999
 21
47.448900000000002
 31
0.0
  0
ARC
  5
305
  8
_________1
 62
     7
 10
-44.368321999999999
 20
47.808759000000002
 30
0.0
 40
1.1334799999999989
 50
198.51013499999999
 51
203.26190600000001
  0
ARC
  5
306
  8
_________1
 62
     7
 10
-44.971008000000012
 20
47.548760999999992
 30
0.0
 40
0.477105
 50
203.16091
 51
222.265807
  0
ARC
  5
307
  8
_________1
 62
     7
 10
-45.040849000000001
 20
47.504333000000003
 30
0.0
 40
0.39579
 50
224.306589
 51
234.68706
  0
ARC
  5
308
  8
_________1
 62
     7
 10
-44.849992999999998
 20
47.779648000000002
 30
0.0
 40
0.7307800000000001
 50
234.95395400000001
 51
242.41062199999999
  0
ARC
  5
309
  8
_________1
 62
     7
 10
-43.122236999999991
 20
51.081327999999999
 30
0.0
 40
4.4572029999999989
 50
242.382621
 51
244.013184
  0
LINE
  5
30A
  8
_________1
 62
     7
 10
-45.075200000000002
 20
47.074800000000003
 30
0.0
 11
-45.050400000000003
 21
47.074800000000003
 31
0.0
  0
LINE
  5
30B
  8
_________1
 62
     7
 10
-45.250900000000001
 20
48.299199999999999
 30
0.0
 11
-42.374899999999997
 21
48.299199999999999
 31
0.0
  0
LINE
  5
30C
  8
_________1
 62
     7
 10
-45.250900000000001
 20
50.299399999999991
 30
0.0
 11
-43.800499999999992
 21
50.299399999999991
 31
0.0
  0
LINE
  5
30D
  8
_________1
 62
     7
 10
-43.800499999999992
 20
50.299399999999991
 30
0.0
 11
-42.374899999999997
 21
50.299399999999991
 31
0.0
  0
LINE
  5
30E
  8
_________1
 62
     7
 10
-42.125500000000002
 20
50.849200000000003
 30
0.0
 11
-42.125500000000002
 21
50.724499999999992
 31
0.0
  0
LINE
  5
30F
  8
_________1
 62
     7
 10
-42.125500000000002
 20
50.724499999999992
 30
0.0
 11
-42.200600000000001
 21
50.5991
 31
0.0
  0
LINE
  5
310
  8
_________1
 62
     7
 10
-45.500999999999998
 20
50.849200000000003
 30
0.0
 11
-45.475499999999997
 21
50.724499999999992
 31
0.0
  0
LINE
  5
311
  8
_________1
 62
     7
 10
-45.475499999999997
 20
50.724499999999992
 30
0.0
 11
-45.425899999999992
 21
50.5991
 31
0.0
  0
LINE
  5
312
  8
_________1
 62
     7
 10
-45.500999999999998
 20
51.549999999999997
 30
0.0
 11
-42.125500000000002
 21
51.549999999999997
 31
0.0
  0
LINE
  5
313
  8
_________1
 62
     7
 10
-45.500999999999998
 20
51.549999999999997
 30
0.0
 11
-45.500999999999998
 21
50.849200000000003
 31
0.0
  0
LINE
  5
314
  8
_________1
 62
     7
 10
-42.125500000000002
 20
51.549999999999997
 30
0.0
 11
-42.125500000000002
 21
50.849200000000003
 31
0.0
  0
LINE
  5
315
  8
_________1
 62
     7
 10
-41.49989999999999
 20
46.923900000000003
 30
0.0
 11
-41.04999999999999
 21
46.6738
 31
0.0
  0
LINE
  5
316
  8
_________1
 62
     7
 10
-46.101199999999999
 20
46.923900000000003
 30
0.0
 11
-46.550400000000003
 21
46.6738
 31
0.0
  0
LINE
  5
317
  8
_________1
 62
     7
 10
-45.425899999999992
 20
50.5991
 30
0.0
 11
-45.250900000000001
 21
50.299399999999991
 31
0.0
  0
LINE
  5
318
  8
_________1
 62
     7
 10
-45.250900000000001
 20
48.299199999999999
 30
0.0
 11
-45.425899999999992
 21
47.873999999999988
 31
0.0
  0
LINE
  5
319
  8
_________1
 62
     7
 10
-42.200600000000001
 20
50.5991
 30
0.0
 11
-42.374899999999997
 21
50.299399999999991
 31
0.0
  0
LINE
  5
31A
  8
_________1
 62
     7
 10
-42.374899999999997
 20
48.299199999999999
 30
0.0
 11
-42.175099999999993
 21
47.873999999999988
 31
0.0
  0
LINE
  5
31B
  8
_________1
 62
     7
 10
-45.250900000000001
 20
50.299399999999991
 30
0.0
 11
-45.250900000000001
 21
48.299199999999999
 31
0.0
  0
LINE
  5
31C
  8
_________1
 62
     7
 10
-42.374899999999997
 20
50.299399999999991
 30
0.0
 11
-42.374899999999997
 21
48.299199999999999
 31
0.0
  0
LINE
  5
31D
  8
_________1
 62
     7
 10
-45.350799999999992
 20
47.0486
 30
0.0
 11
-45.350799999999992
 21
46.923900000000003
 31
0.0
  0
LINE
  5
31E
  8
_________1
 62
     7
 10
-42.250199999999992
 20
47.0486
 30
0.0
 11
-42.250199999999992
 21
46.923900000000003
 31
0.0
  0
LINE
  5
31F
  8
_________1
 62
     7
 10
-46.550400000000003
 20
44.047899999999998
 30
0.0
 11
-46.101199999999999
 21
43.798499999999997
 31
0.0
  0
LINE
  5
320
  8
_________1
 62
     7
 10
-41.04999999999999
 20
44.047899999999998
 30
0.0
 11
-41.49989999999999
 21
43.798499999999997
 31
0.0
  0
LINE
  5
321
  8
_________1
  6
AIGENLINE002
 62
     7
 10
-10.8032
 20
109.593
 30
0.0
 11
-25.428100000000001
 21
93.022000000000006
 31
0.0
  0
LINE
  5
322
  8
_________1
 62
     7
 10
-23.178100000000001
 20
144.30600000000001
 30
0.0
 11
-23.4282
 21
144.05600000000001
 31
0.0
  0
LINE
  5
323
  8
_________1
 62
     7
 10
-31.1783
 20
144.05600000000001
 30
0.0
 11
-31.427700000000002
 21
144.30600000000001
 31
0.0
  0
LINE
  5
324
  8
_________1
 62
     7
 10
-23.4282
 20
158.42500000000001
 30
0.0
 11
-23.4282
 21
148.79900000000001
 31
0.0
  0
LINE
  5
325
  8
_________1
 62
     7
 10
-23.178100000000001
 20
158.42500000000001
 30
0.0
 11
-23.178100000000001
 21
148.79900000000001
 31
0.0
  0
LINE
  5
326
  8
_________1
 62
     7
 10
-31.1783
 20
158.42500000000001
 30
0.0
 11
-31.1783
 21
148.79900000000001
 31
0.0
  0
LINE
  5
327
  8
_________1
 62
     7
 10
-31.427700000000002
 20
158.42500000000001
 30
0.0
 11
-31.427700000000002
 21
148.79900000000001
 31
0.0
  0
LINE
  5
328
  8
_________1
 62
     7
 10
-23.4282
 20
146.30600000000001
 30
0.0
 11
-23.4282
 21
144.05600000000001
 31
0.0
  0
LINE
  5
329
  8
_________1
 62
     7
 10
-23.178100000000001
 20
146.30600000000001
 30
0.0
 11
-23.178100000000001
 21
144.30600000000001
 31
0.0
  0
LINE
  5
32A
  8
_________1
 62
     7
 10
-31.1783
 20
146.30600000000001
 30
0.0
 11
-31.1783
 21
144.05600000000001
 31
0.0
  0
LINE
  5
32B
  8
_________1
 62
     7
 10
-31.427700000000002
 20
146.30600000000001
 30
0.0
 11
-31.427700000000002
 21
144.30600000000001
 31
0.0
  0
LINE
  5
32C
  8
_________1
 62
     7
 10
-31.427700000000002
 20
144.30600000000001
 30
0.0
 11
-23.178100000000001
 21
144.30600000000001
 31
0.0
  0
LINE
  5
32D
  8
_________1
 62
     7
 10
-31.1783
 20
144.05600000000001
 30
0.0
 11
-23.4282
 21
144.05600000000001
 31
0.0
  0
LINE
  5
32E
  8
_________1
 62
     7
 10
-42.491399999999992
 20
104.742
 30
0.0
 11
-42.491399999999992
 21
51.549999999999997
 31
0.0
  0
LINE
  5
32F
  8
_________1
 62
     7
 10
-45.115900000000003
 20
104.742
 30
0.0
 11
-45.115900000000003
 21
51.549999999999997
 31
0.0
  0
LINE
  5
330
  8
_________1
  6
AIGENLINE002
 62
     7
 10
-43.803299999999993
 20
109.593
 30
0.0
 11
-43.803299999999993
 21
42.491399999999992
 31
0.0
  0
TEXT
  5
331
  8
_________2
 62
     7
 10
200.4570586666666
 20
34.465299999999999
 30
0.0
 40
3.6545800000000002
  1
1 ： 4
 41
0.5
 72
     1
 11
203.86799999999999
 21
34.465299999999999
 31
0.0
  0
TEXT
  5
332
  8
_________2
 62
     7
 10
247.0624875
 20
30.3553
 30
0.0
 40
3.9357000000000002
  1
ZU0693R
 41
0.5
 72
     1
 11
253.458
 21
30.3553
 31
0.0
  0
TEXT
  5
333
  8
_________2
 62
     7
 10
149.3328003333333
 20
34.850499999999997
 30
0.0
 40
3.6545800000000002
  1
井田
 41
0.5
 72
     1
 11
151.221
 21
34.850499999999997
 31
0.0
  0
TEXT
  5
334
  8
_________2
 62
     7
 10
130.69789066666669
 20
34.850499999999997
 30
0.0
 40
3.6545800000000002
  1
恋塚
 41
0.5
 72
     1
 11
132.64699999999999
 21
34.850499999999997
 31
0.0
  0
TEXT
  5
335
  8
_________2
 62
     7
 10
177.69399999999999
 20
34.465299999999999
 30
0.0
 40
3.6545800000000002
  1
19.03.25
 41
0.5
  0
TEXT
  5
336
  8
_________2
 62
     7
 10
290.64778333333328
 20
12.808299999999999
 30
0.0
 40
3.3734599999999988
  1
A3
 41
0.5
 72
     2
 11
293.459
 21
12.808299999999999
 31
0.0
  0
TEXT
  5
337
  8
_________2
 62
     7
 10
134.495
 20
21.954699999999999
 30
0.0
 40
3.9357000000000002
  1
（社）日本水道協会認証品
 41
0.5
  0
LINE
  5
338
  8
_________2
 62
     7
 10
315.209
 20
148.65899999999999
 30
0.0
 11
293.459
 21
148.65899999999999
 31
0.0
  0
LINE
  5
339
  8
_________2
 62
     7
 10
105.20699999999999
 20
17.156300000000002
 30
0.0
 11
105.20699999999999
 21
0.176045
 31
0.0
  0
LINE
  5
33A
  8
_________2
 62
     7
 10
105.20699999999999
 20
297.178
 30
0.0
 11
105.20699999999999
 21
280.15800000000002
 31
0.0
  0
LINE
  5
33B
  8
_________2
 62
     7
 10
-83.043899999999994
 20
148.65899999999999
 30
0.0
 11
-104.794
 21
148.65899999999999
 31
0.0
  0
INSERT
  5
33C
  8
_________2
 62
     7
  2
AIGNBL03010002
 10
0.0
 20
0.0
 30
0.0
  0
TEXT
  5
33D
  8
_________2
 62
     7
 10
214.51300000000001
 20
22.9269
 30
0.0
 40
3.0923400000000001
  1
図番
 41
0.5
  0
LINE
  5
33E
  8
_________2
 62
     7
 10
213.458
 20
27.156099999999999
 30
0.0
 11
293.459
 21
27.156099999999999
 31
0.0
  0
TEXT
  5
33F
  8
_________2
 62
     7
 10
214.51300000000001
 20
32.926699999999997
 30
0.0
 40
3.0923400000000001
  1
品番
 41
0.5
  0
TEXT
  5
340
  8
_________2
 62
     7
 10
214.51300000000001
 20
53.0655
 30
0.0
 40
3.0923400000000001
  1
名称
 41
0.5
  0
TEXT
  5
341
  8
_________2
 62
     7
 10
201.75325833333329
 20
48.069400000000002
 30
0.0
 40
3.6545800000000002
  1
mm
 41
0.5
 72
     1
 11
203.27600000000001
 21
48.069400000000002
 31
0.0
  0
TEXT
  5
342
  8
_________2
 62
     7
 10
195.55099999999999
 20
53.0655
 30
0.0
 40
3.0923400000000001
  1
単位
 41
0.5
  0
TEXT
  5
343
  8
_________2
 62
     7
 10
195.55099999999999
 20
40.658200000000001
 30
0.0
 40
3.0923400000000001
  1
尺度
 41
0.5
  0
TEXT
  5
344
  8
_________2
 62
     7
 10
247.0624875
 20
20.354800000000001
 30
0.0
 40
3.9357000000000002
  1
ZU0693R
 41
0.5
 72
     1
 11
253.458
 21
20.354800000000001
 31
0.0
  0
TEXT
  5
345
  8
_________2
 62
     7
 10
129.49600000000001
 20
132.15600000000001
 30
0.0
 40
3.9357000000000002
  1
給水圧力
 41
0.5
  0
TEXT
  5
346
  8
_________2
 62
     7
 10
129.49600000000001
 20
139.91900000000001
 30
0.0
 40
3.9357000000000002
  1
用途
 41
0.5
  0
TEXT
  5
347
  8
_________2
 62
     7
 10
169.50999999999999
 20
139.91900000000001
 30
0.0
 40
3.9357000000000002
  1
一般住宅用（屋内用）
 41
0.5
  0
LINE
  5
348
  8
_________2
 62
     7
 10
145.64099999999999
 20
137.81100000000001
 30
0.0
 11
145.64099999999999
 21
116.474
 31
0.0
  0
LINE
  5
349
  8
_________2
 62
     7
 10
166.97200000000001
 20
145.57299999999989
 30
0.0
 11
166.97200000000001
 21
61.980800000000002
 31
0.0
  0
LINE
  5
34A
  8
_________2
 62
     7
 10
290.16199999999998
 20
145.57299999999989
 30
0.0
 11
126.95699999999999
 21
145.57299999999989
 31
0.0
  0
LINE
  5
34B
  8
_________2
 62
     7
 10
126.95699999999999
 20
145.57299999999989
 30
0.0
 11
126.95699999999999
 21
61.980800000000002
 31
0.0
  0
LINE
  5
34C
  8
_________2
 62
     7
 10
126.95699999999999
 20
61.980800000000002
 30
0.0
 11
290.16199999999998
 21
61.980800000000002
 31
0.0
  0
LINE
  5
34D
  8
_________2
 62
     7
 10
290.16199999999998
 20
61.980800000000002
 30
0.0
 11
290.16199999999998
 21
145.57299999999989
 31
0.0
  0
TEXT
  5
34E
  8
_________2
 62
     7
 10
147.41499999999999
 20
132.15600000000001
 30
0.0
 40
3.9357000000000002
  1
最低必要水圧
 41
0.5
  0
TEXT
  5
34F
  8
_________2
 62
     7
 10
169.50999999999999
 20
132.15600000000001
 30
0.0
 40
3.9357000000000002
  1
0.1MPa（流動圧）
 41
0.5
  0
LINE
  5
350
  8
_________2
 62
     7
 10
126.95699999999999
 20
137.81100000000001
 30
0.0
 11
290.16199999999998
 21
137.81100000000001
 31
0.0
  0
TEXT
  5
351
  8
_________2
 62
     7
 10
129.49600000000001
 20
110.819
 30
0.0
 40
3.9357000000000002
  1
使用可能水質
 41
0.5
  0
TEXT
  5
352
  8
_________2
 62
     7
 10
169.50999999999999
 20
110.819
 30
0.0
 40
3.9357000000000002
  1
水道水
 41
0.5
  0
LINE
  5
353
  8
_________2
 62
     7
 10
126.95699999999999
 20
116.474
 30
0.0
 11
290.16199999999998
 21
116.474
 31
0.0
  0
TEXT
  5
354
  8
_________2
 62
     7
 10
147.41499999999999
 20
124.53400000000001
 30
0.0
 40
3.9357000000000002
  1
最高水圧
 41
0.5
  0
TEXT
  5
355
  8
_________2
 62
     7
 10
169.50999999999999
 20
118.40300000000001
 30
0.0
 40
3.9357000000000002
  1
※快適にお使いいただくためには、0.2～0.3MPa程度の圧力をおすすめします。
 41
0.5
  0
TEXT
  5
356
  8
_________2
 62
     7
 10
169.50999999999999
 20
124.53400000000001
 30
0.0
 40
3.9357000000000002
  1
0.5MPa（流動圧）
 41
0.5
  0
LINE
  5
357
  8
_________2
 62
     7
 10
145.64099999999999
 20
130.048
 30
0.0
 11
290.16199999999998
 21
130.048
 31
0.0
  0
TEXT
  5
358
  8
_________2
 62
     7
 10
129.49600000000001
 20
103.197
 30
0.0
 40
3.9357000000000002
  1
使用環境温度
 41
0.5
  0
TEXT
  5
359
  8
_________2
 62
     7
 10
129.49600000000001
 20
89.623299999999986
 30
0.0
 40
3.9357000000000002
  1
最高給湯温度
 41
0.5
  0
TEXT
  5
35A
  8
_________2
 62
     7
 10
129.49600000000001
 20
75.920699999999997
 30
0.0
 40
3.9357000000000002
  1
特記事項
 41
0.5
  0
TEXT
  5
35B
  8
_________2
 62
     7
 10
169.50999999999999
 20
103.197
 30
0.0
 40
3.9357000000000002
  1
1～40℃
 41
0.5
  0
TEXT
  5
35C
  8
_________2
 62
     7
 10
169.50999999999999
 20
98.277799999999999
 30
0.0
 40
3.9357000000000002
  1
※寒冷地仕様ではありません、凍結が予想される場合は凍結予防をしてください。
 41
0.5
  0
LINE
  5
35D
  8
_________2
 62
     7
 10
126.95699999999999
 20
108.711
 30
0.0
 11
290.16199999999998
 21
108.711
 31
0.0
  0
TEXT
  5
35E
  8
_________2
 62
     7
 10
169.50999999999999
 20
89.623299999999986
 30
0.0
 40
3.9357000000000002
  1
80℃
 41
0.5
  0
TEXT
  5
35F
  8
_________2
 62
     7
 10
169.50999999999999
 20
84.703699999999998
 30
0.0
 40
3.9357000000000002
  1
※安全のため給湯温度は60℃以下でのご使用をおすすめします。
 41
0.5
  0
TEXT
  5
360
  8
_________2
 62
     7
 10
169.50999999999999
 20
75.920699999999997
 30
0.0
 40
3.9357000000000002
  1
（1）水圧は湯水ほぼ同圧、且つ湯圧が水圧より高くならないように設定してください。
 41
0.5
  0
TEXT
  5
361
  8
_________2
 62
     7
 10
169.50999999999999
 20
71.001099999999994
 30
0.0
 40
3.9357000000000002
  1
（2）湯水を逆に配管しないでください。
 41
0.5
  0
TEXT
  5
362
  8
_________2
 62
     7
 10
169.50999999999999
 20
66.081500000000005
 30
0.0
 40
3.9357000000000002
  1
（3）フレキホース寸法公差\U+00B120。
 41
0.5
  0
TEXT
  5
363
  8
_________2
 62
     7
 10
219.08699999999999
 20
45.473100000000002
 30
0.0
 40
3.9357000000000002
  1
ジングル 湯水混合水栓
 41
0.5
  0
TEXT
  5
364
  8
_________2
 62
     7
 10
176.501
 20
40.658200000000001
 30
0.0
 40
3.0923400000000001
  1
日付
 41
0.5
  0
TEXT
  5
365
  8
_________2
 62
     7
 10
139.547
 20
40.658200000000001
 30
0.0
 40
3.0923400000000001
  1
検図
 41
0.5
  0
TEXT
  5
366
  8
_________2
 62
     7
 10
127.929
 20
26.4588
 30
0.0
 40
3.0923400000000001
  1
備考
 41
0.5
  0
TEXT
  5
367
  8
_________2
 62
     7
 10
127.929
 20
40.658200000000001
 30
0.0
 40
3.0923400000000001
  1
製図
 41
0.5
  0
TEXT
  5
368
  8
_________2
 62
     7
 10
133.69596533333331
 20
49.184199999999997
 30
0.0
 40
4.4979399999999989
  1
セラトレーディング株式会社
 41
0.5
 72
     1
 11
151.08799999999999
 21
49.184199999999997
 31
0.0
  0
LINE
  5
369
  8
_________2
 62
     7
 10
293.459
 20
17.156300000000002
 30
0.0
 11
-83.043899999999994
 21
17.156300000000002
 31
0.0
  0
LINE
  5
36A
  8
_________2
 62
     7
 10
-83.043899999999994
 20
17.156300000000002
 30
0.0
 11
-83.043899999999994
 21
280.15800000000002
 31
0.0
  0
LINE
  5
36B
  8
_________2
 62
     7
 10
-83.043899999999994
 20
280.15800000000002
 30
0.0
 11
293.459
 21
280.15800000000002
 31
0.0
  0
LINE
  5
36C
  8
_________2
 62
     7
 10
293.459
 20
280.15800000000002
 30
0.0
 11
293.459
 21
17.156300000000002
 31
0.0
  0
LINE
  5
36D
  8
_________2
 62
     7
 10
175.458
 20
30.656400000000001
 30
0.0
 11
175.458
 21
57.156199999999998
 31
0.0
  0
LINE
  5
36E
  8
_________2
 62
     7
 10
194.458
 20
30.656400000000001
 30
0.0
 11
194.458
 21
57.156199999999998
 31
0.0
  0
LINE
  5
36F
  8
_________2
 62
     7
 10
126.95699999999999
 20
17.156300000000002
 30
0.0
 11
126.95699999999999
 21
57.156199999999998
 31
0.0
  0
LINE
  5
370
  8
_________2
 62
     7
 10
213.458
 20
17.156300000000002
 30
0.0
 11
213.458
 21
57.156199999999998
 31
0.0
  0
LINE
  5
371
  8
_________2
 62
     7
 10
138.45699999999999
 20
30.656400000000001
 30
0.0
 11
138.45699999999999
 21
44.65659999999999
 31
0.0
  0
LINE
  5
372
  8
_________2
 62
     7
 10
126.95699999999999
 20
30.656400000000001
 30
0.0
 11
213.458
 21
30.656400000000001
 31
0.0
  0
LINE
  5
373
  8
_________2
 62
     7
 10
126.95699999999999
 20
44.65659999999999
 30
0.0
 11
213.458
 21
44.65659999999999
 31
0.0
  0
LINE
  5
374
  8
_________2
 62
     7
 10
213.458
 20
37.15590000000001
 30
0.0
 11
293.459
 21
37.15590000000001
 31
0.0
  0
LINE
  5
375
  8
_________2
 62
     7
 10
126.95699999999999
 20
95.137299999999996
 30
0.0
 11
290.16199999999998
 21
95.137299999999996
 31
0.0
  0
LINE
  5
376
  8
_________2
 62
     7
 10
126.95699999999999
 20
81.563199999999995
 30
0.0
 11
290.16199999999998
 21
81.563199999999995
 31
0.0
  0
LINE
  5
377
  8
_________2
 62
     7
 10
126.95699999999999
 20
57.156199999999998
 30
0.0
 11
293.459
 21
57.156199999999998
 31
0.0
  0
ENDSEC
  0
EOF
