  0
SECTION
  2
HEADER
  9
$ACADVER
  1
AC1009
  9
$INSBASE
 10
0.0
 20
0.0
 30
0.0
  9
$EXTMIN
 10
-4.7008599999999987
 20
-21.071400000000001
 30
0.0
  9
$EXTMAX
 10
205.30099999999999
 20
275.93099999999993
 30
0.0
  9
$LIMMIN
 10
0.0
 20
0.0
  9
$LIMMAX
 10
12.0
 20
9.0
  9
$ORTHOMODE
 70
     0
  9
$REGENMODE
 70
     1
  9
$FILLMODE
 70
     1
  9
$QTEXTMODE
 70
     0
  9
$MIRRTEXT
 70
     1
  9
$DRAGMODE
 70
     2
  9
$LTSCALE
 40
1.0
  9
$OSMODE
 70
    37
  9
$ATTMODE
 70
     1
  9
$TEXTSIZE
 40
0.0
  9
$TRACEWID
 40
0.05
  9
$TEXTSTYLE
  7
STANDARD
  9
$CLAYER
  8
0
  9
$CELTYPE
  6
CONTINUOUS
  9
$CECOLOR
 62
   256
  9
$DIMSCALE
 40
1.0
  9
$DIMASZ
 40
0.18
  9
$DIMEXO
 40
0.0625
  9
$DIMDLI
 40
0.38
  9
$DIMRND
 40
0.0
  9
$DIMDLE
 40
0.0
  9
$DIMEXE
 40
0.18
  9
$DIMTP
 40
0.0
  9
$DIMTM
 40
0.0
  9
$DIMTXT
 40
0.18
  9
$DIMCEN
 40
0.09
  9
$DIMTSZ
 40
0.0
  9
$DIMTOL
 70
     0
  9
$DIMLIM
 70
     0
  9
$DIMTIH
 70
     1
  9
$DIMTOH
 70
     1
  9
$DIMSE1
 70
     0
  9
$DIMSE2
 70
     0
  9
$DIMTAD
 70
     0
  9
$DIMZIN
 70
     0
  9
$DIMBLK
  1

  9
$DIMASO
 70
     1
  9
$DIMSHO
 70
     1
  9
$DIMPOST
  1

  9
$DIMAPOST
  1

  9
$DIMALT
 70
     0
  9
$DIMALTD
 70
     2
  9
$DIMALTF
 40
25.399999999999999
  9
$DIMLFAC
 40
1.0
  9
$DIMTOFL
 70
     0
  9
$DIMTVP
 40
0.0
  9
$DIMTIX
 70
     0
  9
$DIMSOXD
 70
     0
  9
$DIMSAH
 70
     0
  9
$DIMBLK1
  1

  9
$DIMBLK2
  1

  9
$DIMSTYLE
  2
STANDARD
  9
$DIMCLRD
 70
     0
  9
$DIMCLRE
 70
     0
  9
$DIMCLRT
 70
     0
  9
$DIMTFAC
 40
1.0
  9
$DIMGAP
 40
0.09
  9
$LUNITS
 70
     2
  9
$LUPREC
 70
     4
  9
$SKETCHINC
 40
0.1
  9
$FILLETRAD
 40
0.0
  9
$AUNITS
 70
     0
  9
$AUPREC
 70
     0
  9
$MENU
  1
.
  9
$ELEVATION
 40
0.0
  9
$PELEVATION
 40
0.0
  9
$THICKNESS
 40
0.0
  9
$LIMCHECK
 70
     0
  9
$BLIPMODE
 70
     0
  9
$CHAMFERA
 40
0.0
  9
$CHAMFERB
 40
0.0
  9
$SKPOLY
 70
     0
  9
$TDCREATE
 40
2444972.375
  9
$TDUPDATE
 40
2457054.248800613
  9
$TDINDWG
 40
0.0000071412
  9
$TDUSRTIMER
 40
0.0000071412
  9
$USRTIMER
 70
     1
  9
$ANGBASE
 50
0.0
  9
$ANGDIR
 70
     0
  9
$PDMODE
 70
     0
  9
$PDSIZE
 40
0.0
  9
$PLINEWID
 40
0.0
  9
$COORDS
 70
     1
  9
$SPLFRAME
 70
     0
  9
$SPLINETYPE
 70
     6
  9
$SPLINESEGS
 70
     8
  9
$ATTDIA
 70
     0
  9
$ATTREQ
 70
     1
  9
$HANDLING
 70
     1
  9
$HANDSEED
  5
323
  9
$SURFTAB1
 70
     6
  9
$SURFTAB2
 70
     6
  9
$SURFTYPE
 70
     6
  9
$SURFU
 70
     6
  9
$SURFV
 70
     6
  9
$UCSNAME
  2

  9
$UCSORG
 10
0.0
 20
0.0
 30
0.0
  9
$UCSXDIR
 10
1.0
 20
0.0
 30
0.0
  9
$UCSYDIR
 10
0.0
 20
1.0
 30
0.0
  9
$PUCSNAME
  2

  9
$PUCSORG
 10
0.0
 20
0.0
 30
0.0
  9
$PUCSXDIR
 10
1.0
 20
0.0
 30
0.0
  9
$PUCSYDIR
 10
0.0
 20
1.0
 30
0.0
  9
$USERI1
 70
     0
  9
$USERI2
 70
     0
  9
$USERI3
 70
     0
  9
$USERI4
 70
     0
  9
$USERI5
 70
     0
  9
$USERR1
 40
0.0
  9
$USERR2
 40
0.0
  9
$USERR3
 40
0.0
  9
$USERR4
 40
0.0
  9
$USERR5
 40
0.0
  9
$WORLDVIEW
 70
     1
  9
$SHADEDGE
 70
     3
  9
$SHADEDIF
 70
    70
  9
$TILEMODE
 70
     1
  9
$MAXACTVP
 70
    48
  9
$PLIMCHECK
 70
     0
  9
$PEXTMIN
 10
1.0000000000000000E+020
 20
1.0000000000000000E+020
 30
1.0000000000000000E+020
  9
$PEXTMAX
 10
-1.0000000000000000E+020
 20
-1.0000000000000000E+020
 30
-1.0000000000000000E+020
  9
$PLIMMIN
 10
0.0
 20
0.0
  9
$PLIMMAX
 10
12.0
 20
9.0
  9
$UNITMODE
 70
     0
  9
$VISRETAIN
 70
     1
  9
$PLINEGEN
 70
     0
  9
$PSLTSCALE
 70
     1
  0
ENDSEC
  0
SECTION
  2
TABLES
  0
TABLE
  2
VPORT
 70
     2
  0
VPORT
  2
*ACTIVE
 70
     0
 10
0.0
 20
0.0
 11
1.0
 21
1.0
 12
201.67522015499981
 22
127.4297999999999
 13
0.0
 23
0.0
 14
1.0
 24
1.0
 15
0.0
 25
0.0
 16
0.0
 26
0.0
 36
1.0
 17
0.0
 27
0.0
 37
0.0
 40
299.45696528925612
 41
2.2894736842105261
 42
50.0
 43
0.0
 44
0.0
 50
0.0
 51
0.0
 71
     0
 72
   100
 73
     1
 74
     1
 75
     0
 76
     0
 77
     0
 78
     0
  0
ENDTAB
  0
TABLE
  2
LTYPE
 70
     3
  0
LTYPE
  2
CONTINUOUS
 70
     0
  3
Solid line
 72
    65
 73
     0
 40
0.0
  0
LTYPE
  2
AIGENLINE001
 70
     0
  3
generate AI->DXF Converter
 72
    65
 73
     6
 40
7.4083750000000004
 49
3.5278
 49
-0.776115
 49
0.776115
 49
-0.776115
 49
0.776115
 49
-0.776115
  0
LTYPE
  2
AIGENLINE002
 70
     0
  3
generate AI->DXF Converter
 72
    65
 73
     4
 40
5.8561449999999988
 49
3.5278
 49
-0.776115
 49
0.776115
 49
-0.776115
  0
ENDTAB
  0
TABLE
  2
LAYER
 70
     2
  0
LAYER
  2
0
 70
     0
 62
     7
  6
CONTINUOUS
  0
LAYER
  2
_________2
 70
     0
 62
     7
  6
CONTINUOUS
  0
ENDTAB
  0
TABLE
  2
STYLE
 70
     1
  0
STYLE
  2
STANDARD
 70
     0
 40
0.0
 41
0.0
 50
0.0
 71
     0
 42
0.0
  3
TXT
  4
EXTFONT.SHX
  0
ENDTAB
  0
TABLE
  2
VIEW
 70
     0
  0
ENDTAB
  0
TABLE
  2
UCS
 70
     0
  0
ENDTAB
  0
TABLE
  2
APPID
 70
     1
  0
APPID
  2
ACAD
 70
     0
  0
ENDTAB
  0
TABLE
  2
DIMSTYLE
 70
     1
  0
DIMSTYLE
  2
STANDARD
 70
     0
  3

  4

  5

  6

  7

 40
1.0
 41
0.18
 42
0.0625
 43
0.38
 44
0.18
 45
0.0
 46
0.0
 47
0.0
 48
0.0
140
0.18
141
0.09
142
0.0
143
25.399999999999999
144
1.0
145
0.0
146
1.0
147
0.09
 71
     0
 72
     0
 73
     1
 74
     1
 75
     0
 76
     0
 77
     0
 78
     0
170
     0
171
     2
172
     0
173
     0
174
     0
175
     0
176
     0
177
     0
178
     0
  0
ENDTAB
  0
ENDSEC
  0
SECTION
  2
BLOCKS
  0
BLOCK
  8
0
  2
$MODEL_SPACE
 70
     0
 10
0.0
 20
0.0
 30
0.0
  3
$MODEL_SPACE
  1

  0
ENDBLK
  5
1A
  8
0
  0
BLOCK
 67
     1
  8
0
  2
$PAPER_SPACE
 70
     0
 10
0.0
 20
0.0
 30
0.0
  3
$PAPER_SPACE
  1

  0
ENDBLK
  5
17
 67
     1
  8
0
  0
ENDSEC
  0
SECTION
  2
ENTITIES
  0
TEXT
  5
23
  8
0
 62
     7
 10
133.54592633333331
 20
172.39500000000001
 30
0.0
 40
3.660169999999999
  1
開
 41
0.5
 72
     2
 11
135.13200000000001
 21
172.39500000000001
 31
0.0
  0
TEXT
  5
24
  8
0
 62
     7
 10
128.12192633333331
 20
165.083
 30
0.0
 40
3.660169999999999
  1
閉
 41
0.5
 72
     2
 11
129.708
 21
165.083
 31
0.0
  0
TEXT
  5
25
  8
0
 62
     7
 10
51.160707916666667
 20
212.69200000000001
 30
0.0
 40
3.660169999999999
  1
50%%d
 41
0.5
 72
     1
 11
53.143300000000004
 21
212.69200000000001
 31
0.0
  0
TEXT
  5
26
  8
0
 62
     7
 10
70.239107916666669
 20
212.69200000000001
 30
0.0
 40
3.660169999999999
  1
50%%d
 41
0.5
 72
     1
 11
72.221699999999998
 21
212.69200000000001
 31
0.0
  0
TEXT
  5
27
  8
0
 62
     7
 10
130.38440791666659
 20
143.90299999999991
 30
0.0
 40
3.660169999999999
  1
120
 41
0.5
 72
     1
 11
132.36699999999999
 21
143.90299999999991
 31
0.0
  0
TEXT
  5
28
  8
0
 62
     7
 10
155.2707733333333
 20
239.40700000000001
 30
0.0
 40
3.660169999999999
  1
%%c35
 41
0.5
 72
     2
 11
160.15100000000001
 21
239.40700000000001
 31
0.0
  0
TEXT
  5
29
  8
0
 62
     7
 10
119.4339999999999
 20
49.517400000000002
 30
0.0
 40
3.660169999999999
  1
G 3/8
 41
0.5
  0
TEXT
  5
2A
  8
0
 62
     7
 10
59.280229166666672
 20
129.845
 30
0.0
 40
3.660169999999999
  1
36
 41
0.5
 72
     1
 11
60.805300000000003
 21
129.845
 31
0.0
  0
TEXT
  5
2B
  8
0
 62
     7
 10
144.45139374999999
 20
132.39699999999999
 30
0.0
 40
3.660169999999999
  1
%%c60
 41
0.5
 72
     1
 11
146.73899999999989
 21
132.39699999999999
 31
0.0
  0
TEXT
  5
2C
  8
0
 62
     7
 10
154.37177333333329
 20
116.392
 30
0.0
 40
3.660169999999999
  1
%%c32
 41
0.5
 72
     2
 11
159.25200000000001
 21
116.392
 31
0.0
  0
TEXT
  5
2D
  8
0
 62
     7
 10
132.99600000000001
 20
114.0482945833333
 30
0.0
 40
3.660169999999999
  1
max.40
 50
90.0
 41
0.5
 72
     1
 11
132.99600000000001
 21
118.471
 31
0.0
  0
TEXT
  5
2E
  8
0
 62
     7
 10
171.964
 20
146.31390083333329
 30
0.0
 40
3.660169999999999
  1
200
 50
90.0
 41
0.5
 72
     1
 11
171.964
 21
148.4489999999999
 31
0.0
  0
TEXT
  5
2F
  8
0
 62
     7
 10
163.81700000000001
 20
143.08590083333331
 30
0.0
 40
3.660169999999999
  1
174
 50
90.0
 41
0.5
 72
     1
 11
163.81700000000001
 21
145.221
 31
0.0
  0
TEXT
  5
30
  8
0
 62
     7
 10
107.824
 20
87.798093750000007
 30
0.0
 40
3.660169999999999
  1
460
 50
90.0
 41
0.5
 72
     1
 11
107.824
 21
90.085700000000003
 31
0.0
  0
TEXT
  5
31
  8
0
 62
     7
 10
107.824
 20
136.39091500000001
 30
0.0
 40
3.660169999999999
  1
118
 50
90.0
 41
0.5
 72
     1
 11
107.824
 21
138.221
 31
0.0
  0
TEXT
  5
32
  8
0
 62
     7
 10
41.151960333333328
 20
218.08399999999989
 30
0.0
 40
3.660169999999999
  1
湯
 41
0.5
 72
     1
 11
42.006
 21
218.08399999999989
 31
0.0
  0
TEXT
  5
33
  8
0
 62
     7
 10
79.121260333333339
 20
218.08399999999989
 30
0.0
 40
3.660169999999999
  1
水
 41
0.5
 72
     1
 11
79.975300000000004
 21
218.08399999999989
 31
0.0
  0
TEXT
  5
34
  8
0
 62
     7
 10
142.1207563333333
 20
217.24299999999991
 30
0.0
 40
3.660169999999999
  1
水栓取付穴
 41
0.5
 72
     1
 11
147.36699999999999
 21
217.24299999999991
 31
0.0
  0
LINE
  5
35
  8
0
 62
     7
 10
63.026000000000003
 20
207.97499999999991
 30
0.0
 11
60.805300000000003
 21
208.529
 31
0.0
  0
LINE
  5
36
  8
0
 62
     7
 10
60.805300000000003
 20
208.529
 30
0.0
 11
63.005299999999998
 21
209.15899999999999
 31
0.0
  0
LINE
  5
37
  8
0
 62
     7
 10
63.005299999999998
 20
209.15899999999999
 30
0.0
 11
63.026000000000003
 21
207.97499999999991
 31
0.0
  0
LINE
  5
38
  8
0
 62
     7
 10
75.690299999999993
 20
216.124
 30
0.0
 11
77.504499999999993
 21
217.51900000000001
 31
0.0
  0
LINE
  5
39
  8
0
 62
     7
 10
77.504499999999993
 20
217.51900000000001
 30
0.0
 11
76.630799999999994
 21
215.40299999999999
 31
0.0
  0
LINE
  5
3A
  8
0
 62
     7
 10
76.630799999999994
 20
215.40299999999999
 30
0.0
 11
75.690299999999993
 21
216.124
 31
0.0
  0
ARC
  5
3B
  8
0
 62
     7
 10
60.61054399999999
 20
228.89514299999999
 30
0.0
 40
20.367432000000001
 50
270.54784999999998
 51
326.04303099999993
  0
LINE
  5
3C
  8
0
 62
     7
 10
58.584600000000002
 20
207.97499999999991
 30
0.0
 11
60.805300000000003
 21
208.529
 31
0.0
  0
LINE
  5
3D
  8
0
 62
     7
 10
60.805300000000003
 20
208.529
 30
0.0
 11
58.605200000000011
 21
209.15899999999999
 31
0.0
  0
LINE
  5
3E
  8
0
 62
     7
 10
58.605200000000011
 20
209.15899999999999
 30
0.0
 11
58.584600000000002
 21
207.97499999999991
 31
0.0
  0
LINE
  5
3F
  8
0
 62
     7
 10
45.920299999999997
 20
216.124
 30
0.0
 11
44.106099999999998
 21
217.51900000000001
 31
0.0
  0
LINE
  5
40
  8
0
 62
     7
 10
44.106099999999998
 20
217.51900000000001
 30
0.0
 11
44.979799999999997
 21
215.40299999999999
 31
0.0
  0
LINE
  5
41
  8
0
 62
     7
 10
44.979799999999997
 20
215.40299999999999
 30
0.0
 11
45.920299999999997
 21
216.124
 31
0.0
  0
ARC
  5
42
  8
0
 62
     7
 10
61.000028999999998
 20
228.89514299999999
 30
0.0
 40
20.367432000000001
 50
213.95698899999999
 51
269.45217000000002
  0
LINE
  5
43
  8
0
  6
AIGENLINE001
 62
     7
 10
46.106999999999999
 20
225.11299999999989
 30
0.0
 11
59.072400000000002
 21
235.99299999999991
 31
0.0
  0
ARC
  5
44
  8
0
  6
AIGENLINE001
 62
     7
 10
46.986002999999997
 20
224.163141
 30
0.0
 40
1.2944649999999991
 50
132.76690300000001
 51
217.9387999999999
  0
LINE
  5
45
  8
0
  6
AIGENLINE001
 62
     7
 10
45.9651
 20
223.36699999999999
 30
0.0
 11
50.130899999999997
 21
218.40299999999991
 31
0.0
  0
ARC
  5
46
  8
0
  6
AIGENLINE001
 62
     7
 10
51.092153000000003
 20
219.26970099999991
 30
0.0
 40
1.294581999999999
 50
222.05582299999989
 51
307.238156
  0
LINE
  5
47
  8
0
  6
AIGENLINE001
 62
     7
 10
51.875500000000002
 20
218.239
 30
0.0
 11
60.805300000000003
 21
225.73199999999991
 31
0.0
  0
LINE
  5
48
  8
0
  6
AIGENLINE002
 62
     7
 10
60.822499999999998
 20
231.589
 30
0.0
 11
46.735599999999998
 21
219.73199999999991
 31
0.0
  0
LINE
  5
49
  8
0
 62
     7
 10
46.032999999999987
 20
219.14099999999991
 30
0.0
 11
42.697699999999998
 21
216.334
 31
0.0
  0
LINE
  5
4A
  8
0
  6
AIGENLINE001
 62
     7
 10
75.507699999999986
 20
225.11299999999989
 30
0.0
 11
62.54229999999999
 21
235.99199999999999
 31
0.0
  0
ARC
  5
4B
  8
0
  6
AIGENLINE001
 62
     7
 10
74.628205000000008
 20
224.16330099999999
 30
0.0
 40
1.294686
 50
322.05981600000001
 51
47.212021000000007
  0
LINE
  5
4C
  8
0
  6
AIGENLINE001
 62
     7
 10
75.649299999999997
 20
223.36699999999999
 30
0.0
 11
71.483800000000002
 21
218.40299999999991
 31
0.0
  0
ARC
  5
4D
  8
0
  6
AIGENLINE001
 62
     7
 10
70.522475
 20
219.270544
 30
0.0
 40
1.295205999999999
 50
232.78722300000001
 51
317.91883799999988
  0
LINE
  5
4E
  8
0
  6
AIGENLINE001
 62
     7
 10
69.739199999999997
 20
218.239
 30
0.0
 11
60.804600000000001
 21
225.7359999999999
 31
0.0
  0
LINE
  5
4F
  8
0
  6
AIGENLINE002
 62
     7
 10
60.822499999999998
 20
231.589
 30
0.0
 11
74.632400000000004
 21
219.98099999999991
 31
0.0
  0
LINE
  5
50
  8
0
 62
     7
 10
75.370900000000006
 20
219.3599999999999
 30
0.0
 11
78.970699999999994
 21
216.334
 31
0.0
  0
LINE
  5
51
  8
0
 62
     7
 10
154.4799999999999
 20
238.70099999999999
 30
0.0
 11
160.26699999999991
 21
238.70099999999999
 31
0.0
  0
LINE
  5
52
  8
0
 62
     7
 10
143.12899999999991
 20
226.51300000000001
 30
0.0
 11
144.274
 21
228.495
 31
0.0
  0
LINE
  5
53
  8
0
 62
     7
 10
144.274
 20
228.495
 30
0.0
 11
142.29099999999991
 21
227.35099999999991
 31
0.0
  0
LINE
  5
54
  8
0
 62
     7
 10
142.29099999999991
 20
227.35099999999991
 30
0.0
 11
143.12899999999991
 21
226.51300000000001
 31
0.0
  0
LINE
  5
55
  8
0
 62
     7
 10
151.60599999999991
 20
236.66499999999991
 30
0.0
 11
150.46100000000001
 21
234.68299999999999
 31
0.0
  0
LINE
  5
56
  8
0
 62
     7
 10
150.46100000000001
 20
234.68299999999999
 30
0.0
 11
152.44399999999999
 21
235.827
 31
0.0
  0
LINE
  5
57
  8
0
 62
     7
 10
152.44399999999999
 20
235.827
 30
0.0
 11
151.60599999999991
 21
236.66499999999991
 31
0.0
  0
LINE
  5
58
  8
0
 62
     7
 10
154.4799999999999
 20
238.70099999999999
 30
0.0
 11
140.2939999999999
 21
224.51599999999991
 31
0.0
  0
LINE
  5
59
  8
0
  6
AIGENLINE002
 62
     7
 10
147.36699999999999
 20
237.72799999999989
 30
0.0
 11
147.36699999999999
 21
225.4499999999999
 31
0.0
  0
ARC
  5
5A
  8
0
 62
     7
 10
147.3674739999999
 20
231.58887799999991
 30
0.0
 40
4.3751269999999991
 50
0.002266
 51
90.002235999999996
  0
ARC
  5
5B
  8
0
 62
     7
 10
147.36747600000001
 20
231.58922200000001
 30
0.0
 40
4.374782999999999
 50
90.002256000000017
 51
180.00226599999991
  0
ARC
  5
5C
  8
0
 62
     7
 10
147.3674739999999
 20
231.58887799999991
 30
0.0
 40
4.3747809999999987
 50
179.997714
 51
269.99776400000002
  0
ARC
  5
5D
  8
0
 62
     7
 10
147.3674739999999
 20
231.589224
 30
0.0
 40
4.3751269999999991
 50
269.99776400000002
 51
359.99773399999992
  0
LINE
  5
5E
  8
0
  6
AIGENLINE002
 62
     7
 10
48.322200000000002
 20
231.589
 30
0.0
 11
73.322400000000002
 21
231.589
 31
0.0
  0
LINE
  5
5F
  8
0
  6
AIGENLINE002
 62
     7
 10
141.2289999999999
 20
231.589
 30
0.0
 11
153.50700000000001
 21
231.589
 31
0.0
  0
LINE
  5
60
  8
0
 62
     7
 10
58.555599999999998
 20
129.73799999999989
 30
0.0
 11
56.343899999999991
 21
129.14500000000001
 31
0.0
  0
LINE
  5
61
  8
0
 62
     7
 10
56.343899999999991
 20
129.14500000000001
 30
0.0
 11
58.555599999999998
 21
128.55199999999999
 31
0.0
  0
LINE
  5
62
  8
0
 62
     7
 10
58.555599999999998
 20
128.55199999999999
 30
0.0
 11
58.555599999999998
 21
129.73799999999989
 31
0.0
  0
LINE
  5
63
  8
0
 62
     7
 10
63.055599999999991
 20
128.56700000000001
 30
0.0
 11
65.267399999999995
 21
129.16
 31
0.0
  0
LINE
  5
64
  8
0
 62
     7
 10
65.267399999999995
 20
129.16
 30
0.0
 11
63.055599999999991
 21
129.75200000000001
 31
0.0
  0
LINE
  5
65
  8
0
 62
     7
 10
63.055599999999991
 20
129.75200000000001
 30
0.0
 11
63.055599999999991
 21
128.56700000000001
 31
0.0
  0
LINE
  5
66
  8
0
 62
     7
 10
56.343899999999991
 20
129.14500000000001
 30
0.0
 11
65.267399999999995
 21
129.14500000000001
 31
0.0
  0
LINE
  5
67
  8
0
 62
     7
 10
142.07900000000001
 20
131.95400000000001
 30
0.0
 11
139.86699999999999
 21
131.3609999999999
 31
0.0
  0
LINE
  5
68
  8
0
 62
     7
 10
139.86699999999999
 20
131.3609999999999
 30
0.0
 11
142.07900000000001
 21
130.76799999999989
 31
0.0
  0
LINE
  5
69
  8
0
 62
     7
 10
142.07900000000001
 20
130.76799999999989
 30
0.0
 11
142.07900000000001
 21
131.95400000000001
 31
0.0
  0
LINE
  5
6A
  8
0
 62
     7
 10
152.65600000000001
 20
130.7829999999999
 30
0.0
 11
154.86699999999999
 21
131.37499999999989
 31
0.0
  0
LINE
  5
6B
  8
0
 62
     7
 10
154.86699999999999
 20
131.37499999999989
 30
0.0
 11
152.65600000000001
 21
131.9679999999999
 31
0.0
  0
LINE
  5
6C
  8
0
 62
     7
 10
152.65600000000001
 20
131.9679999999999
 30
0.0
 11
152.65600000000001
 21
130.7829999999999
 31
0.0
  0
LINE
  5
6D
  8
0
 62
     7
 10
139.86699999999999
 20
131.3609999999999
 30
0.0
 11
154.86699999999999
 21
131.3609999999999
 31
0.0
  0
LINE
  5
6E
  8
0
 62
     7
 10
154.86699999999999
 20
132.06100000000001
 30
0.0
 11
154.86699999999999
 21
125.059
 31
0.0
  0
LINE
  5
6F
  8
0
 62
     7
 10
139.86699999999999
 20
132.06100000000001
 30
0.0
 11
139.86699999999999
 21
125.059
 31
0.0
  0
LINE
  5
70
  8
0
 62
     7
 10
145.15600000000001
 20
142.56700000000001
 30
0.0
 11
147.36699999999999
 21
143.15999999999991
 31
0.0
  0
LINE
  5
71
  8
0
 62
     7
 10
147.36699999999999
 20
143.15999999999991
 30
0.0
 11
145.15600000000001
 21
143.75200000000001
 31
0.0
  0
LINE
  5
72
  8
0
 62
     7
 10
145.15600000000001
 20
143.75200000000001
 30
0.0
 11
145.15600000000001
 21
142.56700000000001
 31
0.0
  0
LINE
  5
73
  8
0
 62
     7
 10
119.5779999999999
 20
143.738
 30
0.0
 11
117.3669999999999
 21
143.14500000000001
 31
0.0
  0
LINE
  5
74
  8
0
 62
     7
 10
117.3669999999999
 20
143.14500000000001
 30
0.0
 11
119.5779999999999
 21
142.553
 31
0.0
  0
LINE
  5
75
  8
0
 62
     7
 10
119.5779999999999
 20
142.553
 30
0.0
 11
119.5779999999999
 21
143.738
 31
0.0
  0
LINE
  5
76
  8
0
 62
     7
 10
147.36699999999999
 20
143.15999999999991
 30
0.0
 11
117.3669999999999
 21
143.15999999999991
 31
0.0
  0
LINE
  5
77
  8
0
 62
     7
 10
117.3669999999999
 20
151.119
 30
0.0
 11
117.3669999999999
 21
142.44499999999999
 31
0.0
  0
LINE
  5
78
  8
0
 62
     7
 10
141.15600000000001
 20
115.0989999999999
 30
0.0
 11
143.36699999999999
 21
115.69199999999999
 31
0.0
  0
LINE
  5
79
  8
0
 62
     7
 10
143.36699999999999
 20
115.69199999999999
 30
0.0
 11
141.15600000000001
 21
116.28399999999991
 31
0.0
  0
LINE
  5
7A
  8
0
 62
     7
 10
141.15600000000001
 20
116.28399999999991
 30
0.0
 11
141.15600000000001
 21
115.0989999999999
 31
0.0
  0
LINE
  5
7B
  8
0
 62
     7
 10
153.57900000000001
 20
116.28399999999991
 30
0.0
 11
151.36699999999999
 21
115.69199999999999
 31
0.0
  0
LINE
  5
7C
  8
0
 62
     7
 10
151.36699999999999
 20
115.69199999999999
 30
0.0
 11
153.57900000000001
 21
115.0989999999999
 31
0.0
  0
LINE
  5
7D
  8
0
 62
     7
 10
153.57900000000001
 20
115.0989999999999
 30
0.0
 11
153.57900000000001
 21
116.28399999999991
 31
0.0
  0
LINE
  5
7E
  8
0
 62
     7
 10
159.25200000000001
 20
115.69199999999999
 30
0.0
 11
140.31700000000001
 21
115.69199999999999
 31
0.0
  0
LINE
  5
7F
  8
0
 62
     7
 10
134.2879999999999
 20
121.26000000000001
 30
0.0
 11
133.69599999999991
 21
123.4709999999999
 31
0.0
  0
LINE
  5
80
  8
0
 62
     7
 10
133.69599999999991
 20
123.4709999999999
 30
0.0
 11
133.10299999999989
 21
121.26000000000001
 31
0.0
  0
LINE
  5
81
  8
0
 62
     7
 10
133.10299999999989
 20
121.26000000000001
 30
0.0
 11
134.2879999999999
 21
121.26000000000001
 31
0.0
  0
LINE
  5
82
  8
0
 62
     7
 10
133.11799999999999
 20
115.6819999999999
 30
0.0
 11
133.71000000000001
 21
113.471
 31
0.0
  0
LINE
  5
83
  8
0
 62
     7
 10
133.71000000000001
 20
113.471
 30
0.0
 11
134.30299999999991
 21
115.6819999999999
 31
0.0
  0
LINE
  5
84
  8
0
 62
     7
 10
134.30299999999991
 20
115.6819999999999
 30
0.0
 11
133.11799999999999
 21
115.6819999999999
 31
0.0
  0
LINE
  5
85
  8
0
 62
     7
 10
133.69599999999991
 20
123.4709999999999
 30
0.0
 11
133.69599999999991
 21
113.471
 31
0.0
  0
LINE
  5
86
  8
0
 62
     7
 10
140.417
 20
113.471
 30
0.0
 11
132.99600000000001
 21
113.471
 31
0.0
  0
LINE
  5
87
  8
0
 62
     7
 10
173.29900000000001
 20
171.215
 30
0.0
 11
172.7059999999999
 21
173.42699999999999
 31
0.0
  0
LINE
  5
88
  8
0
 62
     7
 10
172.7059999999999
 20
173.42699999999999
 30
0.0
 11
172.114
 21
171.215
 31
0.0
  0
LINE
  5
89
  8
0
 62
     7
 10
172.114
 20
171.215
 30
0.0
 11
173.29900000000001
 21
171.215
 31
0.0
  0
LINE
  5
8A
  8
0
 62
     7
 10
172.1279999999999
 20
125.682
 30
0.0
 11
172.72099999999989
 21
123.4709999999999
 31
0.0
  0
LINE
  5
8B
  8
0
 62
     7
 10
172.72099999999989
 20
123.4709999999999
 30
0.0
 11
173.31399999999999
 21
125.682
 31
0.0
  0
LINE
  5
8C
  8
0
 62
     7
 10
173.31399999999999
 20
125.682
 30
0.0
 11
172.1279999999999
 21
125.682
 31
0.0
  0
LINE
  5
8D
  8
0
 62
     7
 10
172.7059999999999
 20
173.42699999999999
 30
0.0
 11
172.7059999999999
 21
123.4709999999999
 31
0.0
  0
LINE
  5
8E
  8
0
 62
     7
 10
165.15199999999999
 20
164.75999999999991
 30
0.0
 11
164.559
 21
166.97099999999989
 31
0.0
  0
LINE
  5
8F
  8
0
 62
     7
 10
164.559
 20
166.97099999999989
 30
0.0
 11
163.96700000000001
 21
164.75999999999991
 31
0.0
  0
LINE
  5
90
  8
0
 62
     7
 10
163.96700000000001
 20
164.75999999999991
 30
0.0
 11
165.15199999999999
 21
164.75999999999991
 31
0.0
  0
LINE
  5
91
  8
0
 62
     7
 10
163.98099999999991
 20
125.682
 30
0.0
 11
164.57400000000001
 21
123.4709999999999
 31
0.0
  0
LINE
  5
92
  8
0
 62
     7
 10
164.57400000000001
 20
123.4709999999999
 30
0.0
 11
165.167
 21
125.682
 31
0.0
  0
LINE
  5
93
  8
0
 62
     7
 10
165.167
 20
125.682
 30
0.0
 11
163.98099999999991
 21
125.682
 31
0.0
  0
LINE
  5
94
  8
0
 62
     7
 10
164.559
 20
166.97099999999989
 30
0.0
 11
164.559
 21
123.4709999999999
 31
0.0
  0
LINE
  5
95
  8
0
 62
     7
 10
109.15899999999991
 20
121.26000000000001
 30
0.0
 11
108.566
 21
123.4709999999999
 31
0.0
  0
LINE
  5
96
  8
0
 62
     7
 10
108.566
 20
123.4709999999999
 30
0.0
 11
107.9739999999999
 21
121.26000000000001
 31
0.0
  0
LINE
  5
97
  8
0
 62
     7
 10
107.9739999999999
 20
121.26000000000001
 30
0.0
 11
109.15899999999991
 21
121.26000000000001
 31
0.0
  0
LINE
  5
98
  8
0
 62
     7
 10
107.9879999999999
 20
58.910800000000002
 30
0.0
 11
108.581
 21
56.6997
 31
0.0
  0
LINE
  5
99
  8
0
 62
     7
 10
108.581
 20
56.6997
 30
0.0
 11
109.1729999999999
 21
58.910800000000002
 31
0.0
  0
LINE
  5
9A
  8
0
 62
     7
 10
109.1729999999999
 20
58.910800000000002
 30
0.0
 11
107.9879999999999
 21
58.910800000000002
 31
0.0
  0
LINE
  5
9B
  8
0
 62
     7
 10
108.566
 20
123.4709999999999
 30
0.0
 11
108.566
 21
56.6997
 31
0.0
  0
LINE
  5
9C
  8
0
 62
     7
 10
109.15899999999991
 20
150.7589999999999
 30
0.0
 11
108.566
 21
152.971
 31
0.0
  0
LINE
  5
9D
  8
0
 62
     7
 10
108.566
 20
152.971
 30
0.0
 11
107.9739999999999
 21
150.7589999999999
 31
0.0
  0
LINE
  5
9E
  8
0
 62
     7
 10
107.9739999999999
 20
150.7589999999999
 30
0.0
 11
109.15899999999991
 21
150.7589999999999
 31
0.0
  0
LINE
  5
9F
  8
0
 62
     7
 10
107.9879999999999
 20
125.682
 30
0.0
 11
108.581
 21
123.4709999999999
 31
0.0
  0
LINE
  5
A0
  8
0
 62
     7
 10
108.581
 20
123.4709999999999
 30
0.0
 11
109.1729999999999
 21
125.682
 31
0.0
  0
LINE
  5
A1
  8
0
 62
     7
 10
109.1729999999999
 20
125.682
 30
0.0
 11
107.9879999999999
 21
125.682
 31
0.0
  0
LINE
  5
A2
  8
0
 62
     7
 10
108.566
 20
152.971
 30
0.0
 11
108.566
 21
123.4709999999999
 31
0.0
  0
LINE
  5
A3
  8
0
 62
     7
 10
173.40700000000001
 20
173.42699999999999
 30
0.0
 11
137.30199999999999
 21
173.42699999999999
 31
0.0
  0
LINE
  5
A4
  8
0
 62
     7
 10
165.25999999999991
 20
166.97099999999989
 30
0.0
 11
133.01400000000001
 21
166.97099999999989
 31
0.0
  0
LINE
  5
A5
  8
0
 62
     7
 10
127.81999999999999
 20
56.6997
 30
0.0
 11
107.881
 21
56.6997
 31
0.0
  0
LINE
  5
A6
  8
0
 62
     7
 10
138.99199999999999
 20
123.4709999999999
 30
0.0
 11
107.881
 21
123.4709999999999
 31
0.0
  0
LINE
  5
A7
  8
0
 62
     7
 10
173.42099999999999
 20
123.4709999999999
 30
0.0
 11
155.56700000000001
 21
123.4709999999999
 31
0.0
  0
LINE
  5
A8
  8
0
 62
     7
 10
114.342
 20
152.971
 30
0.0
 11
107.8659999999999
 21
152.971
 31
0.0
  0
LINE
  5
A9
  8
0
 62
     7
 10
135.34399999999991
 20
49.562100000000001
 30
0.0
 11
133.1329999999999
 21
48.969599999999993
 31
0.0
  0
LINE
  5
AA
  8
0
 62
     7
 10
133.1329999999999
 20
48.969599999999993
 30
0.0
 11
135.34399999999991
 21
48.37769999999999
 31
0.0
  0
LINE
  5
AB
  8
0
 62
     7
 10
135.34399999999991
 20
48.37769999999999
 30
0.0
 11
135.34399999999991
 21
49.562100000000001
 31
0.0
  0
LINE
  5
AC
  8
0
 62
     7
 10
126.797
 20
48.37769999999999
 30
0.0
 11
129.0079999999999
 21
48.969599999999993
 31
0.0
  0
LINE
  5
AD
  8
0
 62
     7
 10
129.0079999999999
 20
48.969599999999993
 30
0.0
 11
126.797
 21
49.562100000000001
 31
0.0
  0
LINE
  5
AE
  8
0
 62
     7
 10
126.797
 20
49.562100000000001
 30
0.0
 11
126.797
 21
48.37769999999999
 31
0.0
  0
LINE
  5
AF
  8
0
 62
     7
 10
119.2829999999999
 20
48.969599999999993
 30
0.0
 11
136.8489999999999
 21
48.969599999999993
 31
0.0
  0
LINE
  5
B0
  8
0
 62
     7
 10
129.0079999999999
 20
48.299199999999999
 30
0.0
 11
129.0079999999999
 21
56.259500000000003
 31
0.0
  0
LINE
  5
B1
  8
0
 62
     7
 10
133.1329999999999
 20
48.299199999999999
 30
0.0
 11
133.1329999999999
 21
56.259500000000003
 31
0.0
  0
ARC
  5
B2
  8
0
 62
     7
 10
60.805793000000008
 20
231.5179709999999
 30
0.0
 40
7.4782710000000003
 50
94.781676000000004
 51
184.77696299999991
  0
ARC
  5
B3
  8
0
 62
     7
 10
60.906343000000007
 20
231.57402300000001
 30
0.0
 40
7.5832889999999988
 50
185.13573199999999
 51
232.887936
  0
ARC
  5
B4
  8
0
 62
     7
 10
60.804669999999987
 20
231.5183649999999
 30
0.0
 40
7.4784470000000001
 50
306.99326300000001
 51
36.984631
  0
ARC
  5
B5
  8
0
 62
     7
 10
60.751511000000001
 20
231.42078699999999
 30
0.0
 40
7.579752
 50
37.332078000000003
 51
84.873093000000011
  0
LINE
  5
B6
  8
0
 62
     7
 10
61.428899999999999
 20
238.96999999999991
 30
0.0
 11
61.295900000000003
 21
238.97999999999999
 31
0.0
  0
ARC
  5
B7
  8
0
 62
     7
 10
60.807555999999998
 20
231.47968399999999
 30
0.0
 40
7.516572
 50
86.275141000000019
 51
94.770741999999984
  0
ARC
  5
B8
  8
0
 62
     7
 10
64.011079000000009
 20
216.13862399999999
 30
0.0
 40
1.295078
 50
272.08365900000001
 51
357.19926600000002
  0
LINE
  5
B9
  8
0
 62
     7
 10
64.058199999999999
 20
214.84399999999999
 30
0.0
 11
57.577199999999991
 21
214.84399999999999
 31
0.0
  0
ARC
  5
BA
  8
0
 62
     7
 10
57.624297999999989
 20
216.13862399999999
 30
0.0
 40
1.295078
 50
182.8007539999999
 51
267.91635999999988
  0
ARC
  5
BB
  8
0
 62
     7
 10
57.625364000000012
 20
234.69799
 30
0.0
 40
1.295504999999999
 50
92.13010700000001
 51
177.85402500000001
  0
LINE
  5
BC
  8
0
 62
     7
 10
64.058199999999999
 20
235.99299999999991
 30
0.0
 11
57.577199999999991
 21
235.99299999999991
 31
0.0
  0
ARC
  5
BD
  8
0
 62
     7
 10
64.010724999999994
 20
234.69870199999991
 30
0.0
 40
1.294767
 50
2.1156649999999999
 51
87.900164000000004
  0
LINE
  5
BE
  8
0
 62
     7
 10
65.304599999999994
 20
216.15299999999991
 30
0.0
 11
65.304599999999994
 21
234.74700000000001
 31
0.0
  0
LINE
  5
BF
  8
0
 62
     7
 10
56.330800000000004
 20
216.15299999999991
 30
0.0
 11
56.330800000000004
 21
234.74700000000001
 31
0.0
  0
ARC
  5
C0
  8
0
 62
     7
 10
64.021045000000001
 20
198.99092099999999
 30
0.0
 40
1.2463580000000001
 50
269.99606
 51
359.99603100000002
  0
LINE
  5
C1
  8
0
 62
     7
 10
64.021000000000001
 20
197.745
 30
0.0
 11
57.589599999999997
 21
197.745
 31
0.0
  0
ARC
  5
C2
  8
0
 62
     7
 10
57.637895999999991
 20
199.03858
 30
0.0
 40
1.2949170000000001
 50
182.113066
 51
267.863201
  0
LINE
  5
C3
  8
0
 62
     7
 10
56.343899999999991
 20
198.9909999999999
 30
0.0
 11
56.343899999999991
 21
215.90199999999999
 31
0.0
  0
LINE
  5
C4
  8
0
 62
     7
 10
65.267399999999995
 20
215.77500000000001
 30
0.0
 11
65.267399999999995
 21
198.9909999999999
 31
0.0
  0
LINE
  5
C5
  8
0
  6
AIGENLINE002
 62
     7
 10
60.805300000000003
 20
237.47999999999999
 30
0.0
 11
60.805300000000003
 21
195.24499999999989
 31
0.0
  0
LINE
  5
C6
  8
0
  6
AIGENLINE002
 62
     7
 10
131.071
 20
107.471
 30
0.0
 11
147.36699999999999
 21
90.900099999999995
 31
0.0
  0
LINE
  5
C7
  8
0
 62
     7
 10
132.38199999999989
 20
102.62
 30
0.0
 11
132.38199999999989
 21
64.451300000000003
 31
0.0
  0
LINE
  5
C8
  8
0
 62
     7
 10
129.7579999999999
 20
102.62
 30
0.0
 11
129.7579999999999
 21
64.451300000000003
 31
0.0
  0
LINE
  5
C9
  8
0
  6
AIGENLINE002
 62
     7
 10
131.071
 20
107.471
 30
0.0
 11
131.071
 21
55.392699999999998
 31
0.0
  0
LINE
  5
CA
  8
0
 62
     7
 10
148.68000000000001
 20
108.72799999999999
 30
0.0
 11
148.68000000000001
 21
97.232200000000006
 31
0.0
  0
LINE
  5
CB
  8
0
 62
     7
 10
146.05500000000001
 20
108.72799999999999
 30
0.0
 11
146.05500000000001
 21
97.232200000000006
 31
0.0
  0
LINE
  5
CC
  8
0
 62
     7
 10
151.36699999999999
 20
108.97799999999989
 30
0.0
 11
151.11699999999999
 21
108.72799999999999
 31
0.0
  0
LINE
  5
CD
  8
0
 62
     7
 10
143.61699999999999
 20
108.72799999999999
 30
0.0
 11
143.36699999999999
 21
108.97799999999989
 31
0.0
  0
LINE
  5
CE
  8
0
 62
     7
 10
151.11699999999999
 20
123.09699999999999
 30
0.0
 11
151.11699999999999
 21
113.471
 31
0.0
  0
LINE
  5
CF
  8
0
 62
     7
 10
151.36699999999999
 20
123.09699999999999
 30
0.0
 11
151.36699999999999
 21
113.471
 31
0.0
  0
LINE
  5
D0
  8
0
 62
     7
 10
143.61699999999999
 20
123.09699999999999
 30
0.0
 11
143.61699999999999
 21
113.471
 31
0.0
  0
LINE
  5
D1
  8
0
 62
     7
 10
143.36699999999999
 20
123.09699999999999
 30
0.0
 11
143.36699999999999
 21
113.471
 31
0.0
  0
LINE
  5
D2
  8
0
 62
     7
 10
151.11699999999999
 20
110.97799999999989
 30
0.0
 11
151.11699999999999
 21
108.72799999999999
 31
0.0
  0
LINE
  5
D3
  8
0
 62
     7
 10
151.36699999999999
 20
110.97799999999989
 30
0.0
 11
151.36699999999999
 21
108.97799999999989
 31
0.0
  0
LINE
  5
D4
  8
0
 62
     7
 10
143.61699999999999
 20
110.97799999999989
 30
0.0
 11
143.61699999999999
 21
108.72799999999999
 31
0.0
  0
LINE
  5
D5
  8
0
 62
     7
 10
143.36699999999999
 20
110.97799999999989
 30
0.0
 11
143.36699999999999
 21
108.97799999999989
 31
0.0
  0
LINE
  5
D6
  8
0
 62
     7
 10
143.36699999999999
 20
108.97799999999989
 30
0.0
 11
151.36699999999999
 21
108.97799999999989
 31
0.0
  0
LINE
  5
D7
  8
0
 62
     7
 10
143.61699999999999
 20
108.72799999999999
 30
0.0
 11
151.11699999999999
 21
108.72799999999999
 31
0.0
  0
LINE
  5
D8
  8
0
  6
AIGENLINE002
 62
     7
 10
147.36699999999999
 20
130.411
 30
0.0
 11
147.36699999999999
 21
90.900099999999995
 31
0.0
  0
LINE
  5
D9
  8
0
 62
     7
 10
131.071
 20
56.94919999999999
 30
0.0
 11
131.071
 21
59.574300000000001
 31
0.0
  0
LINE
  5
DA
  8
0
 62
     7
 10
128.69499999999999
 20
56.94919999999999
 30
0.0
 11
128.69499999999999
 21
59.574300000000001
 31
0.0
  0
ARC
  5
DB
  8
0
 62
     7
 10
134.43243699999999
 20
79.880375000000001
 30
0.0
 40
23.63812999999999
 50
255.95232200000001
 51
256.945244
  0
ARC
  5
DC
  8
0
 62
     7
 10
130.18938899999989
 20
61.702210000000001
 30
0.0
 40
4.9714320000000001
 50
257.25940200000002
 51
263.09735599999999
  0
ARC
  5
DD
  8
0
 62
     7
 10
129.9060419999999
 20
59.580535999999988
 30
0.0
 40
2.8312049999999989
 50
263.62968999999998
 51
269.791427
  0
ARC
  5
DE
  8
0
 62
     7
 10
129.89442
 20
59.268017999999998
 30
0.0
 40
2.518669
 50
270.02992899999992
 51
277.21034199999991
  0
ARC
  5
DF
  8
0
 62
     7
 10
129.68175299999999
 20
61.069553999999997
 30
0.0
 40
4.3326769999999986
 50
277.01026699999989
 51
283.59545299999991
  0
ARC
  5
E0
  8
0
 62
     7
 10
126.90653
 20
73.115053000000003
 30
0.0
 40
16.693553000000001
 50
283.13548700000001
 51
284.44420700000001
  0
ARC
  5
E1
  8
0
 62
     7
 10
129.44600199999999
 20
54.817861000000001
 30
0.0
 40
5.0262519999999986
 50
71.143036999999993
 51
78.857978000000003
  0
ARC
  5
E2
  8
0
 62
     7
 10
129.864484
 20
56.786825999999998
 30
0.0
 40
3.0136819999999989
 50
79.430400000000006
 51
89.405840999999995
  0
ARC
  5
E3
  8
0
 62
     7
 10
129.896074
 20
56.914482999999997
 30
0.0
 40
2.8858630000000001
 50
90.006719999999987
 51
100.8472669999999
  0
ARC
  5
E4
  8
0
 62
     7
 10
130.140186
 20
55.449300999999998
 30
0.0
 40
4.3709530000000001
 50
100.37556600000001
 51
109.31049399999991
  0
ARC
  5
E5
  8
0
 62
     7
 10
136.84814199999991
 20
80.013103999999984
 30
0.0
 40
23.776588
 50
255.93655999999999
 51
256.90015199999999
  0
ARC
  5
E6
  8
0
 62
     7
 10
132.57117700000001
 20
61.738962999999998
 30
0.0
 40
5.0086909999999998
 50
257.17297400000001
 51
263.07493999999991
  0
ARC
  5
E7
  8
0
 62
     7
 10
132.28075899999999
 20
59.568679000000003
 30
0.0
 40
2.8193489999999999
 50
263.61604899999998
 51
269.78359799999993
  0
ARC
  5
E8
  8
0
 62
     7
 10
132.26879600000001
 20
59.272786000000004
 30
0.0
 40
2.523436999999999
 50
270.02984600000002
 51
277.20351699999992
  0
ARC
  5
E9
  8
0
 62
     7
 10
132.056817
 20
61.068159999999999
 30
0.0
 40
4.3312460000000002
 50
277.00742700000001
 51
283.59563300000002
  0
ARC
  5
EA
  8
0
 62
     7
 10
129.2113709999999
 20
73.414899000000005
 30
0.0
 40
17.001439000000001
 50
283.13524999999993
 51
284.42132700000002
  0
LINE
  5
EB
  8
0
 62
     7
 10
133.44599999999991
 20
56.94919999999999
 30
0.0
 11
133.44599999999991
 21
59.574300000000001
 31
0.0
  0
ARC
  5
EC
  8
0
 62
     7
 10
131.81994
 20
54.814552999999997
 30
0.0
 40
5.0297460000000003
 50
71.143068999999997
 51
78.850862000000006
  0
ARC
  5
ED
  8
0
 62
     7
 10
132.239532
 20
56.784492000000007
 30
0.0
 40
3.0160079999999998
 50
79.435217000000009
 51
89.419084999999995
  0
ARC
  5
EE
  8
0
 62
     7
 10
132.270456
 20
56.923475000000003
 30
0.0
 40
2.8768709999999991
 50
90.006878000000015
 51
100.864256
  0
ARC
  5
EF
  8
0
 62
     7
 10
132.51646599999989
 20
55.449646999999999
 30
0.0
 40
4.3708010000000002
 50
100.389841
 51
109.3185129999999
  0
LINE
  5
F0
  8
0
 62
     7
 10
133.44599999999991
 20
56.749299999999991
 30
0.0
 11
133.44599999999991
 21
56.94919999999999
 31
0.0
  0
LINE
  5
F1
  8
0
 62
     7
 10
133.44599999999991
 20
59.574300000000001
 30
0.0
 11
133.44599999999991
 21
59.8003
 31
0.0
  0
LINE
  5
F2
  8
0
 62
     7
 10
128.69499999999999
 20
56.749299999999991
 30
0.0
 11
128.69499999999999
 21
56.94919999999999
 31
0.0
  0
LINE
  5
F3
  8
0
 62
     7
 10
128.69499999999999
 20
59.574300000000001
 30
0.0
 11
128.69499999999999
 21
59.8003
 31
0.0
  0
LINE
  5
F4
  8
0
 62
     7
 10
132.32099999999991
 20
59.974699999999991
 30
0.0
 11
131.071
 21
59.974699999999991
 31
0.0
  0
LINE
  5
F5
  8
0
 62
     7
 10
131.071
 20
59.974699999999991
 30
0.0
 11
129.821
 21
59.974699999999991
 31
0.0
  0
LINE
  5
F6
  8
0
 62
     7
 10
133.44599999999991
 20
56.749299999999991
 30
0.0
 11
133.37
 21
56.6997
 31
0.0
  0
LINE
  5
F7
  8
0
 62
     7
 10
133.37
 20
56.6997
 30
0.0
 11
128.77000000000001
 21
56.6997
 31
0.0
  0
LINE
  5
F8
  8
0
 62
     7
 10
128.77000000000001
 20
56.6997
 30
0.0
 11
128.69499999999999
 21
56.749299999999991
 31
0.0
  0
ARC
  5
F9
  8
0
 62
     7
 10
133.427087
 20
59.766603000000003
 30
0.0
 40
0.038479
 50
61.269488000000003
 51
90.14337900000001
  0
ARC
  5
FA
  8
0
 62
     7
 10
133.26549800000001
 20
58.447564
 30
0.0
 40
1.3670910000000001
 50
83.215862000000001
 51
88.382508000000001
  0
ARC
  5
FB
  8
0
 62
     7
 10
132.7575929999999
 20
46.229813
 30
0.0
 40
13.595285000000001
 50
87.696236999999996
 51
89.304100000000005
  0
ARC
  5
FC
  8
0
 62
     7
 10
131.8444749999999
 20
-15.45673599999999
 30
0.0
 40
75.288551999999996
 50
89.179406999999998
 51
89.888685999999993
  0
ARC
  5
FD
  8
0
 62
     7
 10
131.146186
 20
-318.27349299999997
 30
0.0
 40
378.106111
 50
89.872012999999995
 51
90.360083999999986
  0
LINE
  5
FE
  8
0
 62
     7
 10
128.77000000000001
 20
59.825200000000002
 30
0.0
 11
128.69499999999999
 21
59.8003
 31
0.0
  0
LINE
  5
FF
  8
0
 62
     7
 10
132.62100000000001
 20
59.825200000000002
 30
0.0
 11
132.62100000000001
 21
59.9499
 31
0.0
  0
LINE
  5
100
  8
0
 62
     7
 10
132.62100000000001
 20
59.9499
 30
0.0
 11
129.52000000000001
 21
59.9499
 31
0.0
  0
LINE
  5
101
  8
0
 62
     7
 10
129.52000000000001
 20
59.825200000000002
 30
0.0
 11
129.52000000000001
 21
59.9499
 31
0.0
  0
LINE
  5
102
  8
0
 62
     7
 10
129.821
 20
59.974699999999991
 30
0.0
 11
129.44499999999991
 21
60.275799999999997
 31
0.0
  0
LINE
  5
103
  8
0
 62
     7
 10
129.44499999999991
 20
60.275799999999997
 30
0.0
 11
129.4199999999999
 21
60.775300000000001
 31
0.0
  0
LINE
  5
104
  8
0
 62
     7
 10
132.721
 20
60.775300000000001
 30
0.0
 11
132.69499999999991
 21
60.275799999999997
 31
0.0
  0
LINE
  5
105
  8
0
 62
     7
 10
132.69499999999991
 20
60.275799999999997
 30
0.0
 11
132.32099999999991
 21
59.974699999999991
 31
0.0
  0
LINE
  5
106
  8
0
 62
     7
 10
132.52099999999999
 20
61.200400000000002
 30
0.0
 11
129.62100000000001
 21
61.200400000000002
 31
0.0
  0
LINE
  5
107
  8
0
 62
     7
 10
129.62100000000001
 20
61.200400000000002
 30
0.0
 11
129.4199999999999
 21
60.775300000000001
 31
0.0
  0
LINE
  5
108
  8
0
 62
     7
 10
132.721
 20
60.775300000000001
 30
0.0
 11
132.52099999999999
 21
61.200400000000002
 31
0.0
  0
LINE
  5
109
  8
0
 62
     7
 10
132.52099999999999
 20
63.200699999999998
 30
0.0
 11
129.62100000000001
 21
63.200699999999998
 31
0.0
  0
LINE
  5
10A
  8
0
 62
     7
 10
129.62100000000001
 20
61.200400000000002
 30
0.0
 11
129.62100000000001
 21
63.200699999999998
 31
0.0
  0
LINE
  5
10B
  8
0
 62
     7
 10
132.52099999999999
 20
61.200400000000002
 30
0.0
 11
132.52099999999999
 21
63.200699999999998
 31
0.0
  0
LINE
  5
10C
  8
0
 62
     7
 10
129.62100000000001
 20
63.200699999999998
 30
0.0
 11
129.44499999999991
 21
63.501100000000001
 31
0.0
  0
LINE
  5
10D
  8
0
 62
     7
 10
132.69499999999991
 20
63.501100000000001
 30
0.0
 11
132.52099999999999
 21
63.200699999999998
 31
0.0
  0
LINE
  5
10E
  8
0
 62
     7
 10
129.44499999999991
 20
63.501100000000001
 30
0.0
 11
129.39500000000001
 21
63.625799999999998
 31
0.0
  0
LINE
  5
10F
  8
0
 62
     7
 10
129.39500000000001
 20
63.625799999999998
 30
0.0
 11
129.39500000000001
 21
63.750500000000002
 31
0.0
  0
ARC
  5
110
  8
0
 62
     7
 10
132.15257099999991
 20
63.809344999999993
 30
0.0
 40
0.620564
 50
339.65870099999989
 51
354.56034
  0
ARC
  5
111
  8
0
 62
     7
 10
132.0753149999999
 20
63.818257000000003
 30
0.0
 40
0.6963460000000001
 50
332.90463599999993
 51
341.18094600000001
  0
LINE
  5
112
  8
0
 62
     7
 10
132.77000000000001
 20
63.750500000000002
 30
0.0
 11
132.77000000000001
 21
64.451300000000003
 31
0.0
  0
LINE
  5
113
  8
0
 62
     7
 10
132.77000000000001
 20
64.451300000000003
 30
0.0
 11
129.39500000000001
 21
64.451300000000003
 31
0.0
  0
LINE
  5
114
  8
0
 62
     7
 10
129.39500000000001
 20
63.750500000000002
 30
0.0
 11
129.39500000000001
 21
64.451300000000003
 31
0.0
  0
ARC
  5
115
  8
0
  6
AIGENLINE001
 62
     7
 10
146.38049499999991
 20
157.9154429999999
 30
0.0
 40
3.4559089999999988
 50
141.82258599999989
 51
148.17751299999989
  0
ARC
  5
116
  8
0
  6
AIGENLINE001
 62
     7
 10
147.99199299999989
 20
156.886304
 30
0.0
 40
5.3678879999999989
 50
147.91365999999999
 51
167.68204299999999
  0
ARC
  5
117
  8
0
  6
AIGENLINE001
 62
     7
 10
146.210429
 20
157.30732099999989
 30
0.0
 40
3.5376579999999991
 50
168.18820700000001
 51
175.29368700000001
  0
ARC
  5
118
  8
0
  6
AIGENLINE001
 62
     7
 10
147.4882629999999
 20
158.7009459999999
 30
0.0
 40
0.512054
 50
243.41743899999989
 51
265.016774
  0
LINE
  5
119
  8
0
  6
AIGENLINE001
 62
     7
 10
150.8549999999999
 20
157.90000000000001
 30
0.0
 11
147.4439999999999
 21
158.191
 31
0.0
  0
LINE
  5
11A
  8
0
  6
AIGENLINE001
 62
     7
 10
147.2589999999999
 20
158.24299999999999
 30
0.0
 11
143.52699999999999
 21
160.12
 31
0.0
  0
LINE
  5
11B
  8
0
  6
AIGENLINE001
 62
     7
 10
143.303
 20
160.233
 30
0.0
 11
143.52699999999999
 21
160.12
 31
0.0
  0
ARC
  5
11C
  8
0
  6
AIGENLINE001
 62
     7
 10
136.177897
 20
172.82372299999989
 30
0.0
 40
0.260218
 50
146.653941
 51
232.19724500000001
  0
LINE
  5
11D
  8
0
  6
AIGENLINE001
 62
     7
 10
135.96100000000001
 20
172.96700000000001
 30
0.0
 11
136.25200000000001
 21
173.3709999999999
 31
0.0
  0
ARC
  5
11E
  8
0
  6
AIGENLINE001
 62
     7
 10
153.523135
 20
160.98288199999999
 30
0.0
 40
0.258775
 50
335.17355499999991
 51
52.839920999999983
  0
LINE
  5
11F
  8
0
  6
AIGENLINE001
 62
     7
 10
153.7579999999999
 20
160.874
 30
0.0
 11
152.20400000000001
 21
157.78499999999991
 31
0.0
  0
ARC
  5
120
  8
0
  6
AIGENLINE001
 62
     7
 10
136.456909
 20
173.21097800000001
 30
0.0
 40
0.26025
 50
56.11648499999999
 51
141.94745800000001
  0
LINE
  5
121
  8
0
  6
AIGENLINE001
 62
     7
 10
136.01799999999989
 20
172.61799999999999
 30
0.0
 11
136.83600000000001
 21
172.03200000000001
 31
0.0
  0
LINE
  5
122
  8
0
  6
AIGENLINE001
 62
     7
 10
145.08000000000001
 20
166.125
 30
0.0
 11
136.83600000000001
 21
172.03200000000001
 31
0.0
  0
ARC
  5
123
  8
0
  6
AIGENLINE001
 62
     7
 10
144.297
 20
165.09197
 30
0.0
 40
1.29617
 50
335.22447599999998
 51
52.850954000000009
  0
LINE
  5
124
  8
0
  6
AIGENLINE001
 62
     7
 10
143.303
 20
160.233
 30
0.0
 11
145.4739999999999
 21
164.54900000000001
 31
0.0
  0
LINE
  5
125
  8
0
  6
AIGENLINE001
 62
     7
 10
153.679
 20
161.18899999999999
 30
0.0
 11
152.852
 21
161.78200000000001
 31
0.0
  0
LINE
  5
126
  8
0
  6
AIGENLINE001
 62
     7
 10
136.602
 20
173.42699999999999
 30
0.0
 11
137.4189999999999
 21
172.84099999999989
 31
0.0
  0
LINE
  5
127
  8
0
  6
AIGENLINE001
 62
     7
 10
137.4189999999999
 20
172.84099999999989
 30
0.0
 11
152.852
 21
161.78200000000001
 31
0.0
  0
LINE
  5
128
  8
0
  6
AIGENLINE001
 62
     7
 10
152.20400000000001
 20
157.78499999999991
 30
0.0
 11
150.8549999999999
 21
157.90000000000001
 31
0.0
  0
ARC
  5
129
  8
0
  6
AIGENLINE001
 62
     7
 10
145.921425
 20
157.44026700000001
 30
0.0
 40
5.2868820000000003
 50
1.7461779999999989
 51
4.6782409999999999
  0
LINE
  5
12A
  8
0
 62
     7
 10
141.08099999999999
 20
123.4709999999999
 30
0.0
 11
141.08099999999999
 21
123.09699999999999
 31
0.0
  0
LINE
  5
12B
  8
0
 62
     7
 10
153.654
 20
123.4709999999999
 30
0.0
 11
153.654
 21
123.09699999999999
 31
0.0
  0
LINE
  5
12C
  8
0
 62
     7
 10
152.6109999999999
 20
123.09699999999999
 30
0.0
 11
153.654
 21
123.09699999999999
 31
0.0
  0
LINE
  5
12D
  8
0
 62
     7
 10
141.08099999999999
 20
123.09699999999999
 30
0.0
 11
152.6109999999999
 21
123.09699999999999
 31
0.0
  0
LINE
  5
12E
  8
0
 62
     7
 10
142.565
 20
112.4739999999999
 30
0.0
 11
142.54699999999991
 21
112.3489999999999
 31
0.0
  0
ARC
  5
12F
  8
0
 62
     7
 10
144.20929499999991
 20
107.725452
 30
0.0
 40
5.3892059999999988
 50
59.085995999999987
 51
61.773000000000003
  0
ARC
  5
130
  8
0
 62
     7
 10
146.93199599999991
 20
104.94084599999989
 30
0.0
 40
8.5968539999999987
 50
118.80758399999991
 51
120.48792899999999
  0
ARC
  5
131
  8
0
 62
     7
 10
148.6928739999999
 20
106.7344199999999
 30
0.0
 40
6.416275999999999
 50
61.05239499999999
 51
63.444240000000001
  0
ARC
  5
132
  8
0
 62
     7
 10
150.5380429999999
 20
105.972762
 30
0.0
 40
7.2767660000000003
 50
116.6971769999999
 51
118.80614799999999
  0
LINE
  5
133
  8
0
 62
     7
 10
151.82900000000001
 20
112.3489999999999
 30
0.0
 11
151.84700000000001
 21
112.4739999999999
 31
0.0
  0
LINE
  5
134
  8
0
 62
     7
 10
152.1699999999999
 20
112.4739999999999
 30
0.0
 11
152.1879999999999
 21
112.3489999999999
 31
0.0
  0
LINE
  5
135
  8
0
 62
     7
 10
142.565
 20
110.97799999999989
 30
0.0
 11
142.54699999999991
 21
111.10299999999989
 31
0.0
  0
ARC
  5
136
  8
0
 62
     7
 10
142.16146499999991
 20
119.335736
 30
0.0
 40
9.5382160000000002
 50
298.81145400000003
 51
300.32954899999999
  0
ARC
  5
137
  8
0
 62
     7
 10
146.91507799999991
 20
118.481459
 30
0.0
 40
8.5626570000000015
 50
239.508715
 51
241.19577200000001
  0
ARC
  5
138
  8
0
 62
     7
 10
147.86661699999991
 20
118.287954
 30
0.0
 40
8.1904269999999997
 50
296.81483800000001
 51
298.68852700000002
  0
ARC
  5
139
  8
0
 62
     7
 10
150.98720299999991
 20
118.332919
 30
0.0
 40
8.2412289999999988
 50
241.3172689999999
 51
243.17940599999989
  0
LINE
  5
13A
  8
0
 62
     7
 10
151.82900000000001
 20
111.10299999999989
 30
0.0
 11
151.84700000000001
 21
110.97799999999989
 31
0.0
  0
LINE
  5
13B
  8
0
 62
     7
 10
152.1699999999999
 20
110.97799999999989
 30
0.0
 11
152.1879999999999
 21
111.10299999999989
 31
0.0
  0
LINE
  5
13C
  8
0
 62
     7
 10
142.54699999999991
 20
112.3489999999999
 30
0.0
 11
142.54699999999991
 21
111.10299999999989
 31
0.0
  0
LINE
  5
13D
  8
0
 62
     7
 10
142.56999999999991
 20
111.10299999999989
 30
0.0
 11
142.56999999999991
 21
112.3489999999999
 31
0.0
  0
LINE
  5
13E
  8
0
 62
     7
 10
146.97799999999989
 20
112.3489999999999
 30
0.0
 11
146.97799999999989
 21
111.10299999999989
 31
0.0
  0
LINE
  5
13F
  8
0
 62
     7
 10
147.03200000000001
 20
111.10299999999989
 30
0.0
 11
147.03200000000001
 21
112.3489999999999
 31
0.0
  0
LINE
  5
140
  8
0
 62
     7
 10
151.798
 20
112.3489999999999
 30
0.0
 11
151.798
 21
111.10299999999989
 31
0.0
  0
LINE
  5
141
  8
0
 62
     7
 10
151.82900000000001
 20
111.10299999999989
 30
0.0
 11
151.82900000000001
 21
112.3489999999999
 31
0.0
  0
LINE
  5
142
  8
0
 62
     7
 10
152.1879999999999
 20
112.3489999999999
 30
0.0
 11
152.1879999999999
 21
111.10299999999989
 31
0.0
  0
LINE
  5
143
  8
0
 62
     7
 10
142.56999999999991
 20
112.3489999999999
 30
0.0
 11
142.54699999999991
 21
112.3489999999999
 31
0.0
  0
LINE
  5
144
  8
0
 62
     7
 10
147.03200000000001
 20
112.3489999999999
 30
0.0
 11
146.97799999999989
 21
112.3489999999999
 31
0.0
  0
LINE
  5
145
  8
0
 62
     7
 10
151.82900000000001
 20
112.3489999999999
 30
0.0
 11
151.798
 21
112.3489999999999
 31
0.0
  0
LINE
  5
146
  8
0
 62
     7
 10
142.56999999999991
 20
111.10299999999989
 30
0.0
 11
142.54699999999991
 21
111.10299999999989
 31
0.0
  0
LINE
  5
147
  8
0
 62
     7
 10
147.03200000000001
 20
111.10299999999989
 30
0.0
 11
146.97799999999989
 21
111.10299999999989
 31
0.0
  0
LINE
  5
148
  8
0
 62
     7
 10
151.82900000000001
 20
111.10299999999989
 30
0.0
 11
151.798
 21
111.10299999999989
 31
0.0
  0
LINE
  5
149
  8
0
 62
     7
 10
142.7889999999999
 20
110.97799999999989
 30
0.0
 11
142.565
 21
110.97799999999989
 31
0.0
  0
LINE
  5
14A
  8
0
 62
     7
 10
146.7579999999999
 20
110.97799999999989
 30
0.0
 11
142.7889999999999
 21
110.97799999999989
 31
0.0
  0
LINE
  5
14B
  8
0
 62
     7
 10
147.26900000000001
 20
110.97799999999989
 30
0.0
 11
146.7579999999999
 21
110.97799999999989
 31
0.0
  0
LINE
  5
14C
  8
0
 62
     7
 10
151.56100000000001
 20
110.97799999999989
 30
0.0
 11
147.26900000000001
 21
110.97799999999989
 31
0.0
  0
LINE
  5
14D
  8
0
 62
     7
 10
151.84700000000001
 20
110.97799999999989
 30
0.0
 11
151.56100000000001
 21
110.97799999999989
 31
0.0
  0
LINE
  5
14E
  8
0
 62
     7
 10
152.1699999999999
 20
110.97799999999989
 30
0.0
 11
151.84700000000001
 21
110.97799999999989
 31
0.0
  0
LINE
  5
14F
  8
0
 62
     7
 10
141.08099999999999
 20
113.471
 30
0.0
 11
141.08099999999999
 21
112.8479999999999
 31
0.0
  0
LINE
  5
150
  8
0
 62
     7
 10
153.654
 20
113.471
 30
0.0
 11
153.654
 21
112.8479999999999
 31
0.0
  0
LINE
  5
151
  8
0
 62
     7
 10
151.15700000000001
 20
112.8479999999999
 30
0.0
 11
153.654
 21
112.8479999999999
 31
0.0
  0
LINE
  5
152
  8
0
 62
     7
 10
141.08099999999999
 20
112.8479999999999
 30
0.0
 11
151.15700000000001
 21
112.8479999999999
 31
0.0
  0
LINE
  5
153
  8
0
 62
     7
 10
151.15700000000001
 20
113.471
 30
0.0
 11
153.654
 21
113.471
 31
0.0
  0
LINE
  5
154
  8
0
 62
     7
 10
141.08099999999999
 20
113.471
 30
0.0
 11
151.15700000000001
 21
113.471
 31
0.0
  0
LINE
  5
155
  8
0
 62
     7
 10
141.08099999999999
 20
112.4739999999999
 30
0.0
 11
141.08099999999999
 21
112.5979999999999
 31
0.0
  0
LINE
  5
156
  8
0
 62
     7
 10
153.654
 20
112.4739999999999
 30
0.0
 11
153.654
 21
112.5979999999999
 31
0.0
  0
ARC
  5
157
  8
0
 62
     7
 10
141.84013799999991
 20
112.590805
 30
0.0
 40
0.257148
 50
90.961590999999984
 51
168.93072799999999
  0
ARC
  5
158
  8
0
 62
     7
 10
152.89308799999989
 20
112.588335
 30
0.0
 40
0.25966
 50
11.51637899999999
 51
88.591262
  0
ARC
  5
159
  8
0
 62
     7
 10
141.53684199999989
 20
112.65042699999999
 30
0.0
 40
0.051953
 50
271.4584319999999
 51
348.62075800000002
  0
ARC
  5
15A
  8
0
 62
     7
 10
153.19850600000001
 20
112.65049
 30
0.0
 40
0.052018
 50
191.43607199999991
 51
268.48477800000001
  0
LINE
  5
15B
  8
0
 62
     7
 10
153.14799999999991
 20
112.64
 30
0.0
 11
141.58799999999999
 21
112.64
 31
0.0
  0
LINE
  5
15C
  8
0
 62
     7
 10
153.654
 20
112.5979999999999
 30
0.0
 11
141.08099999999999
 21
112.5979999999999
 31
0.0
  0
LINE
  5
15D
  8
0
 62
     7
 10
153.654
 20
112.4739999999999
 30
0.0
 11
141.08099999999999
 21
112.4739999999999
 31
0.0
  0
LINE
  5
15E
  8
0
  6
AIGENLINE002
 62
     7
 10
147.36699999999999
 20
167.23799999999989
 30
0.0
 11
147.36699999999999
 21
136.143
 31
0.0
  0
LINE
  5
15F
  8
0
  6
AIGENLINE002
 62
     7
 10
117.3669999999999
 20
151.8189999999999
 30
0.0
 11
117.3669999999999
 21
158.1929999999999
 31
0.0
  0
LINE
  5
160
  8
0
 62
     7
 10
119.693
 20
152.971
 30
0.0
 11
119.693
 21
153.358
 31
0.0
  0
LINE
  5
161
  8
0
 62
     7
 10
115.0419999999999
 20
152.971
 30
0.0
 11
115.0419999999999
 21
153.358
 31
0.0
  0
LINE
  5
162
  8
0
 62
     7
 10
119.693
 20
152.971
 30
0.0
 11
115.0419999999999
 21
152.971
 31
0.0
  0
LINE
  5
163
  8
0
 62
     7
 10
139.86699999999999
 20
123.4709999999999
 30
0.0
 11
139.86699999999999
 21
124.21899999999989
 31
0.0
  0
LINE
  5
164
  8
0
 62
     7
 10
154.86699999999999
 20
123.4709999999999
 30
0.0
 11
154.86699999999999
 21
124.21899999999989
 31
0.0
  0
LINE
  5
165
  8
0
 62
     7
 10
154.86699999999999
 20
124.21899999999989
 30
0.0
 11
139.86699999999999
 21
124.21899999999989
 31
0.0
  0
LINE
  5
166
  8
0
 62
     7
 10
154.86699999999999
 20
123.4709999999999
 30
0.0
 11
139.86699999999999
 21
123.4709999999999
 31
0.0
  0
ARC
  5
167
  8
0
 62
     7
 10
147.256878
 20
158.70733799999991
 30
0.0
 40
0.511688
 50
270.02023100000002
 51
291.673272
  0
LINE
  5
168
  8
0
 62
     7
 10
150.624
 20
159.505
 30
0.0
 11
147.446
 21
158.23199999999991
 31
0.0
  0
LINE
  5
169
  8
0
 62
     7
 10
147.25700000000001
 20
158.196
 30
0.0
 11
143.08000000000001
 21
158.196
 31
0.0
  0
LINE
  5
16A
  8
0
 62
     7
 10
142.82900000000001
 20
158.196
 30
0.0
 11
143.08000000000001
 21
158.196
 31
0.0
  0
ARC
  5
16B
  8
0
 62
     7
 10
130.8054919999999
 20
166.242401
 30
0.0
 40
0.260303
 50
173.50016899999989
 51
259.11248799999993
  0
LINE
  5
16C
  8
0
 62
     7
 10
130.54699999999991
 20
166.27199999999999
 30
0.0
 11
130.625
 21
166.76400000000001
 31
0.0
  0
ARC
  5
16D
  8
0
 62
     7
 10
151.62188599999999
 20
163.45758499999999
 30
0.0
 40
0.259369
 50
2.0096020000000001
 51
79.562031999999988
  0
LINE
  5
16E
  8
0
 62
     7
 10
151.881
 20
163.46700000000001
 30
0.0
 11
151.881
 21
160.0079999999999
 31
0.0
  0
ARC
  5
16F
  8
0
 62
     7
 10
130.88078100000001
 20
166.71296299999989
 30
0.0
 40
0.260488
 50
82.801294999999996
 51
168.62335699999991
  0
LINE
  5
170
  8
0
 62
     7
 10
130.756
 20
165.98699999999991
 30
0.0
 11
131.75
 21
165.8309999999999
 31
0.0
  0
LINE
  5
171
  8
0
 62
     7
 10
141.768
 20
164.2579999999999
 30
0.0
 11
131.75
 21
165.8309999999999
 31
0.0
  0
ARC
  5
172
  8
0
 62
     7
 10
141.5327739999999
 20
162.98183899999989
 30
0.0
 40
1.297396999999999
 50
1.983258
 51
79.540770999999992
  0
LINE
  5
173
  8
0
 62
     7
 10
142.82900000000001
 20
158.196
 30
0.0
 11
142.82900000000001
 21
163.02699999999999
 31
0.0
  0
LINE
  5
174
  8
0
 62
     7
 10
151.6689999999999
 20
163.71299999999991
 30
0.0
 11
150.6629999999999
 21
163.87
 31
0.0
  0
LINE
  5
175
  8
0
 62
     7
 10
130.9129999999999
 20
166.97099999999989
 30
0.0
 11
131.90700000000001
 21
166.81499999999991
 31
0.0
  0
LINE
  5
176
  8
0
 62
     7
 10
131.90700000000001
 20
166.81499999999991
 30
0.0
 11
150.6629999999999
 21
163.87
 31
0.0
  0
LINE
  5
177
  8
0
 62
     7
 10
151.881
 20
160.0079999999999
 30
0.0
 11
150.624
 21
159.505
 31
0.0
  0
ARC
  5
178
  8
0
 62
     7
 10
147.5676179999999
 20
157.337345
 30
0.0
 40
4.4192960000000001
 50
168.800952
 51
176.6241259999999
  0
ARC
  5
179
  8
0
 62
     7
 10
147.21990199999991
 20
157.3366
 30
0.0
 40
4.3672050000000002
 50
3.425964
 51
31.678148
  0
ARC
  5
17A
  8
0
 62
     7
 10
113.73251499999991
 20
153.61879999999991
 30
0.0
 40
0.261302
 50
182.6043939999999
 51
267.90808099999992
  0
ARC
  5
17B
  8
0
 62
     7
 10
113.73045500000001
 20
157.338528
 30
0.0
 40
0.259158
 50
91.653728999999984
 51
177.83379500000001
  0
LINE
  5
17C
  8
0
 62
     7
 10
113.471
 20
157.3479999999999
 30
0.0
 11
113.471
 21
153.607
 31
0.0
  0
ARC
  5
17D
  8
0
 62
     7
 10
151.60628299999999
 20
157.33645100000001
 30
0.0
 40
0.261302
 50
2.6043739999999991
 51
87.908062000000001
  0
LINE
  5
17E
  8
0
 62
     7
 10
151.86699999999999
 20
157.3479999999999
 30
0.0
 11
151.86699999999999
 21
124.21899999999989
 31
0.0
  0
LINE
  5
17F
  8
0
 62
     7
 10
113.7229999999999
 20
157.5979999999999
 30
0.0
 11
114.72799999999999
 21
157.5979999999999
 31
0.0
  0
LINE
  5
180
  8
0
 62
     7
 10
114.72799999999999
 20
157.5979999999999
 30
0.0
 11
150.6109999999999
 21
157.5979999999999
 31
0.0
  0
LINE
  5
181
  8
0
 62
     7
 10
150.6109999999999
 20
157.5979999999999
 30
0.0
 11
151.61600000000001
 21
157.5979999999999
 31
0.0
  0
LINE
  5
182
  8
0
 62
     7
 10
142.86699999999999
 20
149.619
 30
0.0
 11
142.86699999999999
 21
124.21899999999989
 31
0.0
  0
ARC
  5
183
  8
0
 62
     7
 10
138.9545389999999
 20
149.44356899999991
 30
0.0
 40
3.9166679999999992
 50
2.5625960000000001
 51
87.926268000000022
  0
LINE
  5
184
  8
0
 62
     7
 10
114.72799999999999
 20
153.358
 30
0.0
 11
139.09599999999989
 21
153.358
 31
0.0
  0
LINE
  5
185
  8
0
 62
     7
 10
113.7229999999999
 20
153.358
 30
0.0
 11
114.72799999999999
 21
153.358
 31
0.0
  0
LINE
  5
186
  8
0
  6
AIGENLINE002
 62
     7
 10
60.805300000000003
 20
169.47399999999999
 30
0.0
 11
60.805300000000003
 21
133.64199999999991
 31
0.0
  0
LINE
  5
187
  8
0
  6
AIGENLINE002
 62
     7
 10
60.805300000000003
 20
128.221
 30
0.0
 11
60.805300000000003
 21
106.54000000000001
 31
0.0
  0
LINE
  5
188
  8
0
 62
     7
 10
54.573799999999999
 20
123.4709999999999
 30
0.0
 11
54.573799999999999
 21
123.09699999999999
 31
0.0
  0
LINE
  5
189
  8
0
 62
     7
 10
67.036799999999999
 20
123.4709999999999
 30
0.0
 11
67.036799999999999
 21
123.09699999999999
 31
0.0
  0
LINE
  5
18A
  8
0
 62
     7
 10
67.036799999999999
 20
123.09699999999999
 30
0.0
 11
54.573799999999999
 21
123.09699999999999
 31
0.0
  0
ARC
  5
18B
  8
0
 62
     7
 10
62.232424999999999
 20
104.85315299999991
 30
0.0
 40
8.3772130000000011
 50
114.538155
 51
116.51754099999999
  0
ARC
  5
18C
  8
0
 62
     7
 10
59.742305000000002
 20
104.307086
 30
0.0
 40
8.9822729999999993
 50
63.549112999999998
 51
65.395151999999996
  0
ARC
  5
18D
  8
0
 62
     7
 10
58.622222999999991
 20
108.851876
 30
0.0
 40
4.6813859999999989
 50
129.31435200000001
 51
131.665268
  0
ARC
  5
18E
  8
0
 62
     7
 10
55.702595999999993
 20
109.3003769999999
 30
0.0
 40
4.0999749999999988
 50
48.037827
 51
50.714861999999989
  0
ARC
  5
18F
  8
0
 62
     7
 10
58.236369000000003
 20
109.9459649999999
 30
0.0
 40
3.6367569999999989
 50
135.9669429999999
 51
138.64054699999991
  0
ARC
  5
190
  8
0
 62
     7
 10
68.190355000000011
 20
108.4020889999999
 30
0.0
 40
5.9131039999999988
 50
136.48161399999989
 51
138.125877
  0
ARC
  5
191
  8
0
 62
     7
 10
62.907969999999999
 20
109.515158
 30
0.0
 40
4.2719129999999987
 50
41.558219999999992
 51
43.834249999999997
  0
ARC
  5
192
  8
0
 62
     7
 10
63.895665000000001
 20
122.0815709999999
 30
0.0
 40
12.236293
 50
243.79460599999999
 51
245.14969799999989
  0
ARC
  5
193
  8
0
 62
     7
 10
58.781007999999993
 20
121.15782400000001
 30
0.0
 40
11.21268699999999
 50
294.78846600000003
 51
296.26727
  0
ARC
  5
194
  8
0
 62
     7
 10
58.381955000000012
 20
114.31873400000001
 30
0.0
 40
4.3114369999999997
 50
228.23385400000001
 51
230.78652600000001
  0
ARC
  5
195
  8
0
 62
     7
 10
54.239946999999987
 20
115.856729
 30
0.0
 40
6.3460510000000001
 50
309.75892900000002
 51
311.488381
  0
ARC
  5
196
  8
0
 62
     7
 10
57.991697000000002
 20
113.2803159999999
 30
0.0
 40
3.3039510000000001
 50
221.22476900000001
 51
224.16774100000001
  0
ARC
  5
197
  8
0
 62
     7
 10
67.655704
 20
114.5566409999999
 30
0.0
 40
5.1857319999999989
 50
221.7587979999999
 51
223.63371199999989
  0
ARC
  5
198
  8
0
 62
     7
 10
59.601588
 20
116.987509
 30
0.0
 40
8.7702100000000005
 50
316.74947300000002
 51
317.85805699999992
  0
LINE
  5
199
  8
0
 62
     7
 10
63.743299999999998
 20
111.10299999999989
 30
0.0
 11
63.743299999999998
 21
112.3489999999999
 31
0.0
  0
LINE
  5
19A
  8
0
 62
     7
 10
58.49219999999999
 20
112.3489999999999
 30
0.0
 11
58.49219999999999
 21
111.10299999999989
 31
0.0
  0
LINE
  5
19B
  8
0
 62
     7
 10
58.444000000000003
 20
111.10299999999989
 30
0.0
 11
58.444000000000003
 21
112.3489999999999
 31
0.0
  0
LINE
  5
19C
  8
0
 62
     7
 10
55.510100000000001
 20
112.3489999999999
 30
0.0
 11
55.510100000000001
 21
111.10299999999989
 31
0.0
  0
LINE
  5
19D
  8
0
 62
     7
 10
55.506700000000002
 20
111.10299999999989
 30
0.0
 11
55.506700000000002
 21
112.3489999999999
 31
0.0
  0
LINE
  5
19E
  8
0
 62
     7
 10
66.104600000000005
 20
111.10299999999989
 30
0.0
 11
66.104600000000005
 21
112.3489999999999
 31
0.0
  0
LINE
  5
19F
  8
0
 62
     7
 10
63.787399999999998
 20
112.3489999999999
 30
0.0
 11
63.787399999999998
 21
111.10299999999989
 31
0.0
  0
LINE
  5
1A0
  8
0
 62
     7
 10
63.743299999999998
 20
112.3489999999999
 30
0.0
 11
63.787399999999998
 21
112.3489999999999
 31
0.0
  0
LINE
  5
1A1
  8
0
 62
     7
 10
58.444000000000003
 20
112.3489999999999
 30
0.0
 11
58.49219999999999
 21
112.3489999999999
 31
0.0
  0
LINE
  5
1A2
  8
0
 62
     7
 10
63.743299999999998
 20
111.10299999999989
 30
0.0
 11
63.787399999999998
 21
111.10299999999989
 31
0.0
  0
LINE
  5
1A3
  8
0
 62
     7
 10
58.444000000000003
 20
111.10299999999989
 30
0.0
 11
58.49219999999999
 21
111.10299999999989
 31
0.0
  0
LINE
  5
1A4
  8
0
 62
     7
 10
58.753399999999999
 20
110.97799999999989
 30
0.0
 11
63.482100000000003
 21
110.97799999999989
 31
0.0
  0
LINE
  5
1A5
  8
0
 62
     7
 10
63.482100000000003
 20
110.97799999999989
 30
0.0
 11
63.9024
 21
110.97799999999989
 31
0.0
  0
LINE
  5
1A6
  8
0
 62
     7
 10
58.2986
 20
110.97799999999989
 30
0.0
 11
58.753399999999999
 21
110.97799999999989
 31
0.0
  0
LINE
  5
1A7
  8
0
 62
     7
 10
55.656199999999998
 20
110.97799999999989
 30
0.0
 11
58.2986
 21
110.97799999999989
 31
0.0
  0
LINE
  5
1A8
  8
0
 62
     7
 10
55.6218
 20
110.97799999999989
 30
0.0
 11
55.656199999999998
 21
110.97799999999989
 31
0.0
  0
LINE
  5
1A9
  8
0
 62
     7
 10
63.9024
 20
110.97799999999989
 30
0.0
 11
65.989500000000007
 21
110.97799999999989
 31
0.0
  0
LINE
  5
1AA
  8
0
 62
     7
 10
54.573799999999999
 20
113.471
 30
0.0
 11
54.573799999999999
 21
112.8479999999999
 31
0.0
  0
LINE
  5
1AB
  8
0
 62
     7
 10
67.036799999999999
 20
113.471
 30
0.0
 11
67.036799999999999
 21
112.8479999999999
 31
0.0
  0
LINE
  5
1AC
  8
0
 62
     7
 10
67.036799999999999
 20
112.8479999999999
 30
0.0
 11
54.573799999999999
 21
112.8479999999999
 31
0.0
  0
LINE
  5
1AD
  8
0
 62
     7
 10
67.036799999999999
 20
113.471
 30
0.0
 11
54.573799999999999
 21
113.471
 31
0.0
  0
LINE
  5
1AE
  8
0
 62
     7
 10
67.036799999999999
 20
112.4739999999999
 30
0.0
 11
67.036799999999999
 21
112.5979999999999
 31
0.0
  0
LINE
  5
1AF
  8
0
 62
     7
 10
54.573799999999999
 20
112.4739999999999
 30
0.0
 11
54.573799999999999
 21
112.5979999999999
 31
0.0
  0
ARC
  5
1B0
  8
0
 62
     7
 10
66.282236999999995
 20
112.590981
 30
0.0
 40
0.257031
 50
11.03435399999999
 51
88.442433999999992
  0
ARC
  5
1B1
  8
0
 62
     7
 10
55.327818999999991
 20
112.59159099999999
 30
0.0
 40
0.256408
 50
91.44590500000001
 51
169.07726700000001
  0
ARC
  5
1B2
  8
0
 62
     7
 10
66.585525000000004
 20
112.65051799999991
 30
0.0
 40
0.052047
 50
191.46165300000001
 51
268.45919700000002
  0
ARC
  5
1B3
  8
0
 62
     7
 10
55.025469999999991
 20
112.64999299999999
 30
0.0
 40
0.051529
 50
271.85167100000001
 51
349.01781499999993
  0
LINE
  5
1B4
  8
0
 62
     7
 10
55.07609999999999
 20
112.64
 30
0.0
 11
66.534499999999994
 21
112.64
 31
0.0
  0
LINE
  5
1B5
  8
0
 62
     7
 10
54.573799999999999
 20
112.5979999999999
 30
0.0
 11
67.036799999999999
 21
112.5979999999999
 31
0.0
  0
LINE
  5
1B6
  8
0
 62
     7
 10
54.573799999999999
 20
112.4739999999999
 30
0.0
 11
67.036799999999999
 21
112.4739999999999
 31
0.0
  0
LINE
  5
1B7
  8
0
 62
     7
 10
58.4998
 20
152.971
 30
0.0
 11
58.4998
 21
153.358
 31
0.0
  0
LINE
  5
1B8
  8
0
 62
     7
 10
63.111400000000003
 20
152.971
 30
0.0
 11
63.111400000000003
 21
153.358
 31
0.0
  0
LINE
  5
1B9
  8
0
 62
     7
 10
61.1877
 20
152.971
 30
0.0
 11
63.111400000000003
 21
152.971
 31
0.0
  0
LINE
  5
1BA
  8
0
 62
     7
 10
58.4998
 20
152.971
 30
0.0
 11
61.1877
 21
152.971
 31
0.0
  0
LINE
  5
1BB
  8
0
 62
     7
 10
68.283299999999997
 20
123.4709999999999
 30
0.0
 11
68.283299999999997
 21
124.21899999999989
 31
0.0
  0
LINE
  5
1BC
  8
0
 62
     7
 10
53.327300000000001
 20
123.4709999999999
 30
0.0
 11
53.327300000000001
 21
124.21899999999989
 31
0.0
  0
LINE
  5
1BD
  8
0
 62
     7
 10
53.327300000000001
 20
124.21899999999989
 30
0.0
 11
68.283299999999997
 21
124.21899999999989
 31
0.0
  0
LINE
  5
1BE
  8
0
 62
     7
 10
53.327300000000001
 20
123.4709999999999
 30
0.0
 11
68.283299999999997
 21
123.4709999999999
 31
0.0
  0
ARC
  5
1BF
  8
0
 62
     7
 10
56.608224
 20
166.56856099999999
 30
0.0
 40
0.277457
 50
152.34556499999999
 51
179.872016
  0
ARC
  5
1C0
  8
0
 62
     7
 10
56.62348699999999
 20
166.56007999999991
 30
0.0
 40
0.294913
 50
129.77465799999999
 51
152.26238000000001
  0
ARC
  5
1C1
  8
0
 62
     7
 10
56.664788999999999
 20
166.518866
 30
0.0
 40
0.353053
 50
119.430509
 51
130.6472389999999
  0
ARC
  5
1C2
  8
0
 62
     7
 10
56.761617000000001
 20
166.34768600000001
 30
0.0
 40
0.549721
 50
108.58707099999999
 51
119.45339800000001
  0
ARC
  5
1C3
  8
0
 62
     7
 10
56.912312
 20
165.92542499999999
 30
0.0
 40
0.998024
 50
102.23706900000001
 51
109.060203
  0
ARC
  5
1C4
  8
0
 62
     7
 10
57.143751000000002
 20
164.93919199999999
 30
0.0
 40
2.010977
 50
96.826366000000021
 51
102.72546199999989
  0
ARC
  5
1C5
  8
0
 62
     7
 10
57.461649999999999
 20
162.650216
 30
0.0
 40
4.321731999999999
 50
91.464302000000018
 51
97.404080000000022
  0
ARC
  5
1C6
  8
0
 62
     7
 10
57.578561000000001
 20
160.44962499999991
 30
0.0
 40
6.5248730000000004
 50
90.01184099999999
 51
91.996778999999989
  0
LINE
  5
1C7
  8
0
 62
     7
 10
64.058199999999999
 20
166.97399999999999
 30
0.0
 11
57.577199999999991
 21
166.97399999999999
 31
0.0
  0
ARC
  5
1C8
  8
0
 62
     7
 10
64.059320999999997
 20
160.51896499999989
 30
0.0
 40
6.4555329999999991
 50
87.385831999999979
 51
90.010243000000003
  0
ARC
  5
1C9
  8
0
 62
     7
 10
64.107990999999998
 20
161.899066
 30
0.0
 40
5.0746690000000001
 50
82.300956999999997
 51
87.224071999999992
  0
ARC
  5
1CA
  8
0
 62
     7
 10
64.469678999999999
 20
164.82657499999999
 30
0.0
 40
2.1253639999999989
 50
75.913321999999994
 51
81.390554000000009
  0
ARC
  5
1CB
  8
0
 62
     7
 10
64.767887000000002
 20
166.07350700000001
 30
0.0
 40
0.843468
 50
66.916224999999997
 51
74.945371999999992
  0
ARC
  5
1CC
  8
0
 62
     7
 10
64.882124000000005
 20
166.36940100000001
 30
0.0
 40
0.5265890000000001
 50
57.274662999999997
 51
65.72766
  0
ARC
  5
1CD
  8
0
 62
     7
 10
64.974265000000003
 20
166.52093300000001
 30
0.0
 40
0.349325
 50
46.585246000000012
 51
56.552270999999998
  0
ARC
  5
1CE
  8
0
 62
     7
 10
65.006119999999996
 20
166.556162
 30
0.0
 40
0.301844
 50
25.253606000000001
 51
46.381529999999998
  0
ARC
  5
1CF
  8
0
 62
     7
 10
65.015470999999991
 20
166.56618599999999
 30
0.0
 40
0.289154
 50
0.5932680000000001
 51
24.247589000000001
  0
LINE
  5
1D0
  8
0
 62
     7
 10
65.055199999999999
 20
158.196
 30
0.0
 11
65.304599999999994
 21
158.196
 31
0.0
  0
LINE
  5
1D1
  8
0
 62
     7
 10
56.580199999999998
 20
158.196
 30
0.0
 11
56.330800000000004
 21
158.196
 31
0.0
  0
LINE
  5
1D2
  8
0
 62
     7
 10
65.304599999999994
 20
163.02699999999999
 30
0.0
 11
65.055199999999999
 21
163.02699999999999
 31
0.0
  0
LINE
  5
1D3
  8
0
 62
     7
 10
65.055199999999999
 20
158.196
 30
0.0
 11
56.580199999999998
 21
158.196
 31
0.0
  0
LINE
  5
1D4
  8
0
 62
     7
 10
65.055199999999999
 20
163.02699999999999
 30
0.0
 11
56.580199999999998
 21
163.02699999999999
 31
0.0
  0
ARC
  5
1D5
  8
0
 62
     7
 10
65.045772999999997
 20
164.516662
 30
0.0
 40
0.259154
 50
272.08078999999998
 51
357.16245700000002
  0
LINE
  5
1D6
  8
0
 62
     7
 10
65.055199999999999
 20
164.2579999999999
 30
0.0
 11
56.580199999999998
 21
164.2579999999999
 31
0.0
  0
LINE
  5
1D7
  8
0
 62
     7
 10
65.304599999999994
 20
166.077
 30
0.0
 11
65.304599999999994
 21
166.56899999999999
 31
0.0
  0
ARC
  5
1D8
  8
0
 62
     7
 10
56.589618999999992
 20
164.51667800000001
 30
0.0
 40
0.2591699999999999
 50
182.840867
 51
267.9159259999999
  0
LINE
  5
1D9
  8
0
 62
     7
 10
56.330800000000004
 20
166.077
 30
0.0
 11
56.330800000000004
 21
166.56899999999999
 31
0.0
  0
LINE
  5
1DA
  8
0
 62
     7
 10
56.330800000000004
 20
163.02699999999999
 30
0.0
 11
56.580199999999998
 21
163.02699999999999
 31
0.0
  0
LINE
  5
1DB
  8
0
 62
     7
 10
65.304599999999994
 20
158.196
 30
0.0
 11
65.304599999999994
 21
163.02699999999999
 31
0.0
  0
LINE
  5
1DC
  8
0
 62
     7
 10
65.304599999999994
 20
164.50399999999999
 30
0.0
 11
65.304599999999994
 21
163.02699999999999
 31
0.0
  0
LINE
  5
1DD
  8
0
 62
     7
 10
65.304599999999994
 20
164.50399999999999
 30
0.0
 11
65.304599999999994
 21
166.077
 31
0.0
  0
ARC
  5
1DE
  8
0
 62
     7
 10
64.061425999999983
 20
159.25281299999989
 30
0.0
 40
7.0190549999999998
 50
83.541155000000003
 51
90.026603000000023
  0
ARC
  5
1DF
  8
0
 62
     7
 10
64.508268999999999
 20
163.49224399999991
 30
0.0
 40
2.7564619999999991
 50
78.709757999999994
 51
82.857613000000001
  0
ARC
  5
1E0
  8
0
 62
     7
 10
64.809765999999996
 20
164.979364
 30
0.0
 40
1.2391030000000001
 50
72.533094999999989
 51
78.918556999999993
  0
ARC
  5
1E1
  8
0
 62
     7
 10
65.055797999999996
 20
165.74876199999991
 30
0.0
 40
0.4313500000000001
 50
62.147981999999978
 51
73.031035000000003
  0
ARC
  5
1E2
  8
0
 62
     7
 10
65.197710000000001
 20
166.013124
 30
0.0
 40
0.131327
 50
43.789217999999991
 51
63.005656000000009
  0
ARC
  5
1E3
  8
0
 62
     7
 10
65.262495000000001
 20
166.07437400000001
 30
0.0
 40
0.042178
 50
3.1623129999999988
 51
44.626331
  0
LINE
  5
1E4
  8
0
 62
     7
 10
64.058199999999999
 20
166.27199999999999
 30
0.0
 11
57.577199999999991
 21
166.27199999999999
 31
0.0
  0
ARC
  5
1E5
  8
0
 62
     7
 10
57.573951000000001
 20
159.25281299999989
 30
0.0
 40
7.0190549999999998
 50
89.973376999999999
 51
96.458825000000004
  0
ARC
  5
1E6
  8
0
 62
     7
 10
57.127107999999993
 20
163.49224399999991
 30
0.0
 40
2.7564619999999991
 50
97.142367000000021
 51
101.290222
  0
ARC
  5
1E7
  8
0
 62
     7
 10
56.825611000000002
 20
164.979364
 30
0.0
 40
1.2391030000000001
 50
101.0814239999999
 51
107.466886
  0
ARC
  5
1E8
  8
0
 62
     7
 10
56.57958
 20
165.74876199999991
 30
0.0
 40
0.4313500000000001
 50
106.9689459999999
 51
117.8519979999999
  0
ARC
  5
1E9
  8
0
 62
     7
 10
56.437666999999998
 20
166.013124
 30
0.0
 40
0.131327
 50
116.99432400000001
 51
136.21076199999999
  0
ARC
  5
1EA
  8
0
 62
     7
 10
56.372881999999997
 20
166.07437400000001
 30
0.0
 40
0.042178
 50
135.37364899999989
 51
176.8376669999999
  0
LINE
  5
1EB
  8
0
 62
     7
 10
56.330800000000004
 20
164.50399999999999
 30
0.0
 11
56.330800000000004
 21
166.077
 31
0.0
  0
LINE
  5
1EC
  8
0
 62
     7
 10
56.330800000000004
 20
164.50399999999999
 30
0.0
 11
56.330800000000004
 21
163.02699999999999
 31
0.0
  0
LINE
  5
1ED
  8
0
 62
     7
 10
56.330800000000004
 20
158.196
 30
0.0
 11
56.330800000000004
 21
163.02699999999999
 31
0.0
  0
ARC
  5
1EE
  8
0
 62
     7
 10
60.569908999999988
 20
157.34243699999999
 30
0.0
 40
4.4182319999999988
 50
3.310519999999999
 51
11.134449999999999
  0
ARC
  5
1EF
  8
0
 62
     7
 10
60.888289999999998
 20
157.36183399999999
 30
0.0
 40
4.2643190000000004
 50
168.72410300000001
 51
176.83088799999999
  0
LINE
  5
1F0
  8
0
 62
     7
 10
57.589599999999997
 20
153.358
 30
0.0
 11
57.589599999999997
 21
153.607
 31
0.0
  0
LINE
  5
1F1
  8
0
 62
     7
 10
64.021000000000001
 20
153.607
 30
0.0
 11
64.021000000000001
 21
153.358
 31
0.0
  0
LINE
  5
1F2
  8
0
 62
     7
 10
57.589599999999997
 20
157.3479999999999
 30
0.0
 11
57.589599999999997
 21
157.5979999999999
 31
0.0
  0
LINE
  5
1F3
  8
0
 62
     7
 10
64.021000000000001
 20
157.5979999999999
 30
0.0
 11
64.021000000000001
 21
157.3479999999999
 31
0.0
  0
LINE
  5
1F4
  8
0
 62
     7
 10
64.021000000000001
 20
157.3479999999999
 30
0.0
 11
64.021000000000001
 21
153.607
 31
0.0
  0
LINE
  5
1F5
  8
0
 62
     7
 10
57.589599999999997
 20
157.3479999999999
 30
0.0
 11
57.589599999999997
 21
153.607
 31
0.0
  0
ARC
  5
1F6
  8
0
 62
     7
 10
56.602241999999997
 20
157.339215
 30
0.0
 40
0.258543
 50
92.137941999999995
 51
177.98093999999989
  0
LINE
  5
1F7
  8
0
 62
     7
 10
56.343899999999991
 20
157.3479999999999
 30
0.0
 11
56.343899999999991
 21
153.607
 31
0.0
  0
ARC
  5
1F8
  8
0
 62
     7
 10
65.008505
 20
157.33867499999999
 30
0.0
 40
0.259076
 50
2.134431999999999
 51
87.905141000000015
  0
LINE
  5
1F9
  8
0
 62
     7
 10
65.267399999999995
 20
157.3479999999999
 30
0.0
 11
65.267399999999995
 21
153.607
 31
0.0
  0
LINE
  5
1FA
  8
0
 62
     7
 10
56.343899999999991
 20
149.619
 30
0.0
 11
56.59259999999999
 21
149.619
 31
0.0
  0
LINE
  5
1FB
  8
0
 62
     7
 10
65.018000000000001
 20
149.619
 30
0.0
 11
56.59259999999999
 21
149.619
 31
0.0
  0
ARC
  5
1FC
  8
0
 62
     7
 10
56.602734999999988
 20
153.61652699999991
 30
0.0
 40
0.259053
 50
182.12387799999991
 51
267.75723999999991
  0
LINE
  5
1FD
  8
0
 62
     7
 10
65.267399999999995
 20
149.619
 30
0.0
 11
65.018000000000001
 21
149.619
 31
0.0
  0
ARC
  5
1FE
  8
0
 62
     7
 10
65.008347999999984
 20
153.61673300000001
 30
0.0
 40
0.259239
 50
272.1282819999999
 51
357.83214500000003
  0
LINE
  5
1FF
  8
0
 62
     7
 10
65.018000000000001
 20
157.5979999999999
 30
0.0
 11
64.021000000000001
 21
157.5979999999999
 31
0.0
  0
LINE
  5
200
  8
0
 62
     7
 10
64.021000000000001
 20
157.5979999999999
 30
0.0
 11
57.589599999999997
 21
157.5979999999999
 31
0.0
  0
LINE
  5
201
  8
0
 62
     7
 10
57.589599999999997
 20
157.5979999999999
 30
0.0
 11
56.59259999999999
 21
157.5979999999999
 31
0.0
  0
LINE
  5
202
  8
0
 62
     7
 10
56.343899999999991
 20
149.619
 30
0.0
 11
56.343899999999991
 21
124.21899999999989
 31
0.0
  0
LINE
  5
203
  8
0
 62
     7
 10
56.343899999999991
 20
149.619
 30
0.0
 11
56.343899999999991
 21
153.607
 31
0.0
  0
LINE
  5
204
  8
0
 62
     7
 10
57.589599999999997
 20
153.358
 30
0.0
 11
56.59259999999999
 21
153.358
 31
0.0
  0
LINE
  5
205
  8
0
 62
     7
 10
65.267399999999995
 20
149.619
 30
0.0
 11
65.267399999999995
 21
124.21899999999989
 31
0.0
  0
LINE
  5
206
  8
0
 62
     7
 10
65.267399999999995
 20
153.607
 30
0.0
 11
65.267399999999995
 21
149.619
 31
0.0
  0
LINE
  5
207
  8
0
 62
     7
 10
65.018000000000001
 20
153.358
 30
0.0
 11
64.021000000000001
 21
153.358
 31
0.0
  0
LINE
  5
208
  8
0
 62
     7
 10
64.021000000000001
 20
153.358
 30
0.0
 11
57.589599999999997
 21
153.358
 31
0.0
  0
LINE
  5
209
  8
0
 62
     7
 10
63.993099999999991
 20
108.72799999999999
 30
0.0
 11
63.993099999999991
 21
97.232200000000006
 31
0.0
  0
LINE
  5
20A
  8
0
 62
     7
 10
61.367899999999999
 20
108.72799999999999
 30
0.0
 11
61.367899999999999
 21
97.232200000000006
 31
0.0
  0
LINE
  5
20B
  8
0
  6
AIGENLINE002
 62
     7
 10
58.930500000000002
 20
121.934
 30
0.0
 11
58.930500000000002
 21
90.900099999999995
 31
0.0
  0
LINE
  5
20C
  8
0
  6
AIGENLINE002
 62
     7
 10
44.305199999999999
 20
107.471
 30
0.0
 11
58.930500000000002
 21
90.900099999999995
 31
0.0
  0
LINE
  5
20D
  8
0
  6
AIGENLINE002
 62
     7
 10
62.680500000000002
 20
121.934
 30
0.0
 11
62.680500000000002
 21
90.900099999999995
 31
0.0
  0
LINE
  5
20E
  8
0
 62
     7
 10
60.243000000000002
 20
108.72799999999999
 30
0.0
 11
60.243000000000002
 21
97.232200000000006
 31
0.0
  0
LINE
  5
20F
  8
0
 62
     7
 10
57.617899999999999
 20
108.72799999999999
 30
0.0
 11
57.617899999999999
 21
97.232200000000006
 31
0.0
  0
LINE
  5
210
  8
0
 62
     7
 10
80.058699999999988
 20
59.575000000000003
 30
0.0
 11
80.058699999999988
 21
56.94919999999999
 31
0.0
  0
LINE
  5
211
  8
0
 62
     7
 10
78.682699999999997
 20
59.575000000000003
 30
0.0
 11
78.682699999999997
 21
56.94919999999999
 31
0.0
  0
ARC
  5
212
  8
0
 62
     7
 10
76.693489999999997
 20
64.766475999999983
 30
0.0
 40
8.5108619999999995
 50
291.64301499999999
 51
293.29081500000001
  0
ARC
  5
213
  8
0
 62
     7
 10
79.144722000000002
 20
58.622996999999998
 30
0.0
 40
1.896471
 50
281.78779100000003
 51
291.26332000000002
  0
ARC
  5
214
  8
0
 62
     7
 10
79.350781000000012
 20
57.713931999999993
 30
0.0
 40
0.9646139999999999
 50
270.46569699999998
 51
280.83723800000001
  0
ARC
  5
215
  8
0
 62
     7
 10
79.358757999999995
 20
57.655370999999988
 30
0.0
 40
0.9060209999999999
 50
257.53096799999997
 51
269.99131499999987
  0
ARC
  5
216
  8
0
 62
     7
 10
79.482062999999997
 20
58.282524000000002
 30
0.0
 40
1.545078
 50
247.1929649999999
 51
258.08771999999999
  0
ARC
  5
217
  8
0
 62
     7
 10
79.948453999999984
 20
59.473478
 30
0.0
 40
2.8238819999999989
 50
243.36945
 51
247.83659700000001
  0
ARC
  5
218
  8
0
 62
     7
 10
79.438580000000002
 20
58.456982999999987
 30
0.0
 40
1.349596999999999
 50
97.382283000000015
 51
124.06179999999991
  0
ARC
  5
219
  8
0
 62
     7
 10
79.359713999999997
 20
58.895563000000003
 30
0.0
 40
0.9047829999999999
 50
90.069248000000016
 51
95.997880000000009
  0
ARC
  5
21A
  8
0
 62
     7
 10
79.357830000000007
 20
58.882086000000001
 30
0.0
 40
0.91826
 50
77.805482999999995
 51
89.950637999999998
  0
ARC
  5
21B
  8
0
 62
     7
 10
79.267653999999993
 20
58.416448000000003
 30
0.0
 40
1.392476
 50
66.812563999999995
 51
78.225831999999997
  0
ARC
  5
21C
  8
0
 62
     7
 10
79.036597
 20
57.834895999999993
 30
0.0
 40
2.018095999999999
 50
59.572125999999997
 51
67.283528000000004
  0
LINE
  5
21D
  8
0
 62
     7
 10
74.558199999999999
 20
59.575000000000003
 30
0.0
 11
74.558199999999999
 21
56.94919999999999
 31
0.0
  0
LINE
  5
21E
  8
0
 62
     7
 10
75.9328
 20
59.575000000000003
 30
0.0
 11
75.9328
 21
56.94919999999999
 31
0.0
  0
ARC
  5
21F
  8
0
 62
     7
 10
72.507556999999991
 20
64.913027
 30
0.0
 40
8.6692179999999972
 50
291.694098
 51
293.27244000000002
  0
ARC
  5
220
  8
0
 62
     7
 10
74.976833999999997
 20
58.732268000000012
 30
0.0
 40
2.01349
 50
282.24405200000001
 51
291.41933199999988
  0
ARC
  5
221
  8
0
 62
     7
 10
75.247793000000001
 20
57.55295799999999
 30
0.0
 40
0.8036760000000001
 50
270.74496599999998
 51
281.19653699999998
  0
ARC
  5
222
  8
0
 62
     7
 10
75.259050999999999
 20
57.656881000000013
 30
0.0
 40
0.9075319999999999
 50
257.81198299999988
 51
269.94892599999991
  0
ARC
  5
223
  8
0
 62
     7
 10
75.358055000000007
 20
58.189833999999998
 30
0.0
 40
1.44946
 50
252.9407139999999
 51
258.43437299999999
  0
ARC
  5
224
  8
0
 62
     7
 10
75.606054
 20
58.994816
 30
0.0
 40
2.2917770000000002
 50
248.54088300000001
 51
252.91730599999991
  0
ARC
  5
225
  8
0
 62
     7
 10
77.028398999999993
 20
62.583280999999999
 30
0.0
 40
6.1518420000000003
 50
246.32558999999989
 51
248.43888699999999
  0
ARC
  5
226
  8
0
 62
     7
 10
75.560131000000013
 20
57.861966000000002
 30
0.0
 40
1.984561
 50
107.8799179999999
 51
120.3224249999999
  0
ARC
  5
227
  8
0
 62
     7
 10
75.282693999999992
 20
58.672812999999998
 30
0.0
 40
1.1277969999999991
 50
91.242338000000004
 51
107.113371
  0
ARC
  5
228
  8
0
 62
     7
 10
75.257517000000007
 20
59.033673999999998
 30
0.0
 40
0.766672
 50
76.139626000000007
 51
89.945769999999996
  0
ARC
  5
229
  8
0
 62
     7
 10
75.114113000000003
 20
58.356793000000003
 30
0.0
 40
1.458377
 50
65.825644999999994
 51
77.040245999999996
  0
ARC
  5
22A
  8
0
 62
     7
 10
74.867685999999992
 20
57.748116000000003
 30
0.0
 40
2.1147320000000001
 50
59.757435000000001
 51
66.488002000000009
  0
ARC
  5
22B
  8
0
 62
     7
 10
79.997519999999994
 20
50.373719000000001
 30
0.0
 40
6.7056170000000002
 50
101.307756
 51
103.2125989999999
  0
ARC
  5
22C
  8
0
 62
     7
 10
76.982794999999996
 20
62.528517000000001
 30
0.0
 40
5.8185999999999991
 50
278.61310900000001
 51
284.756394
  0
ARC
  5
22D
  8
0
 62
     7
 10
77.507925
 20
59.039990000000003
 30
0.0
 40
2.290775
 50
270.619889
 51
278.69412499999987
  0
LINE
  5
22E
  8
0
 62
     7
 10
77.532700000000006
 20
56.749299999999991
 30
0.0
 11
77.083500000000001
 21
56.749299999999991
 31
0.0
  0
ARC
  5
22F
  8
0
 62
     7
 10
77.083787999999998
 20
58.710853
 30
0.0
 40
1.9615029999999991
 50
261.54105600000003
 51
269.99059
  0
ARC
  5
230
  8
0
 62
     7
 10
77.298121999999992
 20
60.369022999999999
 30
0.0
 40
3.633303999999999
 50
258.55842999999987
 51
262.04435799999987
  0
ARC
  5
231
  8
0
 62
     7
 10
78.705766999999994
 20
67.20975
 30
0.0
 40
10.617345
 50
256.53720400000009
 51
258.43600900000001
  0
ARC
  5
232
  8
0
 62
     7
 10
74.814503000000002
 20
51.039861000000002
 30
0.0
 40
6.014189
 50
76.348943999999989
 51
79.283904000000007
  0
ARC
  5
233
  8
0
 62
     7
 10
77.173626999999996
 20
55.918005000000008
 30
0.0
 40
3.8618030000000001
 50
102.812912
 51
108.74207800000001
  0
ARC
  5
234
  8
0
 62
     7
 10
77.413056000000012
 20
55.059006999999987
 30
0.0
 40
4.7527039999999996
 50
94.32944599999999
 51
103.330918
  0
ARC
  5
235
  8
0
 62
     7
 10
77.200960999999992
 20
57.512881
 30
0.0
 40
2.2899720000000001
 50
87.318690000000004
 51
93.672809999999998
  0
ARC
  5
236
  8
0
 62
     7
 10
77.391343999999989
 20
58.384518000000007
 30
0.0
 40
1.418274
 50
88.960406000000006
 51
93.365382999999994
  0
ARC
  5
237
  8
0
 62
     7
 10
77.37768299999999
 20
57.22764999999999
 30
0.0
 40
2.5752090000000001
 50
85.185453999999993
 51
89.123485000000002
  0
ARC
  5
238
  8
0
 62
     7
 10
77.180289000000002
 20
54.915694999999992
 30
0.0
 40
4.895573999999999
 50
72.128121999999991
 51
85.154398999999998
  0
LINE
  5
239
  8
0
 62
     7
 10
78.558000000000007
 20
59.976000000000013
 30
0.0
 11
77.308099999999996
 21
59.976000000000013
 31
0.0
  0
LINE
  5
23A
  8
0
 62
     7
 10
76.058199999999999
 20
59.976000000000013
 30
0.0
 11
77.308099999999996
 21
59.976000000000013
 31
0.0
  0
LINE
  5
23B
  8
0
 62
     7
 10
75.007400000000004
 20
56.6997
 30
0.0
 11
77.308099999999996
 21
56.6997
 31
0.0
  0
LINE
  5
23C
  8
0
 62
     7
 10
77.308099999999996
 20
56.6997
 30
0.0
 11
79.608699999999985
 21
56.6997
 31
0.0
  0
LINE
  5
23D
  8
0
 62
     7
 10
79.908500000000004
 20
56.8996
 30
0.0
 11
79.608699999999985
 21
56.724499999999999
 31
0.0
  0
LINE
  5
23E
  8
0
 62
     7
 10
79.608699999999985
 20
56.724499999999999
 30
0.0
 11
79.608699999999985
 21
56.6997
 31
0.0
  0
LINE
  5
23F
  8
0
 62
     7
 10
80.058699999999988
 20
56.94919999999999
 30
0.0
 11
79.608699999999985
 21
56.724499999999999
 31
0.0
  0
LINE
  5
240
  8
0
 62
     7
 10
74.558199999999999
 20
56.94919999999999
 30
0.0
 11
75.007400000000004
 21
56.6997
 31
0.0
  0
LINE
  5
241
  8
0
 62
     7
 10
75.007400000000004
 20
59.825200000000002
 30
0.0
 11
79.608699999999985
 21
59.825200000000002
 31
0.0
  0
LINE
  5
242
  8
0
 62
     7
 10
75.757800000000003
 20
59.9499
 30
0.0
 11
78.858400000000003
 21
59.9499
 31
0.0
  0
ARC
  5
243
  8
0
 62
     7
 10
78.30739100000001
 20
60.645721999999999
 30
0.0
 40
0.715023
 50
290.51522799999992
 51
326.55637400000001
  0
ARC
  5
244
  8
0
 62
     7
 10
78.477688000000001
 20
60.507427999999997
 30
0.0
 40
0.4971740000000001
 50
329.03986499999991
 51
341.56241099999988
  0
LINE
  5
245
  8
0
 62
     7
 10
78.949299999999994
 20
60.350200000000001
 30
0.0
 11
78.983099999999993
 21
60.450099999999999
 31
0.0
  0
LINE
  5
246
  8
0
 62
     7
 10
78.983099999999993
 20
60.450099999999999
 30
0.0
 11
78.983099999999993
 21
60.600299999999997
 31
0.0
  0
LINE
  5
247
  8
0
 62
     7
 10
78.983099999999993
 20
60.600299999999997
 30
0.0
 11
78.933499999999995
 21
60.775300000000001
 31
0.0
  0
LINE
  5
248
  8
0
 62
     7
 10
75.657899999999984
 20
60.775300000000001
 30
0.0
 11
75.682699999999997
 21
60.775300000000001
 31
0.0
  0
ARC
  5
249
  8
0
 62
     7
 10
182.84621200000001
 20
45.494002000000002
 30
0.0
 40
108.272147
 50
171.88628
 51
171.97981899999991
  0
LINE
  5
24A
  8
0
 62
     7
 10
75.633099999999999
 20
60.600299999999997
 30
0.0
 11
75.633099999999999
 21
60.450099999999999
 31
0.0
  0
LINE
  5
24B
  8
0
 62
     7
 10
75.633099999999999
 20
60.450099999999999
 30
0.0
 11
75.665499999999994
 21
60.350200000000001
 31
0.0
  0
ARC
  5
24C
  8
0
 62
     7
 10
76.740296999999998
 20
60.710034
 30
0.0
 40
1.1334799999999989
 50
198.51013499999999
 51
203.26190600000001
  0
ARC
  5
24D
  8
0
 62
     7
 10
76.137610999999993
 20
60.450035999999997
 30
0.0
 40
0.477105
 50
203.16090999999989
 51
222.265807
  0
ARC
  5
24E
  8
0
 62
     7
 10
76.067769999999996
 20
60.405607999999987
 30
0.0
 40
0.39579
 50
224.306589
 51
234.68705999999989
  0
ARC
  5
24F
  8
0
 62
     7
 10
76.258626000000007
 20
60.680922999999993
 30
0.0
 40
0.7307800000000001
 50
234.95395400000001
 51
242.41062199999999
  0
ARC
  5
250
  8
0
 62
     7
 10
77.986381999999992
 20
63.982602999999997
 30
0.0
 40
4.4572029999999989
 50
242.382621
 51
244.01318399999991
  0
LINE
  5
251
  8
0
 62
     7
 10
76.0334
 20
59.976000000000013
 30
0.0
 11
76.058199999999999
 21
59.976000000000013
 31
0.0
  0
LINE
  5
252
  8
0
 62
     7
 10
75.857699999999994
 20
61.200400000000002
 30
0.0
 11
78.733699999999999
 21
61.200400000000002
 31
0.0
  0
LINE
  5
253
  8
0
 62
     7
 10
75.857699999999994
 20
63.200699999999998
 30
0.0
 11
77.308099999999996
 21
63.200699999999998
 31
0.0
  0
LINE
  5
254
  8
0
 62
     7
 10
77.308099999999996
 20
63.200699999999998
 30
0.0
 11
78.733699999999999
 21
63.200699999999998
 31
0.0
  0
LINE
  5
255
  8
0
 62
     7
 10
78.983099999999993
 20
63.750500000000002
 30
0.0
 11
78.983099999999993
 21
63.625799999999998
 31
0.0
  0
LINE
  5
256
  8
0
 62
     7
 10
78.983099999999993
 20
63.625799999999998
 30
0.0
 11
78.908000000000001
 21
63.500399999999992
 31
0.0
  0
LINE
  5
257
  8
0
 62
     7
 10
75.607600000000005
 20
63.750500000000002
 30
0.0
 11
75.633099999999999
 21
63.625799999999998
 31
0.0
  0
LINE
  5
258
  8
0
 62
     7
 10
75.633099999999999
 20
63.625799999999998
 30
0.0
 11
75.682699999999997
 21
63.500399999999992
 31
0.0
  0
LINE
  5
259
  8
0
 62
     7
 10
75.607600000000005
 20
64.451300000000003
 30
0.0
 11
78.983099999999993
 21
64.451300000000003
 31
0.0
  0
LINE
  5
25A
  8
0
 62
     7
 10
75.607600000000005
 20
64.451300000000003
 30
0.0
 11
75.607600000000005
 21
63.750500000000002
 31
0.0
  0
LINE
  5
25B
  8
0
 62
     7
 10
78.983099999999993
 20
64.451300000000003
 30
0.0
 11
78.983099999999993
 21
63.750500000000002
 31
0.0
  0
LINE
  5
25C
  8
0
 62
     7
 10
79.608699999999985
 20
59.825200000000002
 30
0.0
 11
80.058699999999988
 21
59.575000000000003
 31
0.0
  0
LINE
  5
25D
  8
0
 62
     7
 10
75.007400000000004
 20
59.825200000000002
 30
0.0
 11
74.558199999999999
 21
59.575000000000003
 31
0.0
  0
LINE
  5
25E
  8
0
 62
     7
 10
75.682699999999997
 20
63.500399999999992
 30
0.0
 11
75.857699999999994
 21
63.200699999999998
 31
0.0
  0
LINE
  5
25F
  8
0
 62
     7
 10
75.857699999999994
 20
61.200400000000002
 30
0.0
 11
75.682699999999997
 21
60.775300000000001
 31
0.0
  0
LINE
  5
260
  8
0
 62
     7
 10
78.908000000000001
 20
63.500399999999992
 30
0.0
 11
78.733699999999999
 21
63.200699999999998
 31
0.0
  0
LINE
  5
261
  8
0
 62
     7
 10
78.733699999999999
 20
61.200400000000002
 30
0.0
 11
78.933499999999995
 21
60.775300000000001
 31
0.0
  0
LINE
  5
262
  8
0
 62
     7
 10
75.857699999999994
 20
63.200699999999998
 30
0.0
 11
75.857699999999994
 21
61.200400000000002
 31
0.0
  0
LINE
  5
263
  8
0
 62
     7
 10
78.733699999999999
 20
63.200699999999998
 30
0.0
 11
78.733699999999999
 21
61.200400000000002
 31
0.0
  0
LINE
  5
264
  8
0
 62
     7
 10
75.757800000000003
 20
59.9499
 30
0.0
 11
75.757800000000003
 21
59.825200000000002
 31
0.0
  0
LINE
  5
265
  8
0
 62
     7
 10
78.858400000000003
 20
59.9499
 30
0.0
 11
78.858400000000003
 21
59.825200000000002
 31
0.0
  0
LINE
  5
266
  8
0
 62
     7
 10
74.558199999999999
 20
56.94919999999999
 30
0.0
 11
75.007400000000004
 21
56.6997
 31
0.0
  0
LINE
  5
267
  8
0
 62
     7
 10
80.058699999999988
 20
56.94919999999999
 30
0.0
 11
79.608699999999985
 21
56.6997
 31
0.0
  0
LINE
  5
268
  8
0
 62
     7
 10
78.617199999999997
 20
102.62
 30
0.0
 11
78.617199999999997
 21
64.451300000000003
 31
0.0
  0
LINE
  5
269
  8
0
 62
     7
 10
75.992699999999999
 20
102.62
 30
0.0
 11
75.992699999999999
 21
64.451300000000003
 31
0.0
  0
LINE
  5
26A
  8
0
  6
AIGENLINE002
 62
     7
 10
77.305300000000003
 20
107.471
 30
0.0
 11
77.305300000000003
 21
55.392699999999998
 31
0.0
  0
LINE
  5
26B
  8
0
 62
     7
 10
47.058599999999998
 20
59.575000000000003
 30
0.0
 11
47.058599999999998
 21
56.94919999999999
 31
0.0
  0
LINE
  5
26C
  8
0
 62
     7
 10
45.682600000000001
 20
59.575000000000003
 30
0.0
 11
45.682600000000001
 21
56.94919999999999
 31
0.0
  0
ARC
  5
26D
  8
0
 62
     7
 10
43.693399999999997
 20
64.766475999999983
 30
0.0
 40
8.5108619999999995
 50
291.64301499999999
 51
293.29081500000001
  0
ARC
  5
26E
  8
0
 62
     7
 10
46.144632999999992
 20
58.622996999999998
 30
0.0
 40
1.896471
 50
281.78779100000003
 51
291.26332000000002
  0
ARC
  5
26F
  8
0
 62
     7
 10
46.350690999999991
 20
57.713931999999993
 30
0.0
 40
0.9646139999999999
 50
270.46569699999998
 51
280.83723800000001
  0
ARC
  5
270
  8
0
 62
     7
 10
46.358668999999992
 20
57.655370999999988
 30
0.0
 40
0.9060209999999999
 50
257.53096799999997
 51
269.99131499999987
  0
ARC
  5
271
  8
0
 62
     7
 10
46.481973999999987
 20
58.282524000000002
 30
0.0
 40
1.545078
 50
247.1929649999999
 51
258.08771999999999
  0
ARC
  5
272
  8
0
 62
     7
 10
46.948365000000003
 20
59.473478
 30
0.0
 40
2.8238819999999989
 50
243.36945
 51
247.83659700000001
  0
ARC
  5
273
  8
0
 62
     7
 10
46.438490999999992
 20
58.456982999999987
 30
0.0
 40
1.349596999999999
 50
97.382283000000015
 51
124.06179999999991
  0
ARC
  5
274
  8
0
 62
     7
 10
46.359625000000001
 20
58.895563000000003
 30
0.0
 40
0.9047829999999999
 50
90.069248000000016
 51
95.997880000000009
  0
ARC
  5
275
  8
0
 62
     7
 10
46.35774
 20
58.882086000000001
 30
0.0
 40
0.91826
 50
77.805482999999995
 51
89.950637999999998
  0
ARC
  5
276
  8
0
 62
     7
 10
46.267564
 20
58.416448000000003
 30
0.0
 40
1.392476
 50
66.812563999999995
 51
78.225831999999997
  0
ARC
  5
277
  8
0
 62
     7
 10
46.036507999999998
 20
57.834895999999993
 30
0.0
 40
2.018095999999999
 50
59.572125999999997
 51
67.283528000000004
  0
LINE
  5
278
  8
0
 62
     7
 10
41.558100000000003
 20
59.575000000000003
 30
0.0
 11
41.558100000000003
 21
56.94919999999999
 31
0.0
  0
LINE
  5
279
  8
0
 62
     7
 10
42.93269999999999
 20
59.575000000000003
 30
0.0
 11
42.93269999999999
 21
56.94919999999999
 31
0.0
  0
ARC
  5
27A
  8
0
 62
     7
 10
39.608353000000001
 20
64.669083999999998
 30
0.0
 40
8.4052629999999997
 50
291.66982499999989
 51
293.2977009999999
  0
ARC
  5
27B
  8
0
 62
     7
 10
41.976791999999989
 20
58.732152999999997
 30
0.0
 40
2.0133679999999989
 50
282.24342300000001
 51
291.41940699999992
  0
ARC
  5
27C
  8
0
 62
     7
 10
42.247703999999992
 20
57.55295799999999
 30
0.0
 40
0.8036760000000001
 50
270.74496599999998
 51
281.19653699999998
  0
ARC
  5
27D
  8
0
 62
     7
 10
42.258961999999997
 20
57.656881000000013
 30
0.0
 40
0.9075319999999999
 50
257.81198299999988
 51
269.94892599999991
  0
ARC
  5
27E
  8
0
 62
     7
 10
42.35796599999999
 20
58.189833999999998
 30
0.0
 40
1.44946
 50
252.9407139999999
 51
258.43437299999999
  0
ARC
  5
27F
  8
0
 62
     7
 10
42.605963999999993
 20
58.994816
 30
0.0
 40
2.2917770000000002
 50
248.54088300000001
 51
252.91730599999991
  0
ARC
  5
280
  8
0
 62
     7
 10
44.03299899999999
 20
62.594537000000003
 30
0.0
 40
6.164032999999999
 50
246.3276809999999
 51
248.43679700000001
  0
ARC
  5
281
  8
0
 62
     7
 10
42.560041999999989
 20
57.861966000000002
 30
0.0
 40
1.984561
 50
107.8799179999999
 51
120.3224249999999
  0
ARC
  5
282
  8
0
 62
     7
 10
42.282604999999997
 20
58.672812999999998
 30
0.0
 40
1.1277969999999991
 50
91.242338000000004
 51
107.113371
  0
ARC
  5
283
  8
0
 62
     7
 10
42.257427
 20
59.033673999999998
 30
0.0
 40
0.766672
 50
76.139626000000007
 51
89.945769999999996
  0
ARC
  5
284
  8
0
 62
     7
 10
42.114022999999989
 20
58.356793000000003
 30
0.0
 40
1.458377
 50
65.825644999999994
 51
77.040245999999996
  0
ARC
  5
285
  8
0
 62
     7
 10
41.867596999999989
 20
57.748116000000003
 30
0.0
 40
2.1147320000000001
 50
59.757435000000001
 51
66.488002000000009
  0
ARC
  5
286
  8
0
 62
     7
 10
46.997430999999999
 20
50.373719000000001
 30
0.0
 40
6.7056170000000002
 50
101.307756
 51
103.2125989999999
  0
ARC
  5
287
  8
0
 62
     7
 10
43.982424999999999
 20
62.52984
 30
0.0
 40
5.8199509999999997
 50
278.61394799999999
 51
284.75575499999991
  0
ARC
  5
288
  8
0
 62
     7
 10
44.507843000000001
 20
59.039980999999997
 30
0.0
 40
2.2907649999999991
 50
270.6197279999999
 51
278.69413100000003
  0
LINE
  5
289
  8
0
 62
     7
 10
44.532600000000002
 20
56.749299999999991
 30
0.0
 11
44.08339999999999
 21
56.749299999999991
 31
0.0
  0
ARC
  5
28A
  8
0
 62
     7
 10
44.08370399999999
 20
58.710930000000012
 30
0.0
 40
1.961579999999999
 50
261.541222
 51
269.99042400000002
  0
ARC
  5
28B
  8
0
 62
     7
 10
44.298032999999997
 20
60.369022999999999
 30
0.0
 40
3.633303999999999
 50
258.55842999999987
 51
262.04435799999987
  0
ARC
  5
28C
  8
0
 62
     7
 10
45.705677999999999
 20
67.20975
 30
0.0
 40
10.617345
 50
256.53720400000009
 51
258.43600900000001
  0
ARC
  5
28D
  8
0
 62
     7
 10
41.814413000000002
 20
51.039861000000002
 30
0.0
 40
6.014189
 50
76.348943999999989
 51
79.283904000000007
  0
ARC
  5
28E
  8
0
 62
     7
 10
44.177332999999997
 20
55.904575000000001
 30
0.0
 40
3.8757410000000001
 50
102.823582
 51
108.7314079999999
  0
ARC
  5
28F
  8
0
 62
     7
 10
44.412967000000002
 20
55.059006999999987
 30
0.0
 40
4.7527039999999996
 50
94.32944599999999
 51
103.330918
  0
ARC
  5
290
  8
0
 62
     7
 10
44.200871999999997
 20
57.512881
 30
0.0
 40
2.2899720000000001
 50
87.318690000000004
 51
93.672809999999998
  0
ARC
  5
291
  8
0
 62
     7
 10
44.391257000000003
 20
58.384481999999991
 30
0.0
 40
1.4183099999999991
 50
88.960296
 51
93.365379000000004
  0
ARC
  5
292
  8
0
 62
     7
 10
44.377588000000003
 20
57.227561999999999
 30
0.0
 40
2.5752969999999991
 50
85.185494999999975
 51
89.123272
  0
ARC
  5
293
  8
0
 62
     7
 10
44.180199999999999
 20
54.915694999999992
 30
0.0
 40
4.895573999999999
 50
72.128121999999991
 51
85.154398999999998
  0
LINE
  5
294
  8
0
 62
     7
 10
45.557899999999997
 20
59.976000000000013
 30
0.0
 11
44.308
 21
59.976000000000013
 31
0.0
  0
LINE
  5
295
  8
0
 62
     7
 10
43.058100000000003
 20
59.976000000000013
 30
0.0
 11
44.308
 21
59.976000000000013
 31
0.0
  0
LINE
  5
296
  8
0
 62
     7
 10
42.007300000000001
 20
56.6997
 30
0.0
 11
44.308
 21
56.6997
 31
0.0
  0
LINE
  5
297
  8
0
 62
     7
 10
44.308
 20
56.6997
 30
0.0
 11
46.608600000000003
 21
56.6997
 31
0.0
  0
LINE
  5
298
  8
0
 62
     7
 10
46.9084
 20
56.8996
 30
0.0
 11
46.608600000000003
 21
56.724499999999999
 31
0.0
  0
LINE
  5
299
  8
0
 62
     7
 10
46.608600000000003
 20
56.724499999999999
 30
0.0
 11
46.608600000000003
 21
56.6997
 31
0.0
  0
LINE
  5
29A
  8
0
 62
     7
 10
47.058599999999998
 20
56.94919999999999
 30
0.0
 11
46.608600000000003
 21
56.724499999999999
 31
0.0
  0
LINE
  5
29B
  8
0
 62
     7
 10
41.558100000000003
 20
56.94919999999999
 30
0.0
 11
42.007300000000001
 21
56.6997
 31
0.0
  0
LINE
  5
29C
  8
0
 62
     7
 10
42.007300000000001
 20
59.825200000000002
 30
0.0
 11
46.608600000000003
 21
59.825200000000002
 31
0.0
  0
LINE
  5
29D
  8
0
 62
     7
 10
42.7577
 20
59.9499
 30
0.0
 11
45.8583
 21
59.9499
 31
0.0
  0
ARC
  5
29E
  8
0
 62
     7
 10
45.307301999999993
 20
60.645721999999999
 30
0.0
 40
0.715023
 50
290.51522799999992
 51
326.55637400000001
  0
ARC
  5
29F
  8
0
 62
     7
 10
45.477598
 20
60.507427999999997
 30
0.0
 40
0.4971740000000001
 50
329.03986499999991
 51
341.56241099999988
  0
LINE
  5
2A0
  8
0
 62
     7
 10
45.949300000000001
 20
60.350200000000001
 30
0.0
 11
45.982999999999997
 21
60.450099999999999
 31
0.0
  0
LINE
  5
2A1
  8
0
 62
     7
 10
45.982999999999997
 20
60.450099999999999
 30
0.0
 11
45.982999999999997
 21
60.600299999999997
 31
0.0
  0
LINE
  5
2A2
  8
0
 62
     7
 10
45.982999999999997
 20
60.600299999999997
 30
0.0
 11
45.933399999999999
 21
60.775300000000001
 31
0.0
  0
LINE
  5
2A3
  8
0
 62
     7
 10
42.657800000000002
 20
60.775300000000001
 30
0.0
 11
42.682600000000001
 21
60.775300000000001
 31
0.0
  0
ARC
  5
2A4
  8
0
 62
     7
 10
149.84612300000001
 20
45.494002000000002
 30
0.0
 40
108.272147
 50
171.88628
 51
171.97981899999991
  0
LINE
  5
2A5
  8
0
 62
     7
 10
42.633000000000003
 20
60.600299999999997
 30
0.0
 11
42.633000000000003
 21
60.450099999999999
 31
0.0
  0
LINE
  5
2A6
  8
0
 62
     7
 10
42.633000000000003
 20
60.450099999999999
 30
0.0
 11
42.665399999999991
 21
60.350200000000001
 31
0.0
  0
ARC
  5
2A7
  8
0
 62
     7
 10
43.738757999999997
 20
60.709544999999999
 30
0.0
 40
1.13195
 50
198.50993999999989
 51
203.26823400000001
  0
ARC
  5
2A8
  8
0
 62
     7
 10
43.137148999999987
 20
60.44979399999999
 30
0.0
 40
0.476662
 50
203.15195800000001
 51
222.27475899999999
  0
ARC
  5
2A9
  8
0
 62
     7
 10
43.067390000000003
 20
60.40523499999999
 30
0.0
 40
0.395318
 50
224.29787099999999
 51
234.69018299999999
  0
ARC
  5
2AA
  8
0
 62
     7
 10
43.259244000000002
 20
60.682085999999998
 30
0.0
 40
0.732138
 50
234.96088199999991
 51
242.403695
  0
ARC
  5
2AB
  8
0
 62
     7
 10
44.986291999999992
 20
63.982602999999997
 30
0.0
 40
4.4572029999999989
 50
242.382621
 51
244.01318399999991
  0
LINE
  5
2AC
  8
0
 62
     7
 10
43.03329999999999
 20
59.976000000000013
 30
0.0
 11
43.058100000000003
 21
59.976000000000013
 31
0.0
  0
LINE
  5
2AD
  8
0
 62
     7
 10
42.857599999999991
 20
61.200400000000002
 30
0.0
 11
45.733600000000003
 21
61.200400000000002
 31
0.0
  0
LINE
  5
2AE
  8
0
 62
     7
 10
42.857599999999991
 20
63.200699999999998
 30
0.0
 11
44.308
 21
63.200699999999998
 31
0.0
  0
LINE
  5
2AF
  8
0
 62
     7
 10
44.308
 20
63.200699999999998
 30
0.0
 11
45.733600000000003
 21
63.200699999999998
 31
0.0
  0
LINE
  5
2B0
  8
0
 62
     7
 10
45.982999999999997
 20
63.750500000000002
 30
0.0
 11
45.982999999999997
 21
63.625799999999998
 31
0.0
  0
LINE
  5
2B1
  8
0
 62
     7
 10
45.982999999999997
 20
63.625799999999998
 30
0.0
 11
45.907899999999998
 21
63.500399999999992
 31
0.0
  0
LINE
  5
2B2
  8
0
 62
     7
 10
42.607500000000002
 20
63.750500000000002
 30
0.0
 11
42.633000000000003
 21
63.625799999999998
 31
0.0
  0
LINE
  5
2B3
  8
0
 62
     7
 10
42.633000000000003
 20
63.625799999999998
 30
0.0
 11
42.682600000000001
 21
63.500399999999992
 31
0.0
  0
LINE
  5
2B4
  8
0
 62
     7
 10
42.607500000000002
 20
64.451300000000003
 30
0.0
 11
45.982999999999997
 21
64.451300000000003
 31
0.0
  0
LINE
  5
2B5
  8
0
 62
     7
 10
42.607500000000002
 20
64.451300000000003
 30
0.0
 11
42.607500000000002
 21
63.750500000000002
 31
0.0
  0
LINE
  5
2B6
  8
0
 62
     7
 10
45.982999999999997
 20
64.451300000000003
 30
0.0
 11
45.982999999999997
 21
63.750500000000002
 31
0.0
  0
LINE
  5
2B7
  8
0
 62
     7
 10
46.608600000000003
 20
59.825200000000002
 30
0.0
 11
47.058599999999998
 21
59.575000000000003
 31
0.0
  0
LINE
  5
2B8
  8
0
 62
     7
 10
42.007300000000001
 20
59.825200000000002
 30
0.0
 11
41.558100000000003
 21
59.575000000000003
 31
0.0
  0
LINE
  5
2B9
  8
0
 62
     7
 10
42.682600000000001
 20
63.500399999999992
 30
0.0
 11
42.857599999999991
 21
63.200699999999998
 31
0.0
  0
LINE
  5
2BA
  8
0
 62
     7
 10
42.857599999999991
 20
61.200400000000002
 30
0.0
 11
42.682600000000001
 21
60.775300000000001
 31
0.0
  0
LINE
  5
2BB
  8
0
 62
     7
 10
45.907899999999998
 20
63.500399999999992
 30
0.0
 11
45.733600000000003
 21
63.200699999999998
 31
0.0
  0
LINE
  5
2BC
  8
0
 62
     7
 10
45.733600000000003
 20
61.200400000000002
 30
0.0
 11
45.933399999999999
 21
60.775300000000001
 31
0.0
  0
LINE
  5
2BD
  8
0
 62
     7
 10
42.857599999999991
 20
63.200699999999998
 30
0.0
 11
42.857599999999991
 21
61.200400000000002
 31
0.0
  0
LINE
  5
2BE
  8
0
 62
     7
 10
45.733600000000003
 20
63.200699999999998
 30
0.0
 11
45.733600000000003
 21
61.200400000000002
 31
0.0
  0
LINE
  5
2BF
  8
0
 62
     7
 10
42.7577
 20
59.9499
 30
0.0
 11
42.7577
 21
59.825200000000002
 31
0.0
  0
LINE
  5
2C0
  8
0
 62
     7
 10
45.8583
 20
59.9499
 30
0.0
 11
45.8583
 21
59.825200000000002
 31
0.0
  0
LINE
  5
2C1
  8
0
 62
     7
 10
41.558100000000003
 20
56.94919999999999
 30
0.0
 11
42.007300000000001
 21
56.6997
 31
0.0
  0
LINE
  5
2C2
  8
0
 62
     7
 10
47.058599999999998
 20
56.94919999999999
 30
0.0
 11
46.608600000000003
 21
56.6997
 31
0.0
  0
LINE
  5
2C3
  8
0
  6
AIGENLINE002
 62
     7
 10
77.305300000000003
 20
107.471
 30
0.0
 11
62.680500000000002
 21
90.900099999999995
 31
0.0
  0
LINE
  5
2C4
  8
0
 62
     7
 10
64.930499999999995
 20
108.97799999999989
 30
0.0
 11
64.680400000000006
 21
108.72799999999999
 31
0.0
  0
LINE
  5
2C5
  8
0
 62
     7
 10
56.930199999999999
 20
108.72799999999999
 30
0.0
 11
56.680799999999991
 21
108.97799999999989
 31
0.0
  0
LINE
  5
2C6
  8
0
 62
     7
 10
64.680400000000006
 20
123.09699999999999
 30
0.0
 11
64.680400000000006
 21
113.471
 31
0.0
  0
LINE
  5
2C7
  8
0
 62
     7
 10
64.930499999999995
 20
123.09699999999999
 30
0.0
 11
64.930499999999995
 21
113.471
 31
0.0
  0
LINE
  5
2C8
  8
0
 62
     7
 10
56.930199999999999
 20
123.09699999999999
 30
0.0
 11
56.930199999999999
 21
113.471
 31
0.0
  0
LINE
  5
2C9
  8
0
 62
     7
 10
56.680799999999991
 20
123.09699999999999
 30
0.0
 11
56.680799999999991
 21
113.471
 31
0.0
  0
LINE
  5
2CA
  8
0
 62
     7
 10
64.680400000000006
 20
110.97799999999989
 30
0.0
 11
64.680400000000006
 21
108.72799999999999
 31
0.0
  0
LINE
  5
2CB
  8
0
 62
     7
 10
64.930499999999995
 20
110.97799999999989
 30
0.0
 11
64.930499999999995
 21
108.97799999999989
 31
0.0
  0
LINE
  5
2CC
  8
0
 62
     7
 10
56.930199999999999
 20
110.97799999999989
 30
0.0
 11
56.930199999999999
 21
108.72799999999999
 31
0.0
  0
LINE
  5
2CD
  8
0
 62
     7
 10
56.680799999999991
 20
110.97799999999989
 30
0.0
 11
56.680799999999991
 21
108.97799999999989
 31
0.0
  0
LINE
  5
2CE
  8
0
 62
     7
 10
56.680799999999991
 20
108.97799999999989
 30
0.0
 11
64.930499999999995
 21
108.97799999999989
 31
0.0
  0
LINE
  5
2CF
  8
0
 62
     7
 10
56.930199999999999
 20
108.72799999999999
 30
0.0
 11
64.680400000000006
 21
108.72799999999999
 31
0.0
  0
LINE
  5
2D0
  8
0
 62
     7
 10
45.617100000000001
 20
102.62
 30
0.0
 11
45.617100000000001
 21
64.451300000000003
 31
0.0
  0
LINE
  5
2D1
  8
0
 62
     7
 10
42.992699999999992
 20
102.62
 30
0.0
 11
42.992699999999992
 21
64.451300000000003
 31
0.0
  0
LINE
  5
2D2
  8
0
  6
AIGENLINE002
 62
     7
 10
44.305199999999999
 20
107.471
 30
0.0
 11
44.305199999999999
 21
55.392699999999998
 31
0.0
  0
TEXT
  5
2D3
  8
_________2
 62
     7
 10
24.5868
 20
0.707283
 30
0.0
 40
4.6583899999999989
  1
（社）日本水道協会認証品
 41
0.5
  0
TEXT
  5
2D4
  8
_________2
 62
     7
 10
109.179
 20
24.2257
 30
0.0
 40
4.6583899999999989
  1
ジングル 湯水混合栓
 41
0.5
  0
LINE
  5
2D5
  8
_________2
 62
     7
 10
205.30099999999999
 20
127.411
 30
0.0
 11
183.55099999999999
 21
127.411
 31
0.0
  0
LINE
  5
2D6
  8
_________2
 62
     7
 10
100.2999999999999
 20
-4.0910799999999998
 30
0.0
 11
100.2999999999999
 21
-21.071400000000001
 31
0.0
  0
LINE
  5
2D7
  8
_________2
 62
     7
 10
100.2999999999999
 20
275.93099999999993
 30
0.0
 11
100.2999999999999
 21
258.911
 31
0.0
  0
LINE
  5
2D8
  8
_________2
 62
     7
 10
17.049499999999998
 20
127.411
 30
0.0
 11
-4.7008599999999987
 21
127.411
 31
0.0
  0
LINE
  5
2D9
  8
_________2
 62
     7
 10
76.741
 20
29.8047
 30
0.0
 11
74.554699999999997
 21
29.8047
 31
0.0
  0
LINE
  5
2DA
  8
_________2
 62
     7
 10
77.233699999999999
 20
29.8047
 30
0.0
 11
76.981499999999997
 21
29.8047
 31
0.0
  0
LINE
  5
2DB
  8
_________2
 62
     7
 10
77.726299999999995
 20
29.8047
 30
0.0
 11
80.651200000000003
 21
29.8047
 31
0.0
  0
LINE
  5
2DC
  8
_________2
 62
     7
 10
77.233699999999999
 20
29.8047
 30
0.0
 11
77.485900000000001
 21
29.8047
 31
0.0
  0
LINE
  5
2DD
  8
_________2
 62
     7
 10
70.837500000000006
 20
29.8047
 30
0.0
 11
68.650499999999994
 21
29.8047
 31
0.0
  0
LINE
  5
2DE
  8
_________2
 62
     7
 10
71.329400000000007
 20
29.8047
 30
0.0
 11
71.0779
 21
29.8047
 31
0.0
  0
LINE
  5
2DF
  8
_________2
 62
     7
 10
71.329400000000007
 20
30.2974
 30
0.0
 11
71.329400000000007
 21
32.484400000000001
 31
0.0
  0
LINE
  5
2E0
  8
_________2
 62
     7
 10
71.329400000000007
 20
29.8047
 30
0.0
 11
71.329400000000007
 21
30.056899999999992
 31
0.0
  0
LINE
  5
2E1
  8
_________2
 62
     7
 10
71.822100000000006
 20
29.8047
 30
0.0
 11
74.009
 21
29.8047
 31
0.0
  0
LINE
  5
2E2
  8
_________2
 62
     7
 10
71.329400000000007
 20
29.8047
 30
0.0
 11
71.581599999999995
 21
29.8047
 31
0.0
  0
LINE
  5
2E3
  8
_________2
 62
     7
 10
71.329400000000007
 20
29.312799999999999
 30
0.0
 11
71.329400000000007
 21
27.125800000000002
 31
0.0
  0
LINE
  5
2E4
  8
_________2
 62
     7
 10
71.329400000000007
 20
29.8047
 30
0.0
 11
71.329400000000007
 21
29.5532
 31
0.0
  0
LINE
  5
2E5
  8
_________2
 62
     7
 10
75.040499999999994
 20
28.5852
 30
0.0
 11
80.218500000000006
 21
27.720400000000001
 31
0.0
  0
LINE
  5
2E6
  8
_________2
 62
     7
 10
75.040499999999994
 20
31.0243
 30
0.0
 11
80.218500000000006
 21
31.889700000000001
 31
0.0
  0
LINE
  5
2E7
  8
_________2
 62
     7
 10
80.218500000000006
 20
27.720400000000001
 30
0.0
 11
80.218500000000006
 21
31.889700000000001
 31
0.0
  0
LINE
  5
2E8
  8
_________2
 62
     7
 10
75.040499999999994
 20
28.5852
 30
0.0
 11
75.040499999999994
 21
31.0243
 31
0.0
  0
ARC
  5
2E9
  8
_________2
 62
     7
 10
71.283190000000005
 20
29.757787
 30
0.0
 40
1.2673709999999989
 50
2.1232950000000002
 51
87.909056000000007
  0
ARC
  5
2EA
  8
_________2
 62
     7
 10
71.375959999999992
 20
29.758213000000001
 30
0.0
 40
1.2669559999999991
 50
92.104701000000006
 51
177.8952689999999
  0
ARC
  5
2EB
  8
_________2
 62
     7
 10
71.376357999999996
 20
29.851671
 30
0.0
 40
1.2673680000000001
 50
182.12203600000001
 51
267.877993
  0
ARC
  5
2EC
  8
_________2
 62
     7
 10
71.282541000000009
 20
29.852347999999999
 30
0.0
 40
1.2680439999999991
 50
272.11916400000001
 51
357.84848499999993
  0
ARC
  5
2ED
  8
_________2
 62
     7
 10
71.329430000000002
 20
29.804742999999998
 30
0.0
 40
2.0849849999999992
 50
0.00001
 51
89.999980000000008
  0
ARC
  5
2EE
  8
_________2
 62
     7
 10
71.409075999999999
 20
29.725812999999992
 30
0.0
 40
2.165379999999999
 50
92.107876000000005
 51
177.91103200000001
  0
ARC
  5
2EF
  8
_________2
 62
     7
 10
71.409439000000006
 20
29.884751999999999
 30
0.0
 40
2.1657829999999998
 50
182.117133
 51
267.88289700000001
  0
ARC
  5
2F0
  8
_________2
 62
     7
 10
71.249459000000002
 20
29.885429999999989
 30
0.0
 40
2.1664590000000001
 50
272.11546800000002
 51
357.86560400000002
  0
TEXT
  5
2F1
  8
_________2
 62
     7
 10
104.605
 20
1.6794899999999999
 30
0.0
 40
3.660169999999999
  1
図番
 41
0.5
  0
LINE
  5
2F2
  8
_________2
 62
     7
 10
103.55
 20
5.9087199999999989
 30
0.0
 11
183.55099999999999
 21
5.9087199999999989
 31
0.0
  0
TEXT
  5
2F3
  8
_________2
 62
     7
 10
104.605
 20
11.679299999999991
 30
0.0
 40
3.660169999999999
  1
品番
 41
0.5
  0
TEXT
  5
2F4
  8
_________2
 62
     7
 10
104.605
 20
31.818100000000001
 30
0.0
 40
3.660169999999999
  1
名称
 41
0.5
  0
TEXT
  5
2F5
  8
_________2
 62
     7
 10
91.565445833333328
 20
26.821999999999989
 30
0.0
 40
4.3256500000000004
  1
mm
 41
0.5
 72
     1
 11
93.367800000000003
 21
26.821999999999989
 31
0.0
  0
TEXT
  5
2F6
  8
_________2
 62
     7
 10
85.643199999999993
 20
31.818100000000001
 30
0.0
 40
3.660169999999999
  1
単位
 41
0.5
  0
TEXT
  5
2F7
  8
_________2
 62
     7
 10
85.643199999999993
 20
19.410799999999991
 30
0.0
 40
3.660169999999999
  1
尺度
 41
0.5
  0
TEXT
  5
2F8
  8
_________2
 62
     7
 10
89.922426666666667
 20
13.2179
 30
0.0
 40
4.3256500000000004
  1
1 ： 4
 41
0.5
 72
     1
 11
93.959699999999998
 21
13.2179
 31
0.0
  0
TEXT
  5
2F9
  8
_________2
 62
     7
 10
137.14471374999999
 20
9.1078600000000005
 30
0.0
 40
4.6583899999999989
  1
ZU0693
 41
0.5
 72
     1
 11
143.55000000000001
 21
9.1078600000000005
 31
0.0
  0
TEXT
  5
2FA
  8
_________2
 62
     7
 10
137.14471374999999
 20
-0.8926299999999999
 30
0.0
 40
4.6583899999999989
  1
ZU0693
 41
0.5
 72
     1
 11
143.55000000000001
 21
-0.8926299999999999
 31
0.0
  0
TEXT
  5
2FB
  8
_________2
 62
     7
 10
39.078580833333334
 20
13.603
 30
0.0
 40
4.3256500000000004
  1
早川
 41
0.5
 72
     1
 11
41.313499999999998
 21
13.603
 31
0.0
  0
TEXT
  5
2FC
  8
_________2
 62
     7
 10
20.432486666666659
 20
13.603
 30
0.0
 40
4.3256500000000004
  1
菅原
 41
0.5
 72
     1
 11
22.7395
 21
13.603
 31
0.0
  0
TEXT
  5
2FD
  8
_________2
 62
     7
 10
67.785799999999995
 20
13.2179
 30
0.0
 40
4.3256500000000004
  1
14.12.04
 41
0.5
  0
TEXT
  5
2FE
  8
_________2
 62
     7
 10
66.593100000000007
 20
19.410799999999991
 30
0.0
 40
3.660169999999999
  1
日付
 41
0.5
  0
TEXT
  5
2FF
  8
_________2
 62
     7
 10
29.639399999999998
 20
19.410799999999991
 30
0.0
 40
3.660169999999999
  1
検図
 41
0.5
  0
TEXT
  5
300
  8
_________2
 62
     7
 10
18.021100000000001
 20
5.21143
 30
0.0
 40
3.660169999999999
  1
備考
 41
0.5
  0
TEXT
  5
301
  8
_________2
 62
     7
 10
18.021100000000001
 20
19.410799999999991
 30
0.0
 40
3.660169999999999
  1
製図
 41
0.5
  0
TEXT
  5
302
  8
_________2
 62
     7
 10
20.594830666666681
 20
27.936800000000002
 30
0.0
 40
5.3238799999999991
  1
セラトレーディング株式会社
 41
0.5
 72
     1
 11
41.180500000000002
 21
27.936800000000002
 31
0.0
  0
LINE
  5
303
  8
_________2
 62
     7
 10
183.55099999999999
 20
-4.0910799999999998
 30
0.0
 11
17.049499999999998
 21
-4.0910799999999998
 31
0.0
  0
LINE
  5
304
  8
_________2
 62
     7
 10
17.049499999999998
 20
-4.0910799999999998
 30
0.0
 11
17.049499999999998
 21
258.911
 31
0.0
  0
LINE
  5
305
  8
_________2
 62
     7
 10
17.049499999999998
 20
258.911
 30
0.0
 11
183.55099999999999
 21
258.911
 31
0.0
  0
LINE
  5
306
  8
_________2
 62
     7
 10
183.55099999999999
 20
258.911
 30
0.0
 11
183.55099999999999
 21
-4.0910799999999998
 31
0.0
  0
LINE
  5
307
  8
_________2
 62
     7
 10
65.549899999999994
 20
9.4089600000000004
 30
0.0
 11
65.549899999999994
 21
35.908799999999999
 31
0.0
  0
LINE
  5
308
  8
_________2
 62
     7
 10
84.549700000000016
 20
9.4089600000000004
 30
0.0
 11
84.549700000000016
 21
35.908799999999999
 31
0.0
  0
LINE
  5
309
  8
_________2
 62
     7
 10
103.55
 20
-4.0910799999999998
 30
0.0
 11
103.55
 21
35.908799999999999
 31
0.0
  0
LINE
  5
30A
  8
_________2
 62
     7
 10
28.549299999999992
 20
9.4089600000000004
 30
0.0
 11
28.549299999999992
 21
23.409199999999998
 31
0.0
  0
LINE
  5
30B
  8
_________2
 62
     7
 10
17.049499999999998
 20
9.4089600000000004
 30
0.0
 11
103.55
 21
9.4089600000000004
 31
0.0
  0
LINE
  5
30C
  8
_________2
 62
     7
 10
17.049499999999998
 20
23.409199999999998
 30
0.0
 11
103.55
 21
23.409199999999998
 31
0.0
  0
LINE
  5
30D
  8
_________2
 62
     7
 10
103.55
 20
15.9085
 30
0.0
 11
183.55099999999999
 21
15.9085
 31
0.0
  0
LINE
  5
30E
  8
_________2
 62
     7
 10
17.049499999999998
 20
35.908799999999999
 30
0.0
 11
183.55099999999999
 21
35.908799999999999
 31
0.0
  0
ENDSEC
  0
EOF
