  0
SECTION
  2
HEADER
  9
$ACADVER
  1
AC1009
  9
$INSBASE
 10
0.0
 20
0.0
 30
0.0
  9
$EXTMIN
 10
-104.794
 20
0.176045
 30
0.0
  9
$EXTMAX
 10
315.209
 20
297.178
 30
0.0
  9
$LIMMIN
 10
0.0
 20
0.0
  9
$LIMMAX
 10
12.0
 20
9.0
  9
$ORTHOMODE
 70
     0
  9
$REGENMODE
 70
     1
  9
$FILLMODE
 70
     1
  9
$QTEXTMODE
 70
     0
  9
$MIRRTEXT
 70
     1
  9
$DRAGMODE
 70
     2
  9
$LTSCALE
 40
1.0
  9
$OSMODE
 70
    37
  9
$ATTMODE
 70
     1
  9
$TEXTSIZE
 40
0.0
  9
$TRACEWID
 40
0.05
  9
$TEXTSTYLE
  7
STANDARD
  9
$CLAYER
  8
0
  9
$CELTYPE
  6
CONTINUOUS
  9
$CECOLOR
 62
   256
  9
$DIMSCALE
 40
1.0
  9
$DIMASZ
 40
0.18
  9
$DIMEXO
 40
0.0625
  9
$DIMDLI
 40
0.38
  9
$DIMRND
 40
0.0
  9
$DIMDLE
 40
0.0
  9
$DIMEXE
 40
0.18
  9
$DIMTP
 40
0.0
  9
$DIMTM
 40
0.0
  9
$DIMTXT
 40
0.18
  9
$DIMCEN
 40
0.09
  9
$DIMTSZ
 40
0.0
  9
$DIMTOL
 70
     0
  9
$DIMLIM
 70
     0
  9
$DIMTIH
 70
     1
  9
$DIMTOH
 70
     1
  9
$DIMSE1
 70
     0
  9
$DIMSE2
 70
     0
  9
$DIMTAD
 70
     0
  9
$DIMZIN
 70
     0
  9
$DIMBLK
  1

  9
$DIMASO
 70
     1
  9
$DIMSHO
 70
     1
  9
$DIMPOST
  1

  9
$DIMAPOST
  1

  9
$DIMALT
 70
     0
  9
$DIMALTD
 70
     2
  9
$DIMALTF
 40
25.399999999999999
  9
$DIMLFAC
 40
1.0
  9
$DIMTOFL
 70
     0
  9
$DIMTVP
 40
0.0
  9
$DIMTIX
 70
     0
  9
$DIMSOXD
 70
     0
  9
$DIMSAH
 70
     0
  9
$DIMBLK1
  1

  9
$DIMBLK2
  1

  9
$DIMSTYLE
  2
STANDARD
  9
$DIMCLRD
 70
     0
  9
$DIMCLRE
 70
     0
  9
$DIMCLRT
 70
     0
  9
$DIMTFAC
 40
1.0
  9
$DIMGAP
 40
0.09
  9
$LUNITS
 70
     2
  9
$LUPREC
 70
     4
  9
$SKETCHINC
 40
0.1
  9
$FILLETRAD
 40
0.0
  9
$AUNITS
 70
     0
  9
$AUPREC
 70
     0
  9
$MENU
  1
.
  9
$ELEVATION
 40
0.0
  9
$PELEVATION
 40
0.0
  9
$THICKNESS
 40
0.0
  9
$LIMCHECK
 70
     0
  9
$BLIPMODE
 70
     0
  9
$CHAMFERA
 40
0.0
  9
$CHAMFERB
 40
0.0
  9
$SKPOLY
 70
     0
  9
$TDCREATE
 40
2444972.375
  9
$TDUPDATE
 40
2458787.2547924421
  9
$TDINDWG
 40
0.0000345602
  9
$TDUSRTIMER
 40
0.0000345602
  9
$USRTIMER
 70
     1
  9
$ANGBASE
 50
0.0
  9
$ANGDIR
 70
     0
  9
$PDMODE
 70
     0
  9
$PDSIZE
 40
0.0
  9
$PLINEWID
 40
0.0
  9
$COORDS
 70
     1
  9
$SPLFRAME
 70
     0
  9
$SPLINETYPE
 70
     6
  9
$SPLINESEGS
 70
     8
  9
$ATTDIA
 70
     1
  9
$ATTREQ
 70
     1
  9
$HANDLING
 70
     1
  9
$HANDSEED
  5
426
  9
$SURFTAB1
 70
     6
  9
$SURFTAB2
 70
     6
  9
$SURFTYPE
 70
     6
  9
$SURFU
 70
     6
  9
$SURFV
 70
     6
  9
$UCSNAME
  2

  9
$UCSORG
 10
0.0
 20
0.0
 30
0.0
  9
$UCSXDIR
 10
1.0
 20
0.0
 30
0.0
  9
$UCSYDIR
 10
0.0
 20
1.0
 30
0.0
  9
$PUCSNAME
  2

  9
$PUCSORG
 10
0.0
 20
0.0
 30
0.0
  9
$PUCSXDIR
 10
1.0
 20
0.0
 30
0.0
  9
$PUCSYDIR
 10
0.0
 20
1.0
 30
0.0
  9
$USERI1
 70
     0
  9
$USERI2
 70
     0
  9
$USERI3
 70
     0
  9
$USERI4
 70
     0
  9
$USERI5
 70
     0
  9
$USERR1
 40
0.0
  9
$USERR2
 40
0.0
  9
$USERR3
 40
0.0
  9
$USERR4
 40
0.0
  9
$USERR5
 40
0.0
  9
$WORLDVIEW
 70
     1
  9
$SHADEDGE
 70
     3
  9
$SHADEDIF
 70
    70
  9
$TILEMODE
 70
     1
  9
$MAXACTVP
 70
    48
  9
$PLIMCHECK
 70
     0
  9
$PEXTMIN
 10
1.0000000000000000E+020
 20
1.0000000000000000E+020
 30
1.0000000000000000E+020
  9
$PEXTMAX
 10
-1.0000000000000000E+020
 20
-1.0000000000000000E+020
 30
-1.0000000000000000E+020
  9
$PLIMMIN
 10
0.0
 20
0.0
  9
$PLIMMAX
 10
12.0
 20
9.0
  9
$UNITMODE
 70
     0
  9
$VISRETAIN
 70
     1
  9
$PLINEGEN
 70
     0
  9
$PSLTSCALE
 70
     1
  0
ENDSEC
  0
SECTION
  2
TABLES
  0
TABLE
  2
VPORT
 70
     1
  0
VPORT
  2
*ACTIVE
 70
     0
 10
0.0
 20
0.0
 11
1.0
 21
1.0
 12
195.84271114783351
 22
148.589
 13
0.0
 23
0.0
 14
1.0
 24
1.0
 15
0.0
 25
0.0
 16
0.0
 26
0.0
 36
1.0
 17
0.0
 27
0.0
 37
0.0
 40
281.11539623648741
 41
2.298642533936651
 42
50.0
 43
0.0
 44
0.0
 50
0.0
 51
0.0
 71
     0
 72
   100
 73
     1
 74
     1
 75
     0
 76
     0
 77
     0
 78
     0
  0
ENDTAB
  0
TABLE
  2
LTYPE
 70
     3
  0
LTYPE
  2
CONTINUOUS
 70
     0
  3
Solid line
 72
    65
 73
     0
 40
0.0
  0
LTYPE
  2
AIGENLINE001
 70
     0
  3
generate AI->DXF Converter
 72
    65
 73
     6
 40
7.4083750000000004
 49
3.5278
 49
-0.776115
 49
0.776115
 49
-0.776115
 49
0.776115
 49
-0.776115
  0
LTYPE
  2
AIGENLINE002
 70
     0
  3
generate AI->DXF Converter
 72
    65
 73
     4
 40
5.8561449999999988
 49
3.5278
 49
-0.776115
 49
0.776115
 49
-0.776115
  0
ENDTAB
  0
TABLE
  2
LAYER
 70
     4
  0
LAYER
  2
0
 70
     0
 62
     7
  6
CONTINUOUS
  0
LAYER
  2
____
 70
     0
 62
     7
  6
CONTINUOUS
  0
LAYER
  2
_________1
 70
     0
 62
     7
  6
CONTINUOUS
  0
LAYER
  2
_________2
 70
     0
 62
     7
  6
CONTINUOUS
  0
ENDTAB
  0
TABLE
  2
STYLE
 70
     1
  0
STYLE
  2
STANDARD
 70
     0
 40
0.0
 41
0.0
 50
0.0
 71
     0
 42
0.0
  3
TXT
  4
EXTFONT.SHX
  0
ENDTAB
  0
TABLE
  2
VIEW
 70
     0
  0
ENDTAB
  0
TABLE
  2
UCS
 70
     0
  0
ENDTAB
  0
TABLE
  2
APPID
 70
     3
  0
APPID
  2
ACAD
 70
     0
  0
APPID
  2
ACAD_NAV_VCDISPLAY
 70
     0
  0
APPID
  2
ACAD_MLEADERVER
 70
     0
  0
ENDTAB
  0
TABLE
  2
DIMSTYLE
 70
     1
  0
DIMSTYLE
  2
STANDARD
 70
     0
  3

  4

  5

  6

  7

 40
1.0
 41
0.18
 42
0.0625
 43
0.38
 44
0.18
 45
0.0
 46
0.0
 47
0.0
 48
0.0
140
0.18
141
0.09
142
0.0
143
25.399999999999999
144
1.0
145
0.0
146
1.0
147
0.09
 71
     0
 72
     0
 73
     1
 74
     1
 75
     0
 76
     0
 77
     0
 78
     0
170
     0
171
     2
172
     0
173
     0
174
     0
175
     0
176
     0
177
     0
178
     0
  0
ENDTAB
  0
ENDSEC
  0
SECTION
  2
BLOCKS
  0
BLOCK
  8
0
  2
$MODEL_SPACE
 70
     0
 10
0.0
 20
0.0
 30
0.0
  3
$MODEL_SPACE
  1

  0
ENDBLK
  5
1A
  8
0
  0
BLOCK
 67
     1
  8
0
  2
$PAPER_SPACE
 70
     0
 10
0.0
 20
0.0
 30
0.0
  3
$PAPER_SPACE
  1

  0
ENDBLK
  5
17
 67
     1
  8
0
  0
BLOCK
  8
_________1
  2
AIGNBL0202000B
 70
     0
 10
0.0
 20
0.0
 30
0.0
  3
AIGNBL0202000B
  1

  0
LINE
  5
27
  8
_________1
 62
     7
 10
58.59899999999999
 20
43.506
 30
0.0
 11
56.387999999999998
 21
42.914099999999991
 31
0.0
  0
LINE
  5
28
  8
_________1
 62
     7
 10
56.387999999999998
 20
42.914099999999991
 30
0.0
 11
58.59899999999999
 21
42.321499999999993
 31
0.0
  0
LINE
  5
29
  8
_________1
 62
     7
 10
58.59899999999999
 20
42.321499999999993
 30
0.0
 11
58.59899999999999
 21
43.506
 31
0.0
  0
LINE
  5
2A
  8
_________1
 62
     7
 10
50.052399999999999
 20
42.321499999999993
 30
0.0
 11
52.262799999999999
 21
42.914099999999991
 31
0.0
  0
LINE
  5
2B
  8
_________1
 62
     7
 10
52.262799999999999
 20
42.914099999999991
 30
0.0
 11
50.052399999999999
 21
43.506
 31
0.0
  0
LINE
  5
2C
  8
_________1
 62
     7
 10
50.052399999999999
 20
43.506
 30
0.0
 11
50.052399999999999
 21
42.321499999999993
 31
0.0
  0
LINE
  5
2D
  8
_________1
 62
     7
 10
41.4878
 20
42.914099999999991
 30
0.0
 11
60.10390000000001
 21
42.914099999999991
 31
0.0
  0
ENDBLK
  5
2E
  8
_________1
  0
BLOCK
  8
____
  2
AIGNBL01010002
 70
     0
 10
0.0
 20
0.0
 30
0.0
  3
AIGNBL01010002
  1

  0
LINE
  5
31
  8
____
 62
     7
 10
-28.6374
 20
233.803
 30
0.0
 11
-30.857700000000001
 21
234.357
 31
0.0
  0
LINE
  5
32
  8
____
 62
     7
 10
-30.857700000000001
 20
234.357
 30
0.0
 11
-28.658000000000001
 21
234.98699999999999
 31
0.0
  0
LINE
  5
33
  8
____
 62
     7
 10
-28.658000000000001
 20
234.98699999999999
 30
0.0
 11
-28.6374
 21
233.803
 31
0.0
  0
LINE
  5
34
  8
____
 62
     7
 10
-15.9724
 20
241.952
 30
0.0
 11
-14.158200000000001
 21
243.34700000000001
 31
0.0
  0
LINE
  5
35
  8
____
 62
     7
 10
-14.158200000000001
 20
243.34700000000001
 30
0.0
 11
-15.032299999999999
 21
241.23099999999999
 31
0.0
  0
LINE
  5
36
  8
____
 62
     7
 10
-15.032299999999999
 20
241.23099999999999
 30
0.0
 11
-15.9724
 21
241.952
 31
0.0
  0
ARC
  5
37
  8
____
 62
     7
 10
-31.05248400000001
 20
254.72383199999999
 30
0.0
 40
20.368077
 50
270.54782899999998
 51
326.04206599999998
  0
ENDBLK
  5
38
  8
____
  0
BLOCK
  8
____
  2
AIGNBL01010003
 70
     0
 10
0.0
 20
0.0
 30
0.0
  3
AIGNBL01010003
  1

  0
LINE
  5
3B
  8
____
 62
     7
 10
-33.078099999999999
 20
233.803
 30
0.0
 11
-30.857700000000001
 21
234.357
 31
0.0
  0
LINE
  5
3C
  8
____
 62
     7
 10
-30.857700000000001
 20
234.357
 30
0.0
 11
-33.057499999999997
 21
234.98699999999999
 31
0.0
  0
LINE
  5
3D
  8
____
 62
     7
 10
-33.057499999999997
 20
234.98699999999999
 30
0.0
 11
-33.078099999999999
 21
233.803
 31
0.0
  0
LINE
  5
3E
  8
____
 62
     7
 10
-45.743099999999991
 20
241.952
 30
0.0
 11
-47.557299999999991
 21
243.34700000000001
 31
0.0
  0
LINE
  5
3F
  8
____
 62
     7
 10
-47.557299999999991
 20
243.34700000000001
 30
0.0
 11
-46.683199999999999
 21
241.23099999999999
 31
0.0
  0
LINE
  5
40
  8
____
 62
     7
 10
-46.683199999999999
 20
241.23099999999999
 30
0.0
 11
-45.743099999999991
 21
241.952
 31
0.0
  0
ARC
  5
41
  8
____
 62
     7
 10
-30.663007
 20
254.72382200000001
 30
0.0
 40
20.368067
 50
213.95794000000001
 51
269.45220599999999
  0
ENDBLK
  5
42
  8
____
  0
BLOCK
  8
_________1
  2
AIGNBL02010002
 70
     0
 10
0.0
 20
0.0
 30
0.0
  3
AIGNBL02010002
  1

  0
LINE
  5
45
  8
_________1
 62
     7
 10
65.334199999999996
 20
121.79000000000001
 30
0.0
 11
63.122500000000002
 21
121.19799999999999
 31
0.0
  0
LINE
  5
46
  8
_________1
 62
     7
 10
63.122500000000002
 20
121.19799999999999
 30
0.0
 11
65.334199999999996
 21
120.605
 31
0.0
  0
LINE
  5
47
  8
_________1
 62
     7
 10
65.334199999999996
 20
120.605
 30
0.0
 11
65.334199999999996
 21
121.79000000000001
 31
0.0
  0
LINE
  5
48
  8
_________1
 62
     7
 10
75.910700000000006
 20
120.619
 30
0.0
 11
78.122500000000002
 21
121.212
 31
0.0
  0
LINE
  5
49
  8
_________1
 62
     7
 10
78.122500000000002
 20
121.212
 30
0.0
 11
75.910700000000006
 21
121.80500000000001
 31
0.0
  0
LINE
  5
4A
  8
_________1
 62
     7
 10
75.910700000000006
 20
121.80500000000001
 30
0.0
 11
75.910700000000006
 21
120.619
 31
0.0
  0
LINE
  5
4B
  8
_________1
 62
     7
 10
63.122500000000002
 20
121.19799999999999
 30
0.0
 11
78.122500000000002
 21
121.19799999999999
 31
0.0
  0
ENDBLK
  5
4C
  8
_________1
  0
BLOCK
  8
_________1
  2
AIGNBL02010003
 70
     0
 10
0.0
 20
0.0
 30
0.0
  3
AIGNBL02010003
  1

  0
LINE
  5
4F
  8
_________1
 62
     7
 10
68.410700000000006
 20
156.62100000000001
 30
0.0
 11
70.622500000000002
 21
157.214
 31
0.0
  0
LINE
  5
50
  8
_________1
 62
     7
 10
70.622500000000002
 20
157.214
 30
0.0
 11
68.410700000000006
 21
157.80699999999999
 31
0.0
  0
LINE
  5
51
  8
_________1
 62
     7
 10
68.410700000000006
 20
157.80699999999999
 30
0.0
 11
68.410700000000006
 21
156.62100000000001
 31
0.0
  0
LINE
  5
52
  8
_________1
 62
     7
 10
28.8339
 20
157.792
 30
0.0
 11
26.622800000000002
 21
157.1989999999999
 31
0.0
  0
LINE
  5
53
  8
_________1
 62
     7
 10
26.622800000000002
 20
157.1989999999999
 30
0.0
 11
28.8339
 21
156.607
 31
0.0
  0
LINE
  5
54
  8
_________1
 62
     7
 10
28.8339
 20
156.607
 30
0.0
 11
28.8339
 21
157.792
 31
0.0
  0
LINE
  5
55
  8
_________1
 62
     7
 10
70.622500000000002
 20
157.214
 30
0.0
 11
26.622800000000002
 21
157.214
 31
0.0
  0
ENDBLK
  5
56
  8
_________1
  0
BLOCK
  8
_________1
  2
AIGNBL02010004
 70
     0
 10
0.0
 20
0.0
 30
0.0
  3
AIGNBL02010004
  1

  0
LINE
  5
59
  8
_________1
 62
     7
 10
72.9114
 20
110.807
 30
0.0
 11
75.122500000000002
 21
111.40000000000001
 31
0.0
  0
LINE
  5
5A
  8
_________1
 62
     7
 10
75.122500000000002
 20
111.40000000000001
 30
0.0
 11
72.9114
 21
111.992
 31
0.0
  0
LINE
  5
5B
  8
_________1
 62
     7
 10
72.9114
 20
111.992
 30
0.0
 11
72.9114
 21
110.807
 31
0.0
  0
LINE
  5
5C
  8
_________1
 62
     7
 10
68.334199999999996
 20
111.97799999999999
 30
0.0
 11
66.122500000000002
 21
111.38500000000001
 31
0.0
  0
LINE
  5
5D
  8
_________1
 62
     7
 10
66.122500000000002
 20
111.38500000000001
 30
0.0
 11
68.334199999999996
 21
110.79300000000001
 31
0.0
  0
LINE
  5
5E
  8
_________1
 62
     7
 10
68.334199999999996
 20
110.79300000000001
 30
0.0
 11
68.334199999999996
 21
111.97799999999999
 31
0.0
  0
LINE
  5
5F
  8
_________1
 62
     7
 10
75.122500000000002
 20
111.38500000000001
 30
0.0
 11
66.122500000000002
 21
111.38500000000001
 31
0.0
  0
ENDBLK
  5
60
  8
_________1
  0
BLOCK
  8
_________1
  2
AIGNBL02010005
 70
     0
 10
0.0
 20
0.0
 30
0.0
  3
AIGNBL02010005
  1

  0
LINE
  5
63
  8
_________1
 62
     7
 10
57.543399999999998
 20
105.61199999999999
 30
0.0
 11
56.950899999999997
 21
107.824
 31
0.0
  0
LINE
  5
64
  8
_________1
 62
     7
 10
56.950899999999997
 20
107.824
 30
0.0
 11
56.3583
 21
105.61199999999999
 31
0.0
  0
LINE
  5
65
  8
_________1
 62
     7
 10
56.3583
 20
105.61199999999999
 30
0.0
 11
57.543399999999998
 21
105.61199999999999
 31
0.0
  0
LINE
  5
66
  8
_________1
 62
     7
 10
56.372799999999998
 20
100.79300000000001
 30
0.0
 11
56.965400000000002
 21
98.581700000000012
 31
0.0
  0
LINE
  5
67
  8
_________1
 62
     7
 10
56.965400000000002
 20
98.581700000000012
 30
0.0
 11
57.557899999999997
 21
100.79300000000001
 31
0.0
  0
LINE
  5
68
  8
_________1
 62
     7
 10
57.557899999999997
 20
100.79300000000001
 30
0.0
 11
56.372799999999998
 21
100.79300000000001
 31
0.0
  0
LINE
  5
69
  8
_________1
 62
     7
 10
56.950899999999997
 20
107.824
 30
0.0
 11
56.950899999999997
 21
98.581700000000012
 31
0.0
  0
ENDBLK
  5
6A
  8
_________1
  0
BLOCK
  8
_________1
  2
AIGNBL02010006
 70
     0
 10
0.0
 20
0.0
 30
0.0
  3
AIGNBL02010006
  1

  0
LINE
  5
6D
  8
_________1
 62
     7
 10
94.024799999999999
 20
188.5679999999999
 30
0.0
 11
93.432299999999998
 21
190.78
 31
0.0
  0
LINE
  5
6E
  8
_________1
 62
     7
 10
93.432299999999998
 20
190.78
 30
0.0
 11
92.839699999999993
 21
188.5679999999999
 31
0.0
  0
LINE
  5
6F
  8
_________1
 62
     7
 10
92.839699999999993
 20
188.5679999999999
 30
0.0
 11
94.024799999999999
 21
188.5679999999999
 31
0.0
  0
LINE
  5
70
  8
_________1
 62
     7
 10
92.854200000000006
 20
110.035
 30
0.0
 11
93.446700000000007
 21
107.824
 31
0.0
  0
LINE
  5
71
  8
_________1
 62
     7
 10
93.446700000000007
 20
107.824
 30
0.0
 11
94.039299999999997
 21
110.035
 31
0.0
  0
LINE
  5
72
  8
_________1
 62
     7
 10
94.039299999999997
 20
110.035
 30
0.0
 11
92.854200000000006
 21
110.035
 31
0.0
  0
LINE
  5
73
  8
_________1
 62
     7
 10
93.432299999999998
 20
190.78
 30
0.0
 11
93.432299999999998
 21
107.824
 31
0.0
  0
ENDBLK
  5
74
  8
_________1
  0
BLOCK
  8
_________1
  2
AIGNBL02010007
 70
     0
 10
0.0
 20
0.0
 30
0.0
  3
AIGNBL02010007
  1

  0
LINE
  5
77
  8
_________1
 62
     7
 10
85.877799999999993
 20
182.113
 30
0.0
 11
85.285300000000007
 21
184.32400000000001
 31
0.0
  0
LINE
  5
78
  8
_________1
 62
     7
 10
85.285300000000007
 20
184.32400000000001
 30
0.0
 11
84.692699999999988
 21
182.113
 31
0.0
  0
LINE
  5
79
  8
_________1
 62
     7
 10
84.692699999999988
 20
182.113
 30
0.0
 11
85.877799999999993
 21
182.113
 31
0.0
  0
LINE
  5
7A
  8
_________1
 62
     7
 10
84.7072
 20
110.035
 30
0.0
 11
85.299700000000001
 21
107.824
 31
0.0
  0
LINE
  5
7B
  8
_________1
 62
     7
 10
85.299700000000001
 20
107.824
 30
0.0
 11
85.892300000000006
 21
110.035
 31
0.0
  0
LINE
  5
7C
  8
_________1
 62
     7
 10
85.892300000000006
 20
110.035
 30
0.0
 11
84.7072
 21
110.035
 31
0.0
  0
LINE
  5
7D
  8
_________1
 62
     7
 10
85.285300000000007
 20
184.32400000000001
 30
0.0
 11
85.285300000000007
 21
107.824
 31
0.0
  0
ENDBLK
  5
7E
  8
_________1
  0
BLOCK
  8
_________1
  2
AIGNBL02010008
 70
     0
 10
0.0
 20
0.0
 30
0.0
  3
AIGNBL02010008
  1

  0
LINE
  5
81
  8
_________1
 62
     7
 10
18.828600000000002
 20
105.61199999999999
 30
0.0
 11
18.236000000000001
 21
107.824
 31
0.0
  0
LINE
  5
82
  8
_________1
 62
     7
 10
18.236000000000001
 20
107.824
 30
0.0
 11
17.6435
 21
105.61199999999999
 31
0.0
  0
LINE
  5
83
  8
_________1
 62
     7
 10
17.6435
 20
105.61199999999999
 30
0.0
 11
18.828600000000002
 21
105.61199999999999
 31
0.0
  0
LINE
  5
84
  8
_________1
 62
     7
 10
17.657900000000001
 20
51.070099999999989
 30
0.0
 11
18.250499999999999
 21
48.858999999999988
 31
0.0
  0
LINE
  5
85
  8
_________1
 62
     7
 10
18.250499999999999
 20
48.858999999999988
 30
0.0
 11
18.8431
 21
51.070099999999989
 31
0.0
  0
LINE
  5
86
  8
_________1
 62
     7
 10
18.8431
 20
51.070099999999989
 30
0.0
 11
17.657900000000001
 21
51.070099999999989
 31
0.0
  0
LINE
  5
87
  8
_________1
 62
     7
 10
18.236000000000001
 20
107.824
 30
0.0
 11
18.236000000000001
 21
48.858999999999988
 31
0.0
  0
ENDBLK
  5
88
  8
_________1
  0
BLOCK
  8
_________1
  2
AIGNBL02010009
 70
     0
 10
0.0
 20
0.0
 30
0.0
  3
AIGNBL02010009
  1

  0
LINE
  5
8B
  8
_________1
 62
     7
 10
18.828600000000002
 20
168.113
 30
0.0
 11
18.236000000000001
 21
170.32400000000001
 31
0.0
  0
LINE
  5
8C
  8
_________1
 62
     7
 10
18.236000000000001
 20
170.32400000000001
 30
0.0
 11
17.6435
 21
168.113
 31
0.0
  0
LINE
  5
8D
  8
_________1
 62
     7
 10
17.6435
 20
168.113
 30
0.0
 11
18.828600000000002
 21
168.113
 31
0.0
  0
LINE
  5
8E
  8
_________1
 62
     7
 10
17.657900000000001
 20
110.035
 30
0.0
 11
18.250499999999999
 21
107.824
 31
0.0
  0
LINE
  5
8F
  8
_________1
 62
     7
 10
18.250499999999999
 20
107.824
 30
0.0
 11
18.8431
 21
110.035
 31
0.0
  0
LINE
  5
90
  8
_________1
 62
     7
 10
18.8431
 20
110.035
 30
0.0
 11
17.657900000000001
 21
110.035
 31
0.0
  0
LINE
  5
91
  8
_________1
 62
     7
 10
18.236000000000001
 20
170.32400000000001
 30
0.0
 11
18.236000000000001
 21
107.824
 31
0.0
  0
ENDBLK
  5
92
  8
_________1
  0
BLOCK
  8
_________1
  2
AIGNBL0201000A
 70
     0
 10
0.0
 20
0.0
 30
0.0
  3
AIGNBL0201000A
  1

  0
INSERT
  5
95
  8
_________1
 62
     7
  2
AIGNBL0202000B
 10
0.0
 20
0.0
 30
0.0
  0
ENDBLK
  5
96
  8
_________1
  0
BLOCK
  8
_________1
  2
AIGNBL0201000C
 70
     0
 10
0.0
 20
0.0
 30
0.0
  3
AIGNBL0201000C
  1

  0
LINE
  5
99
  8
_________1
  6
AIGENLINE001
 62
     7
 10
-45.555999999999997
 20
250.941
 30
0.0
 11
-32.591000000000001
 21
261.82100000000003
 31
0.0
  0
ARC
  5
9A
  8
_________1
  6
AIGENLINE001
 62
     7
 10
-44.676527999999998
 20
249.99134599999999
 30
0.0
 40
1.294686
 50
132.78794199999999
 51
217.94022100000001
  0
LINE
  5
9B
  8
_________1
  6
AIGENLINE001
 62
     7
 10
-45.697600000000001
 20
249.19499999999999
 30
0.0
 11
-41.5321
 21
244.23099999999999
 31
0.0
  0
ARC
  5
9C
  8
_________1
  6
AIGENLINE001
 62
     7
 10
-40.570966999999989
 20
245.09843000000001
 30
0.0
 40
1.294972999999999
 50
222.080986
 51
307.210891
  0
LINE
  5
9D
  8
_________1
  6
AIGENLINE001
 62
     7
 10
-39.787799999999997
 20
244.06700000000001
 30
0.0
 11
-30.857399999999998
 21
251.56
 31
0.0
  0
LINE
  5
9E
  8
_________1
  6
AIGENLINE002
 62
     7
 10
-30.840499999999999
 20
257.41699999999997
 30
0.0
 11
-48.965600000000002
 21
242.16200000000001
 31
0.0
  0
ENDBLK
  5
9F
  8
_________1
  0
BLOCK
  8
_________1
  2
AIGNBL0201000D
 70
     0
 10
0.0
 20
0.0
 30
0.0
  3
AIGNBL0201000D
  1

  0
LINE
  5
A2
  8
_________1
  6
AIGENLINE001
 62
     7
 10
-16.1557
 20
250.941
 30
0.0
 11
-29.1204
 21
261.81999999999999
 31
0.0
  0
ARC
  5
A3
  8
_________1
  6
AIGENLINE001
 62
     7
 10
-17.034669999999998
 20
249.991185
 30
0.0
 40
1.294465999999999
 50
322.06123700000001
 51
47.233060000000002
  0
LINE
  5
A4
  8
_________1
  6
AIGENLINE001
 62
     7
 10
-16.0138
 20
249.19499999999999
 30
0.0
 11
-20.179600000000001
 21
244.23099999999999
 31
0.0
  0
ARC
  5
A5
  8
_________1
  6
AIGENLINE001
 62
     7
 10
-21.140689999999999
 20
245.09800799999999
 30
0.0
 40
1.2946610000000001
 50
232.77645200000001
 51
317.93171100000001
  0
LINE
  5
A6
  8
_________1
  6
AIGENLINE001
 62
     7
 10
-21.9239
 20
244.06700000000001
 30
0.0
 11
-30.8584
 21
251.56399999999999
 31
0.0
  0
LINE
  5
A7
  8
_________1
  6
AIGENLINE002
 62
     7
 10
-30.840499999999999
 20
257.41699999999997
 30
0.0
 11
-12.692
 21
242.16200000000001
 31
0.0
  0
ENDBLK
  5
A8
  8
_________1
  0
BLOCK
  8
_________1
  2
AIGNBL0201000E
 70
     0
 10
0.0
 20
0.0
 30
0.0
  3
AIGNBL0201000E
  1

  0
LINE
  5
AB
  8
_________1
 62
     7
 10
66.384299999999996
 20
252.34100000000001
 30
0.0
 11
67.528800000000004
 21
254.32300000000001
 31
0.0
  0
LINE
  5
AC
  8
_________1
 62
     7
 10
67.528800000000004
 20
254.32300000000001
 30
0.0
 11
65.5458
 21
253.179
 31
0.0
  0
LINE
  5
AD
  8
_________1
 62
     7
 10
65.5458
 20
253.179
 30
0.0
 11
66.384299999999996
 21
252.34100000000001
 31
0.0
  0
LINE
  5
AE
  8
_________1
 62
     7
 10
74.861400000000003
 20
262.49299999999999
 30
0.0
 11
73.716200000000001
 21
260.51100000000002
 31
0.0
  0
LINE
  5
AF
  8
_________1
 62
     7
 10
73.716200000000001
 20
260.51100000000002
 30
0.0
 11
75.699200000000005
 21
261.65499999999997
 31
0.0
  0
LINE
  5
B0
  8
_________1
 62
     7
 10
75.699200000000005
 20
261.65499999999997
 30
0.0
 11
74.861400000000003
 21
262.49299999999999
 31
0.0
  0
LINE
  5
B1
  8
_________1
 62
     7
 10
77.735299999999995
 20
264.52999999999997
 30
0.0
 11
63.549700000000001
 21
250.34399999999999
 31
0.0
  0
ENDBLK
  5
B2
  8
_________1
  0
BLOCK
  8
_________2
  2
AIGNBL03010002
 70
     0
 10
0.0
 20
0.0
 30
0.0
  3
AIGNBL03010002
  1

  0
LINE
  5
B5
  8
_________2
 62
     7
 10
186.649
 20
51.052199999999999
 30
0.0
 11
184.46299999999999
 21
51.052199999999999
 31
0.0
  0
LINE
  5
B6
  8
_________2
 62
     7
 10
187.142
 20
51.052199999999999
 30
0.0
 11
186.88900000000001
 21
51.052199999999999
 31
0.0
  0
LINE
  5
B7
  8
_________2
 62
     7
 10
187.63399999999999
 20
51.052199999999999
 30
0.0
 11
190.559
 21
51.052199999999999
 31
0.0
  0
LINE
  5
B8
  8
_________2
 62
     7
 10
187.142
 20
51.052199999999999
 30
0.0
 11
187.39400000000001
 21
51.052199999999999
 31
0.0
  0
LINE
  5
B9
  8
_________2
 62
     7
 10
180.745
 20
51.052199999999999
 30
0.0
 11
178.55799999999999
 21
51.052199999999999
 31
0.0
  0
LINE
  5
BA
  8
_________2
 62
     7
 10
181.23699999999999
 20
51.052199999999999
 30
0.0
 11
180.98599999999999
 21
51.052199999999999
 31
0.0
  0
LINE
  5
BB
  8
_________2
 62
     7
 10
181.23699999999999
 20
51.544800000000002
 30
0.0
 11
181.23699999999999
 21
53.7318
 31
0.0
  0
LINE
  5
BC
  8
_________2
 62
     7
 10
181.23699999999999
 20
51.052199999999999
 30
0.0
 11
181.23699999999999
 21
51.304299999999998
 31
0.0
  0
LINE
  5
BD
  8
_________2
 62
     7
 10
181.72999999999999
 20
51.052199999999999
 30
0.0
 11
183.917
 21
51.052199999999999
 31
0.0
  0
LINE
  5
BE
  8
_________2
 62
     7
 10
181.23699999999999
 20
51.052199999999999
 30
0.0
 11
181.489
 21
51.052199999999999
 31
0.0
  0
LINE
  5
BF
  8
_________2
 62
     7
 10
181.23699999999999
 20
50.560200000000002
 30
0.0
 11
181.23699999999999
 21
48.373199999999997
 31
0.0
  0
LINE
  5
C0
  8
_________2
 62
     7
 10
181.23699999999999
 20
51.052199999999999
 30
0.0
 11
181.23699999999999
 21
50.800699999999999
 31
0.0
  0
LINE
  5
C1
  8
_________2
 62
     7
 10
184.94799999999989
 20
49.832599999999999
 30
0.0
 11
190.12599999999989
 21
48.9679
 31
0.0
  0
LINE
  5
C2
  8
_________2
 62
     7
 10
184.94799999999989
 20
52.271700000000003
 30
0.0
 11
190.12599999999989
 21
53.137099999999997
 31
0.0
  0
LINE
  5
C3
  8
_________2
 62
     7
 10
190.12599999999989
 20
48.9679
 30
0.0
 11
190.12599999999989
 21
53.137099999999997
 31
0.0
  0
LINE
  5
C4
  8
_________2
 62
     7
 10
184.94799999999989
 20
49.832599999999999
 30
0.0
 11
184.94799999999989
 21
52.271700000000003
 31
0.0
  0
ARC
  5
C5
  8
_________2
 62
     7
 10
181.190651
 20
51.004810999999989
 30
0.0
 40
1.2677780000000001
 50
2.1403449999999991
 51
87.892005999999995
  0
ARC
  5
C6
  8
_________2
 62
     7
 10
181.28420199999999
 20
51.005241999999988
 30
0.0
 40
1.2673579999999991
 50
92.121564999999975
 51
177.87840600000001
  0
ARC
  5
C7
  8
_________2
 62
     7
 10
181.28381400000001
 20
51.098689
 30
0.0
 40
1.2669559999999991
 50
182.10473099999999
 51
267.89529900000002
  0
ARC
  5
C8
  8
_________2
 62
     7
 10
181.19038399999999
 20
51.099775000000001
 30
0.0
 40
1.268054
 50
272.11960599999998
 51
357.84804300000002
  0
ARC
  5
C9
  8
_________2
 62
     7
 10
181.23728399999999
 20
51.05215900000001
 30
0.0
 40
2.0849849999999992
 50
0.00001
 51
89.999980000000008
  0
ARC
  5
CA
  8
_________2
 62
     7
 10
181.317331
 20
50.972827000000002
 30
0.0
 40
2.1657969999999991
 50
92.118111999999996
 51
177.90079600000001
  0
ARC
  5
CB
  8
_________2
 62
     7
 10
181.31728799999999
 20
51.132162999999998
 30
0.0
 40
2.1657779999999991
 50
182.11700400000001
 51
267.88302499999998
  0
ARC
  5
CC
  8
_________2
 62
     7
 10
181.15730300000001
 20
51.132855999999997
 30
0.0
 40
2.166469999999999
 50
272.115725
 51
357.86534699999999
  0
ENDBLK
  5
CD
  8
_________2
  0
ENDSEC
  0
SECTION
  2
ENTITIES
  0
TEXT
  5
CE
  8
____
 62
     7
 10
-2.7376309999999999
 20
42.778399999999998
 30
0.0
 40
3.0923400000000001
  1
水側
 41
0.5
 72
     2
 11
0.560865
 21
42.778399999999998
 31
0.0
  0
TEXT
  5
CF
  8
____
 62
     7
 10
-62.184399999999997
 20
42.778399999999998
 30
0.0
 40
3.0923400000000001
  1
湯側
 41
0.5
  0
LINE
  5
D0
  8
____
 62
     7
 10
-27.670000000000002
 20
94.331100000000006
 30
0.0
 11
-27.670000000000002
 21
82.834699999999984
 31
0.0
  0
LINE
  5
D1
  8
____
 62
     7
 10
-30.295200000000001
 20
94.331100000000006
 30
0.0
 11
-30.295200000000001
 21
82.834699999999984
 31
0.0
  0
LINE
  5
D2
  8
____
 62
     7
 10
-31.420000000000002
 20
94.331100000000006
 30
0.0
 11
-31.420000000000002
 21
82.834699999999984
 31
0.0
  0
LINE
  5
D3
  8
____
 62
     7
 10
-34.045200000000001
 20
94.331100000000006
 30
0.0
 11
-34.045200000000001
 21
82.834699999999984
 31
0.0
  0
TEXT
  5
D4
  8
____
 62
     7
 10
-40.194717500000003
 20
238.52000000000001
 30
0.0
 40
3.0923400000000001
  1
50%%d
 41
0.5
 72
     1
 11
-38.5197
 21
238.52000000000001
 31
0.0
  0
TEXT
  5
D5
  8
____
 62
     7
 10
-21.116017500000002
 20
238.52000000000001
 30
0.0
 40
3.0923400000000001
  1
50%%d
 41
0.5
 72
     1
 11
-19.440999999999999
 21
238.52000000000001
 31
0.0
  0
INSERT
  5
D6
  8
____
 62
     7
  2
AIGNBL01010002
 10
0.0
 20
0.0
 30
0.0
  0
INSERT
  5
D7
  8
____
 62
     7
  2
AIGNBL01010003
 10
0.0
 20
0.0
 30
0.0
  0
TEXT
  5
D8
  8
____
 62
     7
 10
46.818835
 20
157.95699999999999
 30
0.0
 40
3.0923400000000001
  1
176
 41
0.5
 72
     1
 11
48.622700000000002
 21
157.95699999999999
 31
0.0
  0
TEXT
  5
D9
  8
____
 62
     7
 10
79.282780000000002
 20
265.38999999999999
 30
0.0
 40
3.0923400000000001
  1
%%c35
 41
0.5
 72
     2
 11
83.405900000000003
 21
265.38999999999999
 31
0.0
  0
TEXT
  5
DA
  8
____
 62
     7
 10
41.4878
 20
43.461899999999993
 30
0.0
 40
3.0923400000000001
  1
PF 3/8
 41
0.5
  0
TEXT
  5
DB
  8
____
 62
     7
 10
68.061387500000009
 20
122.23399999999999
 30
0.0
 40
3.0923400000000001
  1
%%c60
 41
0.5
 72
     1
 11
69.994100000000003
 21
122.23399999999999
 31
0.0
  0
TEXT
  5
DC
  8
____
 62
     7
 10
67.932540000000003
 20
112.785
 30
0.0
 40
3.0923400000000001
  1
%%c36
 41
0.5
 72
     1
 11
69.994100000000003
 21
112.785
 31
0.0
  0
TEXT
  5
DD
  8
____
 62
     7
 10
55.948399999999999
 20
99.319575000000015
 30
0.0
 40
3.0923400000000001
  1
max.35
 50
90.0
 41
0.5
 72
     1
 11
55.948399999999999
 21
103.185
 31
0.0
  0
TEXT
  5
DE
  8
____
 62
     7
 10
92.689499999999995
 20
147.86544000000001
 30
0.0
 40
3.0923400000000001
  1
332
 50
90.0
 41
0.5
 72
     1
 11
92.689499999999995
 21
149.92699999999999
 31
0.0
  0
TEXT
  5
DF
  8
____
 62
     7
 10
84.542500000000004
 20
144.76628749999989
 30
0.0
 40
3.0923400000000001
  1
306
 50
90.0
 41
0.5
 72
     1
 11
84.542500000000004
 21
146.69900000000001
 31
0.0
  0
TEXT
  5
E0
  8
____
 62
     7
 10
17.493300000000001
 20
76.408887500000006
 30
0.0
 40
3.0923400000000001
  1
370
 50
90.0
 41
0.5
 72
     1
 11
17.493300000000001
 21
78.3416
 31
0.0
  0
TEXT
  5
E1
  8
____
 62
     7
 10
17.493300000000001
 20
137.51528749999991
 30
0.0
 40
3.0923400000000001
  1
250
 50
90.0
 41
0.5
 72
     1
 11
17.493300000000001
 21
139.44799999999989
 31
0.0
  0
TEXT
  5
E2
  8
____
 62
     7
 10
-50.378945999999999
 20
243.91200000000001
 30
0.0
 40
3.0923400000000001
  1
湯
 41
0.5
 72
     1
 11
-49.657400000000003
 21
243.91200000000001
 31
0.0
  0
TEXT
  5
E3
  8
____
 62
     7
 10
-12.408946
 20
243.91200000000001
 30
0.0
 40
3.0923400000000001
  1
水
 41
0.5
 72
     1
 11
-11.6874
 21
243.91200000000001
 31
0.0
  0
TEXT
  5
E4
  8
____
 62
     7
 10
66.190145999999984
 20
243.071
 30
0.0
 40
3.0923400000000001
  1
水栓取付穴
 41
0.5
 72
     1
 11
70.622500000000002
 21
243.071
 31
0.0
  0
LINE
  5
E5
  8
_________1
 62
     7
 10
-6.320409999999999
 20
42.078299999999999
 30
0.0
 11
0.560865
 21
42.078299999999999
 31
0.0
  0
LINE
  5
E6
  8
_________1
 62
     7
 10
-12.1868
 20
47.273600000000002
 30
0.0
 11
-13.101800000000001
 21
48.858999999999988
 31
0.0
  0
LINE
  5
E7
  8
_________1
 62
     7
 10
-13.101800000000001
 20
48.858999999999988
 30
0.0
 11
-11.516299999999999
 21
47.943999999999988
 31
0.0
  0
LINE
  5
E8
  8
_________1
 62
     7
 10
-11.516299999999999
 20
47.943999999999988
 30
0.0
 11
-12.1868
 21
47.273600000000002
 31
0.0
  0
LINE
  5
E9
  8
_________1
 62
     7
 10
-6.320409999999999
 20
42.078299999999999
 30
0.0
 11
-13.101800000000001
 21
48.858999999999988
 31
0.0
  0
LINE
  5
EA
  8
_________1
 62
     7
 10
-55.303100000000001
 20
42.078299999999999
 30
0.0
 11
-62.184399999999997
 21
42.078299999999999
 31
0.0
  0
LINE
  5
EB
  8
_________1
 62
     7
 10
-49.436700000000002
 20
47.273600000000002
 30
0.0
 11
-48.521700000000003
 21
48.858999999999988
 31
0.0
  0
LINE
  5
EC
  8
_________1
 62
     7
 10
-48.521700000000003
 20
48.858999999999988
 30
0.0
 11
-50.107199999999999
 21
47.943999999999988
 31
0.0
  0
LINE
  5
ED
  8
_________1
 62
     7
 10
-50.107199999999999
 20
47.943999999999988
 30
0.0
 11
-49.436700000000002
 21
47.273600000000002
 31
0.0
  0
LINE
  5
EE
  8
_________1
 62
     7
 10
-55.303100000000001
 20
42.078299999999999
 30
0.0
 11
-48.521700000000003
 21
48.858999999999988
 31
0.0
  0
ARC
  5
EF
  8
_________1
 62
     7
 10
-30.723521000000002
 20
257.48403999999999
 30
0.0
 40
7.6341919999999988
 50
180.50246000000001
 51
232.864857
  0
ARC
  5
F0
  8
_________1
 62
     7
 10
-30.857396999999999
 20
257.41709400000002
 30
0.0
 40
7.5000220000000004
 50
90.0
 51
179.99996999999999
  0
ARC
  5
F1
  8
_________1
 62
     7
 10
-30.857399999999998
 20
257.41709400000002
 30
0.0
 40
7.5000220000000004
 50
0.00001
 51
89.999980000000008
  0
ARC
  5
F2
  8
_________1
 62
     7
 10
-30.979659999999999
 20
257.477845
 30
0.0
 40
7.6225240000000003
 50
307.321281
 51
359.54335900000001
  0
LINE
  5
F3
  8
_________1
 62
     7
 10
78.122500000000002
 20
121.898
 30
0.0
 11
78.122500000000002
 21
109.27200000000001
 31
0.0
  0
INSERT
  5
F4
  8
_________1
 62
     7
  2
AIGNBL02010002
 10
0.0
 20
0.0
 30
0.0
  0
LINE
  5
F5
  8
_________1
 62
     7
 10
63.122500000000002
 20
121.898
 30
0.0
 11
63.122500000000002
 21
109.27200000000001
 31
0.0
  0
INSERT
  5
F6
  8
_________1
 62
     7
  2
AIGNBL02010003
 10
0.0
 20
0.0
 30
0.0
  0
LINE
  5
F7
  8
_________1
 62
     7
 10
26.622800000000002
 20
168.47200000000001
 30
0.0
 11
26.622800000000002
 21
156.499
 31
0.0
  0
INSERT
  5
F8
  8
_________1
 62
     7
  2
AIGNBL02010004
 10
0.0
 20
0.0
 30
0.0
  0
INSERT
  5
F9
  8
_________1
 62
     7
  2
AIGNBL02010005
 10
0.0
 20
0.0
 30
0.0
  0
LINE
  5
FA
  8
_________1
 62
     7
 10
63.6723
 20
98.581700000000012
 30
0.0
 11
56.250799999999998
 21
98.581700000000012
 31
0.0
  0
LINE
  5
FB
  8
_________1
 62
     7
 10
21.898199999999999
 20
170.32400000000001
 30
0.0
 11
17.536000000000001
 21
170.32400000000001
 31
0.0
  0
INSERT
  5
FC
  8
_________1
 62
     7
  2
AIGNBL02010006
 10
0.0
 20
0.0
 30
0.0
  0
INSERT
  5
FD
  8
_________1
 62
     7
  2
AIGNBL02010007
 10
0.0
 20
0.0
 30
0.0
  0
LINE
  5
FE
  8
_________1
 62
     7
 10
94.132300000000001
 20
190.78
 30
0.0
 11
60.557200000000002
 21
190.78
 31
0.0
  0
LINE
  5
FF
  8
_________1
 62
     7
 10
85.985299999999995
 20
184.32400000000001
 30
0.0
 11
56.268799999999992
 21
184.32400000000001
 31
0.0
  0
LINE
  5
100
  8
_________1
 62
     7
 10
94.146799999999999
 20
107.824
 30
0.0
 11
78.822599999999994
 21
107.824
 31
0.0
  0
INSERT
  5
101
  8
_________1
 62
     7
  2
AIGNBL02010008
 10
0.0
 20
0.0
 30
0.0
  0
INSERT
  5
102
  8
_________1
 62
     7
  2
AIGNBL02010009
 10
0.0
 20
0.0
 30
0.0
  0
LINE
  5
103
  8
_________1
 62
     7
 10
51.182400000000001
 20
48.858999999999988
 30
0.0
 11
17.5505
 21
48.858999999999988
 31
0.0
  0
LINE
  5
104
  8
_________1
 62
     7
 10
62.24669999999999
 20
107.824
 30
0.0
 11
17.5505
 21
107.824
 31
0.0
  0
INSERT
  5
105
  8
_________1
 62
     7
  2
AIGNBL0201000A
 10
0.0
 20
0.0
 30
0.0
  0
ARC
  5
106
  8
_________1
  6
AIGENLINE001
 62
     7
 10
69.636296999999999
 20
175.2680189999999
 30
0.0
 40
3.4566879999999989
 50
141.82261700000001
 51
148.176163
  0
ARC
  5
107
  8
_________1
  6
AIGENLINE001
 62
     7
 10
71.252471
 20
174.23651599999999
 30
0.0
 40
5.3738839999999994
 50
147.91795300000001
 51
167.435158
  0
ARC
  5
108
  8
_________1
  6
AIGENLINE001
 62
     7
 10
69.498923000000005
 20
174.65581499999999
 30
0.0
 40
3.5712239999999991
 50
167.880897
 51
175.26458700000001
  0
ARC
  5
109
  8
_________1
  6
AIGENLINE001
 62
     7
 10
70.746162999999996
 20
176.06359
 30
0.0
 40
0.521845
 50
243.62244100000001
 51
264.81177200000002
  0
LINE
  5
10A
  8
_________1
  6
AIGENLINE001
 62
     7
 10
74.110299999999995
 20
175.25299999999999
 30
0.0
 11
70.698999999999998
 21
175.54400000000001
 31
0.0
  0
LINE
  5
10B
  8
_________1
  6
AIGENLINE001
 62
     7
 10
70.514300000000006
 20
175.59599999999989
 30
0.0
 11
66.782600000000002
 21
177.47300000000001
 31
0.0
  0
LINE
  5
10C
  8
_________1
  6
AIGENLINE001
 62
     7
 10
66.558599999999998
 20
177.5859999999999
 30
0.0
 11
66.782600000000002
 21
177.47300000000001
 31
0.0
  0
ARC
  5
10D
  8
_________1
  6
AIGENLINE001
 62
     7
 10
59.432205000000003
 20
190.17663200000001
 30
0.0
 40
0.259563
 50
146.51993300000001
 51
232.331253
  0
LINE
  5
10E
  8
_________1
  6
AIGENLINE001
 62
     7
 10
59.215699999999998
 20
190.31999999999999
 30
0.0
 11
59.507199999999997
 21
190.72399999999999
 31
0.0
  0
ARC
  5
10F
  8
_________1
  6
AIGENLINE001
 62
     7
 10
76.778323999999984
 20
178.33610999999999
 30
0.0
 40
0.258775
 50
335.17355500000002
 51
52.839920999999983
  0
LINE
  5
110
  8
_________1
  6
AIGENLINE001
 62
     7
 10
77.013199999999983
 20
178.227
 30
0.0
 11
75.459400000000002
 21
175.13800000000001
 31
0.0
  0
ARC
  5
111
  8
_________1
  6
AIGENLINE001
 62
     7
 10
59.711994999999987
 20
190.56468799999999
 30
0.0
 40
0.259766
 50
56.017035999999997
 51
142.046907
  0
LINE
  5
112
  8
_________1
  6
AIGENLINE001
 62
     7
 10
59.273600000000002
 20
189.97099999999989
 30
0.0
 11
60.091500000000003
 21
189.38499999999999
 31
0.0
  0
LINE
  5
113
  8
_________1
  6
AIGENLINE001
 62
     7
 10
68.334900000000005
 20
183.47800000000001
 30
0.0
 11
60.091500000000003
 21
189.38499999999999
 31
0.0
  0
ARC
  5
114
  8
_________1
  6
AIGENLINE001
 62
     7
 10
67.551172999999991
 20
182.44431599999999
 30
0.0
 40
1.2973499999999989
 50
335.29143299999998
 51
52.834085999999999
  0
LINE
  5
115
  8
_________1
  6
AIGENLINE001
 62
     7
 10
66.558599999999998
 20
177.5859999999999
 30
0.0
 11
68.729699999999994
 21
181.90199999999999
 31
0.0
  0
LINE
  5
116
  8
_________1
  6
AIGENLINE001
 62
     7
 10
76.934600000000003
 20
178.542
 30
0.0
 11
76.107100000000003
 21
179.13499999999999
 31
0.0
  0
LINE
  5
117
  8
_________1
  6
AIGENLINE001
 62
     7
 10
59.857199999999999
 20
190.78
 30
0.0
 11
60.674399999999999
 21
190.19399999999999
 31
0.0
  0
LINE
  5
118
  8
_________1
  6
AIGENLINE001
 62
     7
 10
60.674399999999999
 20
190.19399999999999
 30
0.0
 11
76.107100000000003
 21
179.13499999999999
 31
0.0
  0
LINE
  5
119
  8
_________1
  6
AIGENLINE001
 62
     7
 10
75.459400000000002
 20
175.13800000000001
 30
0.0
 11
74.110299999999995
 21
175.25299999999999
 31
0.0
  0
ARC
  5
11A
  8
_________1
  6
AIGENLINE001
 62
     7
 10
69.655602999999985
 20
174.82020499999999
 30
0.0
 40
4.8073129999999988
 50
1.5998920000000001
 51
4.8245259999999996
  0
LINE
  5
11B
  8
_________1
 62
     7
 10
65.819999999999993
 20
98.076599999999999
 30
0.0
 11
65.802099999999996
 21
97.951899999999995
 31
0.0
  0
ARC
  5
11C
  8
_________1
 62
     7
 10
67.138980000000004
 20
92.770508999999976
 30
0.0
 40
6.0349949999999994
 50
59.155353000000012
 51
61.549093999999997
  0
ARC
  5
11D
  8
_________1
 62
     7
 10
69.817219999999992
 20
91.193693999999994
 30
0.0
 40
7.8490339999999987
 50
118.72753
 51
120.567984
  0
ARC
  5
11E
  8
_________1
 62
     7
 10
71.948064000000002
 20
92.337275000000005
 30
0.0
 40
6.416275999999999
 50
61.05239499999999
 51
63.444240000000001
  0
ARC
  5
11F
  8
_________1
 62
     7
 10
73.793233000000001
 20
91.575616999999994
 30
0.0
 40
7.2767660000000003
 50
116.697177
 51
118.80614799999999
  0
LINE
  5
120
  8
_________1
 62
     7
 10
75.0839
 20
97.951899999999995
 30
0.0
 11
75.101799999999997
 21
98.076599999999999
 31
0.0
  0
LINE
  5
121
  8
_________1
 62
     7
 10
75.425700000000006
 20
98.076599999999999
 30
0.0
 11
75.443600000000004
 21
97.951899999999995
 31
0.0
  0
LINE
  5
122
  8
_________1
 62
     7
 10
65.819999999999993
 20
96.581500000000005
 30
0.0
 11
65.802099999999996
 21
96.706199999999995
 31
0.0
  0
ARC
  5
123
  8
_________1
 62
     7
 10
67.125104000000007
 20
101.911953
 30
0.0
 40
6.0630410000000001
 50
298.45644299999998
 51
300.83911000000001
  0
ARC
  5
124
  8
_________1
 62
     7
 10
68.919725
 20
101.887573
 30
0.0
 40
6.0349949999999994
 50
239.155373
 51
241.549114
  0
ARC
  5
125
  8
_________1
 62
     7
 10
72.121657999999996
 20
101.99088399999999
 30
0.0
 40
6.0435549999999996
 50
296.48199299999999
 51
299.02137199999999
  0
ARC
  5
126
  8
_________1
 62
     7
 10
73.392476000000002
 20
102.320808
 30
0.0
 40
6.416275999999999
 50
241.052415
 51
243.44426000000001
  0
LINE
  5
127
  8
_________1
 62
     7
 10
75.0839
 20
96.706199999999995
 30
0.0
 11
75.101799999999997
 21
96.581500000000005
 31
0.0
  0
LINE
  5
128
  8
_________1
 62
     7
 10
75.425700000000006
 20
96.581500000000005
 30
0.0
 11
75.443600000000004
 21
96.706199999999995
 31
0.0
  0
LINE
  5
129
  8
_________1
 62
     7
 10
65.802099999999996
 20
97.951899999999995
 30
0.0
 11
65.802099999999996
 21
96.706199999999995
 31
0.0
  0
LINE
  5
12A
  8
_________1
 62
     7
 10
65.825500000000005
 20
96.706199999999995
 30
0.0
 11
65.825500000000005
 21
97.951899999999995
 31
0.0
  0
LINE
  5
12B
  8
_________1
 62
     7
 10
70.233199999999997
 20
97.951899999999995
 30
0.0
 11
70.233199999999997
 21
96.706199999999995
 31
0.0
  0
LINE
  5
12C
  8
_________1
 62
     7
 10
70.286900000000003
 20
96.706199999999995
 30
0.0
 11
70.286900000000003
 21
97.951899999999995
 31
0.0
  0
LINE
  5
12D
  8
_________1
 62
     7
 10
75.053600000000003
 20
97.951899999999995
 30
0.0
 11
75.053600000000003
 21
96.706199999999995
 31
0.0
  0
LINE
  5
12E
  8
_________1
 62
     7
 10
75.0839
 20
96.706199999999995
 30
0.0
 11
75.0839
 21
97.951899999999995
 31
0.0
  0
LINE
  5
12F
  8
_________1
 62
     7
 10
75.443600000000004
 20
97.951899999999995
 30
0.0
 11
75.443600000000004
 21
96.706199999999995
 31
0.0
  0
LINE
  5
130
  8
_________1
 62
     7
 10
65.825500000000005
 20
97.951899999999995
 30
0.0
 11
65.802099999999996
 21
97.951899999999995
 31
0.0
  0
LINE
  5
131
  8
_________1
 62
     7
 10
70.286900000000003
 20
97.951899999999995
 30
0.0
 11
70.233199999999997
 21
97.951899999999995
 31
0.0
  0
LINE
  5
132
  8
_________1
 62
     7
 10
75.0839
 20
97.951899999999995
 30
0.0
 11
75.053600000000003
 21
97.951899999999995
 31
0.0
  0
LINE
  5
133
  8
_________1
 62
     7
 10
65.825500000000005
 20
96.706199999999995
 30
0.0
 11
65.802099999999996
 21
96.706199999999995
 31
0.0
  0
LINE
  5
134
  8
_________1
 62
     7
 10
70.286900000000003
 20
96.706199999999995
 30
0.0
 11
70.233199999999997
 21
96.706199999999995
 31
0.0
  0
LINE
  5
135
  8
_________1
 62
     7
 10
75.0839
 20
96.706199999999995
 30
0.0
 11
75.053600000000003
 21
96.706199999999995
 31
0.0
  0
LINE
  5
136
  8
_________1
 62
     7
 10
66.044600000000003
 20
96.581500000000005
 30
0.0
 11
65.819999999999993
 21
96.581500000000005
 31
0.0
  0
LINE
  5
137
  8
_________1
 62
     7
 10
70.014099999999985
 20
96.581500000000005
 30
0.0
 11
66.044600000000003
 21
96.581500000000005
 31
0.0
  0
LINE
  5
138
  8
_________1
 62
     7
 10
70.524000000000001
 20
96.581500000000005
 30
0.0
 11
70.014099999999985
 21
96.581500000000005
 31
0.0
  0
LINE
  5
139
  8
_________1
 62
     7
 10
74.816599999999994
 20
96.581500000000005
 30
0.0
 11
70.524000000000001
 21
96.581500000000005
 31
0.0
  0
LINE
  5
13A
  8
_________1
 62
     7
 10
75.101799999999997
 20
96.581500000000005
 30
0.0
 11
74.816599999999994
 21
96.581500000000005
 31
0.0
  0
LINE
  5
13B
  8
_________1
 62
     7
 10
75.425700000000006
 20
96.581500000000005
 30
0.0
 11
75.101799999999997
 21
96.581500000000005
 31
0.0
  0
LINE
  5
13C
  8
_________1
 62
     7
 10
64.336500000000001
 20
99.073599999999999
 30
0.0
 11
64.336500000000001
 21
98.450800000000015
 31
0.0
  0
LINE
  5
13D
  8
_________1
 62
     7
 10
76.909099999999995
 20
99.073599999999999
 30
0.0
 11
76.909099999999995
 21
98.450800000000015
 31
0.0
  0
LINE
  5
13E
  8
_________1
 62
     7
 10
74.412099999999995
 20
98.450800000000015
 30
0.0
 11
76.909099999999995
 21
98.450800000000015
 31
0.0
  0
LINE
  5
13F
  8
_________1
 62
     7
 10
64.336500000000001
 20
98.450800000000015
 30
0.0
 11
74.412099999999995
 21
98.450800000000015
 31
0.0
  0
LINE
  5
140
  8
_________1
 62
     7
 10
74.412099999999995
 20
99.073599999999999
 30
0.0
 11
76.909099999999995
 21
99.073599999999999
 31
0.0
  0
LINE
  5
141
  8
_________1
 62
     7
 10
64.336500000000001
 20
99.073599999999999
 30
0.0
 11
74.412099999999995
 21
99.073599999999999
 31
0.0
  0
LINE
  5
142
  8
_________1
 62
     7
 10
64.336500000000001
 20
98.076599999999999
 30
0.0
 11
64.336500000000001
 21
98.201300000000003
 31
0.0
  0
LINE
  5
143
  8
_________1
 62
     7
 10
76.909099999999995
 20
98.076599999999999
 30
0.0
 11
76.909099999999995
 21
98.201300000000003
 31
0.0
  0
ARC
  5
144
  8
_________1
 62
     7
 10
65.097059999999999
 20
98.191676000000001
 30
0.0
 40
0.259166
 50
91.337236000000004
 51
168.648563
  0
ARC
  5
145
  8
_________1
 62
     7
 10
76.148252999999997
 20
98.191246000000007
 30
0.0
 40
0.259605
 50
11.428823
 51
88.585339000000005
  0
ARC
  5
146
  8
_________1
 62
     7
 10
64.792304000000001
 20
98.253042000000008
 30
0.0
 40
0.051707
 50
271.163701
 51
348.447453
  0
ARC
  5
147
  8
_________1
 62
     7
 10
76.453671
 20
98.253403000000006
 30
0.0
 40
0.052076
 50
191.875766
 51
268.51312000000001
  0
LINE
  5
148
  8
_________1
 62
     7
 10
76.402699999999996
 20
98.242699999999999
 30
0.0
 11
64.843000000000004
 21
98.242699999999999
 31
0.0
  0
LINE
  5
149
  8
_________1
 62
     7
 10
76.909099999999995
 20
98.201300000000003
 30
0.0
 11
64.336500000000001
 21
98.201300000000003
 31
0.0
  0
LINE
  5
14A
  8
_________1
 62
     7
 10
76.909099999999995
 20
98.076599999999999
 30
0.0
 11
64.336500000000001
 21
98.076599999999999
 31
0.0
  0
LINE
  5
14B
  8
_________1
 62
     7
 10
74.645700000000005
 20
107.45
 30
0.0
 11
74.645700000000005
 21
99.073599999999999
 31
0.0
  0
LINE
  5
14C
  8
_________1
 62
     7
 10
66.599999999999994
 20
107.45
 30
0.0
 11
66.599999999999994
 21
99.073599999999999
 31
0.0
  0
LINE
  5
14D
  8
_________1
 62
     7
 10
64.336500000000001
 20
107.824
 30
0.0
 11
64.336500000000001
 21
107.45
 31
0.0
  0
LINE
  5
14E
  8
_________1
 62
     7
 10
76.909099999999995
 20
107.824
 30
0.0
 11
76.909099999999995
 21
107.45
 31
0.0
  0
LINE
  5
14F
  8
_________1
 62
     7
 10
75.866600000000005
 20
107.45
 30
0.0
 11
76.909099999999995
 21
107.45
 31
0.0
  0
LINE
  5
150
  8
_________1
 62
     7
 10
64.336500000000001
 20
107.45
 30
0.0
 11
75.866600000000005
 21
107.45
 31
0.0
  0
LINE
  5
151
  8
_________1
  6
AIGENLINE002
 62
     7
 10
70.622500000000002
 20
120.65900000000001
 30
0.0
 11
70.622500000000002
 21
116.15900000000001
 31
0.0
  0
LINE
  5
152
  8
_________1
  6
AIGENLINE002
 62
     7
 10
70.622500000000002
 20
110.259
 30
0.0
 11
70.622500000000002
 21
76.503299999999996
 31
0.0
  0
LINE
  5
153
  8
_________1
  6
AIGENLINE002
 62
     7
 10
26.622800000000002
 20
169.172
 30
0.0
 11
26.622800000000002
 21
175.54599999999999
 31
0.0
  0
LINE
  5
154
  8
_________1
 62
     7
 10
28.9483
 20
170.32400000000001
 30
0.0
 11
28.9483
 21
170.71100000000001
 31
0.0
  0
LINE
  5
155
  8
_________1
 62
     7
 10
24.296700000000001
 20
170.32400000000001
 30
0.0
 11
24.296700000000001
 21
170.71100000000001
 31
0.0
  0
LINE
  5
156
  8
_________1
 62
     7
 10
28.9483
 20
170.32400000000001
 30
0.0
 11
24.296700000000001
 21
170.32400000000001
 31
0.0
  0
LINE
  5
157
  8
_________1
 62
     7
 10
63.122500000000002
 20
107.824
 30
0.0
 11
63.122500000000002
 21
108.572
 31
0.0
  0
LINE
  5
158
  8
_________1
 62
     7
 10
78.122500000000002
 20
107.824
 30
0.0
 11
78.122500000000002
 21
108.572
 31
0.0
  0
LINE
  5
159
  8
_________1
 62
     7
 10
78.122500000000002
 20
108.572
 30
0.0
 11
63.122500000000002
 21
108.572
 31
0.0
  0
LINE
  5
15A
  8
_________1
 62
     7
 10
78.122500000000002
 20
107.824
 30
0.0
 11
63.122500000000002
 21
107.824
 31
0.0
  0
ARC
  5
15B
  8
_________1
 62
     7
 10
70.510818999999984
 20
176.06463099999999
 30
0.0
 40
0.515926
 50
270.15882099999999
 51
291.63551699999999
  0
LINE
  5
15C
  8
_________1
 62
     7
 10
73.878799999999998
 20
176.858
 30
0.0
 11
70.700999999999993
 21
175.58500000000001
 31
0.0
  0
LINE
  5
15D
  8
_________1
 62
     7
 10
70.512200000000007
 20
175.54900000000001
 30
0.0
 11
66.335400000000007
 21
175.54900000000001
 31
0.0
  0
LINE
  5
15E
  8
_________1
 62
     7
 10
66.084599999999995
 20
175.54900000000001
 30
0.0
 11
66.335400000000007
 21
175.54900000000001
 31
0.0
  0
ARC
  5
15F
  8
_________1
 62
     7
 10
54.060600999999998
 20
183.594773
 30
0.0
 40
0.259617
 50
173.33122700000001
 51
259.10136199999999
  0
LINE
  5
160
  8
_________1
 62
     7
 10
53.802700000000002
 20
183.625
 30
0.0
 11
53.881300000000003
 21
184.11699999999999
 31
0.0
  0
ARC
  5
161
  8
_________1
 62
     7
 10
74.876306
 20
180.809977
 30
0.0
 40
0.260162
 50
2.149786999999999
 51
79.421847
  0
LINE
  5
162
  8
_________1
 62
     7
 10
75.136300000000006
 20
180.81999999999999
 30
0.0
 11
75.136300000000006
 21
177.36099999999999
 31
0.0
  0
ARC
  5
163
  8
_________1
 62
     7
 10
54.135467000000013
 20
184.067567
 30
0.0
 40
0.259017
 50
82.647835000000001
 51
168.90695299999999
  0
LINE
  5
164
  8
_________1
 62
     7
 10
54.011499999999998
 20
183.34
 30
0.0
 11
55.005099999999999
 21
183.184
 31
0.0
  0
LINE
  5
165
  8
_________1
 62
     7
 10
65.023499999999984
 20
181.61099999999999
 30
0.0
 11
55.005099999999999
 21
183.184
 31
0.0
  0
ARC
  5
166
  8
_________1
 62
     7
 10
64.787887999999995
 20
180.334823
 30
0.0
 40
1.297482
 50
1.993924
 51
79.538036000000005
  0
LINE
  5
167
  8
_________1
 62
     7
 10
66.084599999999995
 20
175.54900000000001
 30
0.0
 11
66.084599999999995
 21
180.38
 31
0.0
  0
LINE
  5
168
  8
_________1
 62
     7
 10
74.924099999999996
 20
181.066
 30
0.0
 11
73.918099999999995
 21
181.22399999999999
 31
0.0
  0
LINE
  5
169
  8
_________1
 62
     7
 10
54.168599999999991
 20
184.32400000000001
 30
0.0
 11
55.162199999999999
 21
184.16900000000001
 31
0.0
  0
LINE
  5
16A
  8
_________1
 62
     7
 10
55.162199999999999
 20
184.16900000000001
 30
0.0
 11
73.918099999999995
 21
181.22399999999999
 31
0.0
  0
LINE
  5
16B
  8
_________1
 62
     7
 10
75.136300000000006
 20
177.36099999999999
 30
0.0
 11
73.878799999999998
 21
176.858
 31
0.0
  0
ARC
  5
16C
  8
_________1
 62
     7
 10
70.75027
 20
174.69967700000001
 30
0.0
 40
4.3463409999999998
 50
168.73518899999999
 51
176.68988899999999
  0
ARC
  5
16D
  8
_________1
 62
     7
 10
70.479675
 20
174.69110499999999
 30
0.0
 40
4.3625439999999998
 50
3.410556999999999
 51
31.693556000000012
  0
ARC
  5
16E
  8
_________1
 62
     7
 10
22.98743
 20
170.97202899999999
 30
0.0
 40
0.261303
 50
182.64246800000001
 51
267.90961600000003
  0
ARC
  5
16F
  8
_________1
 62
     7
 10
22.985378000000001
 20
174.69158400000001
 30
0.0
 40
0.259158
 50
91.653728999999984
 51
177.83379500000001
  0
LINE
  5
170
  8
_________1
 62
     7
 10
22.726400000000002
 20
174.70099999999999
 30
0.0
 11
22.726400000000002
 21
170.96000000000001
 31
0.0
  0
ARC
  5
171
  8
_________1
 62
     7
 10
74.861468000000002
 20
174.68950100000001
 30
0.0
 40
0.261307
 50
2.6054560000000002
 51
87.906980000000004
  0
LINE
  5
172
  8
_________1
 62
     7
 10
75.122500000000002
 20
174.70099999999999
 30
0.0
 11
75.122500000000002
 21
108.572
 31
0.0
  0
LINE
  5
173
  8
_________1
 62
     7
 10
22.977900000000002
 20
174.95099999999999
 30
0.0
 11
23.9832
 21
174.95099999999999
 31
0.0
  0
LINE
  5
174
  8
_________1
 62
     7
 10
23.9832
 20
174.95099999999999
 30
0.0
 11
73.865700000000004
 21
174.95099999999999
 31
0.0
  0
LINE
  5
175
  8
_________1
 62
     7
 10
73.865700000000004
 20
174.95099999999999
 30
0.0
 11
74.871000000000009
 21
174.95099999999999
 31
0.0
  0
LINE
  5
176
  8
_________1
 62
     7
 10
66.122500000000002
 20
166.97200000000001
 30
0.0
 11
66.122500000000002
 21
108.572
 31
0.0
  0
ARC
  5
177
  8
_________1
 62
     7
 10
62.209724000000001
 20
166.79679200000001
 30
0.0
 40
3.9166729999999998
 50
2.5626660000000001
 51
87.926197999999999
  0
LINE
  5
178
  8
_________1
 62
     7
 10
23.9832
 20
170.71100000000001
 30
0.0
 11
62.351500000000001
 21
170.71100000000001
 31
0.0
  0
LINE
  5
17A
  8
_________1
 62
     7
 10
22.977900000000002
 20
170.71100000000001
 30
0.0
 11
23.9832
 21
170.71100000000001
 31
0.0
  0
INSERT
  5
17B
  8
_________1
 62
     7
  2
AIGNBL0201000C
 10
0.0
 20
0.0
 30
0.0
  0
INSERT
  5
17C
  8
_________1
 62
     7
  2
AIGNBL0201000D
 10
0.0
 20
0.0
 30
0.0
  0
LINE
  5
17D
  8
_________1
 62
     7
 10
77.735299999999995
 20
264.52999999999997
 30
0.0
 11
83.522400000000005
 21
264.52999999999997
 31
0.0
  0
INSERT
  5
17E
  8
_________1
 62
     7
  2
AIGNBL0201000E
 10
0.0
 20
0.0
 30
0.0
  0
LINE
  5
17F
  8
_________1
  6
AIGENLINE002
 62
     7
 10
70.622500000000002
 20
263.738
 30
0.0
 11
70.622500000000002
 21
250.58600000000001
 31
0.0
  0
ARC
  5
180
  8
_________1
 62
     7
 10
70.622664
 20
257.416922
 30
0.0
 40
4.3751269999999991
 50
0.002266
 51
90.002235999999996
  0
ARC
  5
181
  8
_________1
 62
     7
 10
70.622664999999984
 20
257.41726599999998
 30
0.0
 40
4.374782999999999
 50
90.002256000000017
 51
180.00226599999999
  0
ARC
  5
182
  8
_________1
 62
     7
 10
70.622664
 20
257.416922
 30
0.0
 40
4.3747809999999987
 50
179.997714
 51
269.99776400000002
  0
ARC
  5
183
  8
_________1
 62
     7
 10
70.622664
 20
257.41726799999998
 30
0.0
 40
4.3751269999999991
 50
269.99776400000002
 51
359.99773399999998
  0
LINE
  5
184
  8
_________1
  6
AIGENLINE002
 62
     7
 10
-43.340400000000002
 20
257.41699999999997
 30
0.0
 11
-18.340599999999998
 21
257.41699999999997
 31
0.0
  0
LINE
  5
185
  8
_________1
  6
AIGENLINE002
 62
     7
 10
63.683999999999997
 20
257.41699999999997
 30
0.0
 11
77.399699999999996
 21
257.41699999999997
 31
0.0
  0
LINE
  5
186
  8
_________1
 62
     7
 10
52.262799999999999
 20
42.214100000000002
 30
0.0
 11
52.262799999999999
 21
48.158900000000003
 31
0.0
  0
LINE
  5
187
  8
_________1
 62
     7
 10
56.387999999999998
 20
42.214100000000002
 30
0.0
 11
56.387999999999998
 21
48.158900000000003
 31
0.0
  0
ARC
  5
188
  8
_________1
 62
     7
 10
-27.651610999999999
 20
241.96667299999999
 30
0.0
 40
1.2950829999999991
 50
272.08387900000002
 51
357.19904600000001
  0
LINE
  5
189
  8
_________1
 62
     7
 10
-27.604500000000002
 20
240.672
 30
0.0
 11
-34.085500000000003
 21
240.672
 31
0.0
  0
ARC
  5
18A
  8
_________1
 62
     7
 10
-34.038386000000003
 20
241.966668
 30
0.0
 40
1.295078
 50
182.8007539999999
 51
267.91636
  0
ARC
  5
18B
  8
_________1
 62
     7
 10
-34.037320999999999
 20
260.52603399999998
 30
0.0
 40
1.295504999999999
 50
92.13010700000001
 51
177.85402500000001
  0
LINE
  5
18C
  8
_________1
 62
     7
 10
-27.604500000000002
 20
261.82100000000003
 30
0.0
 11
-34.085500000000003
 21
261.82100000000003
 31
0.0
  0
ARC
  5
18D
  8
_________1
 62
     7
 10
-27.651959999999999
 20
260.526746
 30
0.0
 40
1.294767
 50
2.1156649999999999
 51
87.900164000000004
  0
LINE
  5
18E
  8
_________1
 62
     7
 10
-26.3581
 20
241.98099999999999
 30
0.0
 11
-26.3581
 21
260.57499999999999
 31
0.0
  0
LINE
  5
18F
  8
_________1
 62
     7
 10
-35.331899999999997
 20
241.98099999999999
 30
0.0
 11
-35.331899999999997
 21
260.57499999999999
 31
0.0
  0
ARC
  5
190
  8
_________1
 62
     7
 10
-27.642329
 20
210.76736500000001
 30
0.0
 40
1.2463580000000001
 50
269.99606
 51
359.99603100000002
  0
LINE
  5
191
  8
_________1
 62
     7
 10
-27.642399999999999
 20
209.52099999999999
 30
0.0
 11
-34.073099999999997
 21
209.52099999999999
 31
0.0
  0
ARC
  5
192
  8
_________1
 62
     7
 10
-34.073157000000002
 20
210.76736500000001
 30
0.0
 40
1.246356999999999
 50
180.0039689999999
 51
270.00397900000002
  0
LINE
  5
193
  8
_________1
 62
     7
 10
-35.319499999999998
 20
210.767
 30
0.0
 11
-35.319499999999998
 21
241.72999999999999
 31
0.0
  0
LINE
  5
194
  8
_________1
 62
     7
 10
-26.396000000000001
 20
241.60300000000001
 30
0.0
 11
-26.396000000000001
 21
210.767
 31
0.0
  0
LINE
  5
195
  8
_________1
  6
AIGENLINE002
 62
     7
 10
-30.857399999999998
 20
269.13999999999999
 30
0.0
 11
-30.857399999999998
 21
207.721
 31
0.0
  0
LINE
  5
196
  8
_________1
  6
AIGENLINE002
 62
     7
 10
54.325699999999998
 20
93.073599999999999
 30
0.0
 11
70.622500000000002
 21
76.503299999999996
 31
0.0
  0
LINE
  5
197
  8
_________1
 62
     7
 10
55.637599999999999
 20
88.222199999999987
 30
0.0
 11
55.637599999999999
 21
56.610500000000002
 31
0.0
  0
LINE
  5
198
  8
_________1
 62
     7
 10
53.013100000000001
 20
88.222199999999987
 30
0.0
 11
53.013100000000001
 21
56.610500000000002
 31
0.0
  0
LINE
  5
199
  8
_________1
  6
AIGENLINE002
 62
     7
 10
54.325699999999998
 20
93.073599999999999
 30
0.0
 11
54.325699999999998
 21
47.551900000000003
 31
0.0
  0
LINE
  5
19A
  8
_________1
 62
     7
 10
71.935100000000006
 20
94.331100000000006
 30
0.0
 11
71.935100000000006
 21
82.834699999999984
 31
0.0
  0
LINE
  5
19B
  8
_________1
 62
     7
 10
69.309899999999999
 20
94.331100000000006
 30
0.0
 11
69.309899999999999
 21
82.834699999999984
 31
0.0
  0
LINE
  5
19C
  8
_________1
 62
     7
 10
74.747699999999995
 20
94.581199999999995
 30
0.0
 11
74.497600000000006
 21
94.331100000000006
 31
0.0
  0
LINE
  5
19D
  8
_________1
 62
     7
 10
66.747399999999985
 20
94.331100000000006
 30
0.0
 11
66.497299999999996
 21
94.581199999999995
 31
0.0
  0
LINE
  5
19E
  8
_________1
 62
     7
 10
74.497600000000006
 20
96.581500000000005
 30
0.0
 11
74.497600000000006
 21
94.331100000000006
 31
0.0
  0
LINE
  5
19F
  8
_________1
 62
     7
 10
74.747699999999995
 20
96.581500000000005
 30
0.0
 11
74.747699999999995
 21
94.581199999999995
 31
0.0
  0
LINE
  5
1A0
  8
_________1
 62
     7
 10
66.747399999999985
 20
96.581500000000005
 30
0.0
 11
66.747399999999985
 21
94.331100000000006
 31
0.0
  0
LINE
  5
1A1
  8
_________1
 62
     7
 10
66.497299999999996
 20
96.581500000000005
 30
0.0
 11
66.497299999999996
 21
94.581199999999995
 31
0.0
  0
LINE
  5
1A2
  8
_________1
 62
     7
 10
66.497299999999996
 20
94.581199999999995
 30
0.0
 11
74.747699999999995
 21
94.581199999999995
 31
0.0
  0
LINE
  5
1A3
  8
_________1
 62
     7
 10
66.747399999999985
 20
94.331100000000006
 30
0.0
 11
74.497600000000006
 21
94.331100000000006
 31
0.0
  0
LINE
  5
1A4
  8
_________1
 62
     7
 10
54.325699999999998
 20
49.108400000000003
 30
0.0
 11
54.325699999999998
 21
51.733600000000003
 31
0.0
  0
LINE
  5
1A5
  8
_________1
 62
     7
 10
51.950000000000003
 20
49.108400000000003
 30
0.0
 11
51.950000000000003
 21
51.733600000000003
 31
0.0
  0
ARC
  5
1A6
  8
_________1
 62
     7
 10
57.689638000000002
 20
72.047677000000007
 30
0.0
 40
23.646422000000001
 50
255.952326
 51
256.94488699999999
  0
ARC
  5
1A7
  8
_________1
 62
     7
 10
53.444726000000003
 20
53.862386999999991
 30
0.0
 40
4.9723629999999988
 50
257.26002199999999
 51
263.09694400000001
  0
ARC
  5
1A8
  8
_________1
 62
     7
 10
53.161231999999991
 20
51.739792999999999
 30
0.0
 40
2.8312049999999989
 50
263.62968999999998
 51
269.791427
  0
ARC
  5
1A9
  8
_________1
 62
     7
 10
53.149602999999999
 20
51.427287
 30
0.0
 40
2.5186799999999989
 50
270.03006800000003
 51
277.21032600000001
  0
ARC
  5
1AA
  8
_________1
 62
     7
 10
52.937162999999991
 20
53.227629
 30
0.0
 40
4.3314750000000002
 50
277.00920600000001
 51
283.59629200000001
  0
ARC
  5
1AB
  8
_________1
 62
     7
 10
50.166409999999992
 20
65.255200000000002
 30
0.0
 40
16.673876
 50
283.13471400000009
 51
284.44497999999999
  0
ARC
  5
1AC
  8
_________1
 62
     7
 10
52.701191999999999
 20
46.977119000000002
 30
0.0
 40
5.0262519999999986
 50
71.143036999999993
 51
78.857978000000003
  0
ARC
  5
1AD
  8
_________1
 62
     7
 10
53.119674000000003
 20
48.946083000000002
 30
0.0
 40
3.0136819999999989
 50
79.430400000000006
 51
89.405840999999995
  0
ARC
  5
1AE
  8
_________1
 62
     7
 10
53.151268999999992
 20
49.073681999999998
 30
0.0
 40
2.8859209999999988
 50
90.006829999999994
 51
100.847157
  0
ARC
  5
1AF
  8
_________1
 62
     7
 10
53.395209999999999
 20
47.609183999999999
 30
0.0
 40
4.3703079999999996
 50
100.374906
 51
109.311154
  0
ARC
  5
1B0
  8
_________1
 62
     7
 10
60.010803000000003
 20
71.789356999999995
 30
0.0
 40
23.382580000000001
 50
255.92844199999999
 51
256.90827100000001
  0
ARC
  5
1B1
  8
_________1
 62
     7
 10
55.826543999999991
 20
53.899237999999997
 30
0.0
 40
5.0097230000000001
 50
257.17358200000001
 51
263.07433200000003
  0
ARC
  5
1B2
  8
_________1
 62
     7
 10
55.535947999999991
 20
51.727936
 30
0.0
 40
2.8193489999999999
 50
263.61604899999998
 51
269.78359799999998
  0
ARC
  5
1B3
  8
_________1
 62
     7
 10
55.523984999999989
 20
51.432133
 30
0.0
 40
2.523525999999999
 50
270.02984900000001
 51
277.20339100000001
  0
ARC
  5
1B4
  8
_________1
 62
     7
 10
55.312077000000002
 20
53.226939000000002
 30
0.0
 40
4.3307630000000001
 50
277.00735100000003
 51
283.59615200000002
  0
ARC
  5
1B5
  8
_________1
 62
     7
 10
52.473936000000002
 20
65.544310999999993
 30
0.0
 40
16.970697000000001
 50
283.13388300000003
 51
284.42230799999999
  0
LINE
  5
1B6
  8
_________1
 62
     7
 10
56.700800000000001
 20
49.108400000000003
 30
0.0
 11
56.700800000000001
 21
51.733600000000003
 31
0.0
  0
ARC
  5
1B7
  8
_________1
 62
     7
 10
55.075128999999997
 20
46.973810999999998
 30
0.0
 40
5.0297460000000003
 50
71.143068999999997
 51
78.850862000000006
  0
ARC
  5
1B8
  8
_________1
 62
     7
 10
55.494751000000001
 20
48.944054000000001
 30
0.0
 40
3.0157029999999989
 50
79.434710999999993
 51
89.419590999999997
  0
ARC
  5
1B9
  8
_________1
 62
     7
 10
55.52564499999999
 20
49.082732
 30
0.0
 40
2.8768709999999991
 50
90.006878000000015
 51
100.864256
  0
ARC
  5
1BA
  8
_________1
 62
     7
 10
55.771656
 20
47.608905
 30
0.0
 40
4.3708010000000002
 50
100.389841
 51
109.318513
  0
LINE
  5
1BB
  8
_________1
 62
     7
 10
56.700800000000001
 20
48.908599999999993
 30
0.0
 11
56.700800000000001
 21
49.108400000000003
 31
0.0
  0
LINE
  5
1BC
  8
_________1
 62
     7
 10
56.700800000000001
 20
51.733600000000003
 30
0.0
 11
56.700800000000001
 21
51.959600000000002
 31
0.0
  0
LINE
  5
1BD
  8
_________1
 62
     7
 10
51.950000000000003
 20
48.908599999999993
 30
0.0
 11
51.950000000000003
 21
49.108400000000003
 31
0.0
  0
LINE
  5
1BE
  8
_________1
 62
     7
 10
51.950000000000003
 20
51.733600000000003
 30
0.0
 11
51.950000000000003
 21
51.959600000000002
 31
0.0
  0
LINE
  5
1BF
  8
_________1
 62
     7
 10
55.576300000000003
 20
52.133899999999997
 30
0.0
 11
54.325699999999998
 21
52.133899999999997
 31
0.0
  0
LINE
  5
1C0
  8
_________1
 62
     7
 10
54.325699999999998
 20
52.133899999999997
 30
0.0
 11
53.075800000000001
 21
52.133899999999997
 31
0.0
  0
LINE
  5
1C1
  8
_________1
 62
     7
 10
56.700800000000001
 20
48.908599999999993
 30
0.0
 11
56.625700000000002
 21
48.858999999999988
 31
0.0
  0
LINE
  5
1C2
  8
_________1
 62
     7
 10
56.625700000000002
 20
48.858999999999988
 30
0.0
 11
52.025100000000002
 21
48.858999999999988
 31
0.0
  0
LINE
  5
1C3
  8
_________1
 62
     7
 10
52.025100000000002
 20
48.858999999999988
 30
0.0
 11
51.950000000000003
 21
48.908599999999993
 31
0.0
  0
ARC
  5
1C4
  8
_________1
 62
     7
 10
56.682276999999999
 20
51.92586099999999
 30
0.0
 40
0.038479
 50
61.269488000000003
 51
90.14337900000001
  0
ARC
  5
1C5
  8
_________1
 62
     7
 10
56.520693000000001
 20
50.606878000000002
 30
0.0
 40
1.3670340000000001
 50
83.215826000000007
 51
88.382910999999993
  0
ARC
  5
1C6
  8
_________1
 62
     7
 10
56.012805999999998
 20
38.390331000000003
 30
0.0
 40
13.594025
 50
87.696143000000006
 51
89.304108999999997
  0
ARC
  5
1C7
  8
_________1
 62
     7
 10
55.099651000000001
 20
-23.299918999999999
 30
0.0
 40
75.290993
 50
89.179418999999996
 51
89.888678999999996
  0
ARC
  5
1C8
  8
_________1
 62
     7
 10
54.401375999999992
 20
-326.11430100000001
 30
0.0
 40
378.106176
 50
89.872012999999995
 51
90.360083999999986
  0
LINE
  5
1C9
  8
_________1
 62
     7
 10
52.025100000000002
 20
51.984400000000001
 30
0.0
 11
51.950000000000003
 21
51.959600000000002
 31
0.0
  0
LINE
  5
1CA
  8
_________1
 62
     7
 10
55.876000000000012
 20
51.984400000000001
 30
0.0
 11
55.876000000000012
 21
52.109099999999998
 31
0.0
  0
LINE
  5
1CB
  8
_________1
 62
     7
 10
55.876000000000012
 20
52.109099999999998
 30
0.0
 11
52.775399999999998
 21
52.109099999999998
 31
0.0
  0
LINE
  5
1CC
  8
_________1
 62
     7
 10
52.775399999999998
 20
51.984400000000001
 30
0.0
 11
52.775399999999998
 21
52.109099999999998
 31
0.0
  0
LINE
  5
1CD
  8
_________1
 62
     7
 10
53.075800000000001
 20
52.133899999999997
 30
0.0
 11
52.700299999999999
 21
52.435000000000002
 31
0.0
  0
LINE
  5
1CE
  8
_________1
 62
     7
 10
52.700299999999999
 20
52.435000000000002
 30
0.0
 11
52.675499999999992
 21
52.934600000000003
 31
0.0
  0
LINE
  5
1CF
  8
_________1
 62
     7
 10
55.976599999999998
 20
52.934600000000003
 30
0.0
 11
55.950400000000002
 21
52.435000000000002
 31
0.0
  0
LINE
  5
1D0
  8
_________1
 62
     7
 10
55.950400000000002
 20
52.435000000000002
 30
0.0
 11
55.576300000000003
 21
52.133899999999997
 31
0.0
  0
LINE
  5
1D1
  8
_________1
 62
     7
 10
55.776099999999992
 20
53.359699999999989
 30
0.0
 11
52.876000000000012
 21
53.359699999999989
 31
0.0
  0
LINE
  5
1D2
  8
_________1
 62
     7
 10
52.876000000000012
 20
53.359699999999989
 30
0.0
 11
52.675499999999992
 21
52.934600000000003
 31
0.0
  0
LINE
  5
1D3
  8
_________1
 62
     7
 10
55.976599999999998
 20
52.934600000000003
 30
0.0
 11
55.776099999999992
 21
53.359699999999989
 31
0.0
  0
LINE
  5
1D4
  8
_________1
 62
     7
 10
55.776099999999992
 20
55.359900000000003
 30
0.0
 11
52.876000000000012
 21
55.359900000000003
 31
0.0
  0
LINE
  5
1D5
  8
_________1
 62
     7
 10
52.876000000000012
 20
53.359699999999989
 30
0.0
 11
52.876000000000012
 21
55.359900000000003
 31
0.0
  0
LINE
  5
1D6
  8
_________1
 62
     7
 10
55.776099999999992
 20
53.359699999999989
 30
0.0
 11
55.776099999999992
 21
55.359900000000003
 31
0.0
  0
LINE
  5
1D7
  8
_________1
 62
     7
 10
52.876000000000012
 20
55.359900000000003
 30
0.0
 11
52.700299999999999
 21
55.660299999999999
 31
0.0
  0
LINE
  5
1D8
  8
_________1
 62
     7
 10
55.950400000000002
 20
55.660299999999999
 30
0.0
 11
55.776099999999992
 21
55.359900000000003
 31
0.0
  0
LINE
  5
1D9
  8
_________1
 62
     7
 10
52.700299999999999
 20
55.660299999999999
 30
0.0
 11
52.649999999999999
 21
55.7851
 31
0.0
  0
LINE
  5
1DA
  8
_________1
 62
     7
 10
52.649999999999999
 20
55.7851
 30
0.0
 11
52.649999999999999
 21
55.909799999999997
 31
0.0
  0
ARC
  5
1DB
  8
_________1
 62
     7
 10
55.407611000000003
 20
55.968617000000002
 30
0.0
 40
0.6207150000000001
 50
339.66245099999998
 51
354.56032699999997
  0
ARC
  5
1DC
  8
_________1
 62
     7
 10
55.327888999999992
 20
55.978661000000002
 30
0.0
 40
0.6991970000000001
 50
332.91862600000002
 51
341.16130399999997
  0
LINE
  5
1DD
  8
_________1
 62
     7
 10
56.025500000000001
 20
55.909799999999997
 30
0.0
 11
56.025500000000001
 21
56.610500000000002
 31
0.0
  0
LINE
  5
1DE
  8
_________1
 62
     7
 10
56.025500000000001
 20
56.610500000000002
 30
0.0
 11
52.649999999999999
 21
56.610500000000002
 31
0.0
  0
LINE
  5
1DF
  8
_________1
 62
     7
 10
52.649999999999999
 20
55.909799999999997
 30
0.0
 11
52.649999999999999
 21
56.610500000000002
 31
0.0
  0
LINE
  5
1E0
  8
_________1
  6
AIGENLINE002
 62
     7
 10
70.622500000000002
 20
185.048
 30
0.0
 11
70.622500000000002
 21
125.979
 31
0.0
  0
LINE
  5
1E1
  8
_________1
  6
AIGENLINE002
 62
     7
 10
-30.857399999999998
 20
186.12799999999999
 30
0.0
 11
-30.857399999999998
 21
79.6267
 31
0.0
  0
LINE
  5
1E2
  8
_________1
 62
     7
 10
-37.088900000000002
 20
107.824
 30
0.0
 11
-37.088900000000002
 21
107.45
 31
0.0
  0
LINE
  5
1E3
  8
_________1
 62
     7
 10
-24.625900000000001
 20
107.824
 30
0.0
 11
-24.625900000000001
 21
107.45
 31
0.0
  0
LINE
  5
1E4
  8
_________1
 62
     7
 10
-24.625900000000001
 20
107.45
 30
0.0
 11
-37.088900000000002
 21
107.45
 31
0.0
  0
ARC
  5
1E5
  8
_________1
 62
     7
 10
-29.961500000000001
 20
91.568384999999992
 30
0.0
 40
7.1447089999999989
 50
114.367406
 51
116.68828999999999
  0
ARC
  5
1E6
  8
_________1
 62
     7
 10
-31.460666
 20
90.892110000000002
 30
0.0
 40
7.8978839999999986
 50
63.365707
 51
65.460725999999994
  0
ARC
  5
1E7
  8
_________1
 62
     7
 10
-33.35604
 20
94.839003000000005
 30
0.0
 40
4.184575999999999
 50
129.312184
 51
131.93508700000001
  0
ARC
  5
1E8
  8
_________1
 62
     7
 10
-35.714413
 20
95.176643999999996
 30
0.0
 40
3.7324019999999991
 50
48.035786000000009
 51
50.984554000000003
  0
ARC
  5
1E9
  8
_________1
 62
     7
 10
-31.753702000000001
 20
94.004943999999995
 30
0.0
 40
5.9131039999999988
 50
136.48161400000001
 51
138.125877
  0
ARC
  5
1EA
  8
_________1
 62
     7
 10
-23.472328999999998
 20
94.004943999999995
 30
0.0
 40
5.9131039999999988
 50
136.48161400000001
 51
138.125877
  0
ARC
  5
1EB
  8
_________1
 62
     7
 10
-27.758469000000002
 20
96.03783700000001
 30
0.0
 40
2.9158559999999998
 50
41.028844999999997
 51
44.363624999999999
  0
ARC
  5
1EC
  8
_________1
 62
     7
 10
-28.886882
 20
105.33986400000001
 30
0.0
 40
9.6379320000000011
 50
243.61193
 51
245.33237500000001
  0
ARC
  5
1ED
  8
_________1
 62
     7
 10
-31.455545999999998
 20
103.755281
 30
0.0
 40
7.886031
 50
294.53769999999997
 51
296.63586800000002
  0
ARC
  5
1EE
  8
_________1
 62
     7
 10
-33.432344000000001
 20
99.730129000000005
 30
0.0
 40
4.0674130000000002
 50
228.02713
 51
230.72559999999999
  0
ARC
  5
1EF
  8
_________1
 62
     7
 10
-36.450887000000002
 20
100.344049
 30
0.0
 40
4.8663489999999987
 50
309.35905500000001
 51
311.62060400000001
  0
ARC
  5
1F0
  8
_________1
 62
     7
 10
-32.985242
 20
99.516856000000004
 30
0.0
 40
4.2376870000000002
 50
221.549047
 51
223.84346300000001
  0
ARC
  5
1F1
  8
_________1
 62
     7
 10
-24.703869000000001
 20
99.516856000000004
 30
0.0
 40
4.2376870000000002
 50
221.549047
 51
223.84346300000001
  0
ARC
  5
1F2
  8
_________1
 62
     7
 10
-28.380389999999998
 20
99.194062000000002
 30
0.0
 40
3.7617759999999998
 50
316.01139799999999
 51
318.59613200000001
  0
LINE
  5
1F3
  8
_________1
 62
     7
 10
-27.920100000000001
 20
96.706199999999995
 30
0.0
 11
-27.920100000000001
 21
97.951899999999995
 31
0.0
  0
LINE
  5
1F4
  8
_________1
 62
     7
 10
-33.170499999999997
 20
97.951899999999995
 30
0.0
 11
-33.170499999999997
 21
96.706199999999995
 31
0.0
  0
LINE
  5
1F5
  8
_________1
 62
     7
 10
-33.218699999999998
 20
96.706199999999995
 30
0.0
 11
-33.218699999999998
 21
97.951899999999995
 31
0.0
  0
LINE
  5
1F6
  8
_________1
 62
     7
 10
-36.152500000000003
 20
97.951899999999995
 30
0.0
 11
-36.152500000000003
 21
96.706199999999995
 31
0.0
  0
LINE
  5
1F7
  8
_________1
 62
     7
 10
-36.156700000000001
 20
96.706199999999995
 30
0.0
 11
-36.156700000000001
 21
97.951899999999995
 31
0.0
  0
LINE
  5
1F8
  8
_________1
 62
     7
 10
-25.558800000000002
 20
96.706199999999995
 30
0.0
 11
-25.558800000000002
 21
97.951899999999995
 31
0.0
  0
LINE
  5
1F9
  8
_________1
 62
     7
 10
-27.875299999999999
 20
97.951899999999995
 30
0.0
 11
-27.875299999999999
 21
96.706199999999995
 31
0.0
  0
LINE
  5
1FA
  8
_________1
 62
     7
 10
-27.920100000000001
 20
97.951899999999995
 30
0.0
 11
-27.875299999999999
 21
97.951899999999995
 31
0.0
  0
LINE
  5
1FB
  8
_________1
 62
     7
 10
-33.218699999999998
 20
97.951899999999995
 30
0.0
 11
-33.170499999999997
 21
97.951899999999995
 31
0.0
  0
LINE
  5
1FC
  8
_________1
 62
     7
 10
-27.920100000000001
 20
96.706199999999995
 30
0.0
 11
-27.875299999999999
 21
96.706199999999995
 31
0.0
  0
LINE
  5
1FD
  8
_________1
 62
     7
 10
-33.218699999999998
 20
96.706199999999995
 30
0.0
 11
-33.170499999999997
 21
96.706199999999995
 31
0.0
  0
LINE
  5
1FE
  8
_________1
 62
     7
 10
-32.909300000000002
 20
96.581500000000005
 30
0.0
 11
-28.180499999999999
 21
96.581500000000005
 31
0.0
  0
LINE
  5
1FF
  8
_________1
 62
     7
 10
-28.180499999999999
 20
96.581500000000005
 30
0.0
 11
-27.760200000000001
 21
96.581500000000005
 31
0.0
  0
LINE
  5
200
  8
_________1
 62
     7
 10
-33.364800000000002
 20
96.581500000000005
 30
0.0
 11
-32.909300000000002
 21
96.581500000000005
 31
0.0
  0
LINE
  5
201
  8
_________1
 62
     7
 10
-36.007199999999997
 20
96.581500000000005
 30
0.0
 11
-33.364800000000002
 21
96.581500000000005
 31
0.0
  0
LINE
  5
202
  8
_________1
 62
     7
 10
-36.041600000000003
 20
96.581500000000005
 30
0.0
 11
-36.007199999999997
 21
96.581500000000005
 31
0.0
  0
LINE
  5
203
  8
_________1
 62
     7
 10
-27.760200000000001
 20
96.581500000000005
 30
0.0
 11
-25.6739
 21
96.581500000000005
 31
0.0
  0
LINE
  5
204
  8
_________1
 62
     7
 10
-37.088900000000002
 20
99.073599999999999
 30
0.0
 11
-37.088900000000002
 21
98.450800000000015
 31
0.0
  0
LINE
  5
205
  8
_________1
 62
     7
 10
-24.625900000000001
 20
99.073599999999999
 30
0.0
 11
-24.625900000000001
 21
98.450800000000015
 31
0.0
  0
LINE
  5
206
  8
_________1
 62
     7
 10
-24.625900000000001
 20
98.450800000000015
 30
0.0
 11
-37.088900000000002
 21
98.450800000000015
 31
0.0
  0
LINE
  5
207
  8
_________1
 62
     7
 10
-24.625900000000001
 20
99.073599999999999
 30
0.0
 11
-37.088900000000002
 21
99.073599999999999
 31
0.0
  0
LINE
  5
208
  8
_________1
 62
     7
 10
-24.625900000000001
 20
98.076599999999999
 30
0.0
 11
-24.625900000000001
 21
98.201300000000003
 31
0.0
  0
LINE
  5
209
  8
_________1
 62
     7
 10
-37.088900000000002
 20
98.076599999999999
 30
0.0
 11
-37.088900000000002
 21
98.201300000000003
 31
0.0
  0
ARC
  5
20A
  8
_________1
 62
     7
 10
-25.380215
 20
98.194007999999997
 30
0.0
 40
0.256836
 50
11.082146
 51
88.646872000000002
  0
ARC
  5
20B
  8
_________1
 62
     7
 10
-36.334892000000004
 20
98.194395000000014
 30
0.0
 40
0.256457
 50
91.439886999999985
 51
168.989499
  0
ARC
  5
20C
  8
_________1
 62
     7
 10
-25.076961000000001
 20
98.253523999999985
 30
0.0
 40
0.052203
 50
191.20972900000001
 51
268.24627599999991
  0
ARC
  5
20D
  8
_________1
 62
     7
 10
-36.63794
 20
98.253647000000015
 30
0.0
 40
0.05233
 50
271.86374799999999
 51
348.68028700000002
  0
LINE
  5
20E
  8
_________1
 62
     7
 10
-36.586599999999997
 20
98.243399999999994
 30
0.0
 11
-25.1282
 21
98.243399999999994
 31
0.0
  0
LINE
  5
20F
  8
_________1
 62
     7
 10
-37.088900000000002
 20
98.201300000000003
 30
0.0
 11
-24.625900000000001
 21
98.201300000000003
 31
0.0
  0
LINE
  5
210
  8
_________1
 62
     7
 10
-37.088900000000002
 20
98.076599999999999
 30
0.0
 11
-24.625900000000001
 21
98.076599999999999
 31
0.0
  0
LINE
  5
211
  8
_________1
 62
     7
 10
-33.163600000000002
 20
170.32400000000001
 30
0.0
 11
-33.163600000000002
 21
170.71100000000001
 31
0.0
  0
LINE
  5
212
  8
_________1
 62
     7
 10
-28.5519
 20
170.32400000000001
 30
0.0
 11
-28.5519
 21
170.71100000000001
 31
0.0
  0
LINE
  5
213
  8
_________1
 62
     7
 10
-30.475000000000001
 20
170.32400000000001
 30
0.0
 11
-28.5519
 21
170.32400000000001
 31
0.0
  0
LINE
  5
214
  8
_________1
 62
     7
 10
-33.163600000000002
 20
170.32400000000001
 30
0.0
 11
-30.475000000000001
 21
170.32400000000001
 31
0.0
  0
LINE
  5
215
  8
_________1
 62
     7
 10
-23.3794
 20
107.824
 30
0.0
 11
-23.3794
 21
108.572
 31
0.0
  0
LINE
  5
216
  8
_________1
 62
     7
 10
-38.3354
 20
107.824
 30
0.0
 11
-38.3354
 21
108.572
 31
0.0
  0
LINE
  5
217
  8
_________1
 62
     7
 10
-38.3354
 20
108.572
 30
0.0
 11
-23.3794
 21
108.572
 31
0.0
  0
LINE
  5
218
  8
_________1
 62
     7
 10
-38.3354
 20
107.824
 30
0.0
 11
-23.3794
 21
107.824
 31
0.0
  0
ARC
  5
219
  8
_________1
 62
     7
 10
-35.054461000000003
 20
183.92178899999999
 30
0.0
 40
0.277457
 50
152.34556499999999
 51
179.872016
  0
ARC
  5
21A
  8
_________1
 62
     7
 10
-35.031624000000001
 20
183.908693
 30
0.0
 40
0.303764
 50
130.41574600000001
 51
152.15698399999999
  0
ARC
  5
21B
  8
_________1
 62
     7
 10
-34.962684000000003
 20
183.820897
 30
0.0
 40
0.415328
 50
120.27355900000001
 51
129.80418900000001
  0
ARC
  5
21C
  8
_________1
 62
     7
 10
-34.905450999999999
 20
183.70641800000001
 30
0.0
 40
0.543112
 50
108.333939
 51
119.39964500000001
  0
ARC
  5
21D
  8
_________1
 62
     7
 10
-34.745539000000001
 20
183.26139599999999
 30
0.0
 40
1.015914999999999
 50
102.297217
 51
109.000055
  0
ARC
  5
21E
  8
_________1
 62
     7
 10
-34.53103200000001
 20
182.3670939999999
 30
0.0
 40
1.9354779999999989
 50
96.753762999999992
 51
102.863057
  0
ARC
  5
21F
  8
_________1
 62
     7
 10
-34.329816999999998
 20
181.067767
 30
0.0
 40
3.2497919999999989
 50
94.687398999999999
 51
97.582674000000011
  0
ARC
  5
220
  8
_________1
 62
     7
 10
-34.130161000000001
 20
178.94733500000001
 30
0.0
 40
5.3795089999999988
 50
91.938805000000002
 51
94.961202999999983
  0
ARC
  5
221
  8
_________1
 62
     7
 10
-34.085349999999998
 20
177.83340100000001
 30
0.0
 40
6.494324999999999
 50
90.001080999999999
 51
92.001435000000015
  0
LINE
  5
222
  8
_________1
 62
     7
 10
-27.604500000000002
 20
184.328
 30
0.0
 11
-34.085500000000003
 21
184.328
 31
0.0
  0
ARC
  5
223
  8
_________1
 62
     7
 10
-27.603363999999999
 20
177.902356
 30
0.0
 40
6.4253710000000002
 50
87.379702000000009
 51
90.010291000000024
  0
ARC
  5
224
  8
_________1
 62
     7
 10
-27.525942000000001
 20
179.56219999999999
 30
0.0
 40
4.7637229999999997
 50
82.144295999999997
 51
87.397241000000008
  0
ARC
  5
225
  8
_________1
 62
     7
 10
-27.197108
 20
182.16834800000001
 30
0.0
 40
2.137305
 50
75.899323999999993
 51
81.327801000000008
  0
ARC
  5
226
  8
_________1
 62
     7
 10
-26.902276000000001
 20
183.40106
 30
0.0
 40
0.8700250000000001
 50
67.126071999999994
 51
74.952745999999991
  0
ARC
  5
227
  8
_________1
 62
     7
 10
-26.789650999999999
 20
183.70588699999999
 30
0.0
 40
0.5455899999999999
 50
57.422111999999991
 51
65.580211000000006
  0
ARC
  5
228
  8
_________1
 62
     7
 10
-26.689986000000001
 20
183.872186
 30
0.0
 40
0.351836
 50
46.620902000000001
 51
56.516615000000002
  0
ARC
  5
229
  8
_________1
 62
     7
 10
-26.677728999999999
 20
183.89411699999999
 30
0.0
 40
0.3275349999999999
 50
26.090651000000001
 51
45.544483999999997
  0
ARC
  5
22A
  8
_________1
 62
     7
 10
-26.647214000000002
 20
183.91941399999999
 30
0.0
 40
0.289154
 50
0.5932680000000001
 51
24.247589000000001
  0
LINE
  5
22B
  8
_________1
 62
     7
 10
-26.607500000000002
 20
175.54900000000001
 30
0.0
 11
-26.3581
 21
175.54900000000001
 31
0.0
  0
LINE
  5
22C
  8
_________1
 62
     7
 10
-35.082500000000003
 20
175.54900000000001
 30
0.0
 11
-35.331899999999997
 21
175.54900000000001
 31
0.0
  0
LINE
  5
22D
  8
_________1
 62
     7
 10
-26.3581
 20
180.38
 30
0.0
 11
-26.607500000000002
 21
180.38
 31
0.0
  0
LINE
  5
22E
  8
_________1
 62
     7
 10
-26.607500000000002
 20
175.54900000000001
 30
0.0
 11
-35.082500000000003
 21
175.54900000000001
 31
0.0
  0
LINE
  5
22F
  8
_________1
 62
     7
 10
-26.607500000000002
 20
180.38
 30
0.0
 11
-35.082500000000003
 21
180.38
 31
0.0
  0
ARC
  5
230
  8
_________1
 62
     7
 10
-26.616911000000002
 20
181.86989
 30
0.0
 40
0.259154
 50
272.08078999999998
 51
357.16245700000002
  0
LINE
  5
231
  8
_________1
 62
     7
 10
-26.607500000000002
 20
181.61099999999999
 30
0.0
 11
-35.082500000000003
 21
181.61099999999999
 31
0.0
  0
LINE
  5
232
  8
_________1
 62
     7
 10
-26.3581
 20
183.43000000000001
 30
0.0
 11
-26.3581
 21
183.922
 31
0.0
  0
ARC
  5
233
  8
_________1
 62
     7
 10
-35.073081000000002
 20
181.86989
 30
0.0
 40
0.259154
 50
182.83756299999999
 51
267.91923000000003
  0
LINE
  5
234
  8
_________1
 62
     7
 10
-35.331899999999997
 20
183.43000000000001
 30
0.0
 11
-35.331899999999997
 21
183.922
 31
0.0
  0
LINE
  5
235
  8
_________1
 62
     7
 10
-35.331899999999997
 20
180.38
 30
0.0
 11
-35.082500000000003
 21
180.38
 31
0.0
  0
LINE
  5
236
  8
_________1
 62
     7
 10
-26.3581
 20
175.54900000000001
 30
0.0
 11
-26.3581
 21
180.38
 31
0.0
  0
LINE
  5
237
  8
_________1
 62
     7
 10
-26.3581
 20
181.857
 30
0.0
 11
-26.3581
 21
180.38
 31
0.0
  0
LINE
  5
238
  8
_________1
 62
     7
 10
-26.3581
 20
181.857
 30
0.0
 11
-26.3581
 21
183.43000000000001
 31
0.0
  0
ARC
  5
239
  8
_________1
 62
     7
 10
-27.606066999999999
 20
176.52047400000001
 30
0.0
 40
7.1046209999999999
 50
83.580250000000007
 51
89.987507999999991
  0
ARC
  5
23A
  8
_________1
 62
     7
 10
-27.157057999999999
 20
180.82918699999999
 30
0.0
 40
2.7729499999999989
 50
78.722094999999996
 51
82.845275999999998
  0
ARC
  5
23B
  8
_________1
 62
     7
 10
-26.853636999999999
 20
182.329452
 30
0.0
 40
1.242321999999999
 50
72.545339999999996
 51
78.913871999999998
  0
ARC
  5
23C
  8
_________1
 62
     7
 10
-26.612537
 20
183.088413
 30
0.0
 40
0.445995
 50
62.321066000000009
 51
72.846885
  0
ARC
  5
23D
  8
_________1
 62
     7
 10
-26.465344999999999
 20
183.36585299999999
 30
0.0
 40
0.13194
 50
43.834291
 51
62.960582999999993
  0
ARC
  5
23E
  8
_________1
 62
     7
 10
-26.400196000000001
 20
183.42759899999999
 30
0.0
 40
0.042185
 50
3.1657659999999992
 51
44.622878000000007
  0
LINE
  5
23F
  8
_________1
 62
     7
 10
-27.604500000000002
 20
183.625
 30
0.0
 11
-34.085500000000003
 21
183.625
 31
0.0
  0
ARC
  5
240
  8
_________1
 62
     7
 10
-34.083931999999997
 20
176.52058099999999
 30
0.0
 40
7.1045139999999991
 50
90.012423999999996
 51
96.419778000000008
  0
ARC
  5
241
  8
_________1
 62
     7
 10
-34.533155000000001
 20
180.83054799999999
 30
0.0
 40
2.771571999999999
 50
97.153677999999999
 51
101.27891099999999
  0
ARC
  5
242
  8
_________1
 62
     7
 10
-34.836221000000002
 20
182.32886400000001
 30
0.0
 40
1.2429250000000001
 50
101.08698200000001
 51
107.452665
  0
ARC
  5
243
  8
_________1
 62
     7
 10
-35.077572000000004
 20
183.088719
 30
0.0
 40
0.44567
 50
107.151003
 51
117.683881
  0
ARC
  5
244
  8
_________1
 62
     7
 10
-35.224553999999998
 20
183.36570900000001
 30
0.0
 40
0.132111
 50
117.046722
 51
136.14997500000001
  0
ARC
  5
245
  8
_________1
 62
     7
 10
-35.289834999999997
 20
183.4276219999999
 30
0.0
 40
0.042145
 50
135.36778799999999
 51
176.862416
  0
LINE
  5
246
  8
_________1
 62
     7
 10
-35.331899999999997
 20
181.857
 30
0.0
 11
-35.331899999999997
 21
183.43000000000001
 31
0.0
  0
LINE
  5
247
  8
_________1
 62
     7
 10
-35.331899999999997
 20
181.857
 30
0.0
 11
-35.331899999999997
 21
180.38
 31
0.0
  0
LINE
  5
248
  8
_________1
 62
     7
 10
-35.331899999999997
 20
175.54900000000001
 30
0.0
 11
-35.331899999999997
 21
180.38
 31
0.0
  0
ARC
  5
249
  8
_________1
 62
     7
 10
-30.950748000000001
 20
174.713751
 30
0.0
 40
4.2747199999999994
 50
3.178971999999999
 51
11.265998
  0
ARC
  5
24A
  8
_________1
 62
     7
 10
-30.705314999999999
 20
174.701323
 30
0.0
 40
4.3347509999999989
 50
168.724538
 51
176.70053999999999
  0
LINE
  5
24B
  8
_________1
 62
     7
 10
-34.073099999999997
 20
170.71100000000001
 30
0.0
 11
-34.073099999999997
 21
170.96000000000001
 31
0.0
  0
LINE
  5
24C
  8
_________1
 62
     7
 10
-27.642399999999999
 20
170.96000000000001
 30
0.0
 11
-27.642399999999999
 21
170.71100000000001
 31
0.0
  0
LINE
  5
24D
  8
_________1
 62
     7
 10
-34.073099999999997
 20
174.702
 30
0.0
 11
-34.073099999999997
 21
174.95099999999999
 31
0.0
  0
LINE
  5
24E
  8
_________1
 62
     7
 10
-27.642399999999999
 20
174.95099999999999
 30
0.0
 11
-27.642399999999999
 21
174.702
 31
0.0
  0
LINE
  5
24F
  8
_________1
 62
     7
 10
-27.642399999999999
 20
174.702
 30
0.0
 11
-27.642399999999999
 21
170.96000000000001
 31
0.0
  0
LINE
  5
250
  8
_________1
 62
     7
 10
-34.073099999999997
 20
174.702
 30
0.0
 11
-34.073099999999997
 21
170.96000000000001
 31
0.0
  0
ARC
  5
251
  8
_________1
 62
     7
 10
-35.060460999999997
 20
174.69174599999999
 30
0.0
 40
0.259239
 50
92.128262000000007
 51
177.83212599999999
  0
LINE
  5
252
  8
_________1
 62
     7
 10
-35.319499999999998
 20
174.702
 30
0.0
 11
-35.319499999999998
 21
170.96000000000001
 31
0.0
  0
ARC
  5
253
  8
_________1
 62
     7
 10
-26.654847
 20
174.69195199999999
 30
0.0
 40
0.259053
 50
2.1238579999999998
 51
87.757220000000004
  0
LINE
  5
254
  8
_________1
 62
     7
 10
-26.396000000000001
 20
174.702
 30
0.0
 11
-26.396000000000001
 21
170.96000000000001
 31
0.0
  0
LINE
  5
255
  8
_________1
 62
     7
 10
-35.319499999999998
 20
166.97200000000001
 30
0.0
 11
-35.070099999999996
 21
166.97200000000001
 31
0.0
  0
LINE
  5
256
  8
_________1
 62
     7
 10
-26.6447
 20
166.97200000000001
 30
0.0
 11
-35.070099999999996
 21
166.97200000000001
 31
0.0
  0
ARC
  5
257
  8
_________1
 62
     7
 10
-35.060617999999998
 20
170.96980400000001
 30
0.0
 40
0.259076
 50
182.13445200000001
 51
267.90516000000002
  0
LINE
  5
258
  8
_________1
 62
     7
 10
-26.396000000000001
 20
166.97200000000001
 30
0.0
 11
-26.6447
 21
166.97200000000001
 31
0.0
  0
ARC
  5
259
  8
_________1
 62
     7
 10
-26.654354000000001
 20
170.96926400000001
 30
0.0
 40
0.258543
 50
272.13797899999997
 51
357.98094300000002
  0
LINE
  5
25A
  8
_________1
 62
     7
 10
-26.6447
 20
174.95099999999999
 30
0.0
 11
-27.642399999999999
 21
174.95099999999999
 31
0.0
  0
LINE
  5
25B
  8
_________1
 62
     7
 10
-27.642399999999999
 20
174.95099999999999
 30
0.0
 11
-34.073099999999997
 21
174.95099999999999
 31
0.0
  0
LINE
  5
25C
  8
_________1
 62
     7
 10
-34.073099999999997
 20
174.95099999999999
 30
0.0
 11
-35.070099999999996
 21
174.95099999999999
 31
0.0
  0
LINE
  5
25D
  8
_________1
 62
     7
 10
-35.319499999999998
 20
166.97200000000001
 30
0.0
 11
-35.319499999999998
 21
108.572
 31
0.0
  0
LINE
  5
25E
  8
_________1
 62
     7
 10
-35.319499999999998
 20
166.97200000000001
 30
0.0
 11
-35.319499999999998
 21
170.96000000000001
 31
0.0
  0
LINE
  5
25F
  8
_________1
 62
     7
 10
-34.073099999999997
 20
170.71100000000001
 30
0.0
 11
-35.070099999999996
 21
170.71100000000001
 31
0.0
  0
LINE
  5
260
  8
_________1
 62
     7
 10
-26.396000000000001
 20
166.97200000000001
 30
0.0
 11
-26.396000000000001
 21
108.572
 31
0.0
  0
LINE
  5
261
  8
_________1
 62
     7
 10
-26.396000000000001
 20
170.96000000000001
 30
0.0
 11
-26.396000000000001
 21
166.97200000000001
 31
0.0
  0
LINE
  5
262
  8
_________1
 62
     7
 10
-26.6447
 20
170.71100000000001
 30
0.0
 11
-27.642399999999999
 21
170.71100000000001
 31
0.0
  0
LINE
  5
263
  8
_________1
 62
     7
 10
-27.642399999999999
 20
170.71100000000001
 30
0.0
 11
-34.073099999999997
 21
170.71100000000001
 31
0.0
  0
LINE
  5
264
  8
_________1
  6
AIGENLINE002
 62
     7
 10
-32.732599999999998
 20
106.286
 30
0.0
 11
-32.732599999999998
 21
76.503299999999996
 31
0.0
  0
LINE
  5
265
  8
_________1
  6
AIGENLINE002
 62
     7
 10
-47.357399999999991
 20
93.073599999999999
 30
0.0
 11
-32.732599999999998
 21
76.503299999999996
 31
0.0
  0
LINE
  5
266
  8
_________1
  6
AIGENLINE002
 62
     7
 10
-28.982600000000001
 20
106.286
 30
0.0
 11
-28.982600000000001
 21
76.503299999999996
 31
0.0
  0
LINE
  5
267
  8
_________1
 62
     7
 10
-11.603999999999999
 20
51.73429999999999
 30
0.0
 11
-11.603999999999999
 21
49.108400000000003
 31
0.0
  0
LINE
  5
268
  8
_________1
 62
     7
 10
-12.98
 20
51.73429999999999
 30
0.0
 11
-12.98
 21
49.108400000000003
 31
0.0
  0
ARC
  5
269
  8
_________1
 62
     7
 10
-14.969194999999999
 20
56.925733999999999
 30
0.0
 40
8.5108619999999995
 50
291.64301499999999
 51
293.29081500000001
  0
ARC
  5
26A
  8
_________1
 62
     7
 10
-12.517963
 20
50.782254999999999
 30
0.0
 40
1.896471
 50
281.78779100000003
 51
291.26332000000002
  0
ARC
  5
26B
  8
_________1
 62
     7
 10
-12.311904
 20
49.873190000000001
 30
0.0
 40
0.9646139999999999
 50
270.46569699999998
 51
280.83723800000001
  0
ARC
  5
26C
  8
_________1
 62
     7
 10
-12.303926000000001
 20
49.814678999999998
 30
0.0
 40
0.9060719999999999
 50
257.531318
 51
269.99130600000001
  0
ARC
  5
26D
  8
_________1
 62
     7
 10
-12.18066
 20
50.44164
 30
0.0
 40
1.544932
 50
247.19223
 51
258.087828
  0
ARC
  5
26E
  8
_________1
 62
     7
 10
-11.715460999999999
 20
51.630023000000001
 30
0.0
 40
2.820905999999999
 50
243.36709300000001
 51
247.838954
  0
ARC
  5
26F
  8
_________1
 62
     7
 10
-12.224104000000001
 20
50.616240999999988
 30
0.0
 40
1.349596999999999
 50
97.382283000000015
 51
124.06180000000001
  0
ARC
  5
270
  8
_________1
 62
     7
 10
-12.30297
 20
51.054819999999999
 30
0.0
 40
0.9047829999999999
 50
90.069248000000016
 51
95.997880000000009
  0
ARC
  5
271
  8
_________1
 62
     7
 10
-12.304861000000001
 20
51.041284999999988
 30
0.0
 40
0.9183189999999999
 50
77.80587100000001
 51
89.950249999999997
  0
ARC
  5
272
  8
_________1
 62
     7
 10
-12.395030999999999
 20
50.575705999999997
 30
0.0
 40
1.392476
 50
66.812563999999995
 51
78.225831999999997
  0
ARC
  5
273
  8
_________1
 62
     7
 10
-12.626087
 20
49.994154000000002
 30
0.0
 40
2.018095999999999
 50
59.572125999999997
 51
67.283528000000004
  0
LINE
  5
274
  8
_________1
 62
     7
 10
-17.1052
 20
51.73429999999999
 30
0.0
 11
-17.1052
 21
49.108400000000003
 31
0.0
  0
LINE
  5
275
  8
_________1
 62
     7
 10
-15.729900000000001
 20
51.73429999999999
 30
0.0
 11
-15.729900000000001
 21
49.108400000000003
 31
0.0
  0
ARC
  5
276
  8
_________1
 62
     7
 10
-19.082799999999999
 20
56.903987999999998
 30
0.0
 40
8.4860380000000006
 50
291.6592
 51
293.2727900000001
  0
ARC
  5
277
  8
_________1
 62
     7
 10
-16.686986999999998
 20
50.896557000000001
 30
0.0
 40
2.0185209999999989
 50
282.22853800000001
 51
291.39219900000001
  0
ARC
  5
278
  8
_________1
 62
     7
 10
-16.415645999999999
 20
49.713720000000002
 30
0.0
 40
0.8051809999999999
 50
270.748198
 51
281.18629499999997
  0
ARC
  5
279
  8
_________1
 62
     7
 10
-16.404323000000002
 20
49.816139
 30
0.0
 40
0.9075319999999999
 50
257.811983
 51
269.94892599999997
  0
ARC
  5
27A
  8
_________1
 62
     7
 10
-16.305178000000002
 20
50.349707999999993
 30
0.0
 40
1.450091999999999
 50
252.94235800000001
 51
258.43382700000001
  0
ARC
  5
27B
  8
_________1
 62
     7
 10
-16.057326
 20
51.154074000000001
 30
0.0
 40
2.2917770000000002
 50
248.54088300000001
 51
252.917306
  0
ARC
  5
27C
  8
_________1
 62
     7
 10
-14.632605
 20
54.748089
 30
0.0
 40
6.157875999999999
 50
246.32612599999999
 51
248.43730600000001
  0
ARC
  5
27D
  8
_________1
 62
     7
 10
-16.103242999999999
 20
50.021223999999997
 30
0.0
 40
1.984561
 50
107.879918
 51
120.322425
  0
ARC
  5
27E
  8
_________1
 62
     7
 10
-16.380679000000001
 20
50.832070999999999
 30
0.0
 40
1.1277969999999991
 50
91.242338000000004
 51
107.113371
  0
ARC
  5
27F
  8
_________1
 62
     7
 10
-16.405861000000002
 20
51.191922999999989
 30
0.0
 40
0.76768
 50
76.148776999999995
 51
89.945532999999983
  0
ARC
  5
280
  8
_________1
 62
     7
 10
-16.549745000000001
 20
50.511774000000003
 30
0.0
 40
1.4626799999999991
 50
65.859251999999998
 51
77.054819999999992
  0
ARC
  5
281
  8
_________1
 62
     7
 10
-16.792058000000001
 20
49.911722999999988
 30
0.0
 40
2.1094939999999989
 50
59.766919999999992
 51
66.518923999999998
  0
ARC
  5
282
  8
_________1
 62
     7
 10
-11.665165
 20
42.532975999999991
 30
0.0
 40
6.7056170000000002
 50
101.307756
 51
103.212599
  0
ARC
  5
283
  8
_________1
 62
     7
 10
-14.679888999999999
 20
54.687775000000002
 30
0.0
 40
5.8185999999999991
 50
278.61310900000001
 51
284.756394
  0
ARC
  5
284
  8
_________1
 62
     7
 10
-14.154759
 20
51.19924799999999
 30
0.0
 40
2.290775
 50
270.619889
 51
278.69412499999999
  0
LINE
  5
285
  8
_________1
 62
     7
 10
-14.130000000000001
 20
48.908599999999993
 30
0.0
 11
-14.5792
 21
48.908599999999993
 31
0.0
  0
ARC
  5
286
  8
_________1
 62
     7
 10
-14.578897
 20
50.870109999999997
 30
0.0
 40
1.9615029999999991
 50
261.54105600000003
 51
269.99059
  0
ARC
  5
287
  8
_________1
 62
     7
 10
-14.364563
 20
52.528281000000007
 30
0.0
 40
3.633303999999999
 50
258.55842999999999
 51
262.04435799999999
  0
ARC
  5
288
  8
_________1
 62
     7
 10
-12.956918
 20
59.369008000000001
 30
0.0
 40
10.617345
 50
256.53720400000009
 51
258.43600900000001
  0
ARC
  5
289
  8
_________1
 62
     7
 10
-16.848182000000001
 20
43.199119000000003
 30
0.0
 40
6.014189
 50
76.348943999999989
 51
79.283904000000007
  0
ARC
  5
28A
  8
_________1
 62
     7
 10
-14.489057000000001
 20
48.077263000000002
 30
0.0
 40
3.8618030000000001
 50
102.812912
 51
108.74207800000001
  0
ARC
  5
28B
  8
_________1
 62
     7
 10
-14.249629000000001
 20
47.218265000000002
 30
0.0
 40
4.7527039999999996
 50
94.32944599999999
 51
103.330918
  0
ARC
  5
28C
  8
_________1
 62
     7
 10
-14.461724
 20
49.672137999999997
 30
0.0
 40
2.2899720000000001
 50
87.318690000000004
 51
93.672809999999998
  0
ARC
  5
28D
  8
_________1
 62
     7
 10
-14.27134
 20
50.543774999999997
 30
0.0
 40
1.418274
 50
88.960406000000006
 51
93.365382999999994
  0
ARC
  5
28E
  8
_________1
 62
     7
 10
-14.285002
 20
49.386907000000001
 30
0.0
 40
2.5752090000000001
 50
85.185453999999993
 51
89.123485000000002
  0
ARC
  5
28F
  8
_________1
 62
     7
 10
-14.482396
 20
47.074953000000001
 30
0.0
 40
4.895573999999999
 50
72.128121999999991
 51
85.154398999999998
  0
LINE
  5
290
  8
_________1
 62
     7
 10
-13.104699999999999
 20
52.135300000000001
 30
0.0
 11
-14.3546
 21
52.135300000000001
 31
0.0
  0
LINE
  5
291
  8
_________1
 62
     7
 10
-15.6045
 20
52.135300000000001
 30
0.0
 11
-14.3546
 21
52.135300000000001
 31
0.0
  0
LINE
  5
292
  8
_________1
 62
     7
 10
-16.655899999999999
 20
48.858999999999988
 30
0.0
 11
-14.3546
 21
48.858999999999988
 31
0.0
  0
LINE
  5
293
  8
_________1
 62
     7
 10
-14.3546
 20
48.858999999999988
 30
0.0
 11
-12.053900000000001
 21
48.858999999999988
 31
0.0
  0
LINE
  5
294
  8
_________1
 62
     7
 10
-11.754200000000001
 20
49.058799999999991
 30
0.0
 11
-12.053900000000001
 21
48.883800000000001
 31
0.0
  0
LINE
  5
295
  8
_________1
 62
     7
 10
-12.053900000000001
 20
48.883800000000001
 30
0.0
 11
-12.053900000000001
 21
48.858999999999988
 31
0.0
  0
LINE
  5
296
  8
_________1
 62
     7
 10
-11.603999999999999
 20
49.108400000000003
 30
0.0
 11
-12.053900000000001
 21
48.883800000000001
 31
0.0
  0
LINE
  5
297
  8
_________1
 62
     7
 10
-17.1052
 20
49.108400000000003
 30
0.0
 11
-16.655899999999999
 21
48.858999999999988
 31
0.0
  0
LINE
  5
298
  8
_________1
 62
     7
 10
-16.655899999999999
 20
51.984400000000001
 30
0.0
 11
-12.053900000000001
 21
51.984400000000001
 31
0.0
  0
LINE
  5
299
  8
_________1
 62
     7
 10
-15.9049
 20
52.109099999999998
 30
0.0
 11
-12.8043
 21
52.109099999999998
 31
0.0
  0
ARC
  5
29A
  8
_________1
 62
     7
 10
-13.355921
 20
52.805768000000008
 30
0.0
 40
0.7159810000000002
 50
290.54016999999999
 51
326.531432
  0
ARC
  5
29B
  8
_________1
 62
     7
 10
-13.185765
 20
52.667039000000003
 30
0.0
 40
0.498013
 50
329.05046299999998
 51
341.55181299999998
  0
LINE
  5
29C
  8
_________1
 62
     7
 10
-12.7133
 20
52.509399999999992
 30
0.0
 11
-12.679600000000001
 21
52.609400000000001
 31
0.0
  0
LINE
  5
29D
  8
_________1
 62
     7
 10
-12.679600000000001
 20
52.609400000000001
 30
0.0
 11
-12.679600000000001
 21
52.759599999999999
 31
0.0
  0
LINE
  5
29E
  8
_________1
 62
     7
 10
-12.679600000000001
 20
52.759599999999999
 30
0.0
 11
-12.729200000000001
 21
52.934600000000003
 31
0.0
  0
LINE
  5
29F
  8
_________1
 62
     7
 10
-16.004799999999999
 20
52.934600000000003
 30
0.0
 11
-15.98
 21
52.934600000000003
 31
0.0
  0
ARC
  5
2A0
  8
_________1
 62
     7
 10
91.183526999999998
 20
37.653260000000003
 30
0.0
 40
108.272147
 50
171.88628
 51
171.97981899999999
  0
LINE
  5
2A1
  8
_________1
 62
     7
 10
-16.029599999999999
 20
52.759599999999999
 30
0.0
 11
-16.029599999999999
 21
52.609400000000001
 31
0.0
  0
LINE
  5
2A2
  8
_________1
 62
     7
 10
-16.029599999999999
 20
52.609400000000001
 30
0.0
 11
-15.997199999999999
 21
52.509399999999992
 31
0.0
  0
ARC
  5
2A3
  8
_________1
 62
     7
 10
-14.922388
 20
52.869292000000002
 30
0.0
 40
1.1334799999999989
 50
198.51013499999999
 51
203.26190600000001
  0
ARC
  5
2A4
  8
_________1
 62
     7
 10
-15.525074
 20
52.609293999999991
 30
0.0
 40
0.477105
 50
203.16091
 51
222.265807
  0
ARC
  5
2A5
  8
_________1
 62
     7
 10
-15.594915
 20
52.564865000000012
 30
0.0
 40
0.39579
 50
224.306589
 51
234.68706
  0
ARC
  5
2A6
  8
_________1
 62
     7
 10
-15.404059
 20
52.840181000000001
 30
0.0
 40
0.7307800000000001
 50
234.95395400000001
 51
242.41062199999999
  0
ARC
  5
2A7
  8
_________1
 62
     7
 10
-13.676303000000001
 20
56.141860000000001
 30
0.0
 40
4.4572029999999989
 50
242.382621
 51
244.013184
  0
LINE
  5
2A8
  8
_________1
 62
     7
 10
-15.629300000000001
 20
52.135300000000001
 30
0.0
 11
-15.6045
 21
52.135300000000001
 31
0.0
  0
LINE
  5
2A9
  8
_________1
 62
     7
 10
-15.805
 20
53.359699999999989
 30
0.0
 11
-12.929
 21
53.359699999999989
 31
0.0
  0
LINE
  5
2AA
  8
_________1
 62
     7
 10
-15.805
 20
55.359900000000003
 30
0.0
 11
-14.3546
 21
55.359900000000003
 31
0.0
  0
LINE
  5
2AB
  8
_________1
 62
     7
 10
-14.3546
 20
55.359900000000003
 30
0.0
 11
-12.929
 21
55.359900000000003
 31
0.0
  0
LINE
  5
2AC
  8
_________1
 62
     7
 10
-12.679600000000001
 20
55.909799999999997
 30
0.0
 11
-12.679600000000001
 21
55.7851
 31
0.0
  0
LINE
  5
2AD
  8
_________1
 62
     7
 10
-12.679600000000001
 20
55.7851
 30
0.0
 11
-12.7547
 21
55.659700000000001
 31
0.0
  0
LINE
  5
2AE
  8
_________1
 62
     7
 10
-16.055099999999999
 20
55.909799999999997
 30
0.0
 11
-16.029599999999999
 21
55.7851
 31
0.0
  0
LINE
  5
2AF
  8
_________1
 62
     7
 10
-16.029599999999999
 20
55.7851
 30
0.0
 11
-15.98
 21
55.659700000000001
 31
0.0
  0
LINE
  5
2B0
  8
_________1
 62
     7
 10
-16.055099999999999
 20
56.610500000000002
 30
0.0
 11
-12.679600000000001
 21
56.610500000000002
 31
0.0
  0
LINE
  5
2B1
  8
_________1
 62
     7
 10
-16.055099999999999
 20
56.610500000000002
 30
0.0
 11
-16.055099999999999
 21
55.909799999999997
 31
0.0
  0
LINE
  5
2B2
  8
_________1
 62
     7
 10
-12.679600000000001
 20
56.610500000000002
 30
0.0
 11
-12.679600000000001
 21
55.909799999999997
 31
0.0
  0
LINE
  5
2B3
  8
_________1
 62
     7
 10
-12.053900000000001
 20
51.984400000000001
 30
0.0
 11
-11.603999999999999
 21
51.73429999999999
 31
0.0
  0
LINE
  5
2B4
  8
_________1
 62
     7
 10
-16.655899999999999
 20
51.984400000000001
 30
0.0
 11
-17.1052
 21
51.73429999999999
 31
0.0
  0
LINE
  5
2B5
  8
_________1
 62
     7
 10
-15.98
 20
55.659700000000001
 30
0.0
 11
-15.805
 21
55.359900000000003
 31
0.0
  0
LINE
  5
2B6
  8
_________1
 62
     7
 10
-15.805
 20
53.359699999999989
 30
0.0
 11
-15.98
 21
52.934600000000003
 31
0.0
  0
LINE
  5
2B7
  8
_________1
 62
     7
 10
-12.7547
 20
55.659700000000001
 30
0.0
 11
-12.929
 21
55.359900000000003
 31
0.0
  0
LINE
  5
2B8
  8
_________1
 62
     7
 10
-12.929
 20
53.359699999999989
 30
0.0
 11
-12.729200000000001
 21
52.934600000000003
 31
0.0
  0
LINE
  5
2B9
  8
_________1
 62
     7
 10
-15.805
 20
55.359900000000003
 30
0.0
 11
-15.805
 21
53.359699999999989
 31
0.0
  0
LINE
  5
2BA
  8
_________1
 62
     7
 10
-12.929
 20
55.359900000000003
 30
0.0
 11
-12.929
 21
53.359699999999989
 31
0.0
  0
LINE
  5
2BB
  8
_________1
 62
     7
 10
-15.9049
 20
52.109099999999998
 30
0.0
 11
-15.9049
 21
51.984400000000001
 31
0.0
  0
LINE
  5
2BC
  8
_________1
 62
     7
 10
-12.8043
 20
52.109099999999998
 30
0.0
 11
-12.8043
 21
51.984400000000001
 31
0.0
  0
LINE
  5
2BD
  8
_________1
 62
     7
 10
-17.1052
 20
49.108400000000003
 30
0.0
 11
-16.655899999999999
 21
48.858999999999988
 31
0.0
  0
LINE
  5
2BE
  8
_________1
 62
     7
 10
-11.603999999999999
 20
49.108400000000003
 30
0.0
 11
-12.053900000000001
 21
48.858999999999988
 31
0.0
  0
LINE
  5
2BF
  8
_________1
 62
     7
 10
-13.045500000000001
 20
88.222199999999987
 30
0.0
 11
-13.045500000000001
 21
56.610500000000002
 31
0.0
  0
LINE
  5
2C0
  8
_________1
 62
     7
 10
-15.6699
 20
88.222199999999987
 30
0.0
 11
-15.6699
 21
56.610500000000002
 31
0.0
  0
LINE
  5
2C1
  8
_________1
  6
AIGENLINE002
 62
     7
 10
-14.3574
 20
93.073599999999999
 30
0.0
 11
-14.3574
 21
47.551900000000003
 31
0.0
  0
LINE
  5
2C2
  8
_________1
 62
     7
 10
-44.604100000000003
 20
51.73429999999999
 30
0.0
 11
-44.604100000000003
 21
49.108400000000003
 31
0.0
  0
LINE
  5
2C3
  8
_________1
 62
     7
 10
-45.9801
 20
51.73429999999999
 30
0.0
 11
-45.9801
 21
49.108400000000003
 31
0.0
  0
ARC
  5
2C4
  8
_________1
 62
     7
 10
-47.969284000000002
 20
56.925733999999999
 30
0.0
 40
8.5108619999999995
 50
291.64301499999999
 51
293.29081500000001
  0
ARC
  5
2C5
  8
_________1
 62
     7
 10
-45.518051999999997
 20
50.782254999999999
 30
0.0
 40
1.896471
 50
281.78779100000003
 51
291.26332000000002
  0
ARC
  5
2C6
  8
_________1
 62
     7
 10
-45.311992999999987
 20
49.873190000000001
 30
0.0
 40
0.9646139999999999
 50
270.46569699999998
 51
280.83723800000001
  0
ARC
  5
2C7
  8
_________1
 62
     7
 10
-45.304015999999997
 20
49.814628999999996
 30
0.0
 40
0.9060209999999999
 50
257.53096799999997
 51
269.99131499999999
  0
ARC
  5
2C8
  8
_________1
 62
     7
 10
-45.180710999999988
 20
50.441782000000011
 30
0.0
 40
1.545078
 50
247.19296499999999
 51
258.0877200000001
  0
ARC
  5
2C9
  8
_________1
 62
     7
 10
-44.714320000000001
 20
51.63273499999999
 30
0.0
 40
2.8238819999999989
 50
243.36945
 51
247.83659700000001
  0
ARC
  5
2CA
  8
_________1
 62
     7
 10
-45.22419399999999
 20
50.616240999999988
 30
0.0
 40
1.349596999999999
 50
97.382283000000015
 51
124.06180000000001
  0
ARC
  5
2CB
  8
_________1
 62
     7
 10
-45.303059999999988
 20
51.054819999999999
 30
0.0
 40
0.9047829999999999
 50
90.069248000000016
 51
95.997880000000009
  0
ARC
  5
2CC
  8
_________1
 62
     7
 10
-45.304943999999999
 20
51.041342999999998
 30
0.0
 40
0.91826
 50
77.805482999999995
 51
89.950637999999998
  0
ARC
  5
2CD
  8
_________1
 62
     7
 10
-45.395119999999999
 20
50.575705999999997
 30
0.0
 40
1.392476
 50
66.812563999999995
 51
78.225831999999997
  0
ARC
  5
2CE
  8
_________1
 62
     7
 10
-45.626176999999991
 20
49.994154000000002
 30
0.0
 40
2.018095999999999
 50
59.572125999999997
 51
67.283528000000004
  0
LINE
  5
2CF
  8
_________1
 62
     7
 10
-50.1053
 20
51.73429999999999
 30
0.0
 11
-50.1053
 21
49.108400000000003
 31
0.0
  0
LINE
  5
2D0
  8
_________1
 62
     7
 10
-48.729999999999997
 20
51.73429999999999
 30
0.0
 11
-48.729999999999997
 21
49.108400000000003
 31
0.0
  0
ARC
  5
2D1
  8
_________1
 62
     7
 10
-52.082889000000002
 20
56.903987999999998
 30
0.0
 40
8.4860380000000006
 50
291.6592
 51
293.2727900000001
  0
ARC
  5
2D2
  8
_________1
 62
     7
 10
-49.687075999999998
 20
50.896557000000001
 30
0.0
 40
2.0185209999999989
 50
282.22853800000001
 51
291.39219900000001
  0
ARC
  5
2D3
  8
_________1
 62
     7
 10
-49.415734999999998
 20
49.713720000000002
 30
0.0
 40
0.8051809999999999
 50
270.748198
 51
281.18629499999997
  0
ARC
  5
2D4
  8
_________1
 62
     7
 10
-49.404412000000001
 20
49.816139
 30
0.0
 40
0.9075319999999999
 50
257.811983
 51
269.94892599999997
  0
ARC
  5
2D5
  8
_________1
 62
     7
 10
-49.305408
 20
50.349091999999999
 30
0.0
 40
1.44946
 50
252.94071400000001
 51
258.43437299999999
  0
ARC
  5
2D6
  8
_________1
 62
     7
 10
-49.057409
 20
51.154074000000001
 30
0.0
 40
2.2917770000000002
 50
248.54088300000001
 51
252.917306
  0
ARC
  5
2D7
  8
_________1
 62
     7
 10
-47.635063999999993
 20
54.742539000000001
 30
0.0
 40
6.1518420000000003
 50
246.32559000000001
 51
248.43888699999999
  0
ARC
  5
2D8
  8
_________1
 62
     7
 10
-49.103332000000002
 20
50.021223999999997
 30
0.0
 40
1.984561
 50
107.879918
 51
120.322425
  0
ARC
  5
2D9
  8
_________1
 62
     7
 10
-49.380769000000001
 20
50.832070999999999
 30
0.0
 40
1.1277969999999991
 50
91.242338000000004
 51
107.113371
  0
ARC
  5
2DA
  8
_________1
 62
     7
 10
-49.405951000000002
 20
51.191922999999989
 30
0.0
 40
0.76768
 50
76.148776999999995
 51
89.945532999999983
  0
ARC
  5
2DB
  8
_________1
 62
     7
 10
-49.549833999999997
 20
50.511774000000003
 30
0.0
 40
1.4626799999999991
 50
65.859251999999998
 51
77.054819999999992
  0
ARC
  5
2DC
  8
_________1
 62
     7
 10
-49.792147999999997
 20
49.911722999999988
 30
0.0
 40
2.1094939999999989
 50
59.766919999999992
 51
66.518923999999998
  0
ARC
  5
2DD
  8
_________1
 62
     7
 10
-44.665253999999997
 20
42.532975999999991
 30
0.0
 40
6.7056170000000002
 50
101.307756
 51
103.212599
  0
ARC
  5
2DE
  8
_________1
 62
     7
 10
-47.679979000000003
 20
54.687775000000002
 30
0.0
 40
5.8185999999999991
 50
278.61310900000001
 51
284.756394
  0
ARC
  5
2DF
  8
_________1
 62
     7
 10
-47.154848999999992
 20
51.19924799999999
 30
0.0
 40
2.290775
 50
270.619889
 51
278.69412499999999
  0
LINE
  5
2E0
  8
_________1
 62
     7
 10
-47.130099999999992
 20
48.908599999999993
 30
0.0
 11
-47.579300000000003
 21
48.908599999999993
 31
0.0
  0
ARC
  5
2E1
  8
_________1
 62
     7
 10
-47.578985999999993
 20
50.870109999999997
 30
0.0
 40
1.9615029999999991
 50
261.54105600000003
 51
269.99059
  0
ARC
  5
2E2
  8
_________1
 62
     7
 10
-47.364652
 20
52.528281000000007
 30
0.0
 40
3.633303999999999
 50
258.55842999999999
 51
262.04435799999999
  0
ARC
  5
2E3
  8
_________1
 62
     7
 10
-45.957006999999997
 20
59.369008000000001
 30
0.0
 40
10.617345
 50
256.53720400000009
 51
258.43600900000001
  0
ARC
  5
2E4
  8
_________1
 62
     7
 10
-49.848270999999997
 20
43.199119000000003
 30
0.0
 40
6.014189
 50
76.348943999999989
 51
79.283904000000007
  0
ARC
  5
2E5
  8
_________1
 62
     7
 10
-47.489146999999988
 20
48.077263000000002
 30
0.0
 40
3.8618030000000001
 50
102.812912
 51
108.74207800000001
  0
ARC
  5
2E6
  8
_________1
 62
     7
 10
-47.249718000000001
 20
47.218265000000002
 30
0.0
 40
4.7527039999999996
 50
94.32944599999999
 51
103.330918
  0
ARC
  5
2E7
  8
_________1
 62
     7
 10
-47.461812999999992
 20
49.672137999999997
 30
0.0
 40
2.2899720000000001
 50
87.318690000000004
 51
93.672809999999998
  0
ARC
  5
2E8
  8
_________1
 62
     7
 10
-47.271430000000002
 20
50.543774999999997
 30
0.0
 40
1.418274
 50
88.960406000000006
 51
93.365382999999994
  0
ARC
  5
2E9
  8
_________1
 62
     7
 10
-47.285090999999987
 20
49.386907000000001
 30
0.0
 40
2.5752090000000001
 50
85.185453999999993
 51
89.123485000000002
  0
ARC
  5
2EA
  8
_________1
 62
     7
 10
-47.48248499999999
 20
47.074953000000001
 30
0.0
 40
4.895573999999999
 50
72.128121999999991
 51
85.154398999999998
  0
LINE
  5
2EB
  8
_________1
 62
     7
 10
-46.10479999999999
 20
52.135300000000001
 30
0.0
 11
-47.354700000000001
 21
52.135300000000001
 31
0.0
  0
LINE
  5
2EC
  8
_________1
 62
     7
 10
-48.604599999999991
 20
52.135300000000001
 30
0.0
 11
-47.354700000000001
 21
52.135300000000001
 31
0.0
  0
LINE
  5
2ED
  8
_________1
 62
     7
 10
-49.656000000000013
 20
48.858999999999988
 30
0.0
 11
-47.354700000000001
 21
48.858999999999988
 31
0.0
  0
LINE
  5
2EE
  8
_________1
 62
     7
 10
-47.354700000000001
 20
48.858999999999988
 30
0.0
 11
-45.053999999999988
 21
48.858999999999988
 31
0.0
  0
LINE
  5
2EF
  8
_________1
 62
     7
 10
-44.754300000000001
 20
49.058799999999991
 30
0.0
 11
-45.053999999999988
 21
48.883800000000001
 31
0.0
  0
LINE
  5
2F0
  8
_________1
 62
     7
 10
-45.053999999999988
 20
48.883800000000001
 30
0.0
 11
-45.053999999999988
 21
48.858999999999988
 31
0.0
  0
LINE
  5
2F1
  8
_________1
 62
     7
 10
-44.604100000000003
 20
49.108400000000003
 30
0.0
 11
-45.053999999999988
 21
48.883800000000001
 31
0.0
  0
LINE
  5
2F2
  8
_________1
 62
     7
 10
-50.1053
 20
49.108400000000003
 30
0.0
 11
-49.656000000000013
 21
48.858999999999988
 31
0.0
  0
LINE
  5
2F3
  8
_________1
 62
     7
 10
-49.656000000000013
 20
51.984400000000001
 30
0.0
 11
-45.053999999999988
 21
51.984400000000001
 31
0.0
  0
LINE
  5
2F4
  8
_________1
 62
     7
 10
-48.905000000000001
 20
52.109099999999998
 30
0.0
 11
-45.804400000000001
 21
52.109099999999998
 31
0.0
  0
ARC
  5
2F5
  8
_________1
 62
     7
 10
-46.355383000000003
 20
52.804980000000008
 30
0.0
 40
0.715023
 50
290.51522799999998
 51
326.55637400000001
  0
ARC
  5
2F6
  8
_________1
 62
     7
 10
-46.185085999999998
 20
52.666685999999999
 30
0.0
 40
0.4971740000000001
 50
329.03986500000002
 51
341.562411
  0
LINE
  5
2F7
  8
_________1
 62
     7
 10
-45.7134
 20
52.509399999999992
 30
0.0
 11
-45.67969999999999
 21
52.609400000000001
 31
0.0
  0
LINE
  5
2F8
  8
_________1
 62
     7
 10
-45.67969999999999
 20
52.609400000000001
 30
0.0
 11
-45.67969999999999
 21
52.759599999999999
 31
0.0
  0
LINE
  5
2F9
  8
_________1
 62
     7
 10
-45.67969999999999
 20
52.759599999999999
 30
0.0
 11
-45.729300000000002
 21
52.934600000000003
 31
0.0
  0
LINE
  5
2FA
  8
_________1
 62
     7
 10
-49.004899999999999
 20
52.934600000000003
 30
0.0
 11
-48.9801
 21
52.934600000000003
 31
0.0
  0
ARC
  5
2FB
  8
_________1
 62
     7
 10
58.183438000000002
 20
37.653260000000003
 30
0.0
 40
108.272147
 50
171.88628
 51
171.97981899999999
  0
LINE
  5
2FC
  8
_________1
 62
     7
 10
-49.029699999999991
 20
52.759599999999999
 30
0.0
 11
-49.029699999999991
 21
52.609400000000001
 31
0.0
  0
LINE
  5
2FD
  8
_________1
 62
     7
 10
-49.029699999999991
 20
52.609400000000001
 30
0.0
 11
-48.997300000000003
 21
52.509399999999992
 31
0.0
  0
ARC
  5
2FE
  8
_________1
 62
     7
 10
-47.922476999999994
 20
52.869292000000002
 30
0.0
 40
1.1334799999999989
 50
198.51013499999999
 51
203.26190600000001
  0
ARC
  5
2FF
  8
_________1
 62
     7
 10
-48.525162999999999
 20
52.609293999999991
 30
0.0
 40
0.477105
 50
203.16091
 51
222.265807
  0
ARC
  5
300
  8
_________1
 62
     7
 10
-48.595003999999989
 20
52.564865000000012
 30
0.0
 40
0.39579
 50
224.306589
 51
234.68706
  0
ARC
  5
301
  8
_________1
 62
     7
 10
-48.404147999999999
 20
52.840181000000001
 30
0.0
 40
0.7307800000000001
 50
234.95395400000001
 51
242.41062199999999
  0
ARC
  5
302
  8
_________1
 62
     7
 10
-46.676391999999993
 20
56.141860000000001
 30
0.0
 40
4.4572029999999989
 50
242.382621
 51
244.013184
  0
LINE
  5
303
  8
_________1
 62
     7
 10
-48.629399999999997
 20
52.135300000000001
 30
0.0
 11
-48.604599999999991
 21
52.135300000000001
 31
0.0
  0
LINE
  5
304
  8
_________1
 62
     7
 10
-48.80510000000001
 20
53.359699999999989
 30
0.0
 11
-45.929099999999991
 21
53.359699999999989
 31
0.0
  0
LINE
  5
305
  8
_________1
 62
     7
 10
-48.80510000000001
 20
55.359900000000003
 30
0.0
 11
-47.354700000000001
 21
55.359900000000003
 31
0.0
  0
LINE
  5
306
  8
_________1
 62
     7
 10
-47.354700000000001
 20
55.359900000000003
 30
0.0
 11
-45.929099999999991
 21
55.359900000000003
 31
0.0
  0
LINE
  5
307
  8
_________1
 62
     7
 10
-45.67969999999999
 20
55.909799999999997
 30
0.0
 11
-45.67969999999999
 21
55.7851
 31
0.0
  0
LINE
  5
308
  8
_________1
 62
     7
 10
-45.67969999999999
 20
55.7851
 30
0.0
 11
-45.754800000000003
 21
55.659700000000001
 31
0.0
  0
LINE
  5
309
  8
_________1
 62
     7
 10
-49.055199999999999
 20
55.909799999999997
 30
0.0
 11
-49.029699999999991
 21
55.7851
 31
0.0
  0
LINE
  5
30A
  8
_________1
 62
     7
 10
-49.029699999999991
 20
55.7851
 30
0.0
 11
-48.9801
 21
55.659700000000001
 31
0.0
  0
LINE
  5
30B
  8
_________1
 62
     7
 10
-49.055199999999999
 20
56.610500000000002
 30
0.0
 11
-45.67969999999999
 21
56.610500000000002
 31
0.0
  0
LINE
  5
30C
  8
_________1
 62
     7
 10
-49.055199999999999
 20
56.610500000000002
 30
0.0
 11
-49.055199999999999
 21
55.909799999999997
 31
0.0
  0
LINE
  5
30D
  8
_________1
 62
     7
 10
-45.67969999999999
 20
56.610500000000002
 30
0.0
 11
-45.67969999999999
 21
55.909799999999997
 31
0.0
  0
LINE
  5
30E
  8
_________1
 62
     7
 10
-45.053999999999988
 20
51.984400000000001
 30
0.0
 11
-44.604100000000003
 21
51.73429999999999
 31
0.0
  0
LINE
  5
30F
  8
_________1
 62
     7
 10
-49.656000000000013
 20
51.984400000000001
 30
0.0
 11
-50.1053
 21
51.73429999999999
 31
0.0
  0
LINE
  5
310
  8
_________1
 62
     7
 10
-48.9801
 20
55.659700000000001
 30
0.0
 11
-48.80510000000001
 21
55.359900000000003
 31
0.0
  0
LINE
  5
311
  8
_________1
 62
     7
 10
-48.80510000000001
 20
53.359699999999989
 30
0.0
 11
-48.9801
 21
52.934600000000003
 31
0.0
  0
LINE
  5
312
  8
_________1
 62
     7
 10
-45.754800000000003
 20
55.659700000000001
 30
0.0
 11
-45.929099999999991
 21
55.359900000000003
 31
0.0
  0
LINE
  5
313
  8
_________1
 62
     7
 10
-45.929099999999991
 20
53.359699999999989
 30
0.0
 11
-45.729300000000002
 21
52.934600000000003
 31
0.0
  0
LINE
  5
314
  8
_________1
 62
     7
 10
-48.80510000000001
 20
55.359900000000003
 30
0.0
 11
-48.80510000000001
 21
53.359699999999989
 31
0.0
  0
LINE
  5
315
  8
_________1
 62
     7
 10
-45.929099999999991
 20
55.359900000000003
 30
0.0
 11
-45.929099999999991
 21
53.359699999999989
 31
0.0
  0
LINE
  5
316
  8
_________1
 62
     7
 10
-48.905000000000001
 20
52.109099999999998
 30
0.0
 11
-48.905000000000001
 21
51.984400000000001
 31
0.0
  0
LINE
  5
317
  8
_________1
 62
     7
 10
-45.804400000000001
 20
52.109099999999998
 30
0.0
 11
-45.804400000000001
 21
51.984400000000001
 31
0.0
  0
LINE
  5
318
  8
_________1
 62
     7
 10
-50.1053
 20
49.108400000000003
 30
0.0
 11
-49.656000000000013
 21
48.858999999999988
 31
0.0
  0
LINE
  5
319
  8
_________1
 62
     7
 10
-44.604100000000003
 20
49.108400000000003
 30
0.0
 11
-45.053999999999988
 21
48.858999999999988
 31
0.0
  0
LINE
  5
31A
  8
_________1
  6
AIGENLINE002
 62
     7
 10
-14.3574
 20
93.073599999999999
 30
0.0
 11
-28.982600000000001
 21
76.503299999999996
 31
0.0
  0
LINE
  5
31B
  8
_________1
 62
     7
 10
-26.732199999999999
 20
94.581199999999995
 30
0.0
 11
-26.982299999999999
 21
94.331100000000006
 31
0.0
  0
LINE
  5
31C
  8
_________1
 62
     7
 10
-34.732500000000002
 20
94.331100000000006
 30
0.0
 11
-34.98190000000001
 21
94.581199999999995
 31
0.0
  0
LINE
  5
31D
  8
_________1
 62
     7
 10
-26.982299999999999
 20
107.45
 30
0.0
 11
-26.982299999999999
 21
99.073599999999999
 31
0.0
  0
LINE
  5
31E
  8
_________1
 62
     7
 10
-26.732199999999999
 20
107.45
 30
0.0
 11
-26.732199999999999
 21
99.073599999999999
 31
0.0
  0
LINE
  5
31F
  8
_________1
 62
     7
 10
-34.732500000000002
 20
107.45
 30
0.0
 11
-34.732500000000002
 21
99.073599999999999
 31
0.0
  0
LINE
  5
320
  8
_________1
 62
     7
 10
-34.98190000000001
 20
107.45
 30
0.0
 11
-34.98190000000001
 21
99.073599999999999
 31
0.0
  0
LINE
  5
321
  8
_________1
 62
     7
 10
-26.982299999999999
 20
96.581500000000005
 30
0.0
 11
-26.982299999999999
 21
94.331100000000006
 31
0.0
  0
LINE
  5
322
  8
_________1
 62
     7
 10
-26.732199999999999
 20
96.581500000000005
 30
0.0
 11
-26.732199999999999
 21
94.581199999999995
 31
0.0
  0
LINE
  5
323
  8
_________1
 62
     7
 10
-34.732500000000002
 20
96.581500000000005
 30
0.0
 11
-34.732500000000002
 21
94.331100000000006
 31
0.0
  0
LINE
  5
324
  8
_________1
 62
     7
 10
-34.98190000000001
 20
96.581500000000005
 30
0.0
 11
-34.98190000000001
 21
94.581199999999995
 31
0.0
  0
LINE
  5
325
  8
_________1
 62
     7
 10
-34.98190000000001
 20
94.581199999999995
 30
0.0
 11
-26.732199999999999
 21
94.581199999999995
 31
0.0
  0
LINE
  5
326
  8
_________1
 62
     7
 10
-34.732500000000002
 20
94.331100000000006
 30
0.0
 11
-26.982299999999999
 21
94.331100000000006
 31
0.0
  0
LINE
  5
327
  8
_________1
 62
     7
 10
-46.04549999999999
 20
88.222199999999987
 30
0.0
 11
-46.04549999999999
 21
56.610500000000002
 31
0.0
  0
LINE
  5
328
  8
_________1
 62
     7
 10
-48.670000000000002
 20
88.222199999999987
 30
0.0
 11
-48.670000000000002
 21
56.610500000000002
 31
0.0
  0
LINE
  5
329
  8
_________1
  6
AIGENLINE002
 62
     7
 10
-47.357399999999991
 20
93.073599999999999
 30
0.0
 11
-47.357399999999991
 21
47.551900000000003
 31
0.0
  0
TEXT
  5
32A
  8
_________2
 62
     7
 10
169.50999999999999
 20
118.48
 30
0.0
 40
3.9357000000000002
  1
※快適にお使いいただくためには、0.2～0.3MPa程度の圧力をおすすめします。
 41
0.5
  0
TEXT
  5
32B
  8
_________2
 62
     7
 10
169.50999999999999
 20
124.56
 30
0.0
 40
3.9357000000000002
  1
0.5MPa（流動圧）
 41
0.5
  0
TEXT
  5
32C
  8
_________2
 62
     7
 10
129.49600000000001
 20
132.18199999999999
 30
0.0
 40
3.9357000000000002
  1
給水圧力
 41
0.5
  0
TEXT
  5
32D
  8
_________2
 62
     7
 10
129.49600000000001
 20
139.94399999999999
 30
0.0
 40
3.9357000000000002
  1
用途
 41
0.5
  0
TEXT
  5
32E
  8
_________2
 62
     7
 10
169.50999999999999
 20
139.94399999999999
 30
0.0
 40
3.9357000000000002
  1
一般住宅用（屋内用）
 41
0.5
  0
LINE
  5
32F
  8
_________2
 62
     7
 10
145.64099999999999
 20
137.83600000000001
 30
0.0
 11
145.64099999999999
 21
116.5
 31
0.0
  0
LINE
  5
330
  8
_________2
 62
     7
 10
166.97200000000001
 20
145.59899999999999
 30
0.0
 11
166.97200000000001
 21
61.980800000000002
 31
0.0
  0
LINE
  5
331
  8
_________2
 62
     7
 10
290.16199999999998
 20
145.59899999999999
 30
0.0
 11
126.95699999999999
 21
145.59899999999999
 31
0.0
  0
LINE
  5
332
  8
_________2
 62
     7
 10
126.95699999999999
 20
145.59899999999999
 30
0.0
 11
126.95699999999999
 21
61.980800000000002
 31
0.0
  0
LINE
  5
333
  8
_________2
 62
     7
 10
126.95699999999999
 20
61.980800000000002
 30
0.0
 11
290.16199999999998
 21
61.980800000000002
 31
0.0
  0
LINE
  5
334
  8
_________2
 62
     7
 10
290.16199999999998
 20
61.980800000000002
 30
0.0
 11
290.16199999999998
 21
145.59899999999999
 31
0.0
  0
TEXT
  5
335
  8
_________2
 62
     7
 10
147.41499999999999
 20
132.18199999999999
 30
0.0
 40
3.9357000000000002
  1
最低必要水圧
 41
0.5
  0
TEXT
  5
336
  8
_________2
 62
     7
 10
169.50999999999999
 20
132.18199999999999
 30
0.0
 40
3.9357000000000002
  1
0.1MPa（流動圧）
 41
0.5
  0
LINE
  5
337
  8
_________2
 62
     7
 10
126.95699999999999
 20
137.83600000000001
 30
0.0
 11
290.16199999999998
 21
137.83600000000001
 31
0.0
  0
TEXT
  5
338
  8
_________2
 62
     7
 10
129.49600000000001
 20
110.845
 30
0.0
 40
3.9357000000000002
  1
使用可能水質
 41
0.5
  0
TEXT
  5
339
  8
_________2
 62
     7
 10
169.50999999999999
 20
110.845
 30
0.0
 40
3.9357000000000002
  1
水道水
 41
0.5
  0
LINE
  5
33A
  8
_________2
 62
     7
 10
126.95699999999999
 20
116.5
 30
0.0
 11
290.16199999999998
 21
116.5
 31
0.0
  0
TEXT
  5
33B
  8
_________2
 62
     7
 10
147.41499999999999
 20
124.56
 30
0.0
 40
3.9357000000000002
  1
最高水圧
 41
0.5
  0
LINE
  5
33C
  8
_________2
 62
     7
 10
145.64099999999999
 20
130.07400000000001
 30
0.0
 11
290.16199999999998
 21
130.07400000000001
 31
0.0
  0
TEXT
  5
33D
  8
_________2
 62
     7
 10
129.49600000000001
 20
103.223
 30
0.0
 40
3.9357000000000002
  1
使用環境温度
 41
0.5
  0
TEXT
  5
33E
  8
_________2
 62
     7
 10
129.49600000000001
 20
89.649199999999993
 30
0.0
 40
3.9357000000000002
  1
最高給湯温度
 41
0.5
  0
TEXT
  5
33F
  8
_________2
 62
     7
 10
129.49600000000001
 20
75.946600000000004
 30
0.0
 40
3.9357000000000002
  1
特記事項
 41
0.5
  0
TEXT
  5
340
  8
_________2
 62
     7
 10
169.50999999999999
 20
97.142999999999986
 30
0.0
 40
3.9357000000000002
  1
※寒冷地仕様ではありません、凍結が予想される場合は凍結予防をしてください。
 41
0.5
  0
TEXT
  5
341
  8
_________2
 62
     7
 10
169.50999999999999
 20
103.223
 30
0.0
 40
3.9357000000000002
  1
1～40℃
 41
0.5
  0
LINE
  5
342
  8
_________2
 62
     7
 10
126.95699999999999
 20
108.73699999999999
 30
0.0
 11
290.16199999999998
 21
108.73699999999999
 31
0.0
  0
TEXT
  5
343
  8
_________2
 62
     7
 10
169.50999999999999
 20
83.568899999999985
 30
0.0
 40
3.9357000000000002
  1
※安全のため給湯温度は60℃以下でのご使用をおすすめします。
 41
0.5
  0
TEXT
  5
344
  8
_________2
 62
     7
 10
169.50999999999999
 20
89.649199999999993
 30
0.0
 40
3.9357000000000002
  1
80℃
 41
0.5
  0
TEXT
  5
345
  8
_________2
 62
     7
 10
169.50999999999999
 20
63.786000000000001
 30
0.0
 40
3.9357000000000002
  1
（3）フレキホース寸法公差\U+00B120。
 41
0.5
  0
TEXT
  5
346
  8
_________2
 62
     7
 10
169.50999999999999
 20
69.866299999999995
 30
0.0
 40
3.9357000000000002
  1
（2）湯水を逆に配管しないでください。
 41
0.5
  0
TEXT
  5
347
  8
_________2
 62
     7
 10
169.50999999999999
 20
75.946600000000004
 30
0.0
 40
3.9357000000000002
  1
（1）水圧は湯水ほぼ同圧、且つ湯圧が水圧より高くならないように設定してください。
 41
0.5
  0
LINE
  5
348
  8
_________2
 62
     7
 10
126.95699999999999
 20
95.1631
 30
0.0
 11
290.16199999999998
 21
95.1631
 31
0.0
  0
LINE
  5
349
  8
_________2
 62
     7
 10
126.95699999999999
 20
81.588999999999999
 30
0.0
 11
290.16199999999998
 21
81.588999999999999
 31
0.0
  0
TEXT
  5
34A
  8
_________2
 62
     7
 10
200.4570586666666
 20
34.465299999999999
 30
0.0
 40
3.6545800000000002
  1
1 ： 4
 41
0.5
 72
     1
 11
203.86799999999999
 21
34.465299999999999
 31
0.0
  0
TEXT
  5
34B
  8
_________2
 62
     7
 10
247.0624875
 20
30.3553
 30
0.0
 40
3.9357000000000002
  1
ZU0694R
 41
0.5
 72
     1
 11
253.458
 21
30.3553
 31
0.0
  0
TEXT
  5
34C
  8
_________2
 62
     7
 10
149.3328003333333
 20
34.850499999999997
 30
0.0
 40
3.6545800000000002
  1
井田
 41
0.5
 72
     1
 11
151.221
 21
34.850499999999997
 31
0.0
  0
TEXT
  5
34D
  8
_________2
 62
     7
 10
130.69789066666669
 20
34.850499999999997
 30
0.0
 40
3.6545800000000002
  1
恋塚
 41
0.5
 72
     1
 11
132.64699999999999
 21
34.850499999999997
 31
0.0
  0
TEXT
  5
34E
  8
_________2
 62
     7
 10
177.69399999999999
 20
34.465299999999999
 30
0.0
 40
3.6545800000000002
  1
19.03.25
 41
0.5
  0
TEXT
  5
34F
  8
_________2
 62
     7
 10
290.64778333333328
 20
12.808299999999999
 30
0.0
 40
3.3734599999999988
  1
A3
 41
0.5
 72
     2
 11
293.459
 21
12.808299999999999
 31
0.0
  0
TEXT
  5
350
  8
_________2
 62
     7
 10
134.495
 20
21.954699999999999
 30
0.0
 40
3.9357000000000002
  1
（社）日本水道協会認証品
 41
0.5
  0
LINE
  5
351
  8
_________2
 62
     7
 10
315.209
 20
148.65899999999999
 30
0.0
 11
293.459
 21
148.65899999999999
 31
0.0
  0
LINE
  5
352
  8
_________2
 62
     7
 10
105.20699999999999
 20
17.156300000000002
 30
0.0
 11
105.20699999999999
 21
0.176045
 31
0.0
  0
LINE
  5
353
  8
_________2
 62
     7
 10
105.20699999999999
 20
297.178
 30
0.0
 11
105.20699999999999
 21
280.15800000000002
 31
0.0
  0
LINE
  5
354
  8
_________2
 62
     7
 10
-83.043899999999994
 20
148.65899999999999
 30
0.0
 11
-104.794
 21
148.65899999999999
 31
0.0
  0
INSERT
  5
355
  8
_________2
 62
     7
  2
AIGNBL03010002
 10
0.0
 20
0.0
 30
0.0
  0
TEXT
  5
356
  8
_________2
 62
     7
 10
214.51300000000001
 20
22.9269
 30
0.0
 40
3.0923400000000001
  1
図番
 41
0.5
  0
LINE
  5
357
  8
_________2
 62
     7
 10
213.458
 20
27.156099999999999
 30
0.0
 11
293.459
 21
27.156099999999999
 31
0.0
  0
TEXT
  5
358
  8
_________2
 62
     7
 10
214.51300000000001
 20
32.926699999999997
 30
0.0
 40
3.0923400000000001
  1
品番
 41
0.5
  0
TEXT
  5
359
  8
_________2
 62
     7
 10
214.51300000000001
 20
53.0655
 30
0.0
 40
3.0923400000000001
  1
名称
 41
0.5
  0
TEXT
  5
35A
  8
_________2
 62
     7
 10
201.75325833333329
 20
48.069400000000002
 30
0.0
 40
3.6545800000000002
  1
mm
 41
0.5
 72
     1
 11
203.27600000000001
 21
48.069400000000002
 31
0.0
  0
TEXT
  5
35B
  8
_________2
 62
     7
 10
195.55099999999999
 20
53.0655
 30
0.0
 40
3.0923400000000001
  1
単位
 41
0.5
  0
TEXT
  5
35C
  8
_________2
 62
     7
 10
195.55099999999999
 20
40.658200000000001
 30
0.0
 40
3.0923400000000001
  1
尺度
 41
0.5
  0
TEXT
  5
35D
  8
_________2
 62
     7
 10
247.0624875
 20
20.354800000000001
 30
0.0
 40
3.9357000000000002
  1
ZU0694R
 41
0.5
 72
     1
 11
253.458
 21
20.354800000000001
 31
0.0
  0
TEXT
  5
35E
  8
_________2
 62
     7
 10
219.08699999999999
 20
45.473100000000002
 30
0.0
 40
3.9357000000000002
  1
ジングル 湯水混合水栓
 41
0.5
  0
TEXT
  5
35F
  8
_________2
 62
     7
 10
176.501
 20
40.658200000000001
 30
0.0
 40
3.0923400000000001
  1
日付
 41
0.5
  0
TEXT
  5
360
  8
_________2
 62
     7
 10
139.547
 20
40.658200000000001
 30
0.0
 40
3.0923400000000001
  1
検図
 41
0.5
  0
TEXT
  5
361
  8
_________2
 62
     7
 10
127.929
 20
26.4588
 30
0.0
 40
3.0923400000000001
  1
備考
 41
0.5
  0
TEXT
  5
362
  8
_________2
 62
     7
 10
127.929
 20
40.658200000000001
 30
0.0
 40
3.0923400000000001
  1
製図
 41
0.5
  0
TEXT
  5
363
  8
_________2
 62
     7
 10
133.69596533333331
 20
49.184199999999997
 30
0.0
 40
4.4979399999999989
  1
セラトレーディング株式会社
 41
0.5
 72
     1
 11
151.08799999999999
 21
49.184199999999997
 31
0.0
  0
LINE
  5
364
  8
_________2
 62
     7
 10
293.459
 20
17.156300000000002
 30
0.0
 11
-83.043899999999994
 21
17.156300000000002
 31
0.0
  0
LINE
  5
365
  8
_________2
 62
     7
 10
-83.043899999999994
 20
17.156300000000002
 30
0.0
 11
-83.043899999999994
 21
280.15800000000002
 31
0.0
  0
LINE
  5
366
  8
_________2
 62
     7
 10
-83.043899999999994
 20
280.15800000000002
 30
0.0
 11
293.459
 21
280.15800000000002
 31
0.0
  0
LINE
  5
367
  8
_________2
 62
     7
 10
293.459
 20
280.15800000000002
 30
0.0
 11
293.459
 21
17.156300000000002
 31
0.0
  0
LINE
  5
368
  8
_________2
 62
     7
 10
175.458
 20
30.656400000000001
 30
0.0
 11
175.458
 21
57.156199999999998
 31
0.0
  0
LINE
  5
369
  8
_________2
 62
     7
 10
194.458
 20
30.656400000000001
 30
0.0
 11
194.458
 21
57.156199999999998
 31
0.0
  0
LINE
  5
36A
  8
_________2
 62
     7
 10
126.95699999999999
 20
17.156300000000002
 30
0.0
 11
126.95699999999999
 21
57.156199999999998
 31
0.0
  0
LINE
  5
36B
  8
_________2
 62
     7
 10
213.458
 20
17.156300000000002
 30
0.0
 11
213.458
 21
57.156199999999998
 31
0.0
  0
LINE
  5
36C
  8
_________2
 62
     7
 10
138.45699999999999
 20
30.656400000000001
 30
0.0
 11
138.45699999999999
 21
44.65659999999999
 31
0.0
  0
LINE
  5
36D
  8
_________2
 62
     7
 10
126.95699999999999
 20
30.656400000000001
 30
0.0
 11
213.458
 21
30.656400000000001
 31
0.0
  0
LINE
  5
36E
  8
_________2
 62
     7
 10
126.95699999999999
 20
44.65659999999999
 30
0.0
 11
213.458
 21
44.65659999999999
 31
0.0
  0
LINE
  5
36F
  8
_________2
 62
     7
 10
213.458
 20
37.15590000000001
 30
0.0
 11
293.459
 21
37.15590000000001
 31
0.0
  0
LINE
  5
370
  8
_________2
 62
     7
 10
126.95699999999999
 20
57.156199999999998
 30
0.0
 11
293.459
 21
57.156199999999998
 31
0.0
  0
ENDSEC
  0
EOF
