  0
SECTION
  2
HEADER
  9
$ACADVER
  1
AC1009
  9
$INSBASE
 10
0.0
 20
0.0
 30
0.0
  9
$EXTMIN
 10
-4.7008599999999987
 20
-21.070999999999991
 30
0.0
  9
$EXTMAX
 10
205.30099999999999
 20
275.93099999999993
 30
0.0
  9
$LIMMIN
 10
0.0
 20
0.0
  9
$LIMMAX
 10
12.0
 20
9.0
  9
$ORTHOMODE
 70
     0
  9
$REGENMODE
 70
     1
  9
$FILLMODE
 70
     1
  9
$QTEXTMODE
 70
     0
  9
$MIRRTEXT
 70
     1
  9
$DRAGMODE
 70
     2
  9
$LTSCALE
 40
1.0
  9
$OSMODE
 70
    37
  9
$ATTMODE
 70
     1
  9
$TEXTSIZE
 40
0.0
  9
$TRACEWID
 40
0.05
  9
$TEXTSTYLE
  7
STANDARD
  9
$CLAYER
  8
0
  9
$CELTYPE
  6
CONTINUOUS
  9
$CECOLOR
 62
   256
  9
$DIMSCALE
 40
1.0
  9
$DIMASZ
 40
0.18
  9
$DIMEXO
 40
0.0625
  9
$DIMDLI
 40
0.38
  9
$DIMRND
 40
0.0
  9
$DIMDLE
 40
0.0
  9
$DIMEXE
 40
0.18
  9
$DIMTP
 40
0.0
  9
$DIMTM
 40
0.0
  9
$DIMTXT
 40
0.18
  9
$DIMCEN
 40
0.09
  9
$DIMTSZ
 40
0.0
  9
$DIMTOL
 70
     0
  9
$DIMLIM
 70
     0
  9
$DIMTIH
 70
     1
  9
$DIMTOH
 70
     1
  9
$DIMSE1
 70
     0
  9
$DIMSE2
 70
     0
  9
$DIMTAD
 70
     0
  9
$DIMZIN
 70
     0
  9
$DIMBLK
  1

  9
$DIMASO
 70
     1
  9
$DIMSHO
 70
     1
  9
$DIMPOST
  1

  9
$DIMAPOST
  1

  9
$DIMALT
 70
     0
  9
$DIMALTD
 70
     2
  9
$DIMALTF
 40
25.399999999999999
  9
$DIMLFAC
 40
1.0
  9
$DIMTOFL
 70
     0
  9
$DIMTVP
 40
0.0
  9
$DIMTIX
 70
     0
  9
$DIMSOXD
 70
     0
  9
$DIMSAH
 70
     0
  9
$DIMBLK1
  1

  9
$DIMBLK2
  1

  9
$DIMSTYLE
  2
STANDARD
  9
$DIMCLRD
 70
     0
  9
$DIMCLRE
 70
     0
  9
$DIMCLRT
 70
     0
  9
$DIMTFAC
 40
1.0
  9
$DIMGAP
 40
0.09
  9
$LUNITS
 70
     2
  9
$LUPREC
 70
     4
  9
$SKETCHINC
 40
0.1
  9
$FILLETRAD
 40
0.0
  9
$AUNITS
 70
     0
  9
$AUPREC
 70
     0
  9
$MENU
  1
.
  9
$ELEVATION
 40
0.0
  9
$PELEVATION
 40
0.0
  9
$THICKNESS
 40
0.0
  9
$LIMCHECK
 70
     0
  9
$BLIPMODE
 70
     0
  9
$CHAMFERA
 40
0.0
  9
$CHAMFERB
 40
0.0
  9
$SKPOLY
 70
     0
  9
$TDCREATE
 40
2444972.375
  9
$TDUPDATE
 40
2456309.4454406239
  9
$TDINDWG
 40
0.0000078241
  9
$TDUSRTIMER
 40
0.0000078241
  9
$USRTIMER
 70
     1
  9
$ANGBASE
 50
0.0
  9
$ANGDIR
 70
     0
  9
$PDMODE
 70
     0
  9
$PDSIZE
 40
0.0
  9
$PLINEWID
 40
0.0
  9
$COORDS
 70
     1
  9
$SPLFRAME
 70
     0
  9
$SPLINETYPE
 70
     6
  9
$SPLINESEGS
 70
     8
  9
$ATTDIA
 70
     0
  9
$ATTREQ
 70
     1
  9
$HANDLING
 70
     1
  9
$HANDSEED
  5
32E
  9
$SURFTAB1
 70
     6
  9
$SURFTAB2
 70
     6
  9
$SURFTYPE
 70
     6
  9
$SURFU
 70
     6
  9
$SURFV
 70
     6
  9
$UCSNAME
  2

  9
$UCSORG
 10
0.0
 20
0.0
 30
0.0
  9
$UCSXDIR
 10
1.0
 20
0.0
 30
0.0
  9
$UCSYDIR
 10
0.0
 20
1.0
 30
0.0
  9
$PUCSNAME
  2

  9
$PUCSORG
 10
0.0
 20
0.0
 30
0.0
  9
$PUCSXDIR
 10
1.0
 20
0.0
 30
0.0
  9
$PUCSYDIR
 10
0.0
 20
1.0
 30
0.0
  9
$USERI1
 70
     0
  9
$USERI2
 70
     0
  9
$USERI3
 70
     0
  9
$USERI4
 70
     0
  9
$USERI5
 70
     0
  9
$USERR1
 40
0.0
  9
$USERR2
 40
0.0
  9
$USERR3
 40
0.0
  9
$USERR4
 40
0.0
  9
$USERR5
 40
0.0
  9
$WORLDVIEW
 70
     1
  9
$SHADEDGE
 70
     3
  9
$SHADEDIF
 70
    70
  9
$TILEMODE
 70
     1
  9
$MAXACTVP
 70
    48
  9
$PLIMCHECK
 70
     0
  9
$PEXTMIN
 10
1.0000000000000000E+020
 20
1.0000000000000000E+020
 30
1.0000000000000000E+020
  9
$PEXTMAX
 10
-1.0000000000000000E+020
 20
-1.0000000000000000E+020
 30
-1.0000000000000000E+020
  9
$PLIMMIN
 10
0.0
 20
0.0
  9
$PLIMMAX
 10
12.0
 20
9.0
  9
$UNITMODE
 70
     0
  9
$VISRETAIN
 70
     1
  9
$PLINEGEN
 70
     0
  9
$PSLTSCALE
 70
     1
  0
ENDSEC
  0
SECTION
  2
TABLES
  0
TABLE
  2
VPORT
 70
     2
  0
VPORT
  2
*ACTIVE
 70
     0
 10
0.0
 20
0.0
 11
1.0
 21
1.0
 12
205.31037406752429
 22
127.42999999999989
 13
0.0
 23
0.0
 14
1.0
 24
1.0
 15
0.0
 25
0.0
 16
0.0
 26
0.0
 36
1.0
 17
0.0
 27
0.0
 37
0.0
 40
299.24634760705283
 41
2.2894736842105261
 42
50.0
 43
0.0
 44
0.0
 50
0.0
 51
0.0
 71
     0
 72
   100
 73
     1
 74
     1
 75
     0
 76
     0
 77
     0
 78
     0
  0
ENDTAB
  0
TABLE
  2
LTYPE
 70
     3
  0
LTYPE
  2
CONTINUOUS
 70
     0
  3
Solid line
 72
    65
 73
     0
 40
0.0
  0
LTYPE
  2
AIGENLINE001
 70
     0
  3
generate AI->DXF Converter
 72
    65
 73
     6
 40
7.4083750000000004
 49
3.5278
 49
-0.776115
 49
0.776115
 49
-0.776115
 49
0.776115
 49
-0.776115
  0
LTYPE
  2
AIGENLINE002
 70
     0
  3
generate AI->DXF Converter
 72
    65
 73
     4
 40
5.8561449999999988
 49
3.5278
 49
-0.776115
 49
0.776115
 49
-0.776115
  0
ENDTAB
  0
TABLE
  2
LAYER
 70
     2
  0
LAYER
  2
0
 70
     0
 62
     7
  6
CONTINUOUS
  0
LAYER
  2
_________2
 70
     0
 62
     7
  6
CONTINUOUS
  0
ENDTAB
  0
TABLE
  2
STYLE
 70
     1
  0
STYLE
  2
STANDARD
 70
     0
 40
0.0
 41
0.0
 50
0.0
 71
     0
 42
0.0
  3
TXT
  4
EXTFONT.SHX
  0
ENDTAB
  0
TABLE
  2
VIEW
 70
     0
  0
ENDTAB
  0
TABLE
  2
UCS
 70
     0
  0
ENDTAB
  0
TABLE
  2
APPID
 70
     1
  0
APPID
  2
ACAD
 70
     0
  0
ENDTAB
  0
TABLE
  2
DIMSTYLE
 70
     1
  0
DIMSTYLE
  2
STANDARD
 70
     0
  3

  4

  5

  6

  7

 40
1.0
 41
0.18
 42
0.0625
 43
0.38
 44
0.18
 45
0.0
 46
0.0
 47
0.0
 48
0.0
140
0.18
141
0.09
142
0.0
143
25.399999999999999
144
1.0
145
0.0
146
1.0
147
0.09
 71
     0
 72
     0
 73
     1
 74
     1
 75
     0
 76
     0
 77
     0
 78
     0
170
     0
171
     2
172
     0
173
     0
174
     0
175
     0
176
     0
177
     0
178
     0
  0
ENDTAB
  0
ENDSEC
  0
SECTION
  2
BLOCKS
  0
BLOCK
  8
0
  2
$MODEL_SPACE
 70
     0
 10
0.0
 20
0.0
 30
0.0
  3
$MODEL_SPACE
  1

  0
ENDBLK
  5
1A
  8
0
  0
BLOCK
 67
     1
  8
0
  2
$PAPER_SPACE
 70
     0
 10
0.0
 20
0.0
 30
0.0
  3
$PAPER_SPACE
  1

  0
ENDBLK
  5
17
 67
     1
  8
0
  0
ENDSEC
  0
SECTION
  2
ENTITIES
  0
LINE
  5
23
  8
0
 62
     7
 10
58.1922
 20
99.255200000000002
 30
0.0
 11
58.1922
 21
87.759200000000007
 31
0.0
  0
LINE
  5
24
  8
0
 62
     7
 10
55.567
 20
99.255200000000002
 30
0.0
 11
55.567
 21
87.759200000000007
 31
0.0
  0
LINE
  5
25
  8
0
 62
     7
 10
54.4422
 20
99.255200000000002
 30
0.0
 11
54.4422
 21
87.759200000000007
 31
0.0
  0
LINE
  5
26
  8
0
 62
     7
 10
51.817
 20
99.255200000000002
 30
0.0
 11
51.817
 21
87.759200000000007
 31
0.0
  0
TEXT
  5
27
  8
0
 62
     7
 10
81.302199999999985
 20
84.678887500000002
 30
0.0
 40
3.0923400000000001
  1
320
 50
90.0
 41
0.5
 72
     1
 11
81.302199999999985
 21
86.611599999999996
 31
0.0
  0
TEXT
  5
28
  8
0
 62
     7
 10
27.9878
 20
81.332987499999987
 30
0.0
 40
3.0923400000000001
  1
370
 50
90.0
 41
0.5
 72
     1
 11
27.9878
 21
83.265699999999995
 31
0.0
  0
TEXT
  5
29
  8
0
 62
     7
 10
45.667482499999991
 20
224.49799999999991
 30
0.0
 40
3.0923400000000001
  1
50%%d
 41
0.5
 72
     1
 11
47.342500000000001
 21
224.49799999999991
 31
0.0
  0
TEXT
  5
2A
  8
0
 62
     7
 10
64.746182500000003
 20
224.49799999999991
 30
0.0
 40
3.0923400000000001
  1
50%%d
 41
0.5
 72
     1
 11
66.421199999999999
 21
224.49799999999991
 31
0.0
  0
LINE
  5
2B
  8
0
 62
     7
 10
57.224800000000002
 20
219.77999999999989
 30
0.0
 11
55.004399999999997
 21
220.334
 31
0.0
  0
LINE
  5
2C
  8
0
 62
     7
 10
55.004399999999997
 20
220.334
 30
0.0
 11
57.204099999999997
 21
220.96499999999989
 31
0.0
  0
LINE
  5
2D
  8
0
 62
     7
 10
57.204099999999997
 20
220.96499999999989
 30
0.0
 11
57.224800000000002
 21
219.77999999999989
 31
0.0
  0
LINE
  5
2E
  8
0
 62
     7
 10
69.889700000000005
 20
227.929
 30
0.0
 11
71.703900000000004
 21
229.32400000000001
 31
0.0
  0
LINE
  5
2F
  8
0
 62
     7
 10
71.703900000000004
 20
229.32400000000001
 30
0.0
 11
70.829899999999995
 21
227.20899999999989
 31
0.0
  0
LINE
  5
30
  8
0
 62
     7
 10
70.829899999999995
 20
227.20899999999989
 30
0.0
 11
69.889700000000005
 21
227.929
 31
0.0
  0
ARC
  5
31
  8
0
 62
     7
 10
54.809656999999987
 20
240.700999
 30
0.0
 40
20.368077
 50
270.54782899999992
 51
326.04206599999998
  0
LINE
  5
32
  8
0
 62
     7
 10
52.783999999999999
 20
219.77999999999989
 30
0.0
 11
55.004399999999997
 21
220.334
 31
0.0
  0
LINE
  5
33
  8
0
 62
     7
 10
55.004399999999997
 20
220.334
 30
0.0
 11
52.804699999999997
 21
220.96499999999989
 31
0.0
  0
LINE
  5
34
  8
0
 62
     7
 10
52.804699999999997
 20
220.96499999999989
 30
0.0
 11
52.783999999999999
 21
219.77999999999989
 31
0.0
  0
LINE
  5
35
  8
0
 62
     7
 10
40.119100000000003
 20
227.929
 30
0.0
 11
38.304900000000004
 21
229.32400000000001
 31
0.0
  0
LINE
  5
36
  8
0
 62
     7
 10
38.304900000000004
 20
229.32400000000001
 30
0.0
 11
39.178899999999992
 21
227.20899999999989
 31
0.0
  0
LINE
  5
37
  8
0
 62
     7
 10
39.178899999999992
 20
227.20899999999989
 30
0.0
 11
40.119100000000003
 21
227.929
 31
0.0
  0
ARC
  5
38
  8
0
 62
     7
 10
55.199139000000002
 20
240.700999
 30
0.0
 40
20.368077
 50
213.957954
 51
269.45219100000003
  0
TEXT
  5
39
  8
0
 62
     7
 10
127.238135
 20
162.881
 30
0.0
 40
3.0923400000000001
  1
176
 41
0.5
 72
     1
 11
129.042
 21
162.881
 31
0.0
  0
TEXT
  5
3A
  8
0
 62
     7
 10
159.70287999999991
 20
251.36699999999999
 30
0.0
 40
3.0923400000000001
  1
%%c35
 41
0.5
 72
     2
 11
163.82599999999999
 21
251.36699999999999
 31
0.0
  0
TEXT
  5
3B
  8
0
 62
     7
 10
20.139800000000001
 20
39.087299999999999
 30
0.0
 40
3.6545800000000002
  1
・国産洗面器とのセットの場合は国産の排水ヘッド部を別途準備してください。
 41
0.5
  0
TEXT
  5
3C
  8
0
 62
     7
 10
123.10899999999999
 20
48.386000000000003
 30
0.0
 40
3.0923400000000001
  1
G 3/8
 41
0.5
  0
TEXT
  5
3D
  8
0
 62
     7
 10
148.48128749999989
 20
127.1579999999999
 30
0.0
 40
3.0923400000000001
  1
%%c60
 41
0.5
 72
     1
 11
150.4139999999999
 21
127.1579999999999
 31
0.0
  0
TEXT
  5
3E
  8
0
 62
     7
 10
148.35244
 20
117.70999999999999
 30
0.0
 40
3.0923400000000001
  1
%%c36
 41
0.5
 72
     1
 11
150.4139999999999
 21
117.70999999999999
 31
0.0
  0
TEXT
  5
3F
  8
0
 62
     7
 10
136.36799999999999
 20
104.24357499999989
 30
0.0
 40
3.0923400000000001
  1
max.35
 50
90.0
 41
0.5
 72
     1
 11
136.36799999999999
 21
108.1089999999999
 31
0.0
  0
TEXT
  5
40
  8
0
 62
     7
 10
173.10900000000001
 20
152.78944000000001
 30
0.0
 40
3.0923400000000001
  1
332
 50
90.0
 41
0.5
 72
     1
 11
173.10900000000001
 21
154.851
 31
0.0
  0
TEXT
  5
41
  8
0
 62
     7
 10
164.96199999999999
 20
149.6912874999999
 30
0.0
 40
3.0923400000000001
  1
306
 50
90.0
 41
0.5
 72
     1
 11
164.96199999999999
 21
151.62399999999991
 31
0.0
  0
TEXT
  5
42
  8
0
 62
     7
 10
97.912999999999997
 20
142.43928750000001
 30
0.0
 40
3.0923400000000001
  1
250
 50
90.0
 41
0.5
 72
     1
 11
97.912999999999997
 21
144.37200000000001
 31
0.0
  0
TEXT
  5
43
  8
0
 62
     7
 10
35.483153999999992
 20
229.88900000000001
 30
0.0
 40
3.0923400000000001
  1
湯
 41
0.5
 72
     1
 11
36.204700000000003
 21
229.88900000000001
 31
0.0
  0
TEXT
  5
44
  8
0
 62
     7
 10
73.453254000000001
 20
229.88900000000001
 30
0.0
 40
3.0923400000000001
  1
水
 41
0.5
 72
     1
 11
74.174800000000005
 21
229.88900000000001
 31
0.0
  0
TEXT
  5
45
  8
0
 62
     7
 10
146.60964599999991
 20
229.048
 30
0.0
 40
3.0923400000000001
  1
水栓取付穴
 41
0.5
 72
     1
 11
151.042
 21
229.048
 31
0.0
  0
LINE
  5
46
  8
0
 62
     7
 10
82.637499999999989
 20
110.53700000000001
 30
0.0
 11
82.045000000000016
 21
112.748
 31
0.0
  0
LINE
  5
47
  8
0
 62
     7
 10
82.045000000000016
 20
112.748
 30
0.0
 11
81.452399999999983
 21
110.53700000000001
 31
0.0
  0
LINE
  5
48
  8
0
 62
     7
 10
81.452399999999983
 20
110.53700000000001
 30
0.0
 11
82.637499999999989
 21
110.53700000000001
 31
0.0
  0
LINE
  5
49
  8
0
 62
     7
 10
81.466899999999995
 20
61.938000000000002
 30
0.0
 11
82.059399999999997
 21
59.72699999999999
 31
0.0
  0
LINE
  5
4A
  8
0
 62
     7
 10
82.059399999999997
 20
59.72699999999999
 30
0.0
 11
82.652000000000001
 21
61.938000000000002
 31
0.0
  0
LINE
  5
4B
  8
0
 62
     7
 10
82.652000000000001
 20
61.938000000000002
 30
0.0
 11
81.466899999999995
 21
61.938000000000002
 31
0.0
  0
LINE
  5
4C
  8
0
 62
     7
 10
82.045000000000016
 20
112.748
 30
0.0
 11
82.045000000000016
 21
59.72699999999999
 31
0.0
  0
LINE
  5
4D
  8
0
 62
     7
 10
29.3231
 20
110.53700000000001
 30
0.0
 11
28.730599999999999
 21
112.748
 31
0.0
  0
LINE
  5
4E
  8
0
 62
     7
 10
28.730599999999999
 20
112.748
 30
0.0
 11
28.138000000000002
 21
110.53700000000001
 31
0.0
  0
LINE
  5
4F
  8
0
 62
     7
 10
28.138000000000002
 20
110.53700000000001
 30
0.0
 11
29.3231
 21
110.53700000000001
 31
0.0
  0
LINE
  5
50
  8
0
 62
     7
 10
28.1525
 20
55.994500000000002
 30
0.0
 11
28.745000000000001
 21
53.7834
 31
0.0
  0
LINE
  5
51
  8
0
 62
     7
 10
28.745000000000001
 20
53.7834
 30
0.0
 11
29.337599999999991
 21
55.994500000000002
 31
0.0
  0
LINE
  5
52
  8
0
 62
     7
 10
29.337599999999991
 20
55.994500000000002
 30
0.0
 11
28.1525
 21
55.994500000000002
 31
0.0
  0
LINE
  5
53
  8
0
 62
     7
 10
28.730599999999999
 20
112.748
 30
0.0
 11
28.730599999999999
 21
53.7834
 31
0.0
  0
LINE
  5
54
  8
0
 62
     7
 10
158.542
 20
126.822
 30
0.0
 11
158.542
 21
114.196
 31
0.0
  0
LINE
  5
55
  8
0
 62
     7
 10
145.75399999999991
 20
126.7139999999999
 30
0.0
 11
143.542
 21
126.122
 31
0.0
  0
LINE
  5
56
  8
0
 62
     7
 10
143.542
 20
126.122
 30
0.0
 11
145.75399999999991
 21
125.529
 31
0.0
  0
LINE
  5
57
  8
0
 62
     7
 10
145.75399999999991
 20
125.529
 30
0.0
 11
145.75399999999991
 21
126.7139999999999
 31
0.0
  0
LINE
  5
58
  8
0
 62
     7
 10
156.33000000000001
 20
125.5439999999999
 30
0.0
 11
158.542
 21
126.136
 31
0.0
  0
LINE
  5
59
  8
0
 62
     7
 10
158.542
 20
126.136
 30
0.0
 11
156.33000000000001
 21
126.729
 31
0.0
  0
LINE
  5
5A
  8
0
 62
     7
 10
156.33000000000001
 20
126.729
 30
0.0
 11
156.33000000000001
 21
125.5439999999999
 31
0.0
  0
LINE
  5
5B
  8
0
 62
     7
 10
143.542
 20
126.122
 30
0.0
 11
158.542
 21
126.122
 31
0.0
  0
LINE
  5
5C
  8
0
 62
     7
 10
143.542
 20
126.822
 30
0.0
 11
143.542
 21
114.196
 31
0.0
  0
LINE
  5
5D
  8
0
 62
     7
 10
148.83000000000001
 20
161.54599999999991
 30
0.0
 11
151.042
 21
162.13800000000001
 31
0.0
  0
LINE
  5
5E
  8
0
 62
     7
 10
151.042
 20
162.13800000000001
 30
0.0
 11
148.83000000000001
 21
162.73099999999999
 31
0.0
  0
LINE
  5
5F
  8
0
 62
     7
 10
148.83000000000001
 20
162.73099999999999
 30
0.0
 11
148.83000000000001
 21
161.54599999999991
 31
0.0
  0
LINE
  5
60
  8
0
 62
     7
 10
109.25399999999991
 20
162.71600000000001
 30
0.0
 11
107.04299999999991
 21
162.124
 31
0.0
  0
LINE
  5
61
  8
0
 62
     7
 10
107.04299999999991
 20
162.124
 30
0.0
 11
109.25399999999991
 21
161.53100000000001
 31
0.0
  0
LINE
  5
62
  8
0
 62
     7
 10
109.25399999999991
 20
161.53100000000001
 30
0.0
 11
109.25399999999991
 21
162.71600000000001
 31
0.0
  0
LINE
  5
63
  8
0
 62
     7
 10
151.042
 20
162.13800000000001
 30
0.0
 11
107.04299999999991
 21
162.13800000000001
 31
0.0
  0
LINE
  5
64
  8
0
 62
     7
 10
107.04299999999991
 20
173.3959999999999
 30
0.0
 11
107.04299999999991
 21
161.42400000000001
 31
0.0
  0
LINE
  5
65
  8
0
 62
     7
 10
153.33099999999999
 20
115.73099999999999
 30
0.0
 11
155.54199999999989
 21
116.324
 31
0.0
  0
LINE
  5
66
  8
0
 62
     7
 10
155.54199999999989
 20
116.324
 30
0.0
 11
153.33099999999999
 21
116.917
 31
0.0
  0
LINE
  5
67
  8
0
 62
     7
 10
153.33099999999999
 20
116.917
 30
0.0
 11
153.33099999999999
 21
115.73099999999999
 31
0.0
  0
LINE
  5
68
  8
0
 62
     7
 10
148.75399999999991
 20
116.9019999999999
 30
0.0
 11
146.54199999999989
 21
116.31
 31
0.0
  0
LINE
  5
69
  8
0
 62
     7
 10
146.54199999999989
 20
116.31
 30
0.0
 11
148.75399999999991
 21
115.717
 31
0.0
  0
LINE
  5
6A
  8
0
 62
     7
 10
148.75399999999991
 20
115.717
 30
0.0
 11
148.75399999999991
 21
116.9019999999999
 31
0.0
  0
LINE
  5
6B
  8
0
 62
     7
 10
155.54199999999989
 20
116.31
 30
0.0
 11
146.54199999999989
 21
116.31
 31
0.0
  0
LINE
  5
6C
  8
0
 62
     7
 10
137.96299999999991
 20
110.53700000000001
 30
0.0
 11
137.37100000000001
 21
112.748
 31
0.0
  0
LINE
  5
6D
  8
0
 62
     7
 10
137.37100000000001
 20
112.748
 30
0.0
 11
136.77799999999991
 21
110.53700000000001
 31
0.0
  0
LINE
  5
6E
  8
0
 62
     7
 10
136.77799999999991
 20
110.53700000000001
 30
0.0
 11
137.96299999999991
 21
110.53700000000001
 31
0.0
  0
LINE
  5
6F
  8
0
 62
     7
 10
136.79300000000001
 20
105.717
 30
0.0
 11
137.38499999999999
 21
103.506
 31
0.0
  0
LINE
  5
70
  8
0
 62
     7
 10
137.38499999999999
 20
103.506
 30
0.0
 11
137.97799999999989
 21
105.717
 31
0.0
  0
LINE
  5
71
  8
0
 62
     7
 10
137.97799999999989
 20
105.717
 30
0.0
 11
136.79300000000001
 21
105.717
 31
0.0
  0
LINE
  5
72
  8
0
 62
     7
 10
137.37100000000001
 20
112.748
 30
0.0
 11
137.37100000000001
 21
103.506
 31
0.0
  0
LINE
  5
73
  8
0
 62
     7
 10
144.09200000000001
 20
103.506
 30
0.0
 11
136.67099999999991
 21
103.506
 31
0.0
  0
LINE
  5
74
  8
0
 62
     7
 10
102.3179999999999
 20
175.249
 30
0.0
 11
97.955699999999993
 21
175.249
 31
0.0
  0
LINE
  5
75
  8
0
 62
     7
 10
174.44499999999999
 20
193.49299999999991
 30
0.0
 11
173.852
 21
195.70400000000001
 31
0.0
  0
LINE
  5
76
  8
0
 62
     7
 10
173.852
 20
195.70400000000001
 30
0.0
 11
173.25899999999999
 21
193.49299999999991
 31
0.0
  0
LINE
  5
77
  8
0
 62
     7
 10
173.25899999999999
 20
193.49299999999991
 30
0.0
 11
174.44499999999999
 21
193.49299999999991
 31
0.0
  0
LINE
  5
78
  8
0
 62
     7
 10
173.27399999999989
 20
114.959
 30
0.0
 11
173.8659999999999
 21
112.748
 31
0.0
  0
LINE
  5
79
  8
0
 62
     7
 10
173.8659999999999
 20
112.748
 30
0.0
 11
174.459
 21
114.959
 31
0.0
  0
LINE
  5
7A
  8
0
 62
     7
 10
174.459
 20
114.959
 30
0.0
 11
173.27399999999989
 21
114.959
 31
0.0
  0
LINE
  5
7B
  8
0
 62
     7
 10
173.852
 20
195.70400000000001
 30
0.0
 11
173.852
 21
112.748
 31
0.0
  0
LINE
  5
7C
  8
0
 62
     7
 10
166.298
 20
187.03700000000001
 30
0.0
 11
165.70500000000001
 21
189.249
 31
0.0
  0
LINE
  5
7D
  8
0
 62
     7
 10
165.70500000000001
 20
189.249
 30
0.0
 11
165.11199999999991
 21
187.03700000000001
 31
0.0
  0
LINE
  5
7E
  8
0
 62
     7
 10
165.11199999999991
 20
187.03700000000001
 30
0.0
 11
166.298
 21
187.03700000000001
 31
0.0
  0
LINE
  5
7F
  8
0
 62
     7
 10
165.12700000000001
 20
114.959
 30
0.0
 11
165.71899999999999
 21
112.748
 31
0.0
  0
LINE
  5
80
  8
0
 62
     7
 10
165.71899999999999
 20
112.748
 30
0.0
 11
166.31200000000001
 21
114.959
 31
0.0
  0
LINE
  5
81
  8
0
 62
     7
 10
166.31200000000001
 20
114.959
 30
0.0
 11
165.12700000000001
 21
114.959
 31
0.0
  0
LINE
  5
82
  8
0
 62
     7
 10
165.70500000000001
 20
189.249
 30
0.0
 11
165.70500000000001
 21
112.748
 31
0.0
  0
LINE
  5
83
  8
0
 62
     7
 10
174.55199999999999
 20
195.70400000000001
 30
0.0
 11
140.97699999999989
 21
195.70400000000001
 31
0.0
  0
LINE
  5
84
  8
0
 62
     7
 10
166.405
 20
189.249
 30
0.0
 11
136.6879999999999
 21
189.249
 31
0.0
  0
LINE
  5
85
  8
0
 62
     7
 10
174.56700000000001
 20
112.748
 30
0.0
 11
159.24199999999999
 21
112.748
 31
0.0
  0
LINE
  5
86
  8
0
 62
     7
 10
99.2483
 20
173.03700000000001
 30
0.0
 11
98.655800000000013
 21
175.249
 31
0.0
  0
LINE
  5
87
  8
0
 62
     7
 10
98.655800000000013
 20
175.249
 30
0.0
 11
98.063199999999995
 21
173.03700000000001
 31
0.0
  0
LINE
  5
88
  8
0
 62
     7
 10
98.063199999999995
 20
173.03700000000001
 30
0.0
 11
99.2483
 21
173.03700000000001
 31
0.0
  0
LINE
  5
89
  8
0
 62
     7
 10
98.077699999999993
 20
114.959
 30
0.0
 11
98.670199999999994
 21
112.748
 31
0.0
  0
LINE
  5
8A
  8
0
 62
     7
 10
98.670199999999994
 20
112.748
 30
0.0
 11
99.262799999999999
 21
114.959
 31
0.0
  0
LINE
  5
8B
  8
0
 62
     7
 10
99.262799999999999
 20
114.959
 30
0.0
 11
98.077699999999993
 21
114.959
 31
0.0
  0
LINE
  5
8C
  8
0
 62
     7
 10
98.655800000000013
 20
175.249
 30
0.0
 11
98.655800000000013
 21
112.748
 31
0.0
  0
LINE
  5
8D
  8
0
 62
     7
 10
34.80599999999999
 20
53.7834
 30
0.0
 11
28.045000000000002
 21
53.7834
 31
0.0
  0
LINE
  5
8E
  8
0
 62
     7
 10
46.826700000000002
 20
112.748
 30
0.0
 11
28.045000000000002
 21
112.748
 31
0.0
  0
LINE
  5
8F
  8
0
 62
     7
 10
82.745000000000005
 20
59.72699999999999
 30
0.0
 11
75.208299999999994
 21
59.72699999999999
 31
0.0
  0
LINE
  5
90
  8
0
 62
     7
 10
82.745000000000005
 20
112.748
 30
0.0
 11
63.1828
 21
112.748
 31
0.0
  0
LINE
  5
91
  8
0
 62
     7
 10
142.666
 20
112.748
 30
0.0
 11
97.970200000000006
 21
112.748
 31
0.0
  0
LINE
  5
92
  8
0
 62
     7
 10
139.01900000000001
 20
48.430399999999999
 30
0.0
 11
136.80799999999991
 21
47.838200000000001
 31
0.0
  0
LINE
  5
93
  8
0
 62
     7
 10
136.80799999999991
 20
47.838200000000001
 30
0.0
 11
139.01900000000001
 21
47.246000000000002
 31
0.0
  0
LINE
  5
94
  8
0
 62
     7
 10
139.01900000000001
 20
47.246000000000002
 30
0.0
 11
139.01900000000001
 21
48.430399999999999
 31
0.0
  0
LINE
  5
95
  8
0
 62
     7
 10
130.47200000000001
 20
47.246000000000002
 30
0.0
 11
132.68199999999999
 21
47.838200000000001
 31
0.0
  0
LINE
  5
96
  8
0
 62
     7
 10
132.68199999999999
 20
47.838200000000001
 30
0.0
 11
130.47200000000001
 21
48.430399999999999
 31
0.0
  0
LINE
  5
97
  8
0
 62
     7
 10
130.47200000000001
 20
48.430399999999999
 30
0.0
 11
130.47200000000001
 21
47.246000000000002
 31
0.0
  0
LINE
  5
98
  8
0
 62
     7
 10
122.958
 20
47.838200000000001
 30
0.0
 11
140.524
 21
47.838200000000001
 31
0.0
  0
ARC
  5
99
  8
0
  6
AIGENLINE001
 62
     7
 10
150.0347909999999
 20
180.20720800000001
 30
0.0
 40
3.430788999999999
 50
141.799296
 51
148.20080300000001
  0
ARC
  5
9A
  8
0
  6
AIGENLINE001
 62
     7
 10
151.66833099999991
 20
179.16305399999999
 30
0.0
 40
5.3694110000000004
 50
147.91649099999989
 51
167.67921100000001
  0
ARC
  5
9B
  8
0
  6
AIGENLINE001
 62
     7
 10
149.885336
 20
179.584655
 30
0.0
 40
3.5376579999999991
 50
168.18820700000001
 51
175.29368700000001
  0
ARC
  5
9C
  8
0
  6
AIGENLINE001
 62
     7
 10
151.16587999999999
 20
180.9878689999999
 30
0.0
 40
0.521845
 50
243.62244100000001
 51
264.81177200000002
  0
LINE
  5
9D
  8
0
  6
AIGENLINE001
 62
     7
 10
154.53
 20
180.17699999999999
 30
0.0
 11
151.119
 21
180.4679999999999
 31
0.0
  0
LINE
  5
9E
  8
0
  6
AIGENLINE001
 62
     7
 10
150.93399999999991
 20
180.52000000000001
 30
0.0
 11
147.202
 21
182.39699999999999
 31
0.0
  0
LINE
  5
9F
  8
0
  6
AIGENLINE001
 62
     7
 10
146.97799999999989
 20
182.50999999999991
 30
0.0
 11
147.202
 21
182.39699999999999
 31
0.0
  0
ARC
  5
A0
  8
0
  6
AIGENLINE001
 62
     7
 10
139.851922
 20
195.10091
 30
0.0
 40
0.259563
 50
146.51993300000001
 51
232.33125299999989
  0
LINE
  5
A1
  8
0
  6
AIGENLINE001
 62
     7
 10
139.63499999999991
 20
195.244
 30
0.0
 11
139.92699999999999
 21
195.649
 31
0.0
  0
ARC
  5
A2
  8
0
  6
AIGENLINE001
 62
     7
 10
157.1980409999999
 20
183.26038799999989
 30
0.0
 40
0.258775
 50
335.17355499999991
 51
52.839920999999983
  0
LINE
  5
A3
  8
0
  6
AIGENLINE001
 62
     7
 10
157.43299999999991
 20
183.15199999999999
 30
0.0
 11
155.87899999999991
 21
180.06200000000001
 31
0.0
  0
ARC
  5
A4
  8
0
  6
AIGENLINE001
 62
     7
 10
140.13171199999999
 20
195.488966
 30
0.0
 40
0.259766
 50
56.017035999999997
 51
142.046907
  0
LINE
  5
A5
  8
0
  6
AIGENLINE001
 62
     7
 10
139.6929999999999
 20
194.89500000000001
 30
0.0
 11
140.511
 21
194.31
 31
0.0
  0
LINE
  5
A6
  8
0
  6
AIGENLINE001
 62
     7
 10
148.75499999999991
 20
188.40199999999999
 30
0.0
 11
140.511
 21
194.31
 31
0.0
  0
ARC
  5
A7
  8
0
  6
AIGENLINE001
 62
     7
 10
147.970493
 20
187.36849499999991
 30
0.0
 40
1.2976689999999991
 50
335.30272200000002
 51
52.822797000000001
  0
LINE
  5
A8
  8
0
  6
AIGENLINE001
 62
     7
 10
146.97799999999989
 20
182.50999999999991
 30
0.0
 11
149.14899999999989
 21
186.82599999999999
 31
0.0
  0
LINE
  5
A9
  8
0
  6
AIGENLINE001
 62
     7
 10
157.3539999999999
 20
183.46700000000001
 30
0.0
 11
156.52699999999999
 21
184.06
 31
0.0
  0
LINE
  5
AA
  8
0
  6
AIGENLINE001
 62
     7
 10
140.27699999999999
 20
195.70400000000001
 30
0.0
 11
141.09399999999991
 21
195.119
 31
0.0
  0
LINE
  5
AB
  8
0
  6
AIGENLINE001
 62
     7
 10
141.09399999999991
 20
195.119
 30
0.0
 11
156.52699999999999
 21
184.06
 31
0.0
  0
LINE
  5
AC
  8
0
  6
AIGENLINE001
 62
     7
 10
155.87899999999991
 20
180.06200000000001
 30
0.0
 11
154.53
 21
180.17699999999999
 31
0.0
  0
ARC
  5
AD
  8
0
  6
AIGENLINE001
 62
     7
 10
149.59633099999999
 20
179.717601
 30
0.0
 40
5.2868820000000003
 50
1.7461779999999989
 51
4.6782409999999999
  0
LINE
  5
AE
  8
0
 62
     7
 10
146.24000000000001
 20
103.001
 30
0.0
 11
146.22200000000001
 21
102.876
 31
0.0
  0
ARC
  5
AF
  8
0
 62
     7
 10
146.308155
 20
95.497873999999996
 30
0.0
 40
8.5626570000000015
 50
59.508694999999989
 51
61.195751999999992
  0
ARC
  5
B0
  8
0
 62
     7
 10
150.60690199999991
 20
95.468151000000006
 30
0.0
 40
8.5968539999999987
 50
118.80758399999991
 51
120.48792899999999
  0
ARC
  5
B1
  8
0
 62
     7
 10
151.517864
 20
95.646415000000005
 30
0.0
 40
8.2412289999999988
 50
61.317248999999997
 51
63.179386000000001
  0
ARC
  5
B2
  8
0
 62
     7
 10
154.21294900000001
 20
96.500067000000001
 30
0.0
 40
7.2767660000000003
 50
116.6971769999999
 51
118.80614799999999
  0
LINE
  5
B3
  8
0
 62
     7
 10
155.50399999999991
 20
102.876
 30
0.0
 11
155.52199999999999
 21
103.001
 31
0.0
  0
LINE
  5
B4
  8
0
 62
     7
 10
155.845
 20
103.001
 30
0.0
 11
155.86299999999989
 21
102.876
 31
0.0
  0
LINE
  5
B5
  8
0
 62
     7
 10
146.24000000000001
 20
101.506
 30
0.0
 11
146.22200000000001
 21
101.6299999999999
 31
0.0
  0
ARC
  5
B6
  8
0
 62
     7
 10
147.32757799999999
 20
107.21773399999999
 30
0.0
 40
6.5021219999999991
 50
298.536903
 51
300.75864999999988
  0
ARC
  5
B7
  8
0
 62
     7
 10
150.58998399999999
 20
109.008765
 30
0.0
 40
8.5626570000000015
 50
239.508715
 51
241.19577200000001
  0
ARC
  5
B8
  8
0
 62
     7
 10
152.37205299999999
 20
107.2367939999999
 30
0.0
 40
6.4071020000000001
 50
296.55404700000003
 51
298.94931700000001
  0
ARC
  5
B9
  8
0
 62
     7
 10
154.66210899999999
 20
108.8602239999999
 30
0.0
 40
8.2412289999999988
 50
241.3172689999999
 51
243.17940599999989
  0
LINE
  5
BA
  8
0
 62
     7
 10
155.50399999999991
 20
101.6299999999999
 30
0.0
 11
155.52199999999999
 21
101.506
 31
0.0
  0
LINE
  5
BB
  8
0
 62
     7
 10
155.845
 20
101.506
 30
0.0
 11
155.86299999999989
 21
101.6299999999999
 31
0.0
  0
LINE
  5
BC
  8
0
 62
     7
 10
146.22200000000001
 20
102.876
 30
0.0
 11
146.22200000000001
 21
101.6299999999999
 31
0.0
  0
LINE
  5
BD
  8
0
 62
     7
 10
146.245
 20
101.6299999999999
 30
0.0
 11
146.245
 21
102.876
 31
0.0
  0
LINE
  5
BE
  8
0
 62
     7
 10
150.65299999999991
 20
102.876
 30
0.0
 11
150.65299999999991
 21
101.6299999999999
 31
0.0
  0
LINE
  5
BF
  8
0
 62
     7
 10
150.70699999999991
 20
101.6299999999999
 30
0.0
 11
150.70699999999991
 21
102.876
 31
0.0
  0
LINE
  5
C0
  8
0
 62
     7
 10
155.4729999999999
 20
102.876
 30
0.0
 11
155.4729999999999
 21
101.6299999999999
 31
0.0
  0
LINE
  5
C1
  8
0
 62
     7
 10
155.50399999999991
 20
101.6299999999999
 30
0.0
 11
155.50399999999991
 21
102.876
 31
0.0
  0
LINE
  5
C2
  8
0
 62
     7
 10
155.86299999999989
 20
102.876
 30
0.0
 11
155.86299999999989
 21
101.6299999999999
 31
0.0
  0
LINE
  5
C3
  8
0
 62
     7
 10
146.245
 20
102.876
 30
0.0
 11
146.22200000000001
 21
102.876
 31
0.0
  0
LINE
  5
C4
  8
0
 62
     7
 10
150.70699999999991
 20
102.876
 30
0.0
 11
150.65299999999991
 21
102.876
 31
0.0
  0
LINE
  5
C5
  8
0
 62
     7
 10
155.50399999999991
 20
102.876
 30
0.0
 11
155.4729999999999
 21
102.876
 31
0.0
  0
LINE
  5
C6
  8
0
 62
     7
 10
146.245
 20
101.6299999999999
 30
0.0
 11
146.22200000000001
 21
101.6299999999999
 31
0.0
  0
LINE
  5
C7
  8
0
 62
     7
 10
150.70699999999991
 20
101.6299999999999
 30
0.0
 11
150.65299999999991
 21
101.6299999999999
 31
0.0
  0
LINE
  5
C8
  8
0
 62
     7
 10
155.50399999999991
 20
101.6299999999999
 30
0.0
 11
155.4729999999999
 21
101.6299999999999
 31
0.0
  0
LINE
  5
C9
  8
0
 62
     7
 10
146.46399999999991
 20
101.506
 30
0.0
 11
146.24000000000001
 21
101.506
 31
0.0
  0
LINE
  5
CA
  8
0
 62
     7
 10
150.434
 20
101.506
 30
0.0
 11
146.46399999999991
 21
101.506
 31
0.0
  0
LINE
  5
CB
  8
0
 62
     7
 10
150.9439999999999
 20
101.506
 30
0.0
 11
150.434
 21
101.506
 31
0.0
  0
LINE
  5
CC
  8
0
 62
     7
 10
155.23599999999999
 20
101.506
 30
0.0
 11
150.9439999999999
 21
101.506
 31
0.0
  0
LINE
  5
CD
  8
0
 62
     7
 10
155.52199999999999
 20
101.506
 30
0.0
 11
155.23599999999999
 21
101.506
 31
0.0
  0
LINE
  5
CE
  8
0
 62
     7
 10
155.845
 20
101.506
 30
0.0
 11
155.52199999999999
 21
101.506
 31
0.0
  0
LINE
  5
CF
  8
0
 62
     7
 10
144.756
 20
103.99799999999991
 30
0.0
 11
144.756
 21
103.3749999999999
 31
0.0
  0
LINE
  5
D0
  8
0
 62
     7
 10
157.32900000000001
 20
103.99799999999991
 30
0.0
 11
157.32900000000001
 21
103.3749999999999
 31
0.0
  0
LINE
  5
D1
  8
0
 62
     7
 10
154.83199999999991
 20
103.3749999999999
 30
0.0
 11
157.32900000000001
 21
103.3749999999999
 31
0.0
  0
LINE
  5
D2
  8
0
 62
     7
 10
144.756
 20
103.3749999999999
 30
0.0
 11
154.83199999999991
 21
103.3749999999999
 31
0.0
  0
LINE
  5
D3
  8
0
 62
     7
 10
154.83199999999991
 20
103.99799999999991
 30
0.0
 11
157.32900000000001
 21
103.99799999999991
 31
0.0
  0
LINE
  5
D4
  8
0
 62
     7
 10
144.756
 20
103.99799999999991
 30
0.0
 11
154.83199999999991
 21
103.99799999999991
 31
0.0
  0
LINE
  5
D5
  8
0
 62
     7
 10
144.756
 20
103.001
 30
0.0
 11
144.756
 21
103.125
 31
0.0
  0
LINE
  5
D6
  8
0
 62
     7
 10
157.32900000000001
 20
103.001
 30
0.0
 11
157.32900000000001
 21
103.125
 31
0.0
  0
ARC
  5
D7
  8
0
 62
     7
 10
145.51592400000001
 20
103.116716
 30
0.0
 40
0.258214
 50
91.152804999999987
 51
168.7395149999999
  0
ARC
  5
D8
  8
0
 62
     7
 10
156.56799499999991
 20
103.1152969999999
 30
0.0
 40
0.25966
 50
11.51637899999999
 51
88.591262
  0
ARC
  5
D9
  8
0
 62
     7
 10
145.211748
 20
103.17738799999999
 30
0.0
 40
0.051953
 50
271.4584319999999
 51
348.62075800000002
  0
ARC
  5
DA
  8
0
 62
     7
 10
156.873412
 20
103.17745099999991
 30
0.0
 40
0.052018
 50
191.43607199999991
 51
268.48477800000001
  0
LINE
  5
DB
  8
0
 62
     7
 10
156.822
 20
103.167
 30
0.0
 11
145.26300000000001
 21
103.167
 31
0.0
  0
LINE
  5
DC
  8
0
 62
     7
 10
157.32900000000001
 20
103.125
 30
0.0
 11
144.756
 21
103.125
 31
0.0
  0
LINE
  5
DD
  8
0
 62
     7
 10
157.32900000000001
 20
103.001
 30
0.0
 11
144.756
 21
103.001
 31
0.0
  0
LINE
  5
DE
  8
0
 62
     7
 10
155.065
 20
112.3739999999999
 30
0.0
 11
155.065
 21
103.99799999999991
 31
0.0
  0
LINE
  5
DF
  8
0
 62
     7
 10
147.02000000000001
 20
112.3739999999999
 30
0.0
 11
147.02000000000001
 21
103.99799999999991
 31
0.0
  0
LINE
  5
E0
  8
0
 62
     7
 10
144.756
 20
112.748
 30
0.0
 11
144.756
 21
112.3739999999999
 31
0.0
  0
LINE
  5
E1
  8
0
 62
     7
 10
157.32900000000001
 20
112.748
 30
0.0
 11
157.32900000000001
 21
112.3739999999999
 31
0.0
  0
LINE
  5
E2
  8
0
 62
     7
 10
156.286
 20
112.3739999999999
 30
0.0
 11
157.32900000000001
 21
112.3739999999999
 31
0.0
  0
LINE
  5
E3
  8
0
 62
     7
 10
144.756
 20
112.3739999999999
 30
0.0
 11
156.286
 21
112.3739999999999
 31
0.0
  0
LINE
  5
E4
  8
0
  6
AIGENLINE002
 62
     7
 10
151.042
 20
125.583
 30
0.0
 11
151.042
 21
121.083
 31
0.0
  0
LINE
  5
E5
  8
0
  6
AIGENLINE002
 62
     7
 10
151.042
 20
115.18299999999989
 30
0.0
 11
151.042
 21
81.427400000000006
 31
0.0
  0
LINE
  5
E6
  8
0
  6
AIGENLINE002
 62
     7
 10
107.04299999999991
 20
174.09599999999989
 30
0.0
 11
107.04299999999991
 21
180.47
 31
0.0
  0
LINE
  5
E7
  8
0
 62
     7
 10
109.3679999999999
 20
175.249
 30
0.0
 11
109.3679999999999
 21
175.63499999999991
 31
0.0
  0
LINE
  5
E8
  8
0
 62
     7
 10
104.71599999999999
 20
175.249
 30
0.0
 11
104.71599999999999
 21
175.63499999999991
 31
0.0
  0
LINE
  5
E9
  8
0
 62
     7
 10
109.3679999999999
 20
175.249
 30
0.0
 11
104.71599999999999
 21
175.249
 31
0.0
  0
LINE
  5
EA
  8
0
 62
     7
 10
143.542
 20
112.748
 30
0.0
 11
143.542
 21
113.496
 31
0.0
  0
LINE
  5
EB
  8
0
 62
     7
 10
158.542
 20
112.748
 30
0.0
 11
158.542
 21
113.496
 31
0.0
  0
LINE
  5
EC
  8
0
 62
     7
 10
158.542
 20
113.496
 30
0.0
 11
143.542
 21
113.496
 31
0.0
  0
LINE
  5
ED
  8
0
 62
     7
 10
158.542
 20
112.748
 30
0.0
 11
143.542
 21
112.748
 31
0.0
  0
ARC
  5
EE
  8
0
 62
     7
 10
150.93087600000001
 20
180.98714099999989
 30
0.0
 40
0.514157
 50
270.12143199999991
 51
291.67290600000001
  0
LINE
  5
EF
  8
0
 62
     7
 10
154.29900000000001
 20
181.78200000000001
 30
0.0
 11
151.12100000000001
 21
180.50899999999999
 31
0.0
  0
LINE
  5
F0
  8
0
 62
     7
 10
150.93199999999999
 20
180.4729999999999
 30
0.0
 11
146.75499999999991
 21
180.4729999999999
 31
0.0
  0
LINE
  5
F1
  8
0
 62
     7
 10
146.50399999999991
 20
180.4729999999999
 30
0.0
 11
146.75499999999991
 21
180.4729999999999
 31
0.0
  0
ARC
  5
F2
  8
0
 62
     7
 10
134.4803179999999
 20
188.5190519999999
 30
0.0
 40
0.259617
 50
173.33122700000001
 51
259.10136199999999
  0
LINE
  5
F3
  8
0
 62
     7
 10
134.22200000000001
 20
188.54900000000001
 30
0.0
 11
134.30099999999999
 21
189.04199999999989
 31
0.0
  0
ARC
  5
F4
  8
0
 62
     7
 10
155.29593499999999
 20
185.73417900000001
 30
0.0
 40
0.260253
 50
2.1658499999999989
 51
79.405783999999997
  0
LINE
  5
F5
  8
0
 62
     7
 10
155.55600000000001
 20
185.744
 30
0.0
 11
155.55600000000001
 21
182.28599999999989
 31
0.0
  0
ARC
  5
F6
  8
0
 62
     7
 10
134.554867
 20
188.99228400000001
 30
0.0
 40
0.2586219999999999
 50
82.565877
 51
168.98891
  0
LINE
  5
F7
  8
0
 62
     7
 10
134.43100000000001
 20
188.26400000000001
 30
0.0
 11
135.42500000000001
 21
188.108
 31
0.0
  0
LINE
  5
F8
  8
0
 62
     7
 10
145.4429999999999
 20
186.535
 30
0.0
 11
135.42500000000001
 21
188.108
 31
0.0
  0
ARC
  5
F9
  8
0
 62
     7
 10
145.2076909999999
 20
185.25917599999991
 30
0.0
 40
1.2973920000000001
 50
1.9907520000000001
 51
79.541207999999997
  0
LINE
  5
FA
  8
0
 62
     7
 10
146.50399999999991
 20
180.4729999999999
 30
0.0
 11
146.50399999999991
 21
185.304
 31
0.0
  0
LINE
  5
FB
  8
0
 62
     7
 10
155.34399999999991
 20
185.99000000000001
 30
0.0
 11
154.33799999999991
 21
186.148
 31
0.0
  0
LINE
  5
FC
  8
0
 62
     7
 10
134.58799999999991
 20
189.249
 30
0.0
 11
135.58199999999999
 21
189.0929999999999
 31
0.0
  0
LINE
  5
FD
  8
0
 62
     7
 10
135.58199999999999
 20
189.0929999999999
 30
0.0
 11
154.33799999999991
 21
186.148
 31
0.0
  0
LINE
  5
FE
  8
0
 62
     7
 10
155.55600000000001
 20
182.28599999999989
 30
0.0
 11
154.29900000000001
 21
181.78200000000001
 31
0.0
  0
ARC
  5
FF
  8
0
 62
     7
 10
151.24252499999989
 20
179.61467899999991
 30
0.0
 40
4.4192960000000001
 50
168.800952
 51
176.6241259999999
  0
ARC
  5
100
  8
0
 62
     7
 10
150.88917399999991
 20
179.61215100000001
 30
0.0
 40
4.3729370000000003
 50
3.4448620000000001
 51
31.65925099999999
  0
ARC
  5
101
  8
0
 62
     7
 10
103.40714199999999
 20
175.89630199999991
 30
0.0
 40
0.261297
 50
182.64138600000001
 51
267.91069700000003
  0
ARC
  5
102
  8
0
 62
     7
 10
103.4050949999999
 20
179.61586199999999
 30
0.0
 40
0.259158
 50
91.653728999999984
 51
177.83379500000001
  0
LINE
  5
103
  8
0
 62
     7
 10
103.146
 20
179.62599999999989
 30
0.0
 11
103.146
 21
175.88399999999999
 31
0.0
  0
ARC
  5
104
  8
0
 62
     7
 10
155.2811889999999
 20
179.61378500000001
 30
0.0
 40
0.261302
 50
2.6043739999999991
 51
87.908062000000001
  0
LINE
  5
105
  8
0
 62
     7
 10
155.54199999999989
 20
179.62599999999989
 30
0.0
 11
155.54199999999989
 21
113.496
 31
0.0
  0
LINE
  5
106
  8
0
 62
     7
 10
103.3979999999999
 20
179.875
 30
0.0
 11
104.40300000000001
 21
179.875
 31
0.0
  0
LINE
  5
107
  8
0
 62
     7
 10
104.40300000000001
 20
179.875
 30
0.0
 11
154.285
 21
179.875
 31
0.0
  0
LINE
  5
108
  8
0
 62
     7
 10
154.285
 20
179.875
 30
0.0
 11
155.29099999999991
 21
179.875
 31
0.0
  0
LINE
  5
109
  8
0
 62
     7
 10
146.54199999999989
 20
171.8959999999999
 30
0.0
 11
146.54199999999989
 21
113.496
 31
0.0
  0
ARC
  5
10A
  8
0
 62
     7
 10
142.629445
 20
171.72107500000001
 30
0.0
 40
3.9166679999999992
 50
2.5625960000000001
 51
87.926268000000022
  0
LINE
  5
10B
  8
0
 62
     7
 10
104.40300000000001
 20
175.63499999999991
 30
0.0
 11
142.77099999999999
 21
175.63499999999991
 31
0.0
  0
LINE
  5
10C
  8
0
 62
     7
 10
103.146
 20
175.88399999999999
 30
0.0
 11
103.146
 21
175.88399999999999
 31
0.0
  0
LINE
  5
10D
  8
0
 62
     7
 10
103.3979999999999
 20
175.63499999999991
 30
0.0
 11
104.40300000000001
 21
175.63499999999991
 31
0.0
  0
LINE
  5
10E
  8
0
  6
AIGENLINE001
 62
     7
 10
40.306100000000001
 20
236.91900000000001
 30
0.0
 11
53.2712
 21
247.798
 31
0.0
  0
ARC
  5
10F
  8
0
  6
AIGENLINE001
 62
     7
 10
41.185612999999996
 20
235.96851299999989
 30
0.0
 40
1.294686
 50
132.7879419999999
 51
217.94022100000001
  0
LINE
  5
110
  8
0
  6
AIGENLINE001
 62
     7
 10
40.1646
 20
235.17199999999991
 30
0.0
 11
44.329999999999991
 21
230.208
 31
0.0
  0
ARC
  5
111
  8
0
  6
AIGENLINE001
 62
     7
 10
45.291173999999991
 20
231.0755959999999
 30
0.0
 40
1.294972999999999
 50
222.080986
 51
307.210891
  0
LINE
  5
112
  8
0
  6
AIGENLINE001
 62
     7
 10
46.074299999999987
 20
230.04400000000001
 30
0.0
 11
55.004699999999993
 21
237.53700000000001
 31
0.0
  0
LINE
  5
113
  8
0
  6
AIGENLINE002
 62
     7
 10
55.021599999999992
 20
243.39400000000001
 30
0.0
 11
36.896500000000003
 21
228.13900000000001
 31
0.0
  0
LINE
  5
114
  8
0
  6
AIGENLINE001
 62
     7
 10
69.706400000000002
 20
236.91900000000001
 30
0.0
 11
56.741799999999991
 21
247.798
 31
0.0
  0
ARC
  5
115
  8
0
  6
AIGENLINE001
 62
     7
 10
68.827469999999991
 20
235.96835200000001
 30
0.0
 40
1.294465999999999
 50
322.06123700000001
 51
47.233060000000002
  0
LINE
  5
116
  8
0
  6
AIGENLINE001
 62
     7
 10
69.848399999999998
 20
235.17199999999991
 30
0.0
 11
65.682500000000005
 21
230.208
 31
0.0
  0
ARC
  5
117
  8
0
  6
AIGENLINE001
 62
     7
 10
64.721491
 20
231.0747529999999
 30
0.0
 40
1.294349999999999
 50
232.76377099999991
 51
317.94439299999999
  0
LINE
  5
118
  8
0
  6
AIGENLINE001
 62
     7
 10
63.938299999999998
 20
230.04400000000001
 30
0.0
 11
55.003700000000002
 21
237.541
 31
0.0
  0
LINE
  5
119
  8
0
  6
AIGENLINE002
 62
     7
 10
55.021599999999992
 20
243.39400000000001
 30
0.0
 11
73.170199999999994
 21
228.13900000000001
 31
0.0
  0
LINE
  5
11A
  8
0
 62
     7
 10
158.155
 20
250.50699999999989
 30
0.0
 11
163.94200000000001
 21
250.50699999999989
 31
0.0
  0
LINE
  5
11B
  8
0
 62
     7
 10
146.804
 20
238.3179999999999
 30
0.0
 11
147.94799999999989
 21
240.30099999999999
 31
0.0
  0
LINE
  5
11C
  8
0
 62
     7
 10
147.94799999999989
 20
240.30099999999999
 30
0.0
 11
145.965
 21
239.15599999999989
 31
0.0
  0
LINE
  5
11D
  8
0
 62
     7
 10
145.965
 20
239.15599999999989
 30
0.0
 11
146.804
 21
238.3179999999999
 31
0.0
  0
LINE
  5
11E
  8
0
 62
     7
 10
155.28100000000001
 20
248.47099999999989
 30
0.0
 11
154.136
 21
246.48799999999989
 31
0.0
  0
LINE
  5
11F
  8
0
 62
     7
 10
154.136
 20
246.48799999999989
 30
0.0
 11
156.119
 21
247.6329999999999
 31
0.0
  0
LINE
  5
120
  8
0
 62
     7
 10
156.119
 20
247.6329999999999
 30
0.0
 11
155.28100000000001
 21
248.47099999999989
 31
0.0
  0
LINE
  5
121
  8
0
 62
     7
 10
158.155
 20
250.50699999999989
 30
0.0
 11
143.96899999999991
 21
236.321
 31
0.0
  0
LINE
  5
122
  8
0
  6
AIGENLINE002
 62
     7
 10
151.042
 20
249.71499999999989
 30
0.0
 11
151.042
 21
236.5629999999999
 31
0.0
  0
ARC
  5
123
  8
0
 62
     7
 10
151.04238099999989
 20
243.39408900000001
 30
0.0
 40
4.3751269999999991
 50
0.002266
 51
90.002235999999996
  0
ARC
  5
124
  8
0
 62
     7
 10
151.04238199999989
 20
243.39443299999999
 30
0.0
 40
4.374782999999999
 50
90.002256000000017
 51
180.00226599999991
  0
ARC
  5
125
  8
0
 62
     7
 10
151.04238099999989
 20
243.39408900000001
 30
0.0
 40
4.3747809999999987
 50
179.997714
 51
269.99776400000002
  0
ARC
  5
126
  8
0
 62
     7
 10
151.04238099999989
 20
243.39443499999999
 30
0.0
 40
4.3751269999999991
 50
269.99776400000002
 51
359.99773399999992
  0
LINE
  5
127
  8
0
  6
AIGENLINE002
 62
     7
 10
42.521700000000003
 20
243.39400000000001
 30
0.0
 11
67.521500000000003
 21
243.39400000000001
 31
0.0
  0
LINE
  5
128
  8
0
  6
AIGENLINE002
 62
     7
 10
144.1039999999999
 20
243.39400000000001
 30
0.0
 11
157.81899999999999
 21
243.39400000000001
 31
0.0
  0
LINE
  5
129
  8
0
 62
     7
 10
132.68199999999999
 20
47.138199999999998
 30
0.0
 11
132.68199999999999
 21
53.083399999999997
 31
0.0
  0
LINE
  5
12A
  8
0
 62
     7
 10
136.80799999999991
 20
47.138199999999998
 30
0.0
 11
136.80799999999991
 21
53.083399999999997
 31
0.0
  0
LINE
  5
12B
  8
0
 62
     7
 10
55.627600000000001
 20
247.798
 30
0.0
 11
55.627600000000001
 21
248.90899999999999
 31
0.0
  0
LINE
  5
12C
  8
0
 62
     7
 10
55.627600000000001
 20
248.90899999999999
 30
0.0
 11
55.627600000000001
 21
250.15199999999999
 31
0.0
  0
LINE
  5
12D
  8
0
 62
     7
 10
55.627600000000001
 20
250.15199999999999
 30
0.0
 11
55.627600000000001
 21
252.64299999999989
 31
0.0
  0
ARC
  5
12E
  8
0
 62
     7
 10
55.239204000000001
 20
252.62876800000001
 30
0.0
 40
0.388684
 50
2.127308999999999
 51
87.793451999999988
  0
ARC
  5
12F
  8
0
 62
     7
 10
54.768977999999997
 20
252.62935499999989
 30
0.0
 40
0.388049
 50
92.01764
 51
177.9559449999999
  0
LINE
  5
130
  8
0
 62
     7
 10
54.3812
 20
250.15199999999999
 30
0.0
 11
54.3812
 21
252.64299999999989
 31
0.0
  0
LINE
  5
131
  8
0
 62
     7
 10
55.254199999999997
 20
253.017
 30
0.0
 11
54.755299999999998
 21
253.017
 31
0.0
  0
LINE
  5
132
  8
0
 62
     7
 10
54.3812
 20
248.90899999999999
 30
0.0
 11
54.3812
 21
250.15199999999999
 31
0.0
  0
ARC
  5
133
  8
0
 62
     7
 10
55.08928499999999
 20
248.91315599999999
 30
0.0
 40
0.538349
 50
308.37297899999999
 51
359.57956100000001
  0
ARC
  5
134
  8
0
 62
     7
 10
55.011014000000003
 20
248.99738099999999
 30
0.0
 40
0.653033
 50
269.44975699999992
 51
309.16951999999998
  0
ARC
  5
135
  8
0
 62
     7
 10
55.009708000000003
 20
249.0138189999999
 30
0.0
 40
0.669459
 50
217.0444589999999
 51
269.57497999999993
  0
ARC
  5
136
  8
0
 62
     7
 10
54.915610999999998
 20
248.91354100000001
 30
0.0
 40
0.5344520000000002
 50
180.46478400000001
 51
214.540325
  0
LINE
  5
137
  8
0
 62
     7
 10
54.3812
 20
247.798
 30
0.0
 11
54.3812
 21
248.90899999999999
 31
0.0
  0
ARC
  5
138
  8
0
 62
     7
 10
55.004232999999999
 20
243.324094
 30
0.0
 40
7.4773350000000001
 50
94.779764000000014
 51
184.78457599999999
  0
ARC
  5
139
  8
0
 62
     7
 10
55.10579899999999
 20
243.379234
 30
0.0
 40
7.5832889999999988
 50
185.13573199999999
 51
232.887936
  0
ARC
  5
13A
  8
0
 62
     7
 10
55.003428
 20
243.32367400000001
 30
0.0
 40
7.4789459999999996
 50
306.99708199999992
 51
36.980812999999998
  0
ARC
  5
13B
  8
0
 62
     7
 10
54.951097999999988
 20
243.22607599999989
 30
0.0
 40
7.5796009999999994
 50
37.332205999999999
 51
84.879207999999991
  0
ARC
  5
13C
  8
0
 62
     7
 10
58.210535
 20
227.94383499999989
 30
0.0
 40
1.295078
 50
272.08365900000001
 51
357.19926600000002
  0
LINE
  5
13D
  8
0
 62
     7
 10
58.257599999999989
 20
226.65000000000001
 30
0.0
 11
51.776699999999991
 21
226.65000000000001
 31
0.0
  0
ARC
  5
13E
  8
0
 62
     7
 10
51.823754000000001
 20
227.94383499999989
 30
0.0
 40
1.295078
 50
182.8007539999999
 51
267.91635999999988
  0
ARC
  5
13F
  8
0
 62
     7
 10
51.824820000000003
 20
246.5032009999999
 30
0.0
 40
1.295504999999999
 50
92.13010700000001
 51
177.85402500000001
  0
LINE
  5
140
  8
0
 62
     7
 10
58.257599999999989
 20
247.798
 30
0.0
 11
51.776699999999991
 21
247.798
 31
0.0
  0
ARC
  5
141
  8
0
 62
     7
 10
58.210180999999999
 20
246.50391300000001
 30
0.0
 40
1.294767
 50
2.1156649999999999
 51
87.900164000000004
  0
LINE
  5
142
  8
0
 62
     7
 10
59.504100000000001
 20
227.959
 30
0.0
 11
59.504100000000001
 21
246.55199999999999
 31
0.0
  0
LINE
  5
143
  8
0
 62
     7
 10
50.530200000000001
 20
227.959
 30
0.0
 11
50.530200000000001
 21
246.55199999999999
 31
0.0
  0
ARC
  5
144
  8
0
 62
     7
 10
58.21981199999999
 20
196.74453199999991
 30
0.0
 40
1.2463580000000001
 50
269.99606
 51
359.99603100000002
  0
LINE
  5
145
  8
0
 62
     7
 10
58.219700000000003
 20
195.49799999999991
 30
0.0
 11
51.789099999999998
 21
195.49799999999991
 31
0.0
  0
ARC
  5
146
  8
0
 62
     7
 10
51.788983000000002
 20
196.74453199999991
 30
0.0
 40
1.246356999999999
 50
180.0039689999999
 51
270.00397900000002
  0
LINE
  5
147
  8
0
 62
     7
 10
50.5426
 20
196.744
 30
0.0
 11
50.5426
 21
227.70699999999999
 31
0.0
  0
LINE
  5
148
  8
0
 62
     7
 10
59.466200000000001
 20
227.58000000000001
 30
0.0
 11
59.466200000000001
 21
196.744
 31
0.0
  0
LINE
  5
149
  8
0
  6
AIGENLINE002
 62
     7
 10
55.004699999999993
 20
255.11699999999999
 30
0.0
 11
55.004699999999993
 21
193.69799999999989
 31
0.0
  0
LINE
  5
14A
  8
0
  6
AIGENLINE002
 62
     7
 10
134.745
 20
97.998099999999994
 30
0.0
 11
151.042
 21
81.427400000000006
 31
0.0
  0
LINE
  5
14B
  8
0
 62
     7
 10
136.05699999999999
 20
93.146699999999996
 30
0.0
 11
136.05699999999999
 21
61.534999999999997
 31
0.0
  0
LINE
  5
14C
  8
0
 62
     7
 10
133.43299999999999
 20
93.146699999999996
 30
0.0
 11
133.43299999999999
 21
61.534999999999997
 31
0.0
  0
LINE
  5
14D
  8
0
  6
AIGENLINE002
 62
     7
 10
134.745
 20
97.998099999999994
 30
0.0
 11
134.745
 21
52.476000000000013
 31
0.0
  0
LINE
  5
14E
  8
0
 62
     7
 10
152.35499999999999
 20
99.255200000000002
 30
0.0
 11
152.35499999999999
 21
87.759200000000007
 31
0.0
  0
LINE
  5
14F
  8
0
 62
     7
 10
149.7299999999999
 20
99.255200000000002
 30
0.0
 11
149.7299999999999
 21
87.759200000000007
 31
0.0
  0
LINE
  5
150
  8
0
 62
     7
 10
155.167
 20
99.505300000000005
 30
0.0
 11
154.917
 21
99.255200000000002
 31
0.0
  0
LINE
  5
151
  8
0
 62
     7
 10
147.167
 20
99.255200000000002
 30
0.0
 11
146.917
 21
99.505300000000005
 31
0.0
  0
LINE
  5
152
  8
0
 62
     7
 10
154.917
 20
101.506
 30
0.0
 11
154.917
 21
99.255200000000002
 31
0.0
  0
LINE
  5
153
  8
0
 62
     7
 10
155.167
 20
101.506
 30
0.0
 11
155.167
 21
99.505300000000005
 31
0.0
  0
LINE
  5
154
  8
0
 62
     7
 10
147.167
 20
101.506
 30
0.0
 11
147.167
 21
99.255200000000002
 31
0.0
  0
LINE
  5
155
  8
0
 62
     7
 10
146.917
 20
101.506
 30
0.0
 11
146.917
 21
99.505300000000005
 31
0.0
  0
LINE
  5
156
  8
0
 62
     7
 10
146.917
 20
99.505300000000005
 30
0.0
 11
155.167
 21
99.505300000000005
 31
0.0
  0
LINE
  5
157
  8
0
 62
     7
 10
147.167
 20
99.255200000000002
 30
0.0
 11
154.917
 21
99.255200000000002
 31
0.0
  0
LINE
  5
158
  8
0
 62
     7
 10
134.745
 20
54.032899999999998
 30
0.0
 11
134.745
 21
56.658099999999997
 31
0.0
  0
LINE
  5
159
  8
0
 62
     7
 10
132.37
 20
54.032899999999998
 30
0.0
 11
132.37
 21
56.658099999999997
 31
0.0
  0
ARC
  5
15A
  8
0
 62
     7
 10
138.1073429999999
 20
76.964084
 30
0.0
 40
23.63812999999999
 50
255.95232200000001
 51
256.945244
  0
ARC
  5
15B
  8
0
 62
     7
 10
133.864295
 20
58.785918999999993
 30
0.0
 40
4.9714320000000001
 50
257.25940200000002
 51
263.09735599999999
  0
ARC
  5
15C
  8
0
 62
     7
 10
133.58094799999989
 20
56.664243999999997
 30
0.0
 40
2.8312049999999989
 50
263.62968999999998
 51
269.791427
  0
ARC
  5
15D
  8
0
 62
     7
 10
133.5693259999999
 20
56.351725999999999
 30
0.0
 40
2.518669
 50
270.02992899999992
 51
277.21034199999991
  0
ARC
  5
15E
  8
0
 62
     7
 10
133.35665899999989
 20
58.153261999999998
 30
0.0
 40
4.3326769999999986
 50
277.01026699999989
 51
283.59545299999991
  0
ARC
  5
15F
  8
0
 62
     7
 10
130.58143699999999
 20
70.198762000000002
 30
0.0
 40
16.693553000000001
 50
283.13548700000001
 51
284.44420700000001
  0
ARC
  5
160
  8
0
 62
     7
 10
133.12090900000001
 20
51.901569000000002
 30
0.0
 40
5.0262519999999986
 50
71.143036999999993
 51
78.857978000000003
  0
ARC
  5
161
  8
0
 62
     7
 10
133.53939099999999
 20
53.870533999999999
 30
0.0
 40
3.0136819999999989
 50
79.430400000000006
 51
89.405840999999995
  0
ARC
  5
162
  8
0
 62
     7
 10
133.57097999999991
 20
53.998191000000013
 30
0.0
 40
2.8858630000000001
 50
90.006719999999987
 51
100.8472669999999
  0
ARC
  5
163
  8
0
 62
     7
 10
133.81509299999991
 20
52.533009
 30
0.0
 40
4.3709530000000001
 50
100.37556600000001
 51
109.31049399999991
  0
ARC
  5
164
  8
0
 62
     7
 10
140.5230489999999
 20
77.096812
 30
0.0
 40
23.776588
 50
255.93655999999999
 51
256.90015199999999
  0
ARC
  5
165
  8
0
 62
     7
 10
136.246084
 20
58.822670999999993
 30
0.0
 40
5.0086909999999998
 50
257.17297400000001
 51
263.07493999999991
  0
ARC
  5
166
  8
0
 62
     7
 10
135.9556649999999
 20
56.65238699999999
 30
0.0
 40
2.8193489999999999
 50
263.61604899999998
 51
269.78359799999993
  0
ARC
  5
167
  8
0
 62
     7
 10
135.943702
 20
56.356494999999988
 30
0.0
 40
2.523436999999999
 50
270.02984600000002
 51
277.20351699999992
  0
ARC
  5
168
  8
0
 62
     7
 10
135.7317229999999
 20
58.151868000000007
 30
0.0
 40
4.3312460000000002
 50
277.00742700000001
 51
283.59563300000002
  0
ARC
  5
169
  8
0
 62
     7
 10
132.886278
 20
70.49860799999999
 30
0.0
 40
17.001439000000001
 50
283.13524999999993
 51
284.42132700000002
  0
LINE
  5
16A
  8
0
 62
     7
 10
137.11999999999989
 20
54.032899999999998
 30
0.0
 11
137.11999999999989
 21
56.658099999999997
 31
0.0
  0
ARC
  5
16B
  8
0
 62
     7
 10
135.49484599999991
 20
51.898262000000003
 30
0.0
 40
5.0297460000000003
 50
71.143068999999997
 51
78.850862000000006
  0
ARC
  5
16C
  8
0
 62
     7
 10
135.9144379999999
 20
53.868200999999999
 30
0.0
 40
3.0160079999999998
 50
79.435217000000009
 51
89.419084999999995
  0
ARC
  5
16D
  8
0
 62
     7
 10
135.94536199999999
 20
54.007182999999998
 30
0.0
 40
2.8768709999999991
 50
90.006878000000015
 51
100.864256
  0
ARC
  5
16E
  8
0
 62
     7
 10
136.19137299999991
 20
52.533355000000007
 30
0.0
 40
4.3708010000000002
 50
100.389841
 51
109.3185129999999
  0
LINE
  5
16F
  8
0
 62
     7
 10
137.11999999999989
 20
53.833100000000002
 30
0.0
 11
137.11999999999989
 21
54.032899999999998
 31
0.0
  0
LINE
  5
170
  8
0
 62
     7
 10
137.11999999999989
 20
56.658099999999997
 30
0.0
 11
137.11999999999989
 21
56.884099999999997
 31
0.0
  0
LINE
  5
171
  8
0
 62
     7
 10
132.37
 20
53.833100000000002
 30
0.0
 11
132.37
 21
54.032899999999998
 31
0.0
  0
LINE
  5
172
  8
0
 62
     7
 10
132.37
 20
56.658099999999997
 30
0.0
 11
132.37
 21
56.884099999999997
 31
0.0
  0
LINE
  5
173
  8
0
 62
     7
 10
135.99600000000001
 20
57.058399999999999
 30
0.0
 11
134.745
 21
57.058399999999999
 31
0.0
  0
LINE
  5
174
  8
0
 62
     7
 10
134.745
 20
57.058399999999999
 30
0.0
 11
133.49600000000001
 21
57.058399999999999
 31
0.0
  0
LINE
  5
175
  8
0
 62
     7
 10
137.11999999999989
 20
53.833100000000002
 30
0.0
 11
137.0449999999999
 21
53.7834
 31
0.0
  0
LINE
  5
176
  8
0
 62
     7
 10
137.0449999999999
 20
53.7834
 30
0.0
 11
132.44499999999991
 21
53.7834
 31
0.0
  0
LINE
  5
177
  8
0
 62
     7
 10
132.44499999999991
 20
53.7834
 30
0.0
 11
132.37
 21
53.833100000000002
 31
0.0
  0
ARC
  5
178
  8
0
 62
     7
 10
137.10199399999991
 20
56.850312000000002
 30
0.0
 40
0.038479
 50
61.269488000000003
 51
90.14337900000001
  0
ARC
  5
179
  8
0
 62
     7
 10
136.940404
 20
55.531271999999987
 30
0.0
 40
1.3670910000000001
 50
83.215862000000001
 51
88.382508000000001
  0
ARC
  5
17A
  8
0
 62
     7
 10
136.4325
 20
43.313521000000001
 30
0.0
 40
13.595285000000001
 50
87.696236999999996
 51
89.304100000000005
  0
ARC
  5
17B
  8
0
 62
     7
 10
135.51938199999989
 20
-18.373027
 30
0.0
 40
75.288551999999996
 50
89.179406999999998
 51
89.888685999999993
  0
ARC
  5
17C
  8
0
 62
     7
 10
134.82109299999999
 20
-321.18978499999997
 30
0.0
 40
378.106111
 50
89.872012999999995
 51
90.360083999999986
  0
LINE
  5
17D
  8
0
 62
     7
 10
132.44499999999991
 20
56.908900000000003
 30
0.0
 11
132.37
 21
56.884099999999997
 31
0.0
  0
LINE
  5
17E
  8
0
 62
     7
 10
136.29599999999991
 20
56.908900000000003
 30
0.0
 11
136.29599999999991
 21
57.033599999999993
 31
0.0
  0
LINE
  5
17F
  8
0
 62
     7
 10
136.29599999999991
 20
57.033599999999993
 30
0.0
 11
133.19499999999991
 21
57.033599999999993
 31
0.0
  0
LINE
  5
180
  8
0
 62
     7
 10
133.19499999999991
 20
56.908900000000003
 30
0.0
 11
133.19499999999991
 21
57.033599999999993
 31
0.0
  0
LINE
  5
181
  8
0
 62
     7
 10
133.49600000000001
 20
57.058399999999999
 30
0.0
 11
133.12
 21
57.35949999999999
 31
0.0
  0
LINE
  5
182
  8
0
 62
     7
 10
133.12
 20
57.35949999999999
 30
0.0
 11
133.095
 21
57.858999999999988
 31
0.0
  0
LINE
  5
183
  8
0
 62
     7
 10
136.39599999999999
 20
57.858999999999988
 30
0.0
 11
136.37
 21
57.35949999999999
 31
0.0
  0
LINE
  5
184
  8
0
 62
     7
 10
136.37
 20
57.35949999999999
 30
0.0
 11
135.99600000000001
 21
57.058399999999999
 31
0.0
  0
LINE
  5
185
  8
0
 62
     7
 10
136.196
 20
58.284100000000002
 30
0.0
 11
133.29599999999991
 21
58.284100000000002
 31
0.0
  0
LINE
  5
186
  8
0
 62
     7
 10
133.29599999999991
 20
58.284100000000002
 30
0.0
 11
133.095
 21
57.858999999999988
 31
0.0
  0
LINE
  5
187
  8
0
 62
     7
 10
136.39599999999999
 20
57.858999999999988
 30
0.0
 11
136.196
 21
58.284100000000002
 31
0.0
  0
LINE
  5
188
  8
0
 62
     7
 10
136.196
 20
60.284399999999991
 30
0.0
 11
133.29599999999991
 21
60.284399999999991
 31
0.0
  0
LINE
  5
189
  8
0
 62
     7
 10
133.29599999999991
 20
58.284100000000002
 30
0.0
 11
133.29599999999991
 21
60.284399999999991
 31
0.0
  0
LINE
  5
18A
  8
0
 62
     7
 10
136.196
 20
58.284100000000002
 30
0.0
 11
136.196
 21
60.284399999999991
 31
0.0
  0
LINE
  5
18B
  8
0
 62
     7
 10
133.29599999999991
 20
60.284399999999991
 30
0.0
 11
133.12
 21
60.584800000000001
 31
0.0
  0
LINE
  5
18C
  8
0
 62
     7
 10
136.37
 20
60.584800000000001
 30
0.0
 11
136.196
 21
60.284399999999991
 31
0.0
  0
LINE
  5
18D
  8
0
 62
     7
 10
133.12
 20
60.584800000000001
 30
0.0
 11
133.06999999999991
 21
60.709499999999991
 31
0.0
  0
LINE
  5
18E
  8
0
 62
     7
 10
133.06999999999991
 20
60.709499999999991
 30
0.0
 11
133.06999999999991
 21
60.834200000000003
 31
0.0
  0
ARC
  5
18F
  8
0
 62
     7
 10
135.82747800000001
 20
60.893053000000002
 30
0.0
 40
0.620564
 50
339.65870099999989
 51
354.56034
  0
ARC
  5
190
  8
0
 62
     7
 10
135.75022200000001
 20
60.901965000000011
 30
0.0
 40
0.6963460000000001
 50
332.90463599999993
 51
341.18094600000001
  0
LINE
  5
191
  8
0
 62
     7
 10
136.44499999999991
 20
60.834200000000003
 30
0.0
 11
136.44499999999991
 21
61.534999999999997
 31
0.0
  0
LINE
  5
192
  8
0
 62
     7
 10
136.44499999999991
 20
61.534999999999997
 30
0.0
 11
133.06999999999991
 21
61.534999999999997
 31
0.0
  0
LINE
  5
193
  8
0
 62
     7
 10
133.06999999999991
 20
60.834200000000003
 30
0.0
 11
133.06999999999991
 21
61.534999999999997
 31
0.0
  0
LINE
  5
194
  8
0
  6
AIGENLINE002
 62
     7
 10
151.042
 20
189.97200000000001
 30
0.0
 11
151.042
 21
130.90299999999991
 31
0.0
  0
LINE
  5
195
  8
0
  6
AIGENLINE002
 62
     7
 10
55.004699999999993
 20
191.05199999999999
 30
0.0
 11
55.004699999999993
 21
84.550799999999995
 31
0.0
  0
LINE
  5
196
  8
0
 62
     7
 10
48.773200000000003
 20
112.748
 30
0.0
 11
48.773200000000003
 21
112.3739999999999
 31
0.0
  0
LINE
  5
197
  8
0
 62
     7
 10
61.2363
 20
112.748
 30
0.0
 11
61.2363
 21
112.3739999999999
 31
0.0
  0
LINE
  5
198
  8
0
 62
     7
 10
61.2363
 20
112.3739999999999
 30
0.0
 11
48.773200000000003
 21
112.3739999999999
 31
0.0
  0
ARC
  5
199
  8
0
 62
     7
 10
55.900641
 20
96.492835999999997
 30
0.0
 40
7.1447089999999989
 50
114.3674059999999
 51
116.68828999999999
  0
ARC
  5
19A
  8
0
 62
     7
 10
54.401474999999998
 20
95.816559999999996
 30
0.0
 40
7.8978839999999986
 50
63.365707
 51
65.460725999999994
  0
ARC
  5
19B
  8
0
 62
     7
 10
52.506100000000004
 20
99.76345400000001
 30
0.0
 40
4.184575999999999
 50
129.31218399999989
 51
131.93508700000001
  0
ARC
  5
19C
  8
0
 62
     7
 10
50.147728000000001
 20
100.1010949999999
 30
0.0
 40
3.7324019999999991
 50
48.035786000000009
 51
50.984554000000003
  0
ARC
  5
19D
  8
0
 62
     7
 10
54.108438999999997
 20
98.929395
 30
0.0
 40
5.9131039999999988
 50
136.48161399999989
 51
138.125877
  0
ARC
  5
19E
  8
0
 62
     7
 10
62.389811999999999
 20
98.929395
 30
0.0
 40
5.9131039999999988
 50
136.48161399999989
 51
138.125877
  0
ARC
  5
19F
  8
0
 62
     7
 10
58.103671999999989
 20
100.962288
 30
0.0
 40
2.9158559999999998
 50
41.028844999999997
 51
44.363624999999999
  0
ARC
  5
1A0
  8
0
 62
     7
 10
56.975258999999987
 20
110.26397
 30
0.0
 40
9.6379320000000011
 50
243.61192999999989
 51
245.33237500000001
  0
ARC
  5
1A1
  8
0
 62
     7
 10
53.339397999999989
 20
110.9081189999999
 30
0.0
 40
10.356779
 50
294.78799099999998
 51
296.3855759999999
  0
ARC
  5
1A2
  8
0
 62
     7
 10
52.917521000000001
 20
105.222798
 30
0.0
 40
4.8163299999999998
 50
228.23696000000001
 51
230.51577
  0
ARC
  5
1A3
  8
0
 62
     7
 10
49.411254
 20
105.26815499999999
 30
0.0
 40
4.8663489999999987
 50
309.3590549999999
 51
311.62060400000001
  0
ARC
  5
1A4
  8
0
 62
     7
 10
53.573787000000003
 20
105.0839469999999
 30
0.0
 40
5.1857319999999989
 50
221.7587979999999
 51
223.63371199999989
  0
ARC
  5
1A5
  8
0
 62
     7
 10
61.855159999999991
 20
105.0839469999999
 30
0.0
 40
5.1857319999999989
 50
221.7587979999999
 51
223.63371199999989
  0
ARC
  5
1A6
  8
0
 62
     7
 10
56.916255
 20
104.63992399999989
 30
0.0
 40
4.5310389999999989
 50
316.230839
 51
318.37669099999999
  0
LINE
  5
1A7
  8
0
 62
     7
 10
57.942
 20
101.6299999999999
 30
0.0
 11
57.942
 21
102.876
 31
0.0
  0
LINE
  5
1A8
  8
0
 62
     7
 10
52.69169999999999
 20
102.876
 30
0.0
 11
52.69169999999999
 21
101.6299999999999
 31
0.0
  0
LINE
  5
1A9
  8
0
 62
     7
 10
52.643500000000003
 20
101.6299999999999
 30
0.0
 11
52.643500000000003
 21
102.876
 31
0.0
  0
LINE
  5
1AA
  8
0
 62
     7
 10
49.709600000000002
 20
102.876
 30
0.0
 11
49.709600000000002
 21
101.6299999999999
 31
0.0
  0
LINE
  5
1AB
  8
0
 62
     7
 10
49.705500000000001
 20
101.6299999999999
 30
0.0
 11
49.705500000000001
 21
102.876
 31
0.0
  0
LINE
  5
1AC
  8
0
 62
     7
 10
60.3033
 20
101.6299999999999
 30
0.0
 11
60.3033
 21
102.876
 31
0.0
  0
LINE
  5
1AD
  8
0
 62
     7
 10
57.986800000000002
 20
102.876
 30
0.0
 11
57.986800000000002
 21
101.6299999999999
 31
0.0
  0
LINE
  5
1AE
  8
0
 62
     7
 10
57.942
 20
102.876
 30
0.0
 11
57.986800000000002
 21
102.876
 31
0.0
  0
LINE
  5
1AF
  8
0
 62
     7
 10
52.643500000000003
 20
102.876
 30
0.0
 11
52.69169999999999
 21
102.876
 31
0.0
  0
LINE
  5
1B0
  8
0
 62
     7
 10
57.942
 20
101.6299999999999
 30
0.0
 11
57.986800000000002
 21
101.6299999999999
 31
0.0
  0
LINE
  5
1B1
  8
0
 62
     7
 10
52.643500000000003
 20
101.6299999999999
 30
0.0
 11
52.69169999999999
 21
101.6299999999999
 31
0.0
  0
LINE
  5
1B2
  8
0
 62
     7
 10
52.952800000000003
 20
101.506
 30
0.0
 11
57.681600000000003
 21
101.506
 31
0.0
  0
LINE
  5
1B3
  8
0
 62
     7
 10
57.681600000000003
 20
101.506
 30
0.0
 11
58.101900000000001
 21
101.506
 31
0.0
  0
LINE
  5
1B4
  8
0
 62
     7
 10
52.497399999999999
 20
101.506
 30
0.0
 11
52.952800000000003
 21
101.506
 31
0.0
  0
LINE
  5
1B5
  8
0
 62
     7
 10
49.854999999999997
 20
101.506
 30
0.0
 11
52.497399999999999
 21
101.506
 31
0.0
  0
LINE
  5
1B6
  8
0
 62
     7
 10
49.820500000000003
 20
101.506
 30
0.0
 11
49.854999999999997
 21
101.506
 31
0.0
  0
LINE
  5
1B7
  8
0
 62
     7
 10
58.101900000000001
 20
101.506
 30
0.0
 11
60.188299999999998
 21
101.506
 31
0.0
  0
LINE
  5
1B8
  8
0
 62
     7
 10
48.773200000000003
 20
103.99799999999991
 30
0.0
 11
48.773200000000003
 21
103.3749999999999
 31
0.0
  0
LINE
  5
1B9
  8
0
 62
     7
 10
61.2363
 20
103.99799999999991
 30
0.0
 11
61.2363
 21
103.3749999999999
 31
0.0
  0
LINE
  5
1BA
  8
0
 62
     7
 10
61.2363
 20
103.3749999999999
 30
0.0
 11
48.773200000000003
 21
103.3749999999999
 31
0.0
  0
LINE
  5
1BB
  8
0
 62
     7
 10
61.2363
 20
103.99799999999991
 30
0.0
 11
48.773200000000003
 21
103.99799999999991
 31
0.0
  0
LINE
  5
1BC
  8
0
 62
     7
 10
61.2363
 20
103.001
 30
0.0
 11
61.2363
 21
103.126
 31
0.0
  0
LINE
  5
1BD
  8
0
 62
     7
 10
48.773200000000003
 20
103.001
 30
0.0
 11
48.773200000000003
 21
103.126
 31
0.0
  0
ARC
  5
1BE
  8
0
 62
     7
 10
60.481676
 20
103.11824300000001
 30
0.0
 40
0.257057
 50
11.043072
 51
88.59220400000001
  0
ARC
  5
1BF
  8
0
 62
     7
 10
49.527275000000003
 20
103.11889599999991
 30
0.0
 40
0.256408
 50
91.44590500000001
 51
169.07726700000001
  0
ARC
  5
1C0
  8
0
 62
     7
 10
60.784903999999997
 20
103.17773199999991
 30
0.0
 40
0.051953
 50
191.37926200000001
 51
268.54158799999988
  0
ARC
  5
1C1
  8
0
 62
     7
 10
49.224204999999998
 20
103.1781789999999
 30
0.0
 40
0.05241
 50
271.855998
 51
348.22319199999993
  0
LINE
  5
1C2
  8
0
 62
     7
 10
49.275500000000001
 20
103.167
 30
0.0
 11
60.733999999999988
 21
103.167
 31
0.0
  0
LINE
  5
1C3
  8
0
 62
     7
 10
48.773200000000003
 20
103.126
 30
0.0
 11
61.2363
 21
103.126
 31
0.0
  0
LINE
  5
1C4
  8
0
 62
     7
 10
48.773200000000003
 20
103.001
 30
0.0
 11
61.2363
 21
103.001
 31
0.0
  0
LINE
  5
1C5
  8
0
 62
     7
 10
52.698599999999999
 20
175.249
 30
0.0
 11
52.698599999999999
 21
175.63499999999991
 31
0.0
  0
LINE
  5
1C6
  8
0
 62
     7
 10
57.310200000000002
 20
175.249
 30
0.0
 11
57.310200000000002
 21
175.63499999999991
 31
0.0
  0
LINE
  5
1C7
  8
0
 62
     7
 10
55.3872
 20
175.249
 30
0.0
 11
57.310200000000002
 21
175.249
 31
0.0
  0
LINE
  5
1C8
  8
0
 62
     7
 10
52.698599999999999
 20
175.249
 30
0.0
 11
55.3872
 21
175.249
 31
0.0
  0
LINE
  5
1C9
  8
0
 62
     7
 10
62.482700000000001
 20
112.748
 30
0.0
 11
62.482700000000001
 21
113.496
 31
0.0
  0
LINE
  5
1CA
  8
0
 62
     7
 10
47.526800000000001
 20
112.748
 30
0.0
 11
47.526800000000001
 21
113.496
 31
0.0
  0
LINE
  5
1CB
  8
0
 62
     7
 10
47.526800000000001
 20
113.496
 30
0.0
 11
62.482700000000001
 21
113.496
 31
0.0
  0
LINE
  5
1CC
  8
0
 62
     7
 10
47.526800000000001
 20
112.748
 30
0.0
 11
62.482700000000001
 21
112.748
 31
0.0
  0
ARC
  5
1CD
  8
0
 62
     7
 10
50.807679999999991
 20
188.84606700000001
 30
0.0
 40
0.277457
 50
152.34556499999999
 51
179.872016
  0
ARC
  5
1CE
  8
0
 62
     7
 10
50.830517
 20
188.8329719999999
 30
0.0
 40
0.303764
 50
130.4157459999999
 51
152.15698399999999
  0
ARC
  5
1CF
  8
0
 62
     7
 10
50.901710999999999
 20
188.74196000000001
 30
0.0
 40
0.4192420000000001
 50
120.31814299999991
 51
129.75960499999991
  0
ARC
  5
1D0
  8
0
 62
     7
 10
50.957619000000001
 20
188.6285969999999
 30
0.0
 40
0.545397
 50
108.35719399999989
 51
119.376391
  0
ARC
  5
1D1
  8
0
 62
     7
 10
51.116602
 20
188.18567400000001
 30
0.0
 40
1.015914999999999
 50
102.297217
 51
109.000055
  0
ARC
  5
1D2
  8
0
 62
     7
 10
51.331109000000012
 20
187.29137199999991
 30
0.0
 40
1.9354779999999989
 50
96.753762999999992
 51
102.8630569999999
  0
ARC
  5
1D3
  8
0
 62
     7
 10
51.535522999999998
 20
185.96227999999991
 30
0.0
 40
3.2797199999999989
 50
94.700611999999992
 51
97.569461000000004
  0
ARC
  5
1D4
  8
0
 62
     7
 10
51.732042999999997
 20
183.87055699999999
 30
0.0
 40
5.3805670000000001
 50
91.939102000000005
 51
94.960905999999994
  0
ARC
  5
1D5
  8
0
 62
     7
 10
51.776790999999989
 20
182.75767999999991
 30
0.0
 40
6.494324999999999
 50
90.001080999999999
 51
92.001435000000015
  0
LINE
  5
1D6
  8
0
 62
     7
 10
58.257599999999989
 20
189.25200000000001
 30
0.0
 11
51.776699999999991
 21
189.25200000000001
 31
0.0
  0
ARC
  5
1D7
  8
0
 62
     7
 10
58.258777000000002
 20
182.82663400000001
 30
0.0
 40
6.4253710000000002
 50
87.379702000000009
 51
90.010291000000024
  0
ARC
  5
1D8
  8
0
 62
     7
 10
58.336829000000002
 20
184.493358
 30
0.0
 40
4.7568219999999997
 50
82.140482999999989
 51
87.401054000000002
  0
ARC
  5
1D9
  8
0
 62
     7
 10
58.665032999999987
 20
187.092626
 30
0.0
 40
2.137305
 50
75.899323999999993
 51
81.327801000000008
  0
ARC
  5
1DA
  8
0
 62
     7
 10
58.960406999999996
 20
188.3269169999999
 30
0.0
 40
0.86836
 50
67.118555000000001
 51
74.960262
  0
ARC
  5
1DB
  8
0
 62
     7
 10
59.072490000000002
 20
188.63016499999989
 30
0.0
 40
0.5455899999999999
 50
57.422111999999991
 51
65.580211000000006
  0
ARC
  5
1DC
  8
0
 62
     7
 10
59.172155000000011
 20
188.7964649999999
 30
0.0
 40
0.351836
 50
46.620902000000001
 51
56.516615000000002
  0
ARC
  5
1DD
  8
0
 62
     7
 10
59.184412000000002
 20
188.81839500000001
 30
0.0
 40
0.3275349999999999
 50
26.090651000000001
 51
45.544483999999997
  0
ARC
  5
1DE
  8
0
 62
     7
 10
59.214927000000003
 20
188.843693
 30
0.0
 40
0.289154
 50
0.5932680000000001
 51
24.247589000000001
  0
LINE
  5
1DF
  8
0
 62
     7
 10
59.254600000000011
 20
180.4729999999999
 30
0.0
 11
59.504100000000001
 21
180.4729999999999
 31
0.0
  0
LINE
  5
1E0
  8
0
 62
     7
 10
50.779699999999998
 20
180.4729999999999
 30
0.0
 11
50.530200000000001
 21
180.4729999999999
 31
0.0
  0
LINE
  5
1E1
  8
0
 62
     7
 10
59.504100000000001
 20
185.304
 30
0.0
 11
59.254600000000011
 21
185.304
 31
0.0
  0
LINE
  5
1E2
  8
0
 62
     7
 10
59.254600000000011
 20
180.4729999999999
 30
0.0
 11
50.779699999999998
 21
180.4729999999999
 31
0.0
  0
LINE
  5
1E3
  8
0
 62
     7
 10
59.254600000000011
 20
185.304
 30
0.0
 11
50.779699999999998
 21
185.304
 31
0.0
  0
ARC
  5
1E4
  8
0
 62
     7
 10
59.245229000000002
 20
186.7941679999999
 30
0.0
 40
0.259154
 50
272.08078999999998
 51
357.16245700000002
  0
LINE
  5
1E5
  8
0
 62
     7
 10
59.254600000000011
 20
186.535
 30
0.0
 11
50.779699999999998
 21
186.535
 31
0.0
  0
LINE
  5
1E6
  8
0
 62
     7
 10
59.504100000000001
 20
188.35400000000001
 30
0.0
 11
59.504100000000001
 21
188.84700000000001
 31
0.0
  0
ARC
  5
1E7
  8
0
 62
     7
 10
50.789059999999992
 20
186.7941679999999
 30
0.0
 40
0.259154
 50
182.83756299999999
 51
267.91922999999991
  0
LINE
  5
1E8
  8
0
 62
     7
 10
50.530200000000001
 20
188.35400000000001
 30
0.0
 11
50.530200000000001
 21
188.84700000000001
 31
0.0
  0
LINE
  5
1E9
  8
0
 62
     7
 10
50.530200000000001
 20
185.304
 30
0.0
 11
50.779699999999998
 21
185.304
 31
0.0
  0
LINE
  5
1EA
  8
0
 62
     7
 10
59.504100000000001
 20
180.4729999999999
 30
0.0
 11
59.504100000000001
 21
185.304
 31
0.0
  0
LINE
  5
1EB
  8
0
 62
     7
 10
59.504100000000001
 20
186.78099999999989
 30
0.0
 11
59.504100000000001
 21
185.304
 31
0.0
  0
LINE
  5
1EC
  8
0
 62
     7
 10
59.504100000000001
 20
186.78099999999989
 30
0.0
 11
59.504100000000001
 21
188.35400000000001
 31
0.0
  0
ARC
  5
1ED
  8
0
 62
     7
 10
58.256079999999997
 20
181.44485899999989
 30
0.0
 40
7.1045139999999991
 50
83.580202
 51
89.987555999999998
  0
ARC
  5
1EE
  8
0
 62
     7
 10
58.705083000000002
 20
185.75346499999989
 30
0.0
 40
2.7729499999999989
 50
78.722094999999996
 51
82.845275999999998
  0
ARC
  5
1EF
  8
0
 62
     7
 10
59.008368999999988
 20
187.25314299999999
 30
0.0
 40
1.2429250000000001
 50
72.547314999999998
 51
78.912998000000002
  0
ARC
  5
1F0
  8
0
 62
     7
 10
59.249720000000003
 20
188.01299800000001
 30
0.0
 40
0.44567
 50
62.316099000000001
 51
72.848977000000005
  0
ARC
  5
1F1
  8
0
 62
     7
 10
59.396794999999997
 20
188.290131
 30
0.0
 40
0.13194
 50
43.834291
 51
62.960582999999993
  0
ARC
  5
1F2
  8
0
 62
     7
 10
59.462012000000001
 20
188.35190700000001
 30
0.0
 40
0.042116
 50
3.1305239999999999
 51
44.658119999999997
  0
LINE
  5
1F3
  8
0
 62
     7
 10
58.257599999999989
 20
188.54900000000001
 30
0.0
 11
51.776699999999991
 21
188.54900000000001
 31
0.0
  0
ARC
  5
1F4
  8
0
 62
     7
 10
51.778208999999997
 20
181.44485899999989
 30
0.0
 40
7.1045139999999991
 50
90.012423999999996
 51
96.419778000000008
  0
ARC
  5
1F5
  8
0
 62
     7
 10
51.329205999999999
 20
185.75346499999989
 30
0.0
 40
2.7729499999999989
 50
97.154704000000024
 51
101.277885
  0
ARC
  5
1F6
  8
0
 62
     7
 10
51.025919999999999
 20
187.25314299999999
 30
0.0
 40
1.2429250000000001
 50
101.08698199999991
 51
107.452665
  0
ARC
  5
1F7
  8
0
 62
     7
 10
50.784568999999991
 20
188.01299800000001
 30
0.0
 40
0.44567
 50
107.151003
 51
117.683881
  0
ARC
  5
1F8
  8
0
 62
     7
 10
50.637493999999997
 20
188.290131
 30
0.0
 40
0.13194
 50
117.03939699999999
 51
136.1656889999999
  0
ARC
  5
1F9
  8
0
 62
     7
 10
50.572277
 20
188.35190700000001
 30
0.0
 40
0.042116
 50
135.34185999999991
 51
176.86945600000001
  0
LINE
  5
1FA
  8
0
 62
     7
 10
50.530200000000001
 20
186.78099999999989
 30
0.0
 11
50.530200000000001
 21
188.35400000000001
 31
0.0
  0
LINE
  5
1FB
  8
0
 62
     7
 10
50.530200000000001
 20
186.78099999999989
 30
0.0
 11
50.530200000000001
 21
185.304
 31
0.0
  0
LINE
  5
1FC
  8
0
 62
     7
 10
50.530200000000001
 20
180.4729999999999
 30
0.0
 11
50.530200000000001
 21
185.304
 31
0.0
  0
ARC
  5
1FD
  8
0
 62
     7
 10
54.979339000000003
 20
179.64663999999991
 30
0.0
 40
4.206404
 50
3.1131890000000002
 51
11.331780999999999
  0
ARC
  5
1FE
  8
0
 62
     7
 10
55.156826000000002
 20
179.62560099999999
 30
0.0
 40
4.3347509999999989
 50
168.724538
 51
176.7005399999999
  0
LINE
  5
1FF
  8
0
 62
     7
 10
51.789099999999998
 20
175.63499999999991
 30
0.0
 11
51.789099999999998
 21
175.88399999999999
 31
0.0
  0
LINE
  5
200
  8
0
 62
     7
 10
58.219700000000003
 20
175.88399999999999
 30
0.0
 11
58.219700000000003
 21
175.63499999999991
 31
0.0
  0
LINE
  5
201
  8
0
 62
     7
 10
51.789099999999998
 20
179.62599999999989
 30
0.0
 11
51.789099999999998
 21
179.875
 31
0.0
  0
LINE
  5
202
  8
0
 62
     7
 10
58.219700000000003
 20
179.875
 30
0.0
 11
58.219700000000003
 21
179.62599999999989
 31
0.0
  0
LINE
  5
203
  8
0
 62
     7
 10
58.219700000000003
 20
179.62599999999989
 30
0.0
 11
58.219700000000003
 21
175.88399999999999
 31
0.0
  0
LINE
  5
204
  8
0
 62
     7
 10
51.789099999999998
 20
179.62599999999989
 30
0.0
 11
51.789099999999998
 21
175.88399999999999
 31
0.0
  0
ARC
  5
205
  8
0
 62
     7
 10
50.801679999999998
 20
179.61602400000001
 30
0.0
 40
0.259239
 50
92.128262000000007
 51
177.83212599999999
  0
LINE
  5
206
  8
0
 62
     7
 10
50.5426
 20
179.62599999999989
 30
0.0
 11
50.5426
 21
175.88399999999999
 31
0.0
  0
ARC
  5
207
  8
0
 62
     7
 10
59.20729399999999
 20
179.61622999999989
 30
0.0
 40
0.259053
 50
2.1238579999999998
 51
87.757220000000004
  0
LINE
  5
208
  8
0
 62
     7
 10
59.466200000000001
 20
179.62599999999989
 30
0.0
 11
59.466200000000001
 21
175.88399999999999
 31
0.0
  0
LINE
  5
209
  8
0
 62
     7
 10
50.5426
 20
171.8959999999999
 30
0.0
 11
50.792099999999991
 21
171.8959999999999
 31
0.0
  0
LINE
  5
20A
  8
0
 62
     7
 10
59.217399999999991
 20
171.8959999999999
 30
0.0
 11
50.792099999999991
 21
171.8959999999999
 31
0.0
  0
ARC
  5
20B
  8
0
 62
     7
 10
50.801522999999989
 20
175.894082
 30
0.0
 40
0.259076
 50
182.13445200000001
 51
267.90516000000002
  0
LINE
  5
20C
  8
0
 62
     7
 10
59.466200000000001
 20
171.8959999999999
 30
0.0
 11
59.217399999999991
 21
171.8959999999999
 31
0.0
  0
ARC
  5
20D
  8
0
 62
     7
 10
59.207785999999999
 20
175.893542
 30
0.0
 40
0.258543
 50
272.13797899999997
 51
357.98094300000002
  0
LINE
  5
20E
  8
0
 62
     7
 10
59.217399999999991
 20
179.875
 30
0.0
 11
58.219700000000003
 21
179.875
 31
0.0
  0
LINE
  5
20F
  8
0
 62
     7
 10
58.219700000000003
 20
179.875
 30
0.0
 11
51.789099999999998
 21
179.875
 31
0.0
  0
LINE
  5
210
  8
0
 62
     7
 10
51.789099999999998
 20
179.875
 30
0.0
 11
50.792099999999991
 21
179.875
 31
0.0
  0
LINE
  5
211
  8
0
 62
     7
 10
50.5426
 20
171.8959999999999
 30
0.0
 11
50.5426
 21
113.496
 31
0.0
  0
LINE
  5
212
  8
0
 62
     7
 10
50.5426
 20
171.8959999999999
 30
0.0
 11
50.5426
 21
175.88399999999999
 31
0.0
  0
LINE
  5
213
  8
0
 62
     7
 10
51.789099999999998
 20
175.63499999999991
 30
0.0
 11
50.792099999999991
 21
175.63499999999991
 31
0.0
  0
LINE
  5
214
  8
0
 62
     7
 10
59.466200000000001
 20
171.8959999999999
 30
0.0
 11
59.466200000000001
 21
113.496
 31
0.0
  0
LINE
  5
215
  8
0
 62
     7
 10
59.466200000000001
 20
175.88399999999999
 30
0.0
 11
59.466200000000001
 21
171.8959999999999
 31
0.0
  0
LINE
  5
216
  8
0
 62
     7
 10
59.217399999999991
 20
175.63499999999991
 30
0.0
 11
58.219700000000003
 21
175.63499999999991
 31
0.0
  0
LINE
  5
217
  8
0
 62
     7
 10
58.219700000000003
 20
175.63499999999991
 30
0.0
 11
51.789099999999998
 21
175.63499999999991
 31
0.0
  0
LINE
  5
218
  8
0
  6
AIGENLINE002
 62
     7
 10
53.129600000000003
 20
111.2109999999999
 30
0.0
 11
53.129600000000003
 21
81.427400000000006
 31
0.0
  0
LINE
  5
219
  8
0
  6
AIGENLINE002
 62
     7
 10
38.504699999999993
 20
97.998099999999994
 30
0.0
 11
53.129600000000003
 21
81.427400000000006
 31
0.0
  0
LINE
  5
21A
  8
0
  6
AIGENLINE002
 62
     7
 10
56.879600000000003
 20
111.2109999999999
 30
0.0
 11
56.879600000000003
 21
81.427400000000006
 31
0.0
  0
LINE
  5
21B
  8
0
 62
     7
 10
74.258099999999999
 20
62.602299999999993
 30
0.0
 11
74.258099999999999
 21
59.976399999999998
 31
0.0
  0
LINE
  5
21C
  8
0
 62
     7
 10
72.882099999999994
 20
62.602299999999993
 30
0.0
 11
72.882099999999994
 21
59.976399999999998
 31
0.0
  0
ARC
  5
21D
  8
0
 62
     7
 10
70.892945999999995
 20
67.793700999999999
 30
0.0
 40
8.5108619999999995
 50
291.64301499999999
 51
293.29081500000001
  0
ARC
  5
21E
  8
0
 62
     7
 10
73.344177999999999
 20
61.650221999999999
 30
0.0
 40
1.896471
 50
281.78779100000003
 51
291.26332000000002
  0
ARC
  5
21F
  8
0
 62
     7
 10
73.550236999999996
 20
60.741157000000001
 30
0.0
 40
0.9646139999999999
 50
270.46569699999998
 51
280.83723800000001
  0
ARC
  5
220
  8
0
 62
     7
 10
73.558214000000007
 20
60.682595999999997
 30
0.0
 40
0.9060209999999999
 50
257.53096799999997
 51
269.99131499999987
  0
ARC
  5
221
  8
0
 62
     7
 10
73.681518999999994
 20
61.309748999999996
 30
0.0
 40
1.545078
 50
247.1929649999999
 51
258.08771999999999
  0
ARC
  5
222
  8
0
 62
     7
 10
74.147909999999996
 20
62.500701999999997
 30
0.0
 40
2.8238819999999989
 50
243.36945
 51
247.83659700000001
  0
ARC
  5
223
  8
0
 62
     7
 10
73.638036999999997
 20
61.484206999999991
 30
0.0
 40
1.349596999999999
 50
97.382283000000015
 51
124.06179999999991
  0
ARC
  5
224
  8
0
 62
     7
 10
73.559169999999995
 20
61.922787
 30
0.0
 40
0.9047829999999999
 50
90.069248000000016
 51
95.997880000000009
  0
ARC
  5
225
  8
0
 62
     7
 10
73.557286000000005
 20
61.909309999999991
 30
0.0
 40
0.91826
 50
77.805482999999995
 51
89.950637999999998
  0
ARC
  5
226
  8
0
 62
     7
 10
73.467109999999991
 20
61.44367299999999
 30
0.0
 40
1.392476
 50
66.812563999999995
 51
78.225831999999997
  0
ARC
  5
227
  8
0
 62
     7
 10
73.236052999999998
 20
60.862121000000002
 30
0.0
 40
2.018095999999999
 50
59.572125999999997
 51
67.283528000000004
  0
LINE
  5
228
  8
0
 62
     7
 10
68.757000000000005
 20
62.602299999999993
 30
0.0
 11
68.757000000000005
 21
59.976399999999998
 31
0.0
  0
LINE
  5
229
  8
0
 62
     7
 10
70.132300000000001
 20
62.602299999999993
 30
0.0
 11
70.132300000000001
 21
59.976399999999998
 31
0.0
  0
ARC
  5
22A
  8
0
 62
     7
 10
66.779341000000002
 20
67.771955000000005
 30
0.0
 40
8.4860380000000006
 50
291.65919999999988
 51
293.27278999999999
  0
ARC
  5
22B
  8
0
 62
     7
 10
69.175154000000006
 20
61.764524000000002
 30
0.0
 40
2.0185209999999989
 50
282.22853800000001
 51
291.39219900000001
  0
ARC
  5
22C
  8
0
 62
     7
 10
69.446494999999999
 20
60.581687000000002
 30
0.0
 40
0.8051809999999999
 50
270.748198
 51
281.18629499999997
  0
ARC
  5
22D
  8
0
 62
     7
 10
69.457818000000003
 20
60.684106
 30
0.0
 40
0.9075319999999999
 50
257.81198299999988
 51
269.94892599999991
  0
ARC
  5
22E
  8
0
 62
     7
 10
69.556821999999997
 20
61.217058999999999
 30
0.0
 40
1.44946
 50
252.9407139999999
 51
258.43437299999999
  0
ARC
  5
22F
  8
0
 62
     7
 10
69.80482099999999
 20
62.022039999999997
 30
0.0
 40
2.2917770000000002
 50
248.54088300000001
 51
252.91730599999991
  0
ARC
  5
230
  8
0
 62
     7
 10
71.227165999999997
 20
65.610506000000001
 30
0.0
 40
6.1518420000000003
 50
246.32558999999989
 51
248.43888699999999
  0
ARC
  5
231
  8
0
 62
     7
 10
69.758898000000002
 20
60.889190999999997
 30
0.0
 40
1.984561
 50
107.8799179999999
 51
120.3224249999999
  0
ARC
  5
232
  8
0
 62
     7
 10
69.481460999999996
 20
61.700037999999992
 30
0.0
 40
1.1277969999999991
 50
91.242338000000004
 51
107.113371
  0
ARC
  5
233
  8
0
 62
     7
 10
69.456280000000007
 20
62.059890000000003
 30
0.0
 40
0.76768
 50
76.148776999999995
 51
89.945532999999983
  0
ARC
  5
234
  8
0
 62
     7
 10
69.312395999999993
 20
61.379741000000003
 30
0.0
 40
1.4626799999999991
 50
65.859251999999998
 51
77.054819999999992
  0
ARC
  5
235
  8
0
 62
     7
 10
69.070081999999985
 20
60.779690000000002
 30
0.0
 40
2.1094939999999989
 50
59.766919999999992
 51
66.518923999999998
  0
ARC
  5
236
  8
0
 62
     7
 10
74.196976000000006
 20
53.400942999999998
 30
0.0
 40
6.7056170000000002
 50
101.307756
 51
103.2125989999999
  0
ARC
  5
237
  8
0
 62
     7
 10
71.182252000000005
 20
65.555742000000009
 30
0.0
 40
5.8185999999999991
 50
278.61310900000001
 51
284.756394
  0
ARC
  5
238
  8
0
 62
     7
 10
71.707381000000012
 20
62.067214999999997
 30
0.0
 40
2.290775
 50
270.619889
 51
278.69412499999987
  0
LINE
  5
239
  8
0
 62
     7
 10
71.732200000000006
 20
59.776600000000002
 30
0.0
 11
71.282899999999984
 21
59.776600000000002
 31
0.0
  0
ARC
  5
23A
  8
0
 62
     7
 10
71.283243999999996
 20
61.738077000000011
 30
0.0
 40
1.9615029999999991
 50
261.54105600000003
 51
269.99059
  0
ARC
  5
23B
  8
0
 62
     7
 10
71.497578000000004
 20
63.396248
 30
0.0
 40
3.633303999999999
 50
258.55842999999987
 51
262.04435799999987
  0
ARC
  5
23C
  8
0
 62
     7
 10
72.905222999999992
 20
70.236975000000001
 30
0.0
 40
10.617345
 50
256.53720400000009
 51
258.43600900000001
  0
ARC
  5
23D
  8
0
 62
     7
 10
69.013959
 20
54.067085999999989
 30
0.0
 40
6.014189
 50
76.348943999999989
 51
79.283904000000007
  0
ARC
  5
23E
  8
0
 62
     7
 10
71.373082999999994
 20
58.945230000000002
 30
0.0
 40
3.8618030000000001
 50
102.812912
 51
108.74207800000001
  0
ARC
  5
23F
  8
0
 62
     7
 10
71.612511999999995
 20
58.086231999999988
 30
0.0
 40
4.7527039999999996
 50
94.32944599999999
 51
103.330918
  0
ARC
  5
240
  8
0
 62
     7
 10
71.400417000000004
 20
60.540104999999997
 30
0.0
 40
2.2899720000000001
 50
87.318690000000004
 51
93.672809999999998
  0
ARC
  5
241
  8
0
 62
     7
 10
71.590800000000002
 20
61.411741999999997
 30
0.0
 40
1.418274
 50
88.960406000000006
 51
93.365382999999994
  0
ARC
  5
242
  8
0
 62
     7
 10
71.577139000000003
 20
60.254874000000001
 30
0.0
 40
2.5752090000000001
 50
85.185453999999993
 51
89.123485000000002
  0
ARC
  5
243
  8
0
 62
     7
 10
71.379745
 20
57.942919999999987
 30
0.0
 40
4.895573999999999
 50
72.128121999999991
 51
85.154398999999998
  0
LINE
  5
244
  8
0
 62
     7
 10
72.757400000000004
 20
63.003300000000003
 30
0.0
 11
71.507499999999993
 21
63.003300000000003
 31
0.0
  0
LINE
  5
245
  8
0
 62
     7
 10
70.2577
 20
63.003300000000003
 30
0.0
 11
71.507499999999993
 21
63.003300000000003
 31
0.0
  0
LINE
  5
246
  8
0
 62
     7
 10
69.206199999999995
 20
59.72699999999999
 30
0.0
 11
71.507499999999993
 21
59.72699999999999
 31
0.0
  0
LINE
  5
247
  8
0
 62
     7
 10
71.507499999999993
 20
59.72699999999999
 30
0.0
 11
73.808199999999985
 21
59.72699999999999
 31
0.0
  0
LINE
  5
248
  8
0
 62
     7
 10
74.107900000000001
 20
59.9268
 30
0.0
 11
73.808199999999985
 21
59.751800000000003
 31
0.0
  0
LINE
  5
249
  8
0
 62
     7
 10
73.808199999999985
 20
59.751800000000003
 30
0.0
 11
73.808199999999985
 21
59.72699999999999
 31
0.0
  0
LINE
  5
24A
  8
0
 62
     7
 10
74.258099999999999
 20
59.976399999999998
 30
0.0
 11
73.808199999999985
 21
59.751800000000003
 31
0.0
  0
LINE
  5
24B
  8
0
 62
     7
 10
68.757000000000005
 20
59.976399999999998
 30
0.0
 11
69.206199999999995
 21
59.72699999999999
 31
0.0
  0
LINE
  5
24C
  8
0
 62
     7
 10
69.206199999999995
 20
62.852400000000003
 30
0.0
 11
73.808199999999985
 21
62.852400000000003
 31
0.0
  0
LINE
  5
24D
  8
0
 62
     7
 10
69.9572
 20
62.9771
 30
0.0
 11
73.0578
 21
62.9771
 31
0.0
  0
ARC
  5
24E
  8
0
 62
     7
 10
72.506846999999993
 20
63.672947000000001
 30
0.0
 40
0.715023
 50
290.51522799999992
 51
326.55637400000001
  0
ARC
  5
24F
  8
0
 62
     7
 10
72.677143999999998
 20
63.534652999999999
 30
0.0
 40
0.4971740000000001
 50
329.03986499999991
 51
341.56241099999988
  0
LINE
  5
250
  8
0
 62
     7
 10
73.148799999999994
 20
63.377400000000002
 30
0.0
 11
73.182599999999994
 21
63.4773
 31
0.0
  0
LINE
  5
251
  8
0
 62
     7
 10
73.182599999999994
 20
63.4773
 30
0.0
 11
73.182599999999994
 21
63.627499999999998
 31
0.0
  0
LINE
  5
252
  8
0
 62
     7
 10
73.182599999999994
 20
63.627499999999998
 30
0.0
 11
73.132900000000006
 21
63.802500000000002
 31
0.0
  0
LINE
  5
253
  8
0
 62
     7
 10
69.857299999999995
 20
63.802500000000002
 30
0.0
 11
69.882099999999994
 21
63.802500000000002
 31
0.0
  0
ARC
  5
254
  8
0
 62
     7
 10
177.04566800000001
 20
48.521227000000003
 30
0.0
 40
108.272147
 50
171.88628
 51
171.97981899999991
  0
LINE
  5
255
  8
0
 62
     7
 10
69.832499999999996
 20
63.627499999999998
 30
0.0
 11
69.832499999999996
 21
63.4773
 31
0.0
  0
LINE
  5
256
  8
0
 62
     7
 10
69.832499999999996
 20
63.4773
 30
0.0
 11
69.864900000000006
 21
63.377400000000002
 31
0.0
  0
ARC
  5
257
  8
0
 62
     7
 10
70.939752999999996
 20
63.737259000000002
 30
0.0
 40
1.1334799999999989
 50
198.51013499999999
 51
203.26190600000001
  0
ARC
  5
258
  8
0
 62
     7
 10
70.337067000000005
 20
63.477260999999999
 30
0.0
 40
0.477105
 50
203.16090999999989
 51
222.265807
  0
ARC
  5
259
  8
0
 62
     7
 10
70.267226000000008
 20
63.432831999999998
 30
0.0
 40
0.39579
 50
224.306589
 51
234.68705999999989
  0
ARC
  5
25A
  8
0
 62
     7
 10
70.45808199999999
 20
63.708148000000001
 30
0.0
 40
0.7307800000000001
 50
234.95395400000001
 51
242.41062199999999
  0
ARC
  5
25B
  8
0
 62
     7
 10
72.185838000000004
 20
67.009827000000001
 30
0.0
 40
4.4572029999999989
 50
242.382621
 51
244.01318399999991
  0
LINE
  5
25C
  8
0
 62
     7
 10
70.232799999999983
 20
63.003300000000003
 30
0.0
 11
70.2577
 21
63.003300000000003
 31
0.0
  0
LINE
  5
25D
  8
0
 62
     7
 10
70.057100000000005
 20
64.227699999999984
 30
0.0
 11
72.933099999999996
 21
64.227699999999984
 31
0.0
  0
LINE
  5
25E
  8
0
 62
     7
 10
70.057100000000005
 20
66.227900000000005
 30
0.0
 11
71.507499999999993
 21
66.227900000000005
 31
0.0
  0
LINE
  5
25F
  8
0
 62
     7
 10
71.507499999999993
 20
66.227900000000005
 30
0.0
 11
72.933099999999996
 21
66.227900000000005
 31
0.0
  0
LINE
  5
260
  8
0
 62
     7
 10
73.182599999999994
 20
66.777699999999996
 30
0.0
 11
73.182599999999994
 21
66.653000000000006
 31
0.0
  0
LINE
  5
261
  8
0
 62
     7
 10
73.182599999999994
 20
66.653000000000006
 30
0.0
 11
73.107500000000002
 21
66.527600000000007
 31
0.0
  0
LINE
  5
262
  8
0
 62
     7
 10
69.807000000000002
 20
66.777699999999996
 30
0.0
 11
69.832499999999996
 21
66.653000000000006
 31
0.0
  0
LINE
  5
263
  8
0
 62
     7
 10
69.832499999999996
 20
66.653000000000006
 30
0.0
 11
69.882099999999994
 21
66.527600000000007
 31
0.0
  0
LINE
  5
264
  8
0
 62
     7
 10
69.807000000000002
 20
67.478499999999997
 30
0.0
 11
73.182599999999994
 21
67.478499999999997
 31
0.0
  0
LINE
  5
265
  8
0
 62
     7
 10
69.807000000000002
 20
67.478499999999997
 30
0.0
 11
69.807000000000002
 21
66.777699999999996
 31
0.0
  0
LINE
  5
266
  8
0
 62
     7
 10
73.182599999999994
 20
67.478499999999997
 30
0.0
 11
73.182599999999994
 21
66.777699999999996
 31
0.0
  0
LINE
  5
267
  8
0
 62
     7
 10
73.808199999999985
 20
62.852400000000003
 30
0.0
 11
74.258099999999999
 21
62.602299999999993
 31
0.0
  0
LINE
  5
268
  8
0
 62
     7
 10
69.206199999999995
 20
62.852400000000003
 30
0.0
 11
68.757000000000005
 21
62.602299999999993
 31
0.0
  0
LINE
  5
269
  8
0
 62
     7
 10
69.882099999999994
 20
66.527600000000007
 30
0.0
 11
70.057100000000005
 21
66.227900000000005
 31
0.0
  0
LINE
  5
26A
  8
0
 62
     7
 10
70.057100000000005
 20
64.227699999999984
 30
0.0
 11
69.882099999999994
 21
63.802500000000002
 31
0.0
  0
LINE
  5
26B
  8
0
 62
     7
 10
73.107500000000002
 20
66.527600000000007
 30
0.0
 11
72.933099999999996
 21
66.227900000000005
 31
0.0
  0
LINE
  5
26C
  8
0
 62
     7
 10
72.933099999999996
 20
64.227699999999984
 30
0.0
 11
73.132900000000006
 21
63.802500000000002
 31
0.0
  0
LINE
  5
26D
  8
0
 62
     7
 10
70.057100000000005
 20
66.227900000000005
 30
0.0
 11
70.057100000000005
 21
64.227699999999984
 31
0.0
  0
LINE
  5
26E
  8
0
 62
     7
 10
72.933099999999996
 20
66.227900000000005
 30
0.0
 11
72.933099999999996
 21
64.227699999999984
 31
0.0
  0
LINE
  5
26F
  8
0
 62
     7
 10
69.9572
 20
62.9771
 30
0.0
 11
69.9572
 21
62.852400000000003
 31
0.0
  0
LINE
  5
270
  8
0
 62
     7
 10
73.0578
 20
62.9771
 30
0.0
 11
73.0578
 21
62.852400000000003
 31
0.0
  0
LINE
  5
271
  8
0
 62
     7
 10
68.757000000000005
 20
59.976399999999998
 30
0.0
 11
69.206199999999995
 21
59.72699999999999
 31
0.0
  0
LINE
  5
272
  8
0
 62
     7
 10
74.258099999999999
 20
59.976399999999998
 30
0.0
 11
73.808199999999985
 21
59.72699999999999
 31
0.0
  0
LINE
  5
273
  8
0
 62
     7
 10
72.816699999999997
 20
93.146699999999996
 30
0.0
 11
72.816699999999997
 21
67.478499999999997
 31
0.0
  0
LINE
  5
274
  8
0
 62
     7
 10
70.1922
 20
93.146699999999996
 30
0.0
 11
70.1922
 21
67.478499999999997
 31
0.0
  0
LINE
  5
275
  8
0
  6
AIGENLINE002
 62
     7
 10
71.504800000000003
 20
97.998099999999994
 30
0.0
 11
71.504800000000003
 21
58.419499999999999
 31
0.0
  0
LINE
  5
276
  8
0
 62
     7
 10
41.258000000000003
 20
56.658700000000003
 30
0.0
 11
41.258000000000003
 21
54.032899999999998
 31
0.0
  0
LINE
  5
277
  8
0
 62
     7
 10
39.882100000000001
 20
56.658700000000003
 30
0.0
 11
39.882100000000001
 21
54.032899999999998
 31
0.0
  0
ARC
  5
278
  8
0
 62
     7
 10
37.890915
 20
61.854698999999997
 30
0.0
 40
8.5157759999999971
 50
291.64398899999998
 51
293.29080399999998
  0
ARC
  5
279
  8
0
 62
     7
 10
40.344132000000002
 20
55.706603000000001
 30
0.0
 40
1.896361999999999
 50
281.78715999999997
 51
291.26339100000001
  0
ARC
  5
27A
  8
0
 62
     7
 10
40.550147000000003
 20
54.797640000000001
 30
0.0
 40
0.9646139999999999
 50
270.46569699999998
 51
280.83723800000001
  0
ARC
  5
27B
  8
0
 62
     7
 10
40.558131000000003
 20
54.739130000000003
 30
0.0
 40
0.9060719999999999
 50
257.53131999999999
 51
269.99096299999991
  0
ARC
  5
27C
  8
0
 62
     7
 10
40.68139699999999
 20
55.36609
 30
0.0
 40
1.544932
 50
247.19223
 51
258.08782799999989
  0
ARC
  5
27D
  8
0
 62
     7
 10
41.147119999999987
 20
56.555703000000001
 30
0.0
 40
2.8222429999999989
 50
243.36868100000001
 51
247.8385229999999
  0
ARC
  5
27E
  8
0
 62
     7
 10
40.63794699999999
 20
55.540691000000002
 30
0.0
 40
1.349596999999999
 50
97.382283000000015
 51
124.06179999999991
  0
ARC
  5
27F
  8
0
 62
     7
 10
40.559080999999992
 20
55.97927099999999
 30
0.0
 40
0.9047829999999999
 50
90.069248000000016
 51
95.997880000000009
  0
ARC
  5
280
  8
0
 62
     7
 10
40.557195999999998
 20
55.965741999999999
 30
0.0
 40
0.918312
 50
77.805831000000012
 51
89.950628000000009
  0
ARC
  5
281
  8
0
 62
     7
 10
40.466912000000001
 20
55.499794999999999
 30
0.0
 40
1.3928529999999999
 50
66.814113000000006
 51
78.224283
  0
ARC
  5
282
  8
0
 62
     7
 10
40.235587000000002
 20
54.917883999999987
 30
0.0
 40
2.0189080000000001
 50
59.573240000000013
 51
67.281397999999996
  0
LINE
  5
283
  8
0
 62
     7
 10
35.756900000000002
 20
56.658700000000003
 30
0.0
 11
35.756900000000002
 21
54.032899999999998
 31
0.0
  0
LINE
  5
284
  8
0
 62
     7
 10
37.13219999999999
 20
56.658700000000003
 30
0.0
 11
37.13219999999999
 21
54.032899999999998
 31
0.0
  0
ARC
  5
285
  8
0
 62
     7
 10
33.875841999999999
 20
61.594678000000002
 30
0.0
 40
8.2331339999999997
 50
291.63492599999989
 51
293.29805099999987
  0
ARC
  5
286
  8
0
 62
     7
 10
36.174912999999997
 20
55.821554000000013
 30
0.0
 40
2.0190860000000002
 50
282.22947399999998
 51
291.39071000000001
  0
ARC
  5
287
  8
0
 62
     7
 10
36.446422999999989
 20
54.63800899999999
 30
0.0
 40
0.8050189999999998
 50
270.74714599999999
 51
281.18734799999999
  0
ARC
  5
288
  8
0
 62
     7
 10
36.457729
 20
54.740589
 30
0.0
 40
0.9075319999999999
 50
257.81198299999988
 51
269.94892599999991
  0
ARC
  5
289
  8
0
 62
     7
 10
36.556733000000001
 20
55.273542999999997
 30
0.0
 40
1.44946
 50
252.9407139999999
 51
258.43437299999999
  0
ARC
  5
28A
  8
0
 62
     7
 10
36.80473099999999
 20
56.078524000000002
 30
0.0
 40
2.2917770000000002
 50
248.54088300000001
 51
252.91730599999991
  0
ARC
  5
28B
  8
0
 62
     7
 10
38.231766
 20
59.67824499999999
 30
0.0
 40
6.164032999999999
 50
246.3276809999999
 51
248.43679700000001
  0
ARC
  5
28C
  8
0
 62
     7
 10
36.758808999999999
 20
54.945673999999997
 30
0.0
 40
1.984561
 50
107.8799179999999
 51
120.3224249999999
  0
ARC
  5
28D
  8
0
 62
     7
 10
36.481372
 20
55.756520999999999
 30
0.0
 40
1.1277969999999991
 50
91.242338000000004
 51
107.113371
  0
ARC
  5
28E
  8
0
 62
     7
 10
36.456189999999992
 20
56.116374
 30
0.0
 40
0.76768
 50
76.148776999999995
 51
89.945532999999983
  0
ARC
  5
28F
  8
0
 62
     7
 10
36.312306999999997
 20
55.436225
 30
0.0
 40
1.4626799999999991
 50
65.859251999999998
 51
77.054819999999992
  0
ARC
  5
290
  8
0
 62
     7
 10
36.069992999999997
 20
54.836173999999993
 30
0.0
 40
2.1094939999999989
 50
59.766919999999992
 51
66.518923999999998
  0
ARC
  5
291
  8
0
 62
     7
 10
41.196886999999997
 20
47.457427000000003
 30
0.0
 40
6.7056170000000002
 50
101.307756
 51
103.2125989999999
  0
ARC
  5
292
  8
0
 62
     7
 10
38.181880999999997
 20
59.613548000000002
 30
0.0
 40
5.8199509999999997
 50
278.61394799999999
 51
284.75575499999991
  0
ARC
  5
293
  8
0
 62
     7
 10
38.707298999999999
 20
56.123688999999992
 30
0.0
 40
2.2907649999999991
 50
270.6197279999999
 51
278.69413100000003
  0
LINE
  5
294
  8
0
 62
     7
 10
38.732100000000003
 20
53.833100000000002
 30
0.0
 11
38.282800000000002
 21
53.833100000000002
 31
0.0
  0
ARC
  5
295
  8
0
 62
     7
 10
38.283159999999988
 20
55.794637999999999
 30
0.0
 40
1.961579999999999
 50
261.541222
 51
269.99042400000002
  0
ARC
  5
296
  8
0
 62
     7
 10
38.497489000000002
 20
57.452731000000007
 30
0.0
 40
3.633303999999999
 50
258.55842999999987
 51
262.04435799999987
  0
ARC
  5
297
  8
0
 62
     7
 10
39.905133999999997
 20
64.293458000000001
 30
0.0
 40
10.617345
 50
256.53720400000009
 51
258.43600900000001
  0
ARC
  5
298
  8
0
 62
     7
 10
36.013869999999997
 20
48.12356900000001
 30
0.0
 40
6.014189
 50
76.348943999999989
 51
79.283904000000007
  0
ARC
  5
299
  8
0
 62
     7
 10
38.376789000000002
 20
52.988284
 30
0.0
 40
3.8757410000000001
 50
102.823582
 51
108.7314079999999
  0
ARC
  5
29A
  8
0
 62
     7
 10
38.612423
 20
52.142716
 30
0.0
 40
4.7527039999999996
 50
94.32944599999999
 51
103.330918
  0
ARC
  5
29B
  8
0
 62
     7
 10
38.400328000000002
 20
54.596589000000002
 30
0.0
 40
2.2899720000000001
 50
87.318690000000004
 51
93.672809999999998
  0
ARC
  5
29C
  8
0
 62
     7
 10
38.590713000000001
 20
55.46819
 30
0.0
 40
1.4183099999999991
 50
88.960296
 51
93.365379000000004
  0
ARC
  5
29D
  8
0
 62
     7
 10
38.577044000000001
 20
54.31127
 30
0.0
 40
2.5752969999999991
 50
85.185494999999975
 51
89.123272
  0
ARC
  5
29E
  8
0
 62
     7
 10
38.379655999999997
 20
51.999403999999998
 30
0.0
 40
4.895573999999999
 50
72.128121999999991
 51
85.154398999999998
  0
LINE
  5
29F
  8
0
 62
     7
 10
39.757300000000001
 20
57.059800000000003
 30
0.0
 11
38.5075
 21
57.059800000000003
 31
0.0
  0
LINE
  5
2A0
  8
0
 62
     7
 10
37.257599999999989
 20
57.059800000000003
 30
0.0
 11
38.5075
 21
57.059800000000003
 31
0.0
  0
LINE
  5
2A1
  8
0
 62
     7
 10
36.206099999999999
 20
53.7834
 30
0.0
 11
38.5075
 21
53.7834
 31
0.0
  0
LINE
  5
2A2
  8
0
 62
     7
 10
38.5075
 20
53.7834
 30
0.0
 11
40.808100000000003
 21
53.7834
 31
0.0
  0
LINE
  5
2A3
  8
0
 62
     7
 10
41.107799999999997
 20
53.9833
 30
0.0
 11
40.808100000000003
 21
53.808300000000003
 31
0.0
  0
LINE
  5
2A4
  8
0
 62
     7
 10
40.808100000000003
 20
53.808300000000003
 30
0.0
 11
40.808100000000003
 21
53.7834
 31
0.0
  0
LINE
  5
2A5
  8
0
 62
     7
 10
41.258000000000003
 20
54.032899999999998
 30
0.0
 11
40.808100000000003
 21
53.808300000000003
 31
0.0
  0
LINE
  5
2A6
  8
0
 62
     7
 10
35.756900000000002
 20
54.032899999999998
 30
0.0
 11
36.206099999999999
 21
53.7834
 31
0.0
  0
LINE
  5
2A7
  8
0
 62
     7
 10
36.206099999999999
 20
56.908900000000003
 30
0.0
 11
40.808100000000003
 21
56.908900000000003
 31
0.0
  0
LINE
  5
2A8
  8
0
 62
     7
 10
36.9572
 20
57.033599999999993
 30
0.0
 11
40.0578
 21
57.033599999999993
 31
0.0
  0
ARC
  5
2A9
  8
0
 62
     7
 10
39.506757999999998
 20
57.729430000000008
 30
0.0
 40
0.715023
 50
290.51522799999992
 51
326.55637400000001
  0
ARC
  5
2AA
  8
0
 62
     7
 10
39.677053999999991
 20
57.591135999999999
 30
0.0
 40
0.4971740000000001
 50
329.03986499999991
 51
341.56241099999988
  0
LINE
  5
2AB
  8
0
 62
     7
 10
40.148699999999998
 20
57.433900000000001
 30
0.0
 11
40.182499999999997
 21
57.533799999999992
 31
0.0
  0
LINE
  5
2AC
  8
0
 62
     7
 10
40.182499999999997
 20
57.533799999999992
 30
0.0
 11
40.182499999999997
 21
57.68399999999999
 31
0.0
  0
LINE
  5
2AD
  8
0
 62
     7
 10
40.182499999999997
 20
57.68399999999999
 30
0.0
 11
40.132899999999999
 21
57.858999999999988
 31
0.0
  0
LINE
  5
2AE
  8
0
 62
     7
 10
36.857199999999992
 20
57.858999999999988
 30
0.0
 11
36.881999999999998
 21
57.858999999999988
 31
0.0
  0
ARC
  5
2AF
  8
0
 62
     7
 10
144.045579
 20
42.577709999999989
 30
0.0
 40
108.272147
 50
171.88628
 51
171.97981899999991
  0
LINE
  5
2B0
  8
0
 62
     7
 10
36.8324
 20
57.68399999999999
 30
0.0
 11
36.8324
 21
57.533799999999992
 31
0.0
  0
LINE
  5
2B1
  8
0
 62
     7
 10
36.8324
 20
57.533799999999992
 30
0.0
 11
36.864800000000002
 21
57.433900000000001
 31
0.0
  0
ARC
  5
2B2
  8
0
 62
     7
 10
37.938214000000002
 20
57.793252999999993
 30
0.0
 40
1.13195
 50
198.50993999999989
 51
203.26823400000001
  0
ARC
  5
2B3
  8
0
 62
     7
 10
37.336604999999999
 20
57.533501999999991
 30
0.0
 40
0.476662
 50
203.15195800000001
 51
222.27475899999999
  0
ARC
  5
2B4
  8
0
 62
     7
 10
37.266846000000001
 20
57.488942999999999
 30
0.0
 40
0.395318
 50
224.29787099999999
 51
234.69018299999999
  0
ARC
  5
2B5
  8
0
 62
     7
 10
37.4587
 20
57.765793999999993
 30
0.0
 40
0.732138
 50
234.96088199999991
 51
242.403695
  0
ARC
  5
2B6
  8
0
 62
     7
 10
39.185747999999997
 20
61.066310999999999
 30
0.0
 40
4.4572029999999989
 50
242.382621
 51
244.01318399999991
  0
LINE
  5
2B7
  8
0
 62
     7
 10
37.23279999999999
 20
57.059800000000003
 30
0.0
 11
37.257599999999989
 21
57.059800000000003
 31
0.0
  0
LINE
  5
2B8
  8
0
 62
     7
 10
37.057099999999991
 20
58.284100000000002
 30
0.0
 11
39.932999999999993
 21
58.284100000000002
 31
0.0
  0
LINE
  5
2B9
  8
0
 62
     7
 10
37.057099999999991
 20
60.284399999999991
 30
0.0
 11
38.5075
 21
60.284399999999991
 31
0.0
  0
LINE
  5
2BA
  8
0
 62
     7
 10
38.5075
 20
60.284399999999991
 30
0.0
 11
39.932999999999993
 21
60.284399999999991
 31
0.0
  0
LINE
  5
2BB
  8
0
 62
     7
 10
40.182499999999997
 20
60.834200000000003
 30
0.0
 11
40.182499999999997
 21
60.709499999999991
 31
0.0
  0
LINE
  5
2BC
  8
0
 62
     7
 10
40.182499999999997
 20
60.709499999999991
 30
0.0
 11
40.107399999999998
 21
60.584099999999999
 31
0.0
  0
LINE
  5
2BD
  8
0
 62
     7
 10
36.806899999999999
 20
60.834200000000003
 30
0.0
 11
36.8324
 21
60.709499999999991
 31
0.0
  0
LINE
  5
2BE
  8
0
 62
     7
 10
36.8324
 20
60.709499999999991
 30
0.0
 11
36.881999999999998
 21
60.584099999999999
 31
0.0
  0
LINE
  5
2BF
  8
0
 62
     7
 10
36.806899999999999
 20
61.534999999999997
 30
0.0
 11
40.182499999999997
 21
61.534999999999997
 31
0.0
  0
LINE
  5
2C0
  8
0
 62
     7
 10
36.806899999999999
 20
61.534999999999997
 30
0.0
 11
36.806899999999999
 21
60.834200000000003
 31
0.0
  0
LINE
  5
2C1
  8
0
 62
     7
 10
40.182499999999997
 20
61.534999999999997
 30
0.0
 11
40.182499999999997
 21
60.834200000000003
 31
0.0
  0
LINE
  5
2C2
  8
0
 62
     7
 10
40.808100000000003
 20
56.908900000000003
 30
0.0
 11
41.258000000000003
 21
56.658700000000003
 31
0.0
  0
LINE
  5
2C3
  8
0
 62
     7
 10
36.206099999999999
 20
56.908900000000003
 30
0.0
 11
35.756900000000002
 21
56.658700000000003
 31
0.0
  0
LINE
  5
2C4
  8
0
 62
     7
 10
36.881999999999998
 20
60.584099999999999
 30
0.0
 11
37.057099999999991
 21
60.284399999999991
 31
0.0
  0
LINE
  5
2C5
  8
0
 62
     7
 10
37.057099999999991
 20
58.284100000000002
 30
0.0
 11
36.881999999999998
 21
57.858999999999988
 31
0.0
  0
LINE
  5
2C6
  8
0
 62
     7
 10
40.107399999999998
 20
60.584099999999999
 30
0.0
 11
39.932999999999993
 21
60.284399999999991
 31
0.0
  0
LINE
  5
2C7
  8
0
 62
     7
 10
39.932999999999993
 20
58.284100000000002
 30
0.0
 11
40.132899999999999
 21
57.858999999999988
 31
0.0
  0
LINE
  5
2C8
  8
0
 62
     7
 10
37.057099999999991
 20
60.284399999999991
 30
0.0
 11
37.057099999999991
 21
58.284100000000002
 31
0.0
  0
LINE
  5
2C9
  8
0
 62
     7
 10
39.932999999999993
 20
60.284399999999991
 30
0.0
 11
39.932999999999993
 21
58.284100000000002
 31
0.0
  0
LINE
  5
2CA
  8
0
 62
     7
 10
36.9572
 20
57.033599999999993
 30
0.0
 11
36.9572
 21
56.908900000000003
 31
0.0
  0
LINE
  5
2CB
  8
0
 62
     7
 10
40.0578
 20
57.033599999999993
 30
0.0
 11
40.0578
 21
56.908900000000003
 31
0.0
  0
LINE
  5
2CC
  8
0
 62
     7
 10
35.756900000000002
 20
54.032899999999998
 30
0.0
 11
36.206099999999999
 21
53.7834
 31
0.0
  0
LINE
  5
2CD
  8
0
 62
     7
 10
41.258000000000003
 20
54.032899999999998
 30
0.0
 11
40.808100000000003
 21
53.7834
 31
0.0
  0
LINE
  5
2CE
  8
0
  6
AIGENLINE002
 62
     7
 10
71.504800000000003
 20
97.998099999999994
 30
0.0
 11
56.879600000000003
 21
81.427400000000006
 31
0.0
  0
LINE
  5
2CF
  8
0
 62
     7
 10
59.129899999999999
 20
99.505300000000005
 30
0.0
 11
58.879800000000003
 21
99.255200000000002
 31
0.0
  0
LINE
  5
2D0
  8
0
 62
     7
 10
51.1297
 20
99.255200000000002
 30
0.0
 11
50.880200000000002
 21
99.505300000000005
 31
0.0
  0
LINE
  5
2D1
  8
0
 62
     7
 10
58.879800000000003
 20
112.3739999999999
 30
0.0
 11
58.879800000000003
 21
103.99799999999991
 31
0.0
  0
LINE
  5
2D2
  8
0
 62
     7
 10
59.129899999999999
 20
112.3739999999999
 30
0.0
 11
59.129899999999999
 21
103.99799999999991
 31
0.0
  0
LINE
  5
2D3
  8
0
 62
     7
 10
51.1297
 20
112.3739999999999
 30
0.0
 11
51.1297
 21
103.99799999999991
 31
0.0
  0
LINE
  5
2D4
  8
0
 62
     7
 10
50.880200000000002
 20
112.3739999999999
 30
0.0
 11
50.880200000000002
 21
103.99799999999991
 31
0.0
  0
LINE
  5
2D5
  8
0
 62
     7
 10
58.879800000000003
 20
101.506
 30
0.0
 11
58.879800000000003
 21
99.255200000000002
 31
0.0
  0
LINE
  5
2D6
  8
0
 62
     7
 10
59.129899999999999
 20
101.506
 30
0.0
 11
59.129899999999999
 21
99.505300000000005
 31
0.0
  0
LINE
  5
2D7
  8
0
 62
     7
 10
51.1297
 20
101.506
 30
0.0
 11
51.1297
 21
99.255200000000002
 31
0.0
  0
LINE
  5
2D8
  8
0
 62
     7
 10
50.880200000000002
 20
101.506
 30
0.0
 11
50.880200000000002
 21
99.505300000000005
 31
0.0
  0
LINE
  5
2D9
  8
0
 62
     7
 10
50.880200000000002
 20
99.505300000000005
 30
0.0
 11
59.129899999999999
 21
99.505300000000005
 31
0.0
  0
LINE
  5
2DA
  8
0
 62
     7
 10
51.1297
 20
99.255200000000002
 30
0.0
 11
58.879800000000003
 21
99.255200000000002
 31
0.0
  0
LINE
  5
2DB
  8
0
 62
     7
 10
39.816600000000001
 20
93.146699999999996
 30
0.0
 11
39.816600000000001
 21
61.534999999999997
 31
0.0
  0
LINE
  5
2DC
  8
0
 62
     7
 10
37.192100000000003
 20
93.146699999999996
 30
0.0
 11
37.192100000000003
 21
61.534999999999997
 31
0.0
  0
LINE
  5
2DD
  8
0
  6
AIGENLINE002
 62
     7
 10
38.504699999999993
 20
97.998099999999994
 30
0.0
 11
38.504699999999993
 21
52.476000000000013
 31
0.0
  0
TEXT
  5
2DE
  8
_________2
 62
     7
 10
24.5868
 20
0.707627
 30
0.0
 40
3.9357000000000002
  1
（社）日本水道協会認証品
 41
0.5
  0
TEXT
  5
2DF
  8
_________2
 62
     7
 10
109.179
 20
24.226099999999999
 30
0.0
 40
3.9357000000000002
  1
ジングル 湯水混合栓
 41
0.5
  0
LINE
  5
2E0
  8
_________2
 62
     7
 10
205.30099999999999
 20
127.411
 30
0.0
 11
183.55099999999999
 21
127.411
 31
0.0
  0
LINE
  5
2E1
  8
_________2
 62
     7
 10
100.2999999999999
 20
-4.0910799999999998
 30
0.0
 11
100.2999999999999
 21
-21.070999999999991
 31
0.0
  0
LINE
  5
2E2
  8
_________2
 62
     7
 10
100.2999999999999
 20
275.93099999999993
 30
0.0
 11
100.2999999999999
 21
258.911
 31
0.0
  0
LINE
  5
2E3
  8
_________2
 62
     7
 10
17.049499999999998
 20
127.411
 30
0.0
 11
-4.7008599999999987
 21
127.411
 31
0.0
  0
LINE
  5
2E4
  8
_________2
 62
     7
 10
76.741
 20
29.8047
 30
0.0
 11
74.554699999999997
 21
29.8047
 31
0.0
  0
LINE
  5
2E5
  8
_________2
 62
     7
 10
77.233699999999999
 20
29.8047
 30
0.0
 11
76.981499999999997
 21
29.8047
 31
0.0
  0
LINE
  5
2E6
  8
_________2
 62
     7
 10
77.726299999999995
 20
29.8047
 30
0.0
 11
80.651200000000003
 21
29.8047
 31
0.0
  0
LINE
  5
2E7
  8
_________2
 62
     7
 10
77.233699999999999
 20
29.8047
 30
0.0
 11
77.485900000000001
 21
29.8047
 31
0.0
  0
LINE
  5
2E8
  8
_________2
 62
     7
 10
70.837500000000006
 20
29.8047
 30
0.0
 11
68.650499999999994
 21
29.8047
 31
0.0
  0
LINE
  5
2E9
  8
_________2
 62
     7
 10
71.329400000000007
 20
29.8047
 30
0.0
 11
71.0779
 21
29.8047
 31
0.0
  0
LINE
  5
2EA
  8
_________2
 62
     7
 10
71.329400000000007
 20
30.2974
 30
0.0
 11
71.329400000000007
 21
32.484400000000001
 31
0.0
  0
LINE
  5
2EB
  8
_________2
 62
     7
 10
71.329400000000007
 20
29.8047
 30
0.0
 11
71.329400000000007
 21
30.057300000000001
 31
0.0
  0
LINE
  5
2EC
  8
_________2
 62
     7
 10
71.822100000000006
 20
29.8047
 30
0.0
 11
74.009
 21
29.8047
 31
0.0
  0
LINE
  5
2ED
  8
_________2
 62
     7
 10
71.329400000000007
 20
29.8047
 30
0.0
 11
71.581599999999995
 21
29.8047
 31
0.0
  0
LINE
  5
2EE
  8
_________2
 62
     7
 10
71.329400000000007
 20
29.312799999999999
 30
0.0
 11
71.329400000000007
 21
27.126200000000001
 31
0.0
  0
LINE
  5
2EF
  8
_________2
 62
     7
 10
71.329400000000007
 20
29.8047
 30
0.0
 11
71.329400000000007
 21
29.5532
 31
0.0
  0
LINE
  5
2F0
  8
_________2
 62
     7
 10
75.040499999999994
 20
28.5852
 30
0.0
 11
80.218500000000006
 21
27.720400000000001
 31
0.0
  0
LINE
  5
2F1
  8
_________2
 62
     7
 10
75.040499999999994
 20
31.024699999999999
 30
0.0
 11
80.218500000000006
 21
31.8901
 31
0.0
  0
LINE
  5
2F2
  8
_________2
 62
     7
 10
80.218500000000006
 20
27.720400000000001
 30
0.0
 11
80.218500000000006
 21
31.8901
 31
0.0
  0
LINE
  5
2F3
  8
_________2
 62
     7
 10
75.040499999999994
 20
28.5852
 30
0.0
 11
75.040499999999994
 21
31.024699999999999
 31
0.0
  0
ARC
  5
2F4
  8
_________2
 62
     7
 10
71.282845999999992
 20
29.757801000000001
 30
0.0
 40
1.267714
 50
2.1220840000000001
 51
87.894083999999992
  0
ARC
  5
2F5
  8
_________2
 62
     7
 10
71.375985
 20
29.758545999999999
 30
0.0
 40
1.2669680000000001
 50
92.105782999999988
 51
177.91037
  0
ARC
  5
2F6
  8
_________2
 62
     7
 10
71.376357999999996
 20
29.851671
 30
0.0
 40
1.2673680000000001
 50
182.12203600000001
 51
267.877993
  0
ARC
  5
2F7
  8
_________2
 62
     7
 10
71.282541000000009
 20
29.852347999999999
 30
0.0
 40
1.2680439999999991
 50
272.11916400000001
 51
357.84848499999993
  0
ARC
  5
2F8
  8
_________2
 62
     7
 10
71.249061999999995
 20
29.724731999999989
 30
0.0
 40
2.1668310000000002
 50
2.1161439999999989
 51
87.874379000000005
  0
ARC
  5
2F9
  8
_________2
 62
     7
 10
71.409099999999995
 20
29.726146
 30
0.0
 40
2.165392999999999
 50
92.108508999999998
 51
177.91986499999999
  0
ARC
  5
2FA
  8
_________2
 62
     7
 10
71.409439000000006
 20
29.884751999999999
 30
0.0
 40
2.1657829999999998
 50
182.117133
 51
267.88289700000001
  0
ARC
  5
2FB
  8
_________2
 62
     7
 10
71.249459000000002
 20
29.885429999999989
 30
0.0
 40
2.1664590000000001
 50
272.11546800000002
 51
357.86560400000002
  0
TEXT
  5
2FC
  8
_________2
 62
     7
 10
104.605
 20
1.6794899999999999
 30
0.0
 40
3.0923400000000001
  1
図番
 41
0.5
  0
LINE
  5
2FD
  8
_________2
 62
     7
 10
103.55
 20
5.9087199999999989
 30
0.0
 11
183.55099999999999
 21
5.9087199999999989
 31
0.0
  0
TEXT
  5
2FE
  8
_________2
 62
     7
 10
104.605
 20
11.679299999999991
 30
0.0
 40
3.0923400000000001
  1
品番
 41
0.5
  0
TEXT
  5
2FF
  8
_________2
 62
     7
 10
104.605
 20
31.8184
 30
0.0
 40
3.0923400000000001
  1
名称
 41
0.5
  0
TEXT
  5
300
  8
_________2
 62
     7
 10
91.845058333333341
 20
26.822299999999998
 30
0.0
 40
3.6545800000000002
  1
mm
 41
0.5
 72
     1
 11
93.367800000000003
 21
26.822299999999998
 31
0.0
  0
TEXT
  5
301
  8
_________2
 62
     7
 10
85.643199999999993
 20
31.8184
 30
0.0
 40
3.0923400000000001
  1
単位
 41
0.5
  0
TEXT
  5
302
  8
_________2
 62
     7
 10
85.643199999999993
 20
19.410799999999991
 30
0.0
 40
3.0923400000000001
  1
尺度
 41
0.5
  0
TEXT
  5
303
  8
_________2
 62
     7
 10
90.548758666666686
 20
13.218199999999991
 30
0.0
 40
3.6545800000000002
  1
1 ： 4
 41
0.5
 72
     1
 11
93.959699999999998
 21
13.218199999999991
 31
0.0
  0
TEXT
  5
304
  8
_________2
 62
     7
 10
138.13841249999999
 20
9.1082000000000001
 30
0.0
 40
3.9357000000000002
  1
ZU0694
 41
0.5
 72
     1
 11
143.55000000000001
 21
9.1082000000000001
 31
0.0
  0
TEXT
  5
305
  8
_________2
 62
     7
 10
138.13841249999999
 20
-0.8926299999999999
 30
0.0
 40
3.9357000000000002
  1
ZU0694
 41
0.5
 72
     1
 11
143.55000000000001
 21
-0.8926299999999999
 31
0.0
  0
TEXT
  5
306
  8
_________2
 62
     7
 10
39.364390666666658
 20
13.603400000000001
 30
0.0
 40
3.6545800000000002
  1
石原
 41
0.5
 72
     1
 11
41.313499999999998
 21
13.603400000000001
 31
0.0
  0
TEXT
  5
307
  8
_________2
 62
     7
 10
20.851300333333331
 20
13.603400000000001
 30
0.0
 40
3.6545800000000002
  1
西田
 41
0.5
 72
     1
 11
22.7395
 21
13.603400000000001
 31
0.0
  0
TEXT
  5
308
  8
_________2
 62
     7
 10
67.785799999999995
 20
13.218199999999991
 30
0.0
 40
3.6545800000000002
  1
12.12.3
 41
0.5
  0
TEXT
  5
309
  8
_________2
 62
     7
 10
66.593100000000007
 20
19.410799999999991
 30
0.0
 40
3.0923400000000001
  1
日付
 41
0.5
  0
TEXT
  5
30A
  8
_________2
 62
     7
 10
29.639399999999998
 20
19.410799999999991
 30
0.0
 40
3.0923400000000001
  1
検図
 41
0.5
  0
TEXT
  5
30B
  8
_________2
 62
     7
 10
18.021100000000001
 20
5.21143
 30
0.0
 40
3.0923400000000001
  1
備考
 41
0.5
  0
TEXT
  5
30C
  8
_________2
 62
     7
 10
18.021100000000001
 20
19.410799999999991
 30
0.0
 40
3.0923400000000001
  1
製図
 41
0.5
  0
TEXT
  5
30D
  8
_________2
 62
     7
 10
23.788465333333338
 20
27.936800000000002
 30
0.0
 40
4.4979399999999989
  1
セラトレーディング株式会社
 41
0.5
 72
     1
 11
41.180500000000002
 21
27.936800000000002
 31
0.0
  0
LINE
  5
30E
  8
_________2
 62
     7
 10
183.55099999999999
 20
-4.0910799999999998
 30
0.0
 11
17.049499999999998
 21
-4.0910799999999998
 31
0.0
  0
LINE
  5
30F
  8
_________2
 62
     7
 10
17.049499999999998
 20
-4.0910799999999998
 30
0.0
 11
17.049499999999998
 21
258.911
 31
0.0
  0
LINE
  5
310
  8
_________2
 62
     7
 10
17.049499999999998
 20
258.911
 30
0.0
 11
183.55099999999999
 21
258.911
 31
0.0
  0
LINE
  5
311
  8
_________2
 62
     7
 10
183.55099999999999
 20
258.911
 30
0.0
 11
183.55099999999999
 21
-4.0910799999999998
 31
0.0
  0
LINE
  5
312
  8
_________2
 62
     7
 10
65.549899999999994
 20
9.4092999999999982
 30
0.0
 11
65.549899999999994
 21
35.909100000000002
 31
0.0
  0
LINE
  5
313
  8
_________2
 62
     7
 10
84.549700000000016
 20
9.4092999999999982
 30
0.0
 11
84.549700000000016
 21
35.909100000000002
 31
0.0
  0
LINE
  5
314
  8
_________2
 62
     7
 10
103.55
 20
-4.0910799999999998
 30
0.0
 11
103.55
 21
35.909100000000002
 31
0.0
  0
LINE
  5
315
  8
_________2
 62
     7
 10
28.549299999999992
 20
9.4092999999999982
 30
0.0
 11
28.549299999999992
 21
23.409199999999998
 31
0.0
  0
LINE
  5
316
  8
_________2
 62
     7
 10
17.049499999999998
 20
9.4092999999999982
 30
0.0
 11
103.55
 21
9.4092999999999982
 31
0.0
  0
LINE
  5
317
  8
_________2
 62
     7
 10
17.049499999999998
 20
23.409199999999998
 30
0.0
 11
103.55
 21
23.409199999999998
 31
0.0
  0
LINE
  5
318
  8
_________2
 62
     7
 10
103.55
 20
15.9085
 30
0.0
 11
183.55099999999999
 21
15.9085
 31
0.0
  0
LINE
  5
319
  8
_________2
 62
     7
 10
17.049499999999998
 20
35.909100000000002
 30
0.0
 11
183.55099999999999
 21
35.909100000000002
 31
0.0
  0
ENDSEC
  0
EOF
