  0
SECTION
  2
HEADER
  9
$ACADVER
  1
AC1009
  9
$INSBASE
 10
0.0
 20
0.0
 30
0.0
  9
$EXTMIN
 10
-104.794
 20
0.176045
 30
0.0
  9
$EXTMAX
 10
315.209
 20
297.178
 30
0.0
  9
$LIMMIN
 10
0.0
 20
0.0
  9
$LIMMAX
 10
12.0
 20
9.0
  9
$ORTHOMODE
 70
     0
  9
$REGENMODE
 70
     1
  9
$FILLMODE
 70
     1
  9
$QTEXTMODE
 70
     0
  9
$MIRRTEXT
 70
     1
  9
$DRAGMODE
 70
     2
  9
$LTSCALE
 40
1.0
  9
$OSMODE
 70
    37
  9
$ATTMODE
 70
     1
  9
$TEXTSIZE
 40
0.0
  9
$TRACEWID
 40
0.05
  9
$TEXTSTYLE
  7
STANDARD
  9
$CLAYER
  8
0
  9
$CELTYPE
  6
CONTINUOUS
  9
$CECOLOR
 62
   256
  9
$DIMSCALE
 40
1.0
  9
$DIMASZ
 40
0.18
  9
$DIMEXO
 40
0.0625
  9
$DIMDLI
 40
0.38
  9
$DIMRND
 40
0.0
  9
$DIMDLE
 40
0.0
  9
$DIMEXE
 40
0.18
  9
$DIMTP
 40
0.0
  9
$DIMTM
 40
0.0
  9
$DIMTXT
 40
0.18
  9
$DIMCEN
 40
0.09
  9
$DIMTSZ
 40
0.0
  9
$DIMTOL
 70
     0
  9
$DIMLIM
 70
     0
  9
$DIMTIH
 70
     1
  9
$DIMTOH
 70
     1
  9
$DIMSE1
 70
     0
  9
$DIMSE2
 70
     0
  9
$DIMTAD
 70
     0
  9
$DIMZIN
 70
     0
  9
$DIMBLK
  1

  9
$DIMASO
 70
     1
  9
$DIMSHO
 70
     1
  9
$DIMPOST
  1

  9
$DIMAPOST
  1

  9
$DIMALT
 70
     0
  9
$DIMALTD
 70
     2
  9
$DIMALTF
 40
25.399999999999999
  9
$DIMLFAC
 40
1.0
  9
$DIMTOFL
 70
     0
  9
$DIMTVP
 40
0.0
  9
$DIMTIX
 70
     0
  9
$DIMSOXD
 70
     0
  9
$DIMSAH
 70
     0
  9
$DIMBLK1
  1

  9
$DIMBLK2
  1

  9
$DIMSTYLE
  2
STANDARD
  9
$DIMCLRD
 70
     0
  9
$DIMCLRE
 70
     0
  9
$DIMCLRT
 70
     0
  9
$DIMTFAC
 40
1.0
  9
$DIMGAP
 40
0.09
  9
$LUNITS
 70
     2
  9
$LUPREC
 70
     4
  9
$SKETCHINC
 40
0.1
  9
$FILLETRAD
 40
0.0
  9
$AUNITS
 70
     0
  9
$AUPREC
 70
     0
  9
$MENU
  1
.
  9
$ELEVATION
 40
0.0
  9
$PELEVATION
 40
0.0
  9
$THICKNESS
 40
0.0
  9
$LIMCHECK
 70
     0
  9
$BLIPMODE
 70
     0
  9
$CHAMFERA
 40
0.0
  9
$CHAMFERB
 40
0.0
  9
$SKPOLY
 70
     0
  9
$TDCREATE
 40
2444972.375
  9
$TDUPDATE
 40
2458520.253000706
  9
$TDINDWG
 40
0.0000364815
  9
$TDUSRTIMER
 40
0.0000364815
  9
$USRTIMER
 70
     1
  9
$ANGBASE
 50
0.0
  9
$ANGDIR
 70
     0
  9
$PDMODE
 70
     0
  9
$PDSIZE
 40
0.0
  9
$PLINEWID
 40
0.0
  9
$COORDS
 70
     1
  9
$SPLFRAME
 70
     0
  9
$SPLINETYPE
 70
     6
  9
$SPLINESEGS
 70
     8
  9
$ATTDIA
 70
     1
  9
$ATTREQ
 70
     1
  9
$HANDLING
 70
     1
  9
$HANDSEED
  5
63D
  9
$SURFTAB1
 70
     6
  9
$SURFTAB2
 70
     6
  9
$SURFTYPE
 70
     6
  9
$SURFU
 70
     6
  9
$SURFV
 70
     6
  9
$UCSNAME
  2

  9
$UCSORG
 10
0.0
 20
0.0
 30
0.0
  9
$UCSXDIR
 10
1.0
 20
0.0
 30
0.0
  9
$UCSYDIR
 10
0.0
 20
1.0
 30
0.0
  9
$PUCSNAME
  2

  9
$PUCSORG
 10
0.0
 20
0.0
 30
0.0
  9
$PUCSXDIR
 10
1.0
 20
0.0
 30
0.0
  9
$PUCSYDIR
 10
0.0
 20
1.0
 30
0.0
  9
$USERI1
 70
     0
  9
$USERI2
 70
     0
  9
$USERI3
 70
     0
  9
$USERI4
 70
     0
  9
$USERI5
 70
     0
  9
$USERR1
 40
0.0
  9
$USERR2
 40
0.0
  9
$USERR3
 40
0.0
  9
$USERR4
 40
0.0
  9
$USERR5
 40
0.0
  9
$WORLDVIEW
 70
     1
  9
$SHADEDGE
 70
     3
  9
$SHADEDIF
 70
    70
  9
$TILEMODE
 70
     1
  9
$MAXACTVP
 70
    48
  9
$PLIMCHECK
 70
     0
  9
$PEXTMIN
 10
1.0000000000000000E+020
 20
1.0000000000000000E+020
 30
1.0000000000000000E+020
  9
$PEXTMAX
 10
-1.0000000000000000E+020
 20
-1.0000000000000000E+020
 30
-1.0000000000000000E+020
  9
$PLIMMIN
 10
0.0
 20
0.0
  9
$PLIMMAX
 10
12.0
 20
9.0
  9
$UNITMODE
 70
     0
  9
$VISRETAIN
 70
     1
  9
$PLINEGEN
 70
     0
  9
$PSLTSCALE
 70
     1
  0
ENDSEC
  0
SECTION
  2
TABLES
  0
TABLE
  2
VPORT
 70
     1
  0
VPORT
  2
*ACTIVE
 70
     0
 10
0.0
 20
0.0
 11
1.0
 21
1.0
 12
195.84271114783351
 22
148.589
 13
0.0
 23
0.0
 14
1.0
 24
1.0
 15
0.0
 25
0.0
 16
0.0
 26
0.0
 36
1.0
 17
0.0
 27
0.0
 37
0.0
 40
281.11539623648741
 41
2.298642533936651
 42
50.0
 43
0.0
 44
0.0
 50
0.0
 51
0.0
 71
     0
 72
   100
 73
     1
 74
     1
 75
     0
 76
     0
 77
     0
 78
     0
  0
ENDTAB
  0
TABLE
  2
LTYPE
 70
     2
  0
LTYPE
  2
CONTINUOUS
 70
     0
  3
Solid line
 72
    65
 73
     0
 40
0.0
  0
LTYPE
  2
AIGENLINE001
 70
     0
  3
generate AI->DXF Converter
 72
    65
 73
     4
 40
5.8561449999999988
 49
3.5278
 49
-0.776115
 49
0.776115
 49
-0.776115
  0
ENDTAB
  0
TABLE
  2
LAYER
 70
     2
  0
LAYER
  2
0
 70
     0
 62
     7
  6
CONTINUOUS
  0
LAYER
  2
_________2
 70
     0
 62
     7
  6
CONTINUOUS
  0
ENDTAB
  0
TABLE
  2
STYLE
 70
     1
  0
STYLE
  2
STANDARD
 70
     0
 40
0.0
 41
0.0
 50
0.0
 71
     0
 42
0.0
  3
TXT
  4
EXTFONT.SHX
  0
ENDTAB
  0
TABLE
  2
VIEW
 70
     0
  0
ENDTAB
  0
TABLE
  2
UCS
 70
     0
  0
ENDTAB
  0
TABLE
  2
APPID
 70
     3
  0
APPID
  2
ACAD
 70
     0
  0
APPID
  2
ACAD_NAV_VCDISPLAY
 70
     0
  0
APPID
  2
ACAD_MLEADERVER
 70
     0
  0
ENDTAB
  0
TABLE
  2
DIMSTYLE
 70
     1
  0
DIMSTYLE
  2
STANDARD
 70
     0
  3

  4

  5

  6

  7

 40
1.0
 41
0.18
 42
0.0625
 43
0.38
 44
0.18
 45
0.0
 46
0.0
 47
0.0
 48
0.0
140
0.18
141
0.09
142
0.0
143
25.399999999999999
144
1.0
145
0.0
146
1.0
147
0.09
 71
     0
 72
     0
 73
     1
 74
     1
 75
     0
 76
     0
 77
     0
 78
     0
170
     0
171
     2
172
     0
173
     0
174
     0
175
     0
176
     0
177
     0
178
     0
  0
ENDTAB
  0
ENDSEC
  0
SECTION
  2
BLOCKS
  0
BLOCK
  8
0
  2
$MODEL_SPACE
 70
     0
 10
0.0
 20
0.0
 30
0.0
  3
$MODEL_SPACE
  1

  0
ENDBLK
  5
1A
  8
0
  0
BLOCK
 67
     1
  8
0
  2
$PAPER_SPACE
 70
     0
 10
0.0
 20
0.0
 30
0.0
  3
$PAPER_SPACE
  1

  0
ENDBLK
  5
17
 67
     1
  8
0
  0
ENDSEC
  0
SECTION
  2
ENTITIES
  0
TEXT
  5
22
  8
0
 62
     7
 10
-49.194947999999989
 20
127.919
 30
0.0
 40
3.0923400000000001
  1
湯側
 41
0.5
 72
     1
 11
-47.545699999999997
 21
127.919
 31
0.0
  0
TEXT
  5
23
  8
0
 62
     7
 10
0.805402
 20
127.919
 30
0.0
 40
3.0923400000000001
  1
水側
 41
0.5
 72
     1
 11
2.4546499999999991
 21
127.919
 31
0.0
  0
TEXT
  5
24
  8
0
 62
     7
 10
-61.045279999999998
 20
160.434
 30
0.0
 40
3.0923400000000001
  1
%%c29.5
 41
0.5
 72
     2
 11
-54.860599999999998
 21
160.434
 31
0.0
  0
TEXT
  5
25
  8
0
 62
     7
 10
-35.544879999999999
 20
160.434
 30
0.0
 40
3.0923400000000001
  1
%%c33.5
 41
0.5
 72
     2
 11
-29.360199999999999
 21
160.434
 31
0.0
  0
TEXT
  5
26
  8
0
 62
     7
 10
-7.0146075000000003
 20
44.016199999999998
 30
0.0
 40
3.0923400000000001
  1
180
 41
0.5
 72
     1
 11
-5.3395900000000003
 21
44.016199999999998
 31
0.0
  0
TEXT
  5
27
  8
0
 62
     7
 10
-1.3077700000000001
 20
64.055750000000003
 30
0.0
 40
3.0923400000000001
  1
%%c5
 50
90.0
 41
0.5
 72
     2
 11
-1.3077700000000001
 21
66.6327
 31
0.0
  0
TEXT
  5
28
  8
0
 62
     7
 10
-17.105632
 20
51.350200000000001
 30
0.0
 40
3.0923400000000001
  1
G1 1/4
 41
0.5
 72
     2
 11
-9.9932499999999997
 21
51.350200000000001
 31
0.0
  0
TEXT
  5
29
  8
0
 62
     7
 10
-33.478299999999997
 20
59.8850725
 30
0.0
 40
3.0923400000000001
  1
50
 50
90.0
 41
0.5
 72
     1
 11
-33.478299999999997
 21
61.044699999999999
 31
0.0
  0
TEXT
  5
2A
  8
0
 62
     7
 10
-33.818600000000004
 20
67.12532250000001
 30
0.0
 40
3.0923400000000001
  1
max.50
 50
90.0
 41
0.5
 72
     1
 11
-33.818600000000004
 21
70.861900000000006
 31
0.0
  0
TEXT
  5
2B
  8
0
 62
     7
 10
-24.606760000000001
 20
79.513999999999996
 30
0.0
 40
3.0923400000000001
  1
%%c63
 41
0.5
 72
     1
 11
-22.545200000000001
 21
79.513999999999996
 31
0.0
  0
TEXT
  5
2C
  8
0
 62
     7
 10
64.460346000000001
 20
230.995
 30
0.0
 40
3.0923400000000001
  1
水栓取付穴
 41
0.5
 72
     1
 11
68.892700000000005
 21
230.995
 31
0.0
  0
TEXT
  5
2D
  8
0
 62
     7
 10
102.70488
 20
255.25299999999999
 30
0.0
 40
3.0923400000000001
  1
%%c35
 41
0.5
 72
     2
 11
106.828
 21
255.25299999999999
 31
0.0
  0
TEXT
  5
2E
  8
0
 62
     7
 10
77.704579999999993
 20
255.25299999999999
 30
0.0
 40
3.0923400000000001
  1
%%c35
 41
0.5
 72
     2
 11
81.827699999999993
 21
255.25299999999999
 31
0.0
  0
TEXT
  5
2F
  8
0
 62
     7
 10
52.703780000000002
 20
255.25299999999999
 30
0.0
 40
3.0923400000000001
  1
%%c35
 41
0.5
 72
     2
 11
56.826900000000002
 21
255.25299999999999
 31
0.0
  0
TEXT
  5
30
  8
0
 62
     7
 10
-33.688274999999997
 20
170.226
 30
0.0
 40
3.0923400000000001
  1
55
 41
0.5
 72
     1
 11
-32.399799999999999
 21
170.226
 31
0.0
  0
TEXT
  5
31
  8
0
 62
     7
 10
85.023099999999985
 20
177.142
 30
0.0
 40
3.092309999999999
  1
122
 50
90.0
 41
0.5
  0
TEXT
  5
32
  8
0
 62
     7
 10
50.039335000000001
 20
172.67099999999999
 30
0.0
 40
3.0923400000000001
  1
136
 41
0.5
 72
     1
 11
51.843200000000003
 21
172.67099999999999
 31
0.0
  0
TEXT
  5
33
  8
0
 62
     7
 10
55.770200000000003
 20
127.82299999999999
 30
0.0
 40
3.0923400000000001
  1
PF 1/2
 41
0.5
  0
TEXT
  5
34
  8
0
 62
     7
 10
31.221
 20
167.315
 30
0.0
 40
3.0923400000000001
  1
20%%d
 41
0.5
  0
TEXT
  5
35
  8
0
 62
     7
 10
-58.689074999999988
 20
170.226
 30
0.0
 40
3.0923400000000001
  1
55
 41
0.5
 72
     1
 11
-57.40059999999999
 21
170.226
 31
0.0
  0
TEXT
  5
36
  8
0
 62
     7
 10
14.3344
 20
148.67599999999999
 30
0.0
 40
3.092309999999999
  1
max.35
 50
90.0
 41
0.5
  0
TEXT
  5
37
  8
0
 62
     7
 10
42.41279999999999
 20
174.20576750000001
 30
0.0
 40
3.092309999999999
  1
64.5
 50
90.0
 41
0.5
 72
     1
 11
42.41279999999999
 21
176.52500000000001
 31
0.0
  0
TEXT
  5
38
  8
0
 62
     7
 10
24.490300000000001
 20
172.35153750000001
 30
0.0
 40
3.092309999999999
  1
68
 50
90.0
 41
0.5
 72
     1
 11
24.490300000000001
 21
173.63999999999999
 31
0.0
  0
TEXT
  5
39
  8
0
 62
     7
 10
-10.0627
 20
178.56415250000001
 30
0.0
 40
3.092309999999999
  1
122
 50
90.0
 41
0.5
 72
     1
 11
-10.0627
 21
180.36799999999999
 31
0.0
  0
TEXT
  5
3A
  8
0
 62
     7
 10
54.846630000000012
 20
266.57499999999999
 30
0.0
 40
3.0923400000000001
  1
100
 41
0.5
 72
     1
 11
56.392800000000001
 21
266.57499999999999
 31
0.0
  0
TEXT
  5
3B
  8
0
 62
     7
 10
79.846429999999998
 20
266.57499999999999
 30
0.0
 40
3.0923400000000001
  1
100
 41
0.5
 72
     1
 11
81.392600000000002
 21
266.57499999999999
 31
0.0
  0
TEXT
  5
3C
  8
0
 62
     7
 10
-36.591270000000002
 20
266.57499999999999
 30
0.0
 40
3.0923400000000001
  1
100
 41
0.5
 72
     1
 11
-35.045099999999998
 21
266.57499999999999
 31
0.0
  0
TEXT
  5
3D
  8
0
 62
     7
 10
-11.591469999999999
 20
266.57499999999999
 30
0.0
 40
3.0923400000000001
  1
100
 41
0.5
 72
     1
 11
-10.045299999999999
 21
266.57499999999999
 31
0.0
  0
TEXT
  5
3E
  8
0
 62
     7
 10
-64.623999999999995
 20
147.416135
 30
0.0
 40
3.0923400000000001
  1
124
 50
90.0
 41
0.5
 72
     1
 11
-64.623999999999995
 21
149.22
 31
0.0
  0
TEXT
  5
3F
  8
0
 62
     7
 10
-10.3629
 20
126.12728749999999
 30
0.0
 40
3.0923400000000001
  1
450
 50
90.0
 41
0.5
 72
     1
 11
-10.3629
 21
128.06
 31
0.0
  0
TEXT
  5
40
  8
0
 62
     7
 10
-17.580224999999999
 20
97.345200000000006
 30
0.0
 40
3.092309999999999
  1
%%c5
 41
0.5
 72
     2
 11
-15.003299999999999
 21
97.345200000000006
 31
0.0
  0
TEXT
  5
41
  8
0
 62
     7
 10
-77.847200000000001
 20
22.237500000000001
 30
0.0
 40
3.6545800000000002
  1
・国産洗面器とのセットの場合は国産の排水ヘッド部を別途準備してください。
 41
0.5
  0
LINE
  5
42
  8
0
 62
     7
 10
-17.045400000000001
 20
164.88399999999999
 30
0.0
 11
-22.545200000000001
 21
164.88399999999999
 31
0.0
  0
LINE
  5
43
  8
0
 62
     7
 10
-28.045300000000001
 20
164.88399999999999
 30
0.0
 11
-22.545200000000001
 21
164.88399999999999
 31
0.0
  0
ARC
  5
44
  8
0
 62
     7
 10
63.308705000000003
 20
177.31050400000001
 30
0.0
 40
2.559126
 50
12.668570000000001
 51
77.162761000000003
  0
LINE
  5
45
  8
0
 62
     7
 10
-54.4208
 20
165.88399999999999
 30
0.0
 11
-51.239600000000003
 21
167.96100000000001
 31
0.0
  0
ARC
  5
46
  8
0
 62
     7
 10
-51.900494000000002
 20
169.60474400000001
 30
0.0
 40
1.8527029999999991
 50
350.38122099999998
 51
7.7671720000000013
  0
ARC
  5
47
  8
0
 62
     7
 10
-51.496630000000003
 20
169.569199
 30
0.0
 40
1.448939999999999
 50
322.327088
 51
349.09844600000002
  0
ARC
  5
48
  8
0
 62
     7
 10
-51.961736000000002
 20
169.90615
 30
0.0
 40
2.023082
 50
308.58879899999999
 51
322.82413100000002
  0
ARC
  5
49
  8
0
 62
     7
 10
-52.769056999999997
 20
170.848781
 30
0.0
 40
3.2637160000000001
 50
301.943287
 51
309.34532300000001
  0
ARC
  5
4A
  8
0
 62
     7
 10
-53.557088
 20
172.06220500000001
 30
0.0
 40
4.7103989999999989
 50
299.47209500000008
 51
302.268103
  0
LINE
  5
4B
  8
0
 62
     7
 10
-40.6706
 20
165.88399999999999
 30
0.0
 11
-43.851900000000001
 21
167.96100000000001
 31
0.0
  0
ARC
  5
4C
  8
0
 62
     7
 10
-43.190947999999999
 20
169.60474400000001
 30
0.0
 40
1.8526990000000001
 50
172.232789
 51
189.618819
  0
ARC
  5
4D
  8
0
 62
     7
 10
-43.594808
 20
169.569199
 30
0.0
 40
1.448939999999999
 50
190.90157400000001
 51
217.672932
  0
ARC
  5
4E
  8
0
 62
     7
 10
-43.129601999999998
 20
169.906228
 30
0.0
 40
2.023209
 50
217.175949
 51
231.41028
  0
ARC
  5
4F
  8
0
 62
     7
 10
-42.321406000000003
 20
170.85018500000001
 30
0.0
 40
3.265422
 50
230.6570220000001
 51
238.055261
  0
ARC
  5
50
  8
0
 62
     7
 10
-41.539104999999999
 20
172.05425099999999
 30
0.0
 40
4.701134999999999
 50
237.729161
 51
240.53067999999999
  0
LINE
  5
51
  8
0
 62
     7
 10
-29.419899999999998
 20
165.88399999999999
 30
0.0
 11
-26.239000000000001
 21
167.96100000000001
 31
0.0
  0
ARC
  5
52
  8
0
 62
     7
 10
-26.899967
 20
169.60474400000001
 30
0.0
 40
1.8527029999999991
 50
350.38122099999998
 51
7.7671720000000013
  0
ARC
  5
53
  8
0
 62
     7
 10
-26.496542000000002
 20
169.56940800000001
 30
0.0
 40
1.449411
 50
322.331053
 51
349.09364299999999
  0
ARC
  5
54
  8
0
 62
     7
 10
-26.960514
 20
169.90544800000001
 30
0.0
 40
2.0221
 50
308.58581800000002
 51
322.82799199999999
  0
ARC
  5
55
  8
0
 62
     7
 10
-27.768529999999998
 20
170.848781
 30
0.0
 40
3.2637160000000001
 50
301.943287
 51
309.34532300000001
  0
ARC
  5
56
  8
0
 62
     7
 10
-28.556560999999999
 20
172.06220500000001
 30
0.0
 40
4.7103989999999989
 50
299.47209500000008
 51
302.268103
  0
LINE
  5
57
  8
0
 62
     7
 10
-15.6701
 20
165.88399999999999
 30
0.0
 11
-18.851299999999998
 21
167.96100000000001
 31
0.0
  0
ARC
  5
58
  8
0
 62
     7
 10
-18.190421000000001
 20
169.60474400000001
 30
0.0
 40
1.8526990000000001
 50
172.232789
 51
189.618819
  0
ARC
  5
59
  8
0
 62
     7
 10
-18.594280999999999
 20
169.569199
 30
0.0
 40
1.448939999999999
 50
190.90157400000001
 51
217.672932
  0
ARC
  5
5A
  8
0
 62
     7
 10
-18.129175
 20
169.90615
 30
0.0
 40
2.023082
 50
217.17588799999999
 51
231.41122100000001
  0
ARC
  5
5B
  8
0
 62
     7
 10
-17.321853999999998
 20
170.848781
 30
0.0
 40
3.2637160000000001
 50
230.654697
 51
238.05673300000001
  0
ARC
  5
5C
  8
0
 62
     7
 10
-16.538578000000001
 20
172.05425099999999
 30
0.0
 40
4.701134999999999
 50
237.729161
 51
240.53067999999999
  0
ARC
  5
5D
  8
0
 62
     7
 10
36.91789
 20
178.27221
 30
0.0
 40
62.550713000000002
 50
177.24507500000001
 51
187.73343
  0
ARC
  5
5E
  8
0
 62
     7
 10
-82.010920999999996
 20
178.27238500000001
 30
0.0
 40
62.553699999999999
 50
352.26679899999999
 51
2.754770999999999
  0
LINE
  5
5F
  8
0
 62
     7
 10
-4.4204299999999996
 20
165.88399999999999
 30
0.0
 11
-1.2392099999999999
 21
167.96100000000001
 31
0.0
  0
ARC
  5
60
  8
0
 62
     7
 10
-1.900129
 20
169.60474400000001
 30
0.0
 40
1.8527029999999991
 50
350.38122099999998
 51
7.7671720000000013
  0
ARC
  5
61
  8
0
 62
     7
 10
-1.496265
 20
169.569199
 30
0.0
 40
1.448939999999999
 50
322.327088
 51
349.09844600000002
  0
ARC
  5
62
  8
0
 62
     7
 10
-1.9613709999999991
 20
169.90615
 30
0.0
 40
2.023082
 50
308.58879899999999
 51
322.82413100000002
  0
ARC
  5
63
  8
0
 62
     7
 10
-2.7686919999999988
 20
170.848781
 30
0.0
 40
3.2637160000000001
 50
301.943287
 51
309.34532300000001
  0
ARC
  5
64
  8
0
 62
     7
 10
-3.5567229999999999
 20
172.06220500000001
 30
0.0
 40
4.7103989999999989
 50
299.47209500000008
 51
302.268103
  0
LINE
  5
65
  8
0
 62
     7
 10
9.32972
 20
165.88399999999999
 30
0.0
 11
6.1485000000000003
 21
167.96100000000001
 31
0.0
  0
ARC
  5
66
  8
0
 62
     7
 10
6.8094169999999989
 20
169.60474400000001
 30
0.0
 40
1.8526990000000001
 50
172.232789
 51
189.618819
  0
ARC
  5
67
  8
0
 62
     7
 10
6.4055569999999991
 20
169.569199
 30
0.0
 40
1.448939999999999
 50
190.90157400000001
 51
217.672932
  0
ARC
  5
68
  8
0
 62
     7
 10
6.8706630000000004
 20
169.90615
 30
0.0
 40
2.023082
 50
217.17588799999999
 51
231.41122100000001
  0
ARC
  5
69
  8
0
 62
     7
 10
7.6779839999999986
 20
170.848781
 30
0.0
 40
3.2637160000000001
 50
230.654697
 51
238.05673300000001
  0
ARC
  5
6A
  8
0
 62
     7
 10
8.4660149999999987
 20
172.06220500000001
 30
0.0
 40
4.7103989999999989
 50
237.73191700000001
 51
240.52792400000001
  0
LINE
  5
6B
  8
0
 62
     7
 10
62.017600000000002
 20
165.88399999999999
 30
0.0
 11
65.1982
 21
167.96100000000001
 31
0.0
  0
ARC
  5
6C
  8
0
 62
     7
 10
64.537234999999995
 20
169.60474400000001
 30
0.0
 40
1.8527029999999991
 50
350.38122099999998
 51
7.7671720000000013
  0
ARC
  5
6D
  8
0
 62
     7
 10
64.941098999999994
 20
169.569199
 30
0.0
 40
1.448939999999999
 50
322.327088
 51
349.09844600000002
  0
ARC
  5
6E
  8
0
 62
     7
 10
64.475993000000003
 20
169.90615
 30
0.0
 40
2.023082
 50
308.58879899999999
 51
322.82413100000002
  0
ARC
  5
6F
  8
0
 62
     7
 10
63.668671999999987
 20
170.848781
 30
0.0
 40
3.2637160000000001
 50
301.943287
 51
309.34532300000001
  0
ARC
  5
70
  8
0
 62
     7
 10
62.880640999999997
 20
172.06220500000001
 30
0.0
 40
4.7103989999999989
 50
299.47209500000008
 51
302.268103
  0
LINE
  5
71
  8
0
 62
     7
 10
75.767799999999994
 20
165.88399999999999
 30
0.0
 11
72.585899999999995
 21
167.96100000000001
 31
0.0
  0
LINE
  5
72
  8
0
 62
     7
 10
62.642600000000002
 20
158.8829999999999
 30
0.0
 11
64.892899999999997
 21
158.8829999999999
 31
0.0
  0
LINE
  5
73
  8
0
 62
     7
 10
62.642600000000002
 20
159.8829999999999
 30
0.0
 11
63.392600000000002
 21
159.8829999999999
 31
0.0
  0
LINE
  5
74
  8
0
 62
     7
 10
62.642600000000002
 20
159.8829999999999
 30
0.0
 11
62.642600000000002
 21
158.8829999999999
 31
0.0
  0
LINE
  5
75
  8
0
 62
     7
 10
75.142799999999994
 20
158.8829999999999
 30
0.0
 11
72.892499999999998
 21
158.8829999999999
 31
0.0
  0
LINE
  5
76
  8
0
 62
     7
 10
75.142799999999994
 20
159.8829999999999
 30
0.0
 11
74.392799999999994
 21
159.8829999999999
 31
0.0
  0
LINE
  5
77
  8
0
 62
     7
 10
-17.794699999999999
 20
158.8829999999999
 30
0.0
 11
-17.794699999999999
 21
145.13300000000001
 31
0.0
  0
LINE
  5
78
  8
0
 62
     7
 10
-16.294699999999999
 20
158.8829999999999
 30
0.0
 11
-22.545200000000001
 21
158.8829999999999
 31
0.0
  0
LINE
  5
79
  8
0
 62
     7
 10
-16.294699999999999
 20
159.13300000000001
 30
0.0
 11
-16.294699999999999
 21
158.8829999999999
 31
0.0
  0
LINE
  5
7A
  8
0
 62
     7
 10
-16.294699999999999
 20
159.13300000000001
 30
0.0
 11
-22.545200000000001
 21
159.13300000000001
 31
0.0
  0
LINE
  5
7B
  8
0
 62
     7
 10
-16.294699999999999
 20
159.8829999999999
 30
0.0
 11
-16.294699999999999
 21
159.13300000000001
 31
0.0
  0
LINE
  5
7C
  8
0
 62
     7
 10
-16.294699999999999
 20
159.8829999999999
 30
0.0
 11
-22.545200000000001
 21
159.8829999999999
 31
0.0
  0
LINE
  5
7D
  8
0
 62
     7
 10
-18.357700000000001
 20
159.8829999999999
 30
0.0
 11
-22.545200000000001
 21
159.8829999999999
 31
0.0
  0
LINE
  5
7E
  8
0
 62
     7
 10
-17.045400000000001
 20
165.13399999999999
 30
0.0
 11
-17.045400000000001
 21
164.88399999999999
 31
0.0
  0
LINE
  5
7F
  8
0
 62
     7
 10
-18.357700000000001
 20
159.8829999999999
 30
0.0
 11
-18.357700000000001
 21
164.88300000000001
 31
0.0
  0
LINE
  5
80
  8
0
 62
     7
 10
-27.295000000000002
 20
158.8829999999999
 30
0.0
 11
-27.295000000000002
 21
145.13300000000001
 31
0.0
  0
LINE
  5
81
  8
0
 62
     7
 10
-28.795300000000001
 20
158.8829999999999
 30
0.0
 11
-22.545200000000001
 21
158.8829999999999
 31
0.0
  0
LINE
  5
82
  8
0
 62
     7
 10
-28.795300000000001
 20
159.13300000000001
 30
0.0
 11
-28.795300000000001
 21
158.8829999999999
 31
0.0
  0
LINE
  5
83
  8
0
 62
     7
 10
-28.795300000000001
 20
159.13300000000001
 30
0.0
 11
-22.545200000000001
 21
159.13300000000001
 31
0.0
  0
LINE
  5
84
  8
0
 62
     7
 10
-28.795300000000001
 20
159.8829999999999
 30
0.0
 11
-28.795300000000001
 21
159.13300000000001
 31
0.0
  0
LINE
  5
85
  8
0
 62
     7
 10
-28.795300000000001
 20
159.8829999999999
 30
0.0
 11
-22.545200000000001
 21
159.8829999999999
 31
0.0
  0
LINE
  5
86
  8
0
 62
     7
 10
-26.732399999999998
 20
159.8829999999999
 30
0.0
 11
-22.545200000000001
 21
159.8829999999999
 31
0.0
  0
LINE
  5
87
  8
0
 62
     7
 10
-28.045300000000001
 20
165.13399999999999
 30
0.0
 11
-28.045300000000001
 21
164.88399999999999
 31
0.0
  0
LINE
  5
88
  8
0
 62
     7
 10
-26.732399999999998
 20
159.8829999999999
 30
0.0
 11
-26.732399999999998
 21
164.88300000000001
 31
0.0
  0
ARC
  5
89
  8
0
 62
     7
 10
-5.9200530000000002
 20
138.73655199999999
 30
0.0
 40
0.102967
 50
232.23835099999999
 51
269.78812799999997
  0
ARC
  5
8A
  8
0
 62
     7
 10
-5.8672959999999987
 20
138.81593000000001
 30
0.0
 40
0.198148
 50
219.19834299999999
 51
234.23436599999999
  0
ARC
  5
8B
  8
0
 62
     7
 10
-5.7457699999999994
 20
138.91649000000001
 30
0.0
 40
0.355883
 50
208.62938600000001
 51
219.37943999999999
  0
ARC
  5
8C
  8
0
 62
     7
 10
-5.5203430000000004
 20
139.04027600000001
 30
0.0
 40
0.6130600000000001
 50
200.21795700000001
 51
208.689154
  0
ARC
  5
8D
  8
0
 62
     7
 10
-5.0709720000000003
 20
139.20460600000001
 30
0.0
 40
1.091534
 50
187.2245429999999
 51
200.16052999999999
  0
ARC
  5
8E
  8
0
 62
     7
 10
-4.4292850000000001
 20
139.31297900000001
 30
0.0
 40
1.7419629999999999
 50
179.819199
 51
188.10657599999999
  0
ARC
  5
8F
  8
0
 62
     7
 10
-4.4453139999999989
 20
139.318502
 30
0.0
 40
1.725924999999999
 50
166.70194900000001
 51
180.00090299999999
  0
ARC
  5
90
  8
0
 62
     7
 10
-5.3613720000000002
 20
139.52451400000001
 30
0.0
 40
0.7871090000000001
 50
151.10274100000001
 51
165.958023
  0
ARC
  5
91
  8
0
 62
     7
 10
-5.8302659999999991
 20
139.77925200000001
 30
0.0
 40
0.253524
 50
123.71162699999999
 51
150.296233
  0
ARC
  5
92
  8
0
 62
     7
 10
-5.9187549999999991
 20
139.89917600000001
 30
0.0
 40
0.104891
 50
90.917395999999997
 51
119.858059
  0
ARC
  5
93
  8
0
 62
     7
 10
-5.9200530000000002
 20
142.86587
 30
0.0
 40
0.102967
 50
232.23835099999999
 51
269.78812799999997
  0
ARC
  5
94
  8
0
 62
     7
 10
-5.8672959999999987
 20
142.94524799999999
 30
0.0
 40
0.198148
 50
219.19834299999999
 51
234.23436599999999
  0
ARC
  5
95
  8
0
 62
     7
 10
-5.7457699999999994
 20
143.04580799999999
 30
0.0
 40
0.355883
 50
208.62938600000001
 51
219.37943999999999
  0
ARC
  5
96
  8
0
 62
     7
 10
-5.5203430000000004
 20
143.16959299999999
 30
0.0
 40
0.6130600000000001
 50
200.21795700000001
 51
208.689154
  0
ARC
  5
97
  8
0
 62
     7
 10
-5.0709720000000003
 20
143.333923
 30
0.0
 40
1.091534
 50
187.2245429999999
 51
200.16052999999999
  0
ARC
  5
98
  8
0
 62
     7
 10
-4.4292850000000001
 20
143.442296
 30
0.0
 40
1.7419629999999999
 50
179.819199
 51
188.10657599999999
  0
ARC
  5
99
  8
0
 62
     7
 10
-4.4433339999999992
 20
143.44781499999999
 30
0.0
 40
1.7279049999999989
 50
166.70960500000001
 51
180.00074699999999
  0
ARC
  5
9A
  8
0
 62
     7
 10
-5.359248
 20
143.653764
 30
0.0
 40
0.789241
 50
151.14145300000001
 51
165.97471299999989
  0
ARC
  5
9B
  8
0
 62
     7
 10
-5.8297549999999996
 20
143.90898899999999
 30
0.0
 40
0.254005
 50
123.777658
 51
150.33834200000001
  0
ARC
  5
9C
  8
0
 62
     7
 10
-5.9187609999999991
 20
144.02941799999999
 30
0.0
 40
0.104656
 50
90.915718999999996
 51
119.927798
  0
ARC
  5
9D
  8
0
 62
     7
 10
-5.9204179999999988
 20
140.052482
 30
0.0
 40
0.048429
 50
246.502927
 51
269.98094700000001
  0
ARC
  5
9E
  8
0
 62
     7
 10
-5.906409
 20
140.0825209999999
 30
0.0
 40
0.081567
 50
224.258264
 51
245.891426
  0
ARC
  5
9F
  8
0
 62
     7
 10
-5.8256030000000001
 20
140.16094699999999
 30
0.0
 40
0.194174
 50
209.25495699999999
 51
224.19157799999999
  0
ARC
  5
A0
  8
0
 62
     7
 10
-5.5655879999999991
 20
140.30914199999989
 30
0.0
 40
0.4934520000000001
 50
200.04118
 51
209.51336499999999
  0
ARC
  5
A1
  8
0
 62
     7
 10
-5.0007199999999994
 20
140.52067299999999
 30
0.0
 40
1.0966180000000001
 50
194.3459
 51
200.30993799999999
  0
ARC
  5
A2
  8
0
 62
     7
 10
-4.0025409999999999
 20
140.78092799999999
 30
0.0
 40
2.1281620000000001
 50
190.092511
 51
194.47555600000001
  0
ARC
  5
A3
  8
0
 62
     7
 10
-1.971832
 20
141.140085
 30
0.0
 40
4.1903860000000002
 50
183.376417
 51
190.06165799999999
  0
ARC
  5
A4
  8
0
 62
     7
 10
0.8770440000000001
 20
141.37240700000001
 30
0.0
 40
7.0482909999999999
 50
179.90997999999999
 51
183.89776499999999
  0
ARC
  5
A5
  8
0
 62
     7
 10
0.7299140000000001
 20
141.383939
 30
0.0
 40
6.9011519999999997
 50
173.36094
 51
180.00384500000001
  0
ARC
  5
A6
  8
0
 62
     7
 10
-3.394679
 20
141.846349
 30
0.0
 40
2.7508140000000001
 50
164.89699400000001
 51
172.99535499999999
  0
ARC
  5
A7
  8
0
 62
     7
 10
-5.2819519999999986
 20
142.34086199999999
 30
0.0
 40
0.800009
 50
155.92887099999999
 51
163.872345
  0
ARC
  5
A8
  8
0
 62
     7
 10
-5.7333059999999989
 20
142.544467
 30
0.0
 40
0.304865
 50
143.08945600000001
 51
156.268179
  0
ARC
  5
A9
  8
0
 62
     7
 10
-5.8899689999999998
 20
142.663017
 30
0.0
 40
0.108406
 50
121.167216
 51
143.46130600000001
  0
ARC
  5
AA
  8
0
 62
     7
 10
-5.919662999999999
 20
142.71044699999999
 30
0.0
 40
0.052462
 50
90.842477000000017
 51
120.226815
  0
LINE
  5
AB
  8
0
 62
     7
 10
-6.1705500000000004
 20
143.47900000000001
 30
0.0
 11
-6.1705500000000004
 21
141.38300000000001
 31
0.0
  0
LINE
  5
AC
  8
0
 62
     7
 10
-6.1712400000000001
 20
139.31800000000001
 30
0.0
 11
-6.1705500000000004
 21
141.38300000000001
 31
0.0
  0
LINE
  5
AD
  8
0
 62
     7
 10
62.642600000000002
 20
159.25899999999999
 30
0.0
 11
68.892700000000005
 21
159.25899999999999
 31
0.0
  0
LINE
  5
AE
  8
0
 62
     7
 10
62.642600000000002
 20
159.63399999999999
 30
0.0
 11
68.892700000000005
 21
159.63399999999999
 31
0.0
  0
LINE
  5
AF
  8
0
 62
     7
 10
63.392899999999997
 20
159.63399999999999
 30
0.0
 11
68.892700000000005
 21
159.63399999999999
 31
0.0
  0
LINE
  5
B0
  8
0
 62
     7
 10
63.392899999999997
 20
159.88399999999999
 30
0.0
 11
68.892700000000005
 21
159.88399999999999
 31
0.0
  0
LINE
  5
B1
  8
0
 62
     7
 10
63.392899999999997
 20
159.88399999999999
 30
0.0
 11
63.392899999999997
 21
159.63399999999999
 31
0.0
  0
LINE
  5
B2
  8
0
 62
     7
 10
75.142799999999994
 20
159.25899999999999
 30
0.0
 11
68.892700000000005
 21
159.25899999999999
 31
0.0
  0
LINE
  5
B3
  8
0
 62
     7
 10
75.142799999999994
 20
159.8829999999999
 30
0.0
 11
75.142799999999994
 21
158.8829999999999
 31
0.0
  0
LINE
  5
B4
  8
0
 62
     7
 10
75.142799999999994
 20
159.63399999999999
 30
0.0
 11
68.892700000000005
 21
159.63399999999999
 31
0.0
  0
LINE
  5
B5
  8
0
 62
     7
 10
74.392799999999994
 20
159.63399999999999
 30
0.0
 11
68.892700000000005
 21
159.63399999999999
 31
0.0
  0
LINE
  5
B6
  8
0
 62
     7
 10
74.392799999999994
 20
159.88399999999999
 30
0.0
 11
68.892700000000005
 21
159.88399999999999
 31
0.0
  0
LINE
  5
B7
  8
0
 62
     7
 10
74.392799999999994
 20
159.88399999999999
 30
0.0
 11
74.392799999999994
 21
159.63399999999999
 31
0.0
  0
ARC
  5
B8
  8
0
 62
     7
 10
-3.4203480000000002
 20
138.736142
 30
0.0
 40
0.102557
 50
270.21238399999999
 51
307.840059
  0
ARC
  5
B9
  8
0
 62
     7
 10
-3.4733640000000001
 20
138.815777
 30
0.0
 40
0.198093
 50
305.8194049999999
 51
320.84589099999999
  0
ARC
  5
BA
  8
0
 62
     7
 10
-3.5957559999999988
 20
138.91680600000001
 30
0.0
 40
0.356794
 50
320.67514
 51
331.39280400000013
  0
ARC
  5
BB
  8
0
 62
     7
 10
-3.822937
 20
139.041203
 30
0.0
 40
0.6158030000000001
 50
331.35220399999997
 51
339.78413699999999
  0
ARC
  5
BC
  8
0
 62
     7
 10
-4.2725080000000002
 20
139.20508799999999
 30
0.0
 40
1.094312999999999
 50
339.86599999999999
 51
352.76846499999999
  0
ARC
  5
BD
  8
0
 62
     7
 10
-4.9132439999999997
 20
139.31306499999999
 30
0.0
 40
1.7437450000000001
 50
351.89891499999999
 51
0.177754
  0
ARC
  5
BE
  8
0
 62
     7
 10
-4.8962339999999989
 20
139.318499
 30
0.0
 40
1.7267269999999999
 50
359.9991940000001
 51
13.291822
  0
ARC
  5
BF
  8
0
 62
     7
 10
-3.979998999999999
 20
139.52453499999999
 30
0.0
 40
0.7877310000000001
 50
14.029121
 51
28.870578999999999
  0
ARC
  5
C0
  8
0
 62
     7
 10
-3.5104549999999999
 20
139.77940799999999
 30
0.0
 40
0.253509
 50
29.665187
 51
56.230086999999997
  0
ARC
  5
C1
  8
0
 62
     7
 10
-3.4216639999999989
 20
139.89954
 30
0.0
 40
0.104527
 50
60.088442999999998
 51
89.070354000000009
  0
ARC
  5
C2
  8
0
 62
     7
 10
-4.622592
 20
141.38659699999999
 30
0.0
 40
4.0551830000000004
 50
338.28221100000002
 51
359.95593500000001
  0
ARC
  5
C3
  8
0
 62
     7
 10
-2.9689119999999991
 20
140.755258
 30
0.0
 40
2.2854070000000002
 50
329.1364890000001
 51
337.645555
  0
ARC
  5
C4
  8
0
 62
     7
 10
-1.769291999999999
 20
140.03936899999999
 30
0.0
 40
0.8884170000000001
 50
312.39336100000003
 51
329.07934599999999
  0
ARC
  5
C5
  8
0
 62
     7
 10
-4.6235580000000001
 20
141.380368
 30
0.0
 40
4.0561480000000003
 50
0.043933
 51
21.715171999999999
  0
ARC
  5
C6
  8
0
 62
     7
 10
-2.967449999999999
 20
142.012168
 30
0.0
 40
2.2839509999999992
 50
22.362023000000001
 51
30.873864000000001
  0
ARC
  5
C7
  8
0
 62
     7
 10
-1.7695029999999989
 20
142.72724299999999
 30
0.0
 40
0.8888139999999999
 50
30.936907999999999
 51
47.611589000000002
  0
ARC
  5
C8
  8
0
 62
     7
 10
-3.4203480000000002
 20
142.86545899999999
 30
0.0
 40
0.102557
 50
270.21238399999999
 51
307.840059
  0
ARC
  5
C9
  8
0
 62
     7
 10
-3.4733640000000001
 20
142.94509500000001
 30
0.0
 40
0.198093
 50
305.8194049999999
 51
320.84589099999999
  0
ARC
  5
CA
  8
0
 62
     7
 10
-3.5957559999999988
 20
143.04612299999999
 30
0.0
 40
0.356794
 50
320.67514
 51
331.39280400000013
  0
ARC
  5
CB
  8
0
 62
     7
 10
-3.822937
 20
143.17052100000001
 30
0.0
 40
0.6158030000000001
 50
331.35220399999997
 51
339.78413699999999
  0
ARC
  5
CC
  8
0
 62
     7
 10
-4.2725080000000002
 20
143.334406
 30
0.0
 40
1.094312999999999
 50
339.86599999999999
 51
352.76846499999999
  0
ARC
  5
CD
  8
0
 62
     7
 10
-4.9132439999999997
 20
143.44238300000001
 30
0.0
 40
1.7437450000000001
 50
351.89891499999999
 51
0.177754
  0
ARC
  5
CE
  8
0
 62
     7
 10
-4.8982150000000004
 20
143.447812
 30
0.0
 40
1.7287079999999999
 50
359.99934999999999
 51
13.28417
  0
ARC
  5
CF
  8
0
 62
     7
 10
-3.9821260000000001
 20
143.653784
 30
0.0
 40
0.789866
 50
14.012447
 51
28.831893000000001
  0
ARC
  5
D0
  8
0
 62
     7
 10
-3.5109669999999991
 20
143.909144
 30
0.0
 40
0.253992
 50
29.623118999999999
 51
56.164028999999999
  0
ARC
  5
D1
  8
0
 62
     7
 10
-3.4216570000000002
 20
144.02978100000001
 30
0.0
 40
0.104293
 50
60.018608
 51
89.071995999999999
  0
ARC
  5
D2
  8
0
 62
     7
 10
-3.4199820000000001
 20
140.052267
 30
0.0
 40
0.048214
 50
270.01711699999998
 51
293.55018799999999
  0
ARC
  5
D3
  8
0
 62
     7
 10
-3.434070999999999
 20
140.08237500000001
 30
0.0
 40
0.081448
 50
294.17350199999998
 51
315.80393800000002
  0
ARC
  5
D4
  8
0
 62
     7
 10
-3.5147870000000001
 20
140.16061300000001
 30
0.0
 40
0.193859
 50
315.855434
 51
330.80589099999997
  0
ARC
  5
D5
  8
0
 62
     7
 10
-3.7766479999999998
 20
140.30957599999999
 30
0.0
 40
0.495121
 50
330.53833900000001
 51
339.97590600000001
  0
ARC
  5
D6
  8
0
 62
     7
 10
-4.3438610000000004
 20
140.521435
 30
0.0
 40
1.1006
 50
339.72448200000002
 51
345.66617400000001
  0
ARC
  5
D7
  8
0
 62
     7
 10
-5.337356999999999
 20
140.78026399999999
 30
0.0
 40
2.1272530000000001
 50
345.53659599999997
 51
349.92129899999998
  0
ARC
  5
D8
  8
0
 62
     7
 10
-7.3716220000000003
 20
141.140085
 30
0.0
 40
4.1930940000000003
 50
349.94494200000003
 51
356.62579900000009
  0
ARC
  5
D9
  8
0
 62
     7
 10
-10.225336
 20
141.37258
 30
0.0
 40
7.0558369999999986
 50
356.10501699999998
 51
0.088495
  0
ARC
  5
DA
  8
0
 62
     7
 10
-10.073957999999999
 20
141.38393300000001
 30
0.0
 40
6.904450999999999
 50
359.99622900000008
 51
6.6359069999999996
  0
ARC
  5
DB
  8
0
 62
     7
 10
-5.9489929999999989
 20
141.84629899999999
 30
0.0
 40
2.7537439999999989
 50
6.998183
 51
15.087611000000001
  0
ARC
  5
DC
  8
0
 62
     7
 10
-4.0592420000000002
 20
142.34103999999999
 30
0.0
 40
0.8004819999999998
 50
16.104512
 51
24.041954
  0
ARC
  5
DD
  8
0
 62
     7
 10
-3.607748
 20
142.54448199999999
 30
0.0
 40
0.305278
 50
23.694603000000001
 51
36.848739999999999
  0
ARC
  5
DE
  8
0
 62
     7
 10
-3.450628
 20
142.66306800000001
 30
0.0
 40
0.108433
 50
36.494762000000001
 51
58.757656999999988
  0
ARC
  5
DF
  8
0
 62
     7
 10
-3.4207469999999991
 20
142.7106399999999
 30
0.0
 40
0.052269
 50
59.715792
 51
89.146441000000024
  0
LINE
  5
E0
  8
0
  6
AIGENLINE001
 62
     7
 10
-13.6699
 20
141.38300000000001
 30
0.0
 11
8.829839999999999
 21
141.38300000000001
 31
0.0
  0
LINE
  5
E1
  8
0
 62
     7
 10
-3.4199699999999988
 20
142.76300000000001
 30
0.0
 11
-5.9204299999999996
 21
142.76300000000001
 31
0.0
  0
LINE
  5
E2
  8
0
 62
     7
 10
-5.9204299999999996
 20
144.1329999999999
 30
0.0
 11
-3.4199699999999988
 21
144.13399999999999
 31
0.0
  0
LINE
  5
E3
  8
0
 62
     7
 10
-3.1705399999999999
 20
143.47900000000001
 30
0.0
 11
-3.1705399999999999
 21
141.38300000000001
 31
0.0
  0
LINE
  5
E4
  8
0
 62
     7
 10
-3.1705399999999999
 20
143.38399999999999
 30
0.0
 11
-1.1703099999999991
 21
143.38399999999999
 31
0.0
  0
LINE
  5
E5
  8
0
 62
     7
 10
-3.4199699999999988
 20
140.00399999999999
 30
0.0
 11
-5.9204299999999996
 21
140.00399999999999
 31
0.0
  0
LINE
  5
E6
  8
0
 62
     7
 10
-0.9201909999999999
 20
146.63399999999999
 30
0.0
 11
-1.1703099999999991
 21
146.38399999999999
 31
0.0
  0
LINE
  5
E7
  8
0
 62
     7
 10
2.4546499999999991
 20
146.63399999999999
 30
0.0
 11
-1.1703099999999991
 21
146.63399999999999
 31
0.0
  0
LINE
  5
E8
  8
0
 62
     7
 10
5.830169999999999
 20
146.63399999999999
 30
0.0
 11
6.0796000000000001
 21
146.38399999999999
 31
0.0
  0
LINE
  5
E9
  8
0
 62
     7
 10
-5.9204299999999996
 20
138.63399999999999
 30
0.0
 11
-3.4199699999999988
 21
138.63399999999999
 31
0.0
  0
LINE
  5
EA
  8
0
 62
     7
 10
-3.1695099999999989
 20
139.31800000000001
 30
0.0
 11
-3.1705399999999999
 21
141.38300000000001
 31
0.0
  0
LINE
  5
EB
  8
0
 62
     7
 10
-3.1705399999999999
 20
139.38300000000001
 30
0.0
 11
-1.1703099999999991
 21
139.38300000000001
 31
0.0
  0
LINE
  5
EC
  8
0
 62
     7
 10
-0.170533
 20
134.38399999999999
 30
0.0
 11
0.0795822
 21
134.13399999999999
 31
0.0
  0
LINE
  5
ED
  8
0
 62
     7
 10
-0.170533
 20
134.38399999999999
 30
0.0
 11
2.4546499999999991
 21
134.38399999999999
 31
0.0
  0
LINE
  5
EE
  8
0
 62
     7
 10
0.0795822
 20
134.13399999999999
 30
0.0
 11
0.0795822
 21
137.13399999999999
 31
0.0
  0
LINE
  5
EF
  8
0
 62
     7
 10
0.0795822
 20
134.13399999999999
 30
0.0
 11
2.4546499999999991
 21
134.13399999999999
 31
0.0
  0
LINE
  5
F0
  8
0
 62
     7
 10
-0.170533
 20
134.38399999999999
 30
0.0
 11
-0.170533
 21
137.13399999999999
 31
0.0
  0
LINE
  5
F1
  8
0
 62
     7
 10
-1.1703099999999991
 20
137.13399999999999
 30
0.0
 11
2.4546499999999991
 21
137.13399999999999
 31
0.0
  0
LINE
  5
F2
  8
0
 62
     7
 10
-1.1703099999999991
 20
137.13399999999999
 30
0.0
 11
-1.1703099999999991
 21
139.38300000000001
 31
0.0
  0
LINE
  5
F3
  8
0
 62
     7
 10
-1.1703099999999991
 20
143.38399999999999
 30
0.0
 11
-1.1703099999999991
 21
146.38399999999999
 31
0.0
  0
LINE
  5
F4
  8
0
 62
     7
 10
2.4546499999999991
 20
146.38399999999999
 30
0.0
 11
-1.1703099999999991
 21
146.38399999999999
 31
0.0
  0
LINE
  5
F5
  8
0
 62
     7
 10
-0.9201909999999999
 20
151.75899999999999
 30
0.0
 11
-0.9201909999999999
 21
146.63399999999999
 31
0.0
  0
LINE
  5
F6
  8
0
 62
     7
 10
-1.1703099999999991
 20
151.75899999999999
 30
0.0
 11
-1.1703099999999991
 21
146.38399999999999
 31
0.0
  0
LINE
  5
F7
  8
0
 62
     7
 10
-2.0450200000000001
 20
151.75899999999999
 30
0.0
 11
2.4546499999999991
 21
151.75899999999999
 31
0.0
  0
LINE
  5
F8
  8
0
 62
     7
 10
0.204984
 20
159.25899999999999
 30
0.0
 11
0.204984
 21
151.75899999999999
 31
0.0
  0
LINE
  5
F9
  8
0
 62
     7
 10
-2.0450200000000001
 20
159.25899999999999
 30
0.0
 11
-2.0450200000000001
 21
151.75899999999999
 31
0.0
  0
LINE
  5
FA
  8
0
 62
     7
 10
-3.79549
 20
159.25899999999999
 30
0.0
 11
2.4546499999999991
 21
159.25899999999999
 31
0.0
  0
LINE
  5
FB
  8
0
 62
     7
 10
-3.79549
 20
159.63399999999999
 30
0.0
 11
-3.79549
 21
159.25899999999999
 31
0.0
  0
LINE
  5
FC
  8
0
 62
     7
 10
-3.79549
 20
159.63399999999999
 30
0.0
 11
2.4546499999999991
 21
159.63399999999999
 31
0.0
  0
LINE
  5
FD
  8
0
 62
     7
 10
63.392899999999997
 20
165.13399999999999
 30
0.0
 11
63.392899999999997
 21
164.88399999999999
 31
0.0
  0
LINE
  5
FE
  8
0
 62
     7
 10
63.392899999999997
 20
164.88399999999999
 30
0.0
 11
68.892700000000005
 21
164.88399999999999
 31
0.0
  0
LINE
  5
FF
  8
0
 62
     7
 10
74.393199999999993
 20
165.13399999999999
 30
0.0
 11
74.393199999999993
 21
164.88399999999999
 31
0.0
  0
LINE
  5
100
  8
0
 62
     7
 10
74.393199999999993
 20
164.88399999999999
 30
0.0
 11
68.892700000000005
 21
164.88399999999999
 31
0.0
  0
LINE
  5
101
  8
0
 62
     7
 10
-3.0451399999999991
 20
165.13399999999999
 30
0.0
 11
-3.0451399999999991
 21
164.88399999999999
 31
0.0
  0
LINE
  5
102
  8
0
 62
     7
 10
-3.0451399999999991
 20
159.63399999999999
 30
0.0
 11
2.4546499999999991
 21
159.63399999999999
 31
0.0
  0
LINE
  5
103
  8
0
 62
     7
 10
-3.0451399999999991
 20
159.88399999999999
 30
0.0
 11
2.4546499999999991
 21
159.88399999999999
 31
0.0
  0
LINE
  5
104
  8
0
 62
     7
 10
-1.2330099999999991
 20
159.88399999999999
 30
0.0
 11
-1.2330099999999991
 21
164.88399999999999
 31
0.0
  0
LINE
  5
105
  8
0
 62
     7
 10
-3.0451399999999991
 20
164.88399999999999
 30
0.0
 11
2.4546499999999991
 21
164.88399999999999
 31
0.0
  0
LINE
  5
106
  8
0
 62
     7
 10
-3.0451399999999991
 20
159.88399999999999
 30
0.0
 11
-3.0451399999999991
 21
159.63399999999999
 31
0.0
  0
LINE
  5
107
  8
0
 62
     7
 10
5.0794800000000002
 20
134.38399999999999
 30
0.0
 11
4.8300499999999991
 21
134.13399999999999
 31
0.0
  0
LINE
  5
108
  8
0
 62
     7
 10
5.0794800000000002
 20
134.38399999999999
 30
0.0
 11
2.4546499999999991
 21
134.38399999999999
 31
0.0
  0
LINE
  5
109
  8
0
 62
     7
 10
4.8300499999999991
 20
134.13399999999999
 30
0.0
 11
4.8300499999999991
 21
137.13399999999999
 31
0.0
  0
LINE
  5
10A
  8
0
 62
     7
 10
4.8300499999999991
 20
134.13399999999999
 30
0.0
 11
2.4546499999999991
 21
134.13399999999999
 31
0.0
  0
LINE
  5
10B
  8
0
 62
     7
 10
5.0794800000000002
 20
134.38399999999999
 30
0.0
 11
5.0794800000000002
 21
137.13399999999999
 31
0.0
  0
LINE
  5
10C
  8
0
 62
     7
 10
6.0796000000000001
 20
137.13399999999999
 30
0.0
 11
2.4546499999999991
 21
137.13399999999999
 31
0.0
  0
LINE
  5
10D
  8
0
 62
     7
 10
6.0796000000000001
 20
137.13399999999999
 30
0.0
 11
6.0796000000000001
 21
146.38399999999999
 31
0.0
  0
LINE
  5
10E
  8
0
 62
     7
 10
2.4546499999999991
 20
146.63399999999999
 30
0.0
 11
6.0796000000000001
 21
146.63399999999999
 31
0.0
  0
LINE
  5
10F
  8
0
 62
     7
 10
2.4546499999999991
 20
146.38399999999999
 30
0.0
 11
6.0796000000000001
 21
146.38399999999999
 31
0.0
  0
LINE
  5
110
  8
0
 62
     7
 10
5.830169999999999
 20
151.75899999999999
 30
0.0
 11
5.830169999999999
 21
146.63399999999999
 31
0.0
  0
LINE
  5
111
  8
0
 62
     7
 10
6.0796000000000001
 20
151.75899999999999
 30
0.0
 11
6.0796000000000001
 21
146.38399999999999
 31
0.0
  0
LINE
  5
112
  8
0
 62
     7
 10
6.9546599999999996
 20
151.75899999999999
 30
0.0
 11
2.4546499999999991
 21
151.75899999999999
 31
0.0
  0
LINE
  5
113
  8
0
 62
     7
 10
4.7046499999999991
 20
159.25899999999999
 30
0.0
 11
4.7046499999999991
 21
151.75899999999999
 31
0.0
  0
LINE
  5
114
  8
0
 62
     7
 10
6.9546599999999996
 20
159.25899999999999
 30
0.0
 11
6.9546599999999996
 21
151.75899999999999
 31
0.0
  0
LINE
  5
115
  8
0
 62
     7
 10
8.7047799999999995
 20
159.25899999999999
 30
0.0
 11
2.4546499999999991
 21
159.25899999999999
 31
0.0
  0
LINE
  5
116
  8
0
 62
     7
 10
8.7047799999999995
 20
159.63399999999999
 30
0.0
 11
8.7047799999999995
 21
159.25899999999999
 31
0.0
  0
LINE
  5
117
  8
0
 62
     7
 10
8.7047799999999995
 20
159.63399999999999
 30
0.0
 11
2.4546499999999991
 21
159.63399999999999
 31
0.0
  0
LINE
  5
118
  8
0
 62
     7
 10
7.9547800000000004
 20
165.13399999999999
 30
0.0
 11
7.9547800000000004
 21
164.88399999999999
 31
0.0
  0
LINE
  5
119
  8
0
 62
     7
 10
7.9547800000000004
 20
159.63399999999999
 30
0.0
 11
2.4546499999999991
 21
159.63399999999999
 31
0.0
  0
LINE
  5
11A
  8
0
 62
     7
 10
7.9547800000000004
 20
159.88399999999999
 30
0.0
 11
2.4546499999999991
 21
159.88399999999999
 31
0.0
  0
LINE
  5
11B
  8
0
 62
     7
 10
6.14161
 20
159.88399999999999
 30
0.0
 11
6.14161
 21
164.88399999999999
 31
0.0
  0
LINE
  5
11C
  8
0
 62
     7
 10
7.9547800000000004
 20
164.88399999999999
 30
0.0
 11
2.4546499999999991
 21
164.88399999999999
 31
0.0
  0
LINE
  5
11D
  8
0
 62
     7
 10
7.9547800000000004
 20
159.88399999999999
 30
0.0
 11
7.9547800000000004
 21
159.63399999999999
 31
0.0
  0
LINE
  5
11E
  8
0
 62
     7
 10
-7.1706699999999994
 20
139.88399999999999
 30
0.0
 11
-7.1706699999999994
 21
140.50399999999999
 31
0.0
  0
LINE
  5
11F
  8
0
 62
     7
 10
-7.1706699999999994
 20
140.75399999999999
 30
0.0
 11
-7.1706699999999994
 21
141.38300000000001
 31
0.0
  0
LINE
  5
120
  8
0
 62
     7
 10
-9.92056
 20
139.88399999999999
 30
0.0
 11
-9.92056
 21
140.50399999999999
 31
0.0
  0
LINE
  5
121
  8
0
 62
     7
 10
-9.92056
 20
140.75399999999999
 30
0.0
 11
-9.92056
 21
141.38300000000001
 31
0.0
  0
LINE
  5
122
  8
0
 62
     7
 10
-9.92056
 20
139.88399999999999
 30
0.0
 11
-7.1706699999999994
 21
139.88399999999999
 31
0.0
  0
LINE
  5
123
  8
0
 62
     7
 10
-6.4203199999999994
 20
139.88399999999999
 30
0.0
 11
-6.4203199999999994
 21
141.38300000000001
 31
0.0
  0
LINE
  5
124
  8
0
 62
     7
 10
-6.1708899999999991
 20
139.88399999999999
 30
0.0
 11
-6.4203199999999994
 21
139.88399999999999
 31
0.0
  0
LINE
  5
125
  8
0
 62
     7
 10
-13.4208
 20
139.88399999999999
 30
0.0
 11
-10.920299999999999
 21
139.88399999999999
 31
0.0
  0
LINE
  5
126
  8
0
 62
     7
 10
-7.1706699999999994
 20
140.50399999999999
 30
0.0
 11
-9.92056
 21
140.50399999999999
 31
0.0
  0
LINE
  5
127
  8
0
 62
     7
 10
-10.920299999999999
 20
139.63300000000001
 30
0.0
 11
-10.920299999999999
 21
141.38300000000001
 31
0.0
  0
ARC
  5
128
  8
0
 62
     7
 10
-10.190223
 20
139.90296900000001
 30
0.0
 40
0.270318
 50
274.14692500000001
 51
356.01070700000002
  0
LINE
  5
129
  8
0
 62
     7
 10
-10.1707
 20
139.63300000000001
 30
0.0
 11
-10.920299999999999
 21
139.63300000000001
 31
0.0
  0
ARC
  5
12A
  8
0
 62
     7
 10
-6.689983999999999
 20
139.90296900000001
 30
0.0
 40
0.270318
 50
274.14692500000001
 51
356.01070700000002
  0
ARC
  5
12B
  8
0
 62
     7
 10
-6.9025299999999996
 20
139.90144699999999
 30
0.0
 40
0.268694
 50
183.68817299999989
 51
266.15423399999997
  0
LINE
  5
12C
  8
0
 62
     7
 10
-6.6704399999999993
 20
139.63300000000001
 30
0.0
 11
-6.9205500000000004
 21
139.63300000000001
 31
0.0
  0
LINE
  5
12D
  8
0
 62
     7
 10
-7.1706699999999994
 20
142.88300000000001
 30
0.0
 11
-7.1706699999999994
 21
142.26300000000001
 31
0.0
  0
LINE
  5
12E
  8
0
 62
     7
 10
-7.1706699999999994
 20
142.01300000000001
 30
0.0
 11
-7.1706699999999994
 21
141.38300000000001
 31
0.0
  0
LINE
  5
12F
  8
0
 62
     7
 10
-9.92056
 20
142.88300000000001
 30
0.0
 11
-9.92056
 21
142.26300000000001
 31
0.0
  0
LINE
  5
130
  8
0
 62
     7
 10
-9.92056
 20
142.01300000000001
 30
0.0
 11
-9.92056
 21
141.38300000000001
 31
0.0
  0
LINE
  5
131
  8
0
 62
     7
 10
-9.92056
 20
142.88300000000001
 30
0.0
 11
-7.1706699999999994
 21
142.88300000000001
 31
0.0
  0
LINE
  5
132
  8
0
 62
     7
 10
-6.4203199999999994
 20
142.88300000000001
 30
0.0
 11
-6.4203199999999994
 21
141.38300000000001
 31
0.0
  0
LINE
  5
133
  8
0
 62
     7
 10
-6.1708899999999991
 20
142.88300000000001
 30
0.0
 11
-6.4203199999999994
 21
142.88300000000001
 31
0.0
  0
LINE
  5
134
  8
0
 62
     7
 10
-13.4208
 20
142.88300000000001
 30
0.0
 11
-10.920299999999999
 21
142.88300000000001
 31
0.0
  0
LINE
  5
135
  8
0
 62
     7
 10
-7.1706699999999994
 20
142.26300000000001
 30
0.0
 11
-9.92056
 21
142.26300000000001
 31
0.0
  0
LINE
  5
136
  8
0
 62
     7
 10
-10.920299999999999
 20
143.13399999999999
 30
0.0
 11
-10.920299999999999
 21
141.38300000000001
 31
0.0
  0
ARC
  5
137
  8
0
 62
     7
 10
-10.188651
 20
142.86550600000001
 30
0.0
 40
0.268694
 50
3.8360489999999992
 51
86.163940999999994
  0
LINE
  5
138
  8
0
 62
     7
 10
-10.1707
 20
143.13399999999999
 30
0.0
 11
-10.920299999999999
 21
143.13399999999999
 31
0.0
  0
ARC
  5
139
  8
0
 62
     7
 10
-6.6884119999999987
 20
142.86550600000001
 30
0.0
 40
0.268694
 50
3.8360489999999992
 51
86.163940999999994
  0
ARC
  5
13A
  8
0
 62
     7
 10
-6.9016699999999993
 20
142.86460099999999
 30
0.0
 40
0.269659
 50
94.015123999999986
 51
175.984846
  0
LINE
  5
13B
  8
0
 62
     7
 10
-6.6704399999999993
 20
143.13399999999999
 30
0.0
 11
-6.9205500000000004
 21
143.13399999999999
 31
0.0
  0
LINE
  5
13C
  8
0
 62
     7
 10
-7.1706699999999994
 20
142.01300000000001
 30
0.0
 11
-9.92056
 21
142.01300000000001
 31
0.0
  0
LINE
  5
13D
  8
0
 62
     7
 10
-7.1706699999999994
 20
140.75399999999999
 30
0.0
 11
-9.92056
 21
140.75399999999999
 31
0.0
  0
LINE
  5
13E
  8
0
  6
AIGENLINE001
 62
     7
 10
2.4546499999999991
 20
198.684
 30
0.0
 11
2.4546499999999991
 21
132.42500000000001
 31
0.0
  0
ARC
  5
13F
  8
0
 62
     7
 10
-39.171019000000001
 20
138.736536
 30
0.0
 40
0.102951
 50
270.21178900000001
 51
307.76479899999998
  0
ARC
  5
140
  8
0
 62
     7
 10
-39.22362600000001
 20
138.815788
 30
0.0
 40
0.197942
 50
305.75311499999998
 51
320.806059
  0
ARC
  5
141
  8
0
 62
     7
 10
-39.345731000000001
 20
138.91674900000001
 30
0.0
 40
0.356377
 50
320.632137
 51
331.36674699999998
  0
ARC
  5
142
  8
0
 62
     7
 10
-39.571528999999998
 20
139.040674
 30
0.0
 40
0.6139479999999999
 50
331.31379900000002
 51
339.77292999999997
  0
ARC
  5
143
  8
0
 62
     7
 10
-40.021045000000001
 20
139.204812
 30
0.0
 40
1.092492
 50
339.84643499999999
 51
352.77096899999998
  0
ARC
  5
144
  8
0
 62
     7
 10
-40.660026000000002
 20
139.312894
 30
0.0
 40
1.7401999999999991
 50
351.888013
 51
0.183768
  0
ARC
  5
145
  8
0
 62
     7
 10
-40.645763999999993
 20
139.318501
 30
0.0
 40
1.7259299999999991
 50
359.99913600000002
 51
13.298011000000001
  0
ARC
  5
146
  8
0
 62
     7
 10
-39.729700000000001
 20
139.52451400000001
 30
0.0
 40
0.7871090000000001
 50
14.041957
 51
28.897240000000011
  0
ARC
  5
147
  8
0
 62
     7
 10
-39.260807
 20
139.77925200000001
 30
0.0
 40
0.253524
 50
29.703747
 51
56.288353000000001
  0
ARC
  5
148
  8
0
 62
     7
 10
-39.172317999999997
 20
139.89917600000001
 30
0.0
 40
0.104891
 50
60.141921000000004
 51
89.082583999999997
  0
ARC
  5
149
  8
0
 62
     7
 10
-39.171019000000001
 20
142.86585400000001
 30
0.0
 40
0.102951
 50
270.21178900000001
 51
307.76479899999998
  0
ARC
  5
14A
  8
0
 62
     7
 10
-39.22362600000001
 20
142.94510600000001
 30
0.0
 40
0.197942
 50
305.75311499999998
 51
320.806059
  0
ARC
  5
14B
  8
0
 62
     7
 10
-39.345731000000001
 20
143.046066
 30
0.0
 40
0.356377
 50
320.632137
 51
331.36674699999998
  0
ARC
  5
14C
  8
0
 62
     7
 10
-39.571528999999998
 20
143.16999199999989
 30
0.0
 40
0.6139479999999999
 50
331.31379900000002
 51
339.77292999999997
  0
ARC
  5
14D
  8
0
 62
     7
 10
-40.021045000000001
 20
143.33412899999999
 30
0.0
 40
1.092492
 50
339.84643499999999
 51
352.77096899999998
  0
ARC
  5
14E
  8
0
 62
     7
 10
-40.660026000000002
 20
143.44221099999999
 30
0.0
 40
1.7401999999999991
 50
351.888013
 51
0.183768
  0
ARC
  5
14F
  8
0
 62
     7
 10
-40.647744000000003
 20
143.44781399999999
 30
0.0
 40
1.7279099999999989
 50
359.99929200000003
 51
13.290355
  0
ARC
  5
150
  8
0
 62
     7
 10
-39.731825000000001
 20
143.653764
 30
0.0
 40
0.789241
 50
14.025268000000001
 51
28.858526999999999
  0
ARC
  5
151
  8
0
 62
     7
 10
-39.261318000000003
 20
143.90898899999999
 30
0.0
 40
0.254005
 50
29.661638
 51
56.222321999999998
  0
ARC
  5
152
  8
0
 62
     7
 10
-39.172311000000001
 20
144.02941799999999
 30
0.0
 40
0.104656
 50
60.072181999999991
 51
89.084260999999984
  0
ARC
  5
153
  8
0
 62
     7
 10
-39.170654999999996
 20
140.052482
 30
0.0
 40
0.048429
 50
270.01907299999999
 51
293.49709300000001
  0
ARC
  5
154
  8
0
 62
     7
 10
-39.184614000000003
 20
140.08243200000001
 30
0.0
 40
0.081465
 50
294.10227300000003
 51
315.759614
  0
ARC
  5
155
  8
0
 62
     7
 10
-39.265070999999999
 20
140.16064499999999
 30
0.0
 40
0.193674
 50
315.78905099999997
 51
330.764453
  0
ARC
  5
156
  8
0
 62
     7
 10
-39.526105000000001
 20
140.30946
 30
0.0
 40
0.494144
 50
330.48972800000001
 51
339.948894
  0
ARC
  5
157
  8
0
 62
     7
 10
-40.094043999999997
 20
140.52182400000001
 30
0.0
 40
1.100479999999999
 50
339.70055500000001
 51
345.64364599999999
  0
ARC
  5
158
  8
0
 62
     7
 10
-41.088532000000001
 20
140.78092799999999
 30
0.0
 40
2.1281620000000001
 50
345.52446300000003
 51
349.907509
  0
ARC
  5
159
  8
0
 62
     7
 10
-43.119240999999988
 20
141.140085
 30
0.0
 40
4.1903860000000002
 50
349.93836199999998
 51
356.623603
  0
ARC
  5
15A
  8
0
 62
     7
 10
-45.968187
 20
141.372409
 30
0.0
 40
7.0483619999999991
 50
356.10227400000002
 51
0.08998
  0
ARC
  5
15B
  8
0
 62
     7
 10
-45.821027999999998
 20
141.383937
 30
0.0
 40
6.9011929999999992
 50
359.996195
 51
6.6390210000000014
  0
ARC
  5
15C
  8
0
 62
     7
 10
-41.696393999999998
 20
141.846349
 30
0.0
 40
2.7508140000000001
 50
7.004624999999999
 51
15.102986
  0
ARC
  5
15D
  8
0
 62
     7
 10
-39.808078000000002
 20
142.341206
 30
0.0
 40
0.798911
 50
16.124717
 51
24.079255
  0
ARC
  5
15E
  8
0
 62
     7
 10
-39.358086999999998
 20
142.54430400000001
 30
0.0
 40
0.305219
 50
23.735927
 51
36.89878800000001
  0
ARC
  5
15F
  8
0
 62
     7
 10
-39.201231
 20
142.66287800000001
 30
0.0
 40
0.108591
 50
36.557906000000003
 51
58.813531999999988
  0
ARC
  5
160
  8
0
 62
     7
 10
-39.171409999999987
 20
142.71044699999999
 30
0.0
 40
0.052462
 50
59.773164999999999
 51
89.15750300000002
  0
LINE
  5
161
  8
0
 62
     7
 10
-38.920499999999997
 20
143.47900000000001
 30
0.0
 11
-38.920499999999997
 21
141.38300000000001
 31
0.0
  0
LINE
  5
162
  8
0
 62
     7
 10
-38.919800000000002
 20
139.31800000000001
 30
0.0
 11
-38.920499999999997
 21
141.38300000000001
 31
0.0
  0
ARC
  5
163
  8
0
 62
     7
 10
-41.670782000000003
 20
138.73520199999999
 30
0.0
 40
0.101617
 50
233.91318699999999
 51
269.81793299999998
  0
ARC
  5
164
  8
0
 62
     7
 10
-41.624484000000002
 20
138.808055
 30
0.0
 40
0.187841
 50
221.25229200000001
 51
235.589923
  0
ARC
  5
165
  8
0
 62
     7
 10
-41.519275999999991
 20
138.90015
 30
0.0
 40
0.327663
 50
209.84861100000001
 51
221.228984
  0
ARC
  5
166
  8
0
 62
     7
 10
-41.305979000000001
 20
139.023641
 30
0.0
 40
0.574128
 50
201.08897400000001
 51
209.94336899999999
  0
ARC
  5
167
  8
0
 62
     7
 10
-40.862544
 20
139.19321500000001
 30
0.0
 40
1.04888
 50
187.74424599999989
 51
201.01579899999999
  0
ARC
  5
168
  8
0
 62
     7
 10
-40.199914
 20
139.311713
 30
0.0
 40
1.721663999999999
 50
179.77495400000001
 51
188.680363
  0
ARC
  5
169
  8
0
 62
     7
 10
-40.194844000000003
 20
139.3185
 30
0.0
 40
1.7267209999999991
 50
166.70813799999999
 51
180.000846
  0
ARC
  5
16A
  8
0
 62
     7
 10
-41.111074000000002
 20
139.52453499999999
 30
0.0
 40
0.7877310000000001
 50
151.129401
 51
165.97085899999999
  0
ARC
  5
16B
  8
0
 62
     7
 10
-41.580618000000001
 20
139.77940799999999
 30
0.0
 40
0.253509
 50
123.769893
 51
150.33479299999999
  0
ARC
  5
16C
  8
0
 62
     7
 10
-41.669423999999992
 20
139.89959400000001
 30
0.0
 40
0.104473
 50
90.921883999999963
 51
119.91928
  0
ARC
  5
16D
  8
0
 62
     7
 10
-40.468409000000001
 20
141.38659699999999
 30
0.0
 40
4.0552539999999988
 50
180.04408599999999
 51
201.71741
  0
ARC
  5
16E
  8
0
 62
     7
 10
-42.120171999999997
 20
140.75625700000001
 30
0.0
 40
2.287631999999999
 50
202.35861
 51
210.859386
  0
ARC
  5
16F
  8
0
 62
     7
 10
-43.321480999999999
 20
140.03963400000001
 30
0.0
 40
0.8888149999999999
 50
210.92524700000001
 51
227.603938
  0
ARC
  5
170
  8
0
 62
     7
 10
-40.467444
 20
141.380368
 30
0.0
 40
4.0562189999999996
 50
158.28520599999999
 51
179.95604599999999
  0
ARC
  5
171
  8
0
 62
     7
 10
-42.121635999999988
 20
142.011169
 30
0.0
 40
2.2861739999999999
 50
149.13026300000001
 51
157.63381100000001
  0
ARC
  5
172
  8
0
 62
     7
 10
-43.321269999999991
 20
142.72697700000001
 30
0.0
 40
0.8892120000000002
 50
132.39111199999999
 51
149.05849900000001
  0
ARC
  5
173
  8
0
 62
     7
 10
-41.670782000000003
 20
142.86452
 30
0.0
 40
0.101617
 50
233.91318699999999
 51
269.81793299999998
  0
ARC
  5
174
  8
0
 62
     7
 10
-41.624484000000002
 20
142.93737200000001
 30
0.0
 40
0.187841
 50
221.25229200000001
 51
235.589923
  0
ARC
  5
175
  8
0
 62
     7
 10
-41.519275999999991
 20
143.02946700000001
 30
0.0
 40
0.327663
 50
209.84861100000001
 51
221.228984
  0
ARC
  5
176
  8
0
 62
     7
 10
-41.305979000000001
 20
143.15295800000001
 30
0.0
 40
0.574128
 50
201.08897400000001
 51
209.94336899999999
  0
ARC
  5
177
  8
0
 62
     7
 10
-40.862544
 20
143.322532
 30
0.0
 40
1.04888
 50
187.74424599999989
 51
201.01579899999999
  0
ARC
  5
178
  8
0
 62
     7
 10
-40.199914
 20
143.44103100000001
 30
0.0
 40
1.721663999999999
 50
179.77495400000001
 51
188.680363
  0
ARC
  5
179
  8
0
 62
     7
 10
-40.192861999999991
 20
143.447813
 30
0.0
 40
1.728702
 50
166.715791
 51
180.00068999999991
  0
ARC
  5
17A
  8
0
 62
     7
 10
-41.108947000000001
 20
143.653784
 30
0.0
 40
0.789866
 50
151.16808800000001
 51
165.98753300000001
  0
ARC
  5
17B
  8
0
 62
     7
 10
-41.580105999999986
 20
143.909144
 30
0.0
 40
0.253992
 50
123.83595099999999
 51
150.37686099999999
  0
ARC
  5
17C
  8
0
 62
     7
 10
-41.669431000000003
 20
144.02983499999999
 30
0.0
 40
0.104238
 50
90.920230000000004
 51
119.989127
  0
ARC
  5
17D
  8
0
 62
     7
 10
-41.671090999999997
 20
140.052267
 30
0.0
 40
0.048214
 50
246.44983199999999
 51
269.98290300000002
  0
ARC
  5
17E
  8
0
 62
     7
 10
-41.657099000000002
 20
140.08223599999999
 30
0.0
 40
0.081281
 50
224.17363399999999
 51
245.84896699999999
  0
ARC
  5
17F
  8
0
 62
     7
 10
-41.576285999999989
 20
140.16061300000001
 30
0.0
 40
0.193859
 50
209.19412800000001
 51
224.14458599999989
  0
ARC
  5
180
  8
0
 62
     7
 10
-41.314425
 20
140.30957599999999
 30
0.0
 40
0.495121
 50
200.024113
 51
209.461681
  0
ARC
  5
181
  8
0
 62
     7
 10
-40.74721199999999
 20
140.521435
 30
0.0
 40
1.1006
 50
194.33384599999999
 51
200.2755379999999
  0
ARC
  5
182
  8
0
 62
     7
 10
-39.753715
 20
140.78026399999999
 30
0.0
 40
2.1272530000000001
 50
190.07872
 51
194.463424
  0
ARC
  5
183
  8
0
 62
     7
 10
-37.719450999999999
 20
141.140085
 30
0.0
 40
4.1930940000000003
 50
183.37422100000001
 51
190.05507800000001
  0
ARC
  5
184
  8
0
 62
     7
 10
-34.865807000000011
 20
141.372578
 30
0.0
 40
7.0557660000000002
 50
179.91146599999999
 51
183.89502300000001
  0
ARC
  5
185
  8
0
 62
     7
 10
-35.017156
 20
141.38393500000001
 30
0.0
 40
6.9044089999999994
 50
173.36405400000001
 51
180.00381100000001
  0
ARC
  5
186
  8
0
 62
     7
 10
-39.14208
 20
141.84629899999999
 30
0.0
 40
2.7537439999999989
 50
164.91237000000001
 51
173.00179800000001
  0
ARC
  5
187
  8
0
 62
     7
 10
-41.033808999999998
 20
142.34176400000001
 30
0.0
 40
0.79838
 50
155.94756100000001
 51
163.905934
  0
ARC
  5
188
  8
0
 62
     7
 10
-41.483325000000001
 20
142.54448199999999
 30
0.0
 40
0.305278
 50
143.15124
 51
156.30537699999999
  0
ARC
  5
189
  8
0
 62
     7
 10
-41.640445
 20
142.66306800000001
 30
0.0
 40
0.108433
 50
121.242324
 51
143.50521800000001
  0
ARC
  5
18A
  8
0
 62
     7
 10
-41.670338000000001
 20
142.71068099999999
 30
0.0
 40
0.052228
 50
90.841796000000016
 51
120.295931
  0
LINE
  5
18B
  8
0
  6
AIGENLINE001
 62
     7
 10
-32.670200000000001
 20
141.38300000000001
 30
0.0
 11
-53.920900000000003
 21
141.38300000000001
 31
0.0
  0
LINE
  5
18C
  8
0
 62
     7
 10
-41.671100000000003
 20
142.76300000000001
 30
0.0
 11
-39.1706
 21
142.76300000000001
 31
0.0
  0
LINE
  5
18D
  8
0
 62
     7
 10
-39.1706
 20
144.1329999999999
 30
0.0
 11
-41.671100000000003
 21
144.13399999999999
 31
0.0
  0
LINE
  5
18E
  8
0
 62
     7
 10
-41.920499999999997
 20
143.47900000000001
 30
0.0
 11
-41.920499999999997
 21
141.38300000000001
 31
0.0
  0
LINE
  5
18F
  8
0
 62
     7
 10
-41.920499999999997
 20
143.38399999999999
 30
0.0
 11
-43.920799999999993
 21
143.38399999999999
 31
0.0
  0
LINE
  5
190
  8
0
 62
     7
 10
-41.671100000000003
 20
140.00399999999999
 30
0.0
 11
-39.1706
 21
140.00399999999999
 31
0.0
  0
LINE
  5
191
  8
0
 62
     7
 10
-44.170900000000003
 20
146.63399999999999
 30
0.0
 11
-43.920799999999993
 21
146.38399999999999
 31
0.0
  0
LINE
  5
192
  8
0
 62
     7
 10
-47.545699999999997
 20
146.63399999999999
 30
0.0
 11
-43.920799999999993
 21
146.63399999999999
 31
0.0
  0
LINE
  5
193
  8
0
 62
     7
 10
-50.921199999999999
 20
146.63399999999999
 30
0.0
 11
-51.170699999999997
 21
146.38399999999999
 31
0.0
  0
LINE
  5
194
  8
0
 62
     7
 10
-39.1706
 20
138.63399999999999
 30
0.0
 11
-41.671100000000003
 21
138.63399999999999
 31
0.0
  0
LINE
  5
195
  8
0
 62
     7
 10
-41.921599999999998
 20
139.31800000000001
 30
0.0
 11
-41.920499999999997
 21
141.38300000000001
 31
0.0
  0
LINE
  5
196
  8
0
 62
     7
 10
-41.920499999999997
 20
139.38300000000001
 30
0.0
 11
-43.920799999999993
 21
139.38300000000001
 31
0.0
  0
LINE
  5
197
  8
0
 62
     7
 10
-44.92049999999999
 20
134.38399999999999
 30
0.0
 11
-45.170699999999989
 21
134.13399999999999
 31
0.0
  0
LINE
  5
198
  8
0
 62
     7
 10
-44.92049999999999
 20
134.38399999999999
 30
0.0
 11
-47.545699999999997
 21
134.38399999999999
 31
0.0
  0
LINE
  5
199
  8
0
 62
     7
 10
-45.170699999999989
 20
134.13399999999999
 30
0.0
 11
-45.170699999999989
 21
137.13399999999999
 31
0.0
  0
LINE
  5
19A
  8
0
 62
     7
 10
-45.170699999999989
 20
134.13399999999999
 30
0.0
 11
-47.545699999999997
 21
134.13399999999999
 31
0.0
  0
LINE
  5
19B
  8
0
 62
     7
 10
-44.92049999999999
 20
134.38399999999999
 30
0.0
 11
-44.92049999999999
 21
137.13399999999999
 31
0.0
  0
LINE
  5
19C
  8
0
 62
     7
 10
-43.920799999999993
 20
137.13399999999999
 30
0.0
 11
-47.545699999999997
 21
137.13399999999999
 31
0.0
  0
LINE
  5
19D
  8
0
 62
     7
 10
-43.920799999999993
 20
137.13399999999999
 30
0.0
 11
-43.920799999999993
 21
139.38300000000001
 31
0.0
  0
LINE
  5
19E
  8
0
 62
     7
 10
-43.920799999999993
 20
143.38399999999999
 30
0.0
 11
-43.920799999999993
 21
146.38399999999999
 31
0.0
  0
LINE
  5
19F
  8
0
 62
     7
 10
-47.545699999999997
 20
146.38399999999999
 30
0.0
 11
-43.920799999999993
 21
146.38399999999999
 31
0.0
  0
LINE
  5
1A0
  8
0
 62
     7
 10
-44.170900000000003
 20
151.75899999999999
 30
0.0
 11
-44.170900000000003
 21
146.63399999999999
 31
0.0
  0
LINE
  5
1A1
  8
0
 62
     7
 10
-43.920799999999993
 20
151.75899999999999
 30
0.0
 11
-43.920799999999993
 21
146.38399999999999
 31
0.0
  0
LINE
  5
1A2
  8
0
 62
     7
 10
-43.046100000000003
 20
151.75899999999999
 30
0.0
 11
-47.545699999999997
 21
151.75899999999999
 31
0.0
  0
LINE
  5
1A3
  8
0
 62
     7
 10
-45.296100000000003
 20
159.25899999999999
 30
0.0
 11
-45.296100000000003
 21
151.75899999999999
 31
0.0
  0
LINE
  5
1A4
  8
0
 62
     7
 10
-43.046100000000003
 20
159.25899999999999
 30
0.0
 11
-43.046100000000003
 21
151.75899999999999
 31
0.0
  0
LINE
  5
1A5
  8
0
 62
     7
 10
-41.2956
 20
159.25899999999999
 30
0.0
 11
-47.545699999999997
 21
159.25899999999999
 31
0.0
  0
LINE
  5
1A6
  8
0
 62
     7
 10
-41.2956
 20
159.63399999999999
 30
0.0
 11
-41.2956
 21
159.25899999999999
 31
0.0
  0
LINE
  5
1A7
  8
0
 62
     7
 10
-41.2956
 20
159.63399999999999
 30
0.0
 11
-47.545699999999997
 21
159.63399999999999
 31
0.0
  0
LINE
  5
1A8
  8
0
 62
     7
 10
-42.045900000000003
 20
165.13399999999999
 30
0.0
 11
-42.045900000000003
 21
164.88399999999999
 31
0.0
  0
LINE
  5
1A9
  8
0
 62
     7
 10
-42.045900000000003
 20
159.63399999999999
 30
0.0
 11
-47.545699999999997
 21
159.63399999999999
 31
0.0
  0
LINE
  5
1AA
  8
0
 62
     7
 10
-42.045900000000003
 20
159.88399999999999
 30
0.0
 11
-47.545699999999997
 21
159.88399999999999
 31
0.0
  0
LINE
  5
1AB
  8
0
 62
     7
 10
-43.8581
 20
159.88399999999999
 30
0.0
 11
-43.8581
 21
164.88399999999999
 31
0.0
  0
LINE
  5
1AC
  8
0
 62
     7
 10
-42.045900000000003
 20
164.88399999999999
 30
0.0
 11
-47.545699999999997
 21
164.88399999999999
 31
0.0
  0
LINE
  5
1AD
  8
0
 62
     7
 10
-42.045900000000003
 20
159.88399999999999
 30
0.0
 11
-42.045900000000003
 21
159.63399999999999
 31
0.0
  0
LINE
  5
1AE
  8
0
 62
     7
 10
-50.1706
 20
134.38399999999999
 30
0.0
 11
-49.921100000000003
 21
134.13399999999999
 31
0.0
  0
LINE
  5
1AF
  8
0
 62
     7
 10
-50.1706
 20
134.38399999999999
 30
0.0
 11
-47.545699999999997
 21
134.38399999999999
 31
0.0
  0
LINE
  5
1B0
  8
0
 62
     7
 10
-49.921100000000003
 20
134.13399999999999
 30
0.0
 11
-49.921100000000003
 21
137.13399999999999
 31
0.0
  0
LINE
  5
1B1
  8
0
 62
     7
 10
-49.921100000000003
 20
134.13399999999999
 30
0.0
 11
-47.545699999999997
 21
134.13399999999999
 31
0.0
  0
LINE
  5
1B2
  8
0
 62
     7
 10
-50.1706
 20
134.38399999999999
 30
0.0
 11
-50.1706
 21
137.13399999999999
 31
0.0
  0
LINE
  5
1B3
  8
0
 62
     7
 10
-51.170699999999997
 20
137.13399999999999
 30
0.0
 11
-47.545699999999997
 21
137.13399999999999
 31
0.0
  0
LINE
  5
1B4
  8
0
 62
     7
 10
-51.170699999999997
 20
137.13399999999999
 30
0.0
 11
-51.170699999999997
 21
146.38399999999999
 31
0.0
  0
LINE
  5
1B5
  8
0
 62
     7
 10
-47.545699999999997
 20
146.63399999999999
 30
0.0
 11
-51.170699999999997
 21
146.63399999999999
 31
0.0
  0
LINE
  5
1B6
  8
0
 62
     7
 10
-47.545699999999997
 20
146.38399999999999
 30
0.0
 11
-51.170699999999997
 21
146.38399999999999
 31
0.0
  0
LINE
  5
1B7
  8
0
 62
     7
 10
-50.921199999999999
 20
151.75899999999999
 30
0.0
 11
-50.921199999999999
 21
146.63399999999999
 31
0.0
  0
LINE
  5
1B8
  8
0
 62
     7
 10
-51.170699999999997
 20
151.75899999999999
 30
0.0
 11
-51.170699999999997
 21
146.38399999999999
 31
0.0
  0
LINE
  5
1B9
  8
0
 62
     7
 10
-52.045699999999997
 20
151.75899999999999
 30
0.0
 11
-47.545699999999997
 21
151.75899999999999
 31
0.0
  0
LINE
  5
1BA
  8
0
 62
     7
 10
-49.795699999999989
 20
159.25899999999999
 30
0.0
 11
-49.795699999999989
 21
151.75899999999999
 31
0.0
  0
LINE
  5
1BB
  8
0
 62
     7
 10
-52.045699999999997
 20
159.25899999999999
 30
0.0
 11
-52.045699999999997
 21
151.75899999999999
 31
0.0
  0
LINE
  5
1BC
  8
0
 62
     7
 10
-53.795900000000003
 20
159.25899999999999
 30
0.0
 11
-47.545699999999997
 21
159.25899999999999
 31
0.0
  0
LINE
  5
1BD
  8
0
 62
     7
 10
-53.795900000000003
 20
159.63399999999999
 30
0.0
 11
-53.795900000000003
 21
159.25899999999999
 31
0.0
  0
LINE
  5
1BE
  8
0
 62
     7
 10
-53.795900000000003
 20
159.63399999999999
 30
0.0
 11
-47.545699999999997
 21
159.63399999999999
 31
0.0
  0
LINE
  5
1BF
  8
0
 62
     7
 10
-53.0458
 20
165.13399999999999
 30
0.0
 11
-53.0458
 21
164.88399999999999
 31
0.0
  0
LINE
  5
1C0
  8
0
 62
     7
 10
-53.0458
 20
159.63399999999999
 30
0.0
 11
-47.545699999999997
 21
159.63399999999999
 31
0.0
  0
LINE
  5
1C1
  8
0
 62
     7
 10
-53.0458
 20
159.88399999999999
 30
0.0
 11
-47.545699999999997
 21
159.88399999999999
 31
0.0
  0
LINE
  5
1C2
  8
0
 62
     7
 10
-51.232700000000001
 20
159.88399999999999
 30
0.0
 11
-51.232700000000001
 21
164.88399999999999
 31
0.0
  0
LINE
  5
1C3
  8
0
 62
     7
 10
-53.0458
 20
164.88399999999999
 30
0.0
 11
-47.545699999999997
 21
164.88399999999999
 31
0.0
  0
LINE
  5
1C4
  8
0
 62
     7
 10
-53.0458
 20
159.88399999999999
 30
0.0
 11
-53.0458
 21
159.63399999999999
 31
0.0
  0
ARC
  5
1C5
  8
0
 62
     7
 10
34.927393000000002
 20
182.22703899999999
 30
0.0
 40
10.456307000000001
 50
229.13445699999991
 51
269.80688099999998
  0
ARC
  5
1C6
  8
0
 62
     7
 10
-21.564733
 20
68.506164999999996
 30
0.0
 40
0.519904
 50
272.167012
 51
357.87247100000002
  0
ARC
  5
1C7
  8
0
 62
     7
 10
-23.544965000000001
 20
68.486863999999997
 30
0.0
 40
0.5002310000000002
 50
179.99996999999999
 51
270.00002000000001
  0
ARC
  5
1C8
  8
0
 62
     7
 10
-21.564364999999999
 20
69.867311000000001
 30
0.0
 40
0.519549
 50
2.1673520000000002
 51
87.872139000000004
  0
ARC
  5
1C9
  8
0
 62
     7
 10
-23.526727999999999
 20
69.868007999999989
 30
0.0
 40
0.518814
 50
92.014409999999998
 51
177.906586
  0
LINE
  5
1CA
  8
0
 62
     7
 10
-20.776499999999999
 20
43.776400000000002
 30
0.0
 11
-22.545200000000001
 21
43.302399999999992
 31
0.0
  0
LINE
  5
1CB
  8
0
 62
     7
 10
-22.545200000000001
 20
43.302399999999992
 30
0.0
 11
-20.776499999999999
 21
42.828999999999994
 31
0.0
  0
LINE
  5
1CC
  8
0
 62
     7
 10
-20.776499999999999
 20
42.828999999999994
 30
0.0
 11
-20.776499999999999
 21
43.776400000000002
 31
0.0
  0
LINE
  5
1CD
  8
0
 62
     7
 10
11.6869
 20
42.840699999999991
 30
0.0
 11
13.4552
 21
43.314100000000003
 31
0.0
  0
LINE
  5
1CE
  8
0
 62
     7
 10
13.4552
 20
43.314100000000003
 30
0.0
 11
11.6869
 21
43.7881
 31
0.0
  0
LINE
  5
1CF
  8
0
 62
     7
 10
11.6869
 20
43.7881
 30
0.0
 11
11.6869
 21
42.840699999999991
 31
0.0
  0
LINE
  5
1D0
  8
0
 62
     7
 10
-22.523800000000001
 20
43.308599999999998
 30
0.0
 11
13.4339
 21
43.308599999999998
 31
0.0
  0
LINE
  5
1D1
  8
0
 62
     7
 10
13.4552
 20
59.3504
 30
0.0
 11
13.4552
 21
42.613300000000002
 31
0.0
  0
LINE
  5
1D2
  8
0
 62
     7
 10
-18.783799999999999
 20
50.5137
 30
0.0
 11
-9.7345199999999998
 21
50.5137
 31
0.0
  0
LINE
  5
1D3
  8
0
 62
     7
 10
-24.537199999999999
 20
50.981499999999997
 30
0.0
 11
-26.305199999999999
 21
50.508200000000002
 31
0.0
  0
LINE
  5
1D4
  8
0
 62
     7
 10
-26.305199999999999
 20
50.508200000000002
 30
0.0
 11
-24.537199999999999
 21
50.034100000000002
 31
0.0
  0
LINE
  5
1D5
  8
0
 62
     7
 10
-24.537199999999999
 20
50.034100000000002
 30
0.0
 11
-24.537199999999999
 21
50.981499999999997
 31
0.0
  0
LINE
  5
1D6
  8
0
 62
     7
 10
-20.552499999999998
 20
50.0458
 30
0.0
 11
-18.783799999999999
 21
50.519899999999993
 31
0.0
  0
LINE
  5
1D7
  8
0
 62
     7
 10
-18.783799999999999
 20
50.519899999999993
 30
0.0
 11
-20.552499999999998
 21
50.993899999999989
 31
0.0
  0
LINE
  5
1D8
  8
0
 62
     7
 10
-20.552499999999998
 20
50.993899999999989
 30
0.0
 11
-20.552499999999998
 21
50.0458
 31
0.0
  0
LINE
  5
1D9
  8
0
 62
     7
 10
-26.283799999999999
 20
50.5137
 30
0.0
 11
-18.805900000000001
 21
50.5137
 31
0.0
  0
LINE
  5
1DA
  8
0
 62
     7
 10
-26.305199999999999
 20
56.276699999999998
 30
0.0
 11
-26.305199999999999
 21
49.992800000000003
 31
0.0
  0
LINE
  5
1DB
  8
0
 62
     7
 10
-18.783799999999999
 20
56.276699999999998
 30
0.0
 11
-18.783799999999999
 21
50.04999999999999
 31
0.0
  0
LINE
  5
1DC
  8
0
 62
     7
 10
-32.133299999999998
 20
72.8994
 30
0.0
 11
-32.607300000000009
 21
74.668099999999995
 31
0.0
  0
LINE
  5
1DD
  8
0
 62
     7
 10
-32.607300000000009
 20
74.668099999999995
 30
0.0
 11
-33.081400000000002
 21
72.8994
 31
0.0
  0
LINE
  5
1DE
  8
0
 62
     7
 10
-33.081400000000002
 20
72.8994
 30
0.0
 11
-32.133299999999998
 21
72.8994
 31
0.0
  0
LINE
  5
1DF
  8
0
 62
     7
 10
-33.069699999999997
 20
68.426199999999994
 30
0.0
 11
-32.595599999999997
 21
66.658199999999994
 31
0.0
  0
LINE
  5
1E0
  8
0
 62
     7
 10
-32.595599999999997
 20
66.658199999999994
 30
0.0
 11
-32.121600000000001
 21
68.426199999999994
 31
0.0
  0
LINE
  5
1E1
  8
0
 62
     7
 10
-32.121600000000001
 20
68.426199999999994
 30
0.0
 11
-33.069699999999997
 21
68.426199999999994
 31
0.0
  0
LINE
  5
1E2
  8
0
 62
     7
 10
-32.601799999999997
 20
74.668099999999995
 30
0.0
 11
-32.601799999999997
 21
66.658199999999994
 31
0.0
  0
LINE
  5
1E3
  8
0
 62
     7
 10
-32.133299999999998
 20
64.889499999999984
 30
0.0
 11
-32.607300000000009
 21
66.658199999999994
 31
0.0
  0
LINE
  5
1E4
  8
0
 62
     7
 10
-32.607300000000009
 20
66.658199999999994
 30
0.0
 11
-33.081400000000002
 21
64.889499999999984
 31
0.0
  0
LINE
  5
1E5
  8
0
 62
     7
 10
-33.081400000000002
 20
64.889499999999984
 30
0.0
 11
-32.133299999999998
 21
64.889499999999984
 31
0.0
  0
LINE
  5
1E6
  8
0
 62
     7
 10
-33.069699999999997
 20
58.3596
 30
0.0
 11
-32.595599999999997
 21
56.591599999999993
 31
0.0
  0
LINE
  5
1E7
  8
0
 62
     7
 10
-32.595599999999997
 20
56.591599999999993
 30
0.0
 11
-32.121600000000001
 21
58.3596
 31
0.0
  0
LINE
  5
1E8
  8
0
 62
     7
 10
-32.121600000000001
 20
58.3596
 30
0.0
 11
-33.069699999999997
 21
58.3596
 31
0.0
  0
LINE
  5
1E9
  8
0
 62
     7
 10
-32.601799999999997
 20
66.679599999999994
 30
0.0
 11
-32.601799999999997
 21
56.591599999999993
 31
0.0
  0
LINE
  5
1EA
  8
0
 62
     7
 10
-26.908799999999999
 20
56.591599999999993
 30
0.0
 11
-32.944299999999998
 21
56.591599999999993
 31
0.0
  0
LINE
  5
1EB
  8
0
 62
     7
 10
-29.056100000000001
 20
66.658199999999994
 30
0.0
 11
-32.944299999999998
 21
66.658199999999994
 31
0.0
  0
LINE
  5
1EC
  8
0
 62
     7
 10
-29.133299999999998
 20
74.668099999999995
 30
0.0
 11
-32.947000000000003
 21
74.668099999999995
 31
0.0
  0
LINE
  5
1ED
  8
0
 62
     7
 10
-16.255099999999999
 20
74.421400000000006
 30
0.0
 11
-16.255099999999999
 21
74.320800000000006
 31
0.0
  0
ARC
  5
1EE
  8
0
 62
     7
 10
-13.919805999999999
 20
61.443984999999998
 30
0.0
 40
5.1192349999999989
 50
197.79385099999999
 51
205.456209
  0
ARC
  5
1EF
  8
0
 62
     7
 10
-16.794035999999998
 20
60.099693000000002
 30
0.0
 40
1.9463680000000001
 50
206.09278499999999
 51
211.00056599999999
  0
ARC
  5
1F0
  8
0
 62
     7
 10
-17.859524
 20
59.449137999999998
 30
0.0
 40
0.698061
 50
210.27364900000001
 51
225.39328699999999
  0
ARC
  5
1F1
  8
0
 62
     7
 10
-16.469241
 20
60.520144000000002
 30
0.0
 40
2.2834089999999989
 50
149.49268799999999
 51
157.23764700000001
  0
ARC
  5
1F2
  8
0
 62
     7
 10
-14.815580000000001
 20
59.790685000000003
 30
0.0
 40
4.0906459999999987
 50
156.7778129999999
 51
168.870071
  0
LINE
  5
1F3
  8
0
 62
     7
 10
-12.847899999999999
 20
62.229199999999999
 30
0.0
 11
-13.3123
 21
62.229199999999999
 31
0.0
  0
LINE
  5
1F4
  8
0
 62
     7
 10
-14.397500000000001
 20
58.266599999999997
 30
0.0
 11
-15.1058
 21
58.266599999999997
 31
0.0
  0
LINE
  5
1F5
  8
0
 62
     7
 10
-12.840299999999999
 20
58.266599999999997
 30
0.0
 11
-13.2592
 21
58.266599999999997
 31
0.0
  0
ARC
  5
1F6
  8
0
 62
     7
 10
-13.847185
 20
58.197448000000001
 30
0.0
 40
0.856685
 50
71.079227000000003
 51
90.030982999999992
  0
ARC
  5
1F7
  8
0
 62
     7
 10
-13.764291
 20
58.497050999999999
 30
0.0
 40
0.546712
 50
15.048963000000001
 51
69.115506000000011
  0
ARC
  5
1F8
  8
0
 62
     7
 10
-14.100974000000001
 20
58.392340000000011
 30
0.0
 40
0.8991399999999998
 50
358.79156799999998
 51
15.922105
  0
ARC
  5
1F9
  8
0
 62
     7
 10
-13.278926999999999
 20
58.373806999999992
 30
0.0
 40
0.076894
 50
340.23881299999999
 51
359.68055299999997
  0
ARC
  5
1FA
  8
0
 62
     7
 10
-13.36998
 20
58.40394100000001
 30
0.0
 40
0.172791
 50
326.44246900000002
 51
341.04307300000011
  0
ARC
  5
1FB
  8
0
 62
     7
 10
-13.535477999999999
 20
58.511047999999988
 30
0.0
 40
0.369918
 50
315.87787100000003
 51
326.78745300000003
  0
ARC
  5
1FC
  8
0
 62
     7
 10
-13.780866
 20
58.748252000000001
 30
0.0
 40
0.711211
 50
300.00293599999998
 51
315.922822
  0
ARC
  5
1FD
  8
0
 62
     7
 10
-13.889748000000001
 20
58.907079000000003
 30
0.0
 40
0.9033229999999999
 50
271.49043899999998
 51
300.946237
  0
ARC
  5
1FE
  8
0
 62
     7
 10
-13.864696
 20
58.639545999999989
 30
0.0
 40
0.6354860000000001
 50
237.98466099999999
 51
269.85969299999999
  0
ARC
  5
1FF
  8
0
 62
     7
 10
-13.804252999999999
 20
58.767097999999997
 30
0.0
 40
0.7758550000000001
 50
216.68923899999999
 51
239.19372100000001
  0
ARC
  5
200
  8
0
 62
     7
 10
-14.137859000000001
 20
58.514318000000003
 30
0.0
 40
0.357327
 50
203.96406899999999
 51
216.14719600000001
  0
ARC
  5
201
  8
0
 62
     7
 10
-14.365645000000001
 20
58.415759999999992
 30
0.0
 40
0.109173
 50
183.07907800000001
 51
205.25354899999999
  0
ARC
  5
202
  8
0
 62
     7
 10
-13.356987999999999
 20
58.410950999999997
 30
0.0
 40
1.1176719999999991
 50
169.31487799999999
 51
180.0541199999999
  0
ARC
  5
203
  8
0
 62
     7
 10
-13.856823
 20
58.498862000000003
 30
0.0
 40
0.6102370000000001
 50
143.48844199999999
 51
168.72444100000001
  0
ARC
  5
204
  8
0
 62
     7
 10
-13.976172
 20
58.561624999999992
 30
0.0
 40
0.477412
 50
101.674458
 51
141.01953399999999
  0
ARC
  5
205
  8
0
 62
     7
 10
-13.863605
 20
58.170701000000001
 30
0.0
 40
0.883576
 50
88.965243000000015
 51
103.69376699999999
  0
ARC
  5
206
  8
0
 62
     7
 10
-13.902336999999999
 20
60.590077999999998
 30
0.0
 40
1.7637890000000001
 50
76.622818999999993
 51
90.014088999999984
  0
ARC
  5
207
  8
0
 62
     7
 10
-13.663717
 20
61.636442000000002
 30
0.0
 40
0.6906790000000002
 50
59.889006000000009
 51
75.798098999999993
  0
ARC
  5
208
  8
0
 62
     7
 10
-13.417598999999999
 20
62.070583999999997
 30
0.0
 40
0.191713
 50
29.407636
 51
58.426393999999988
  0
ARC
  5
209
  8
0
 62
     7
 10
-13.328391999999999
 20
62.128769999999989
 30
0.0
 40
0.085707
 50
0.317384
 51
24.799139
  0
ARC
  5
20A
  8
0
 62
     7
 10
-14.481075000000001
 20
62.128818000000003
 30
0.0
 40
1.2383889999999991
 50
344.521458
 51
0.019753
  0
ARC
  5
20B
  8
0
 62
     7
 10
-13.977159
 20
62.004589000000003
 30
0.0
 40
0.719747
 50
319.05866800000001
 51
343.34634499999999
  0
ARC
  5
20C
  8
0
 62
     7
 10
-13.834512999999999
 20
61.905343000000002
 30
0.0
 40
0.5472730000000001
 50
268.624595
 51
317.12087300000002
  0
ARC
  5
20D
  8
0
 62
     7
 10
-13.841339
 20
61.978202000000003
 30
0.0
 40
0.6200070000000001
 50
212.58928399999999
 51
269.41688399999998
  0
ARC
  5
20E
  8
0
 62
     7
 10
-13.693716
 20
62.080688000000002
 30
0.0
 40
0.799616
 50
190.57864799999999
 51
213.079275
  0
ARC
  5
20F
  8
0
 62
     7
 10
-13.428063
 20
62.145711999999989
 30
0.0
 40
1.072797999999999
 50
179.66506899999999
 51
191.38775000000001
  0
ARC
  5
210
  8
0
 62
     7
 10
-14.443398999999999
 20
62.151930999999998
 30
0.0
 40
0.057444
 50
159.63521700000001
 51
179.948408
  0
ARC
  5
211
  8
0
 62
     7
 10
-14.408797
 20
62.138543000000013
 30
0.0
 40
0.094543
 50
138.68355500000001
 51
159.326448
  0
ARC
  5
212
  8
0
 62
     7
 10
-14.332703
 20
62.072592999999998
 30
0.0
 40
0.195239
 50
124.285814
 51
138.89040800000001
  0
ARC
  5
213
  8
0
 62
     7
 10
-14.218093
 20
61.908262000000001
 30
0.0
 40
0.395583
 50
114.19512400000001
 51
124.59347099999999
  0
ARC
  5
214
  8
0
 62
     7
 10
-14.046900000000001
 20
61.525669000000001
 30
0.0
 40
0.8147300000000001
 50
99.289972999999975
 51
114.149432
  0
ARC
  5
215
  8
0
 62
     7
 10
-13.912893
 20
60.88436999999999
 30
0.0
 40
1.469530999999999
 50
89.605311999999998
 51
100.409947
  0
ARC
  5
216
  8
0
 62
     7
 10
-13.849041
 20
60.658183000000001
 30
0.0
 40
0.47887
 50
54.485410000000002
 51
89.833445999999995
  0
ARC
  5
217
  8
0
 62
     7
 10
-13.959910000000001
 20
60.484101000000003
 30
0.0
 40
0.685059
 50
31.406938000000011
 51
55.395586999999999
  0
ARC
  5
218
  8
0
 62
     7
 10
-14.256447
 20
60.282668999999991
 30
0.0
 40
1.0432629999999989
 50
4.8733719999999989
 51
32.362067000000003
  0
ARC
  5
219
  8
0
 62
     7
 10
-14.493141
 20
60.234205000000003
 30
0.0
 40
1.283528
 50
359.97931399999999
 51
6.1314589999999987
  0
ARC
  5
21A
  8
0
 62
     7
 10
-14.420184000000001
 20
60.234988999999992
 30
0.0
 40
1.2105719999999991
 50
331.61258500000002
 51
359.9409490000001
  0
ARC
  5
21B
  8
0
 62
     7
 10
-14.030753000000001
 20
60.049668999999987
 30
0.0
 40
0.780175
 50
307.38971800000002
 51
329.988471
  0
ARC
  5
21C
  8
0
 62
     7
 10
-13.860626
 20
59.846697999999989
 30
0.0
 40
0.5157410000000001
 50
271.44187899999997
 51
306.06545599999998
  0
ARC
  5
21D
  8
0
 62
     7
 10
-13.846242
 20
59.810102000000001
 30
0.0
 40
0.4789830000000001
 50
234.517503
 51
269.831751
  0
ARC
  5
21E
  8
0
 62
     7
 10
-13.733055
 20
59.987956000000011
 30
0.0
 40
0.6895970000000001
 50
210.80902000000009
 51
235.437174
  0
ARC
  5
21F
  8
0
 62
     7
 10
-13.433531
 20
60.188566000000002
 30
0.0
 40
1.0497700000000001
 50
184.43253000000001
 51
211.840114
  0
ARC
  5
220
  8
0
 62
     7
 10
-13.207537
 20
60.233331000000007
 30
0.0
 40
1.278837
 50
179.981582
 51
185.64969099999999
  0
ARC
  5
221
  8
0
 62
     7
 10
-13.278358000000001
 20
60.23249599999999
 30
0.0
 40
1.2080159999999991
 50
151.53206900000001
 51
179.940921
  0
ARC
  5
222
  8
0
 62
     7
 10
-13.662494000000001
 20
60.416125999999998
 30
0.0
 40
0.783098
 50
127.400718
 51
149.94574600000001
  0
ARC
  5
223
  8
0
 62
     7
 10
-13.834227
 20
60.621259999999999
 30
0.0
 40
0.5159660000000002
 50
91.490566999999999
 51
126.08686899999999
  0
LINE
  5
224
  8
0
 62
     7
 10
-0.139872
 20
57.942700000000002
 30
0.0
 11
-0.6132310000000001
 21
59.710799999999999
 31
0.0
  0
LINE
  5
225
  8
0
 62
     7
 10
-0.6132310000000001
 20
59.710799999999999
 30
0.0
 11
-1.08728
 21
57.942700000000002
 31
0.0
  0
LINE
  5
226
  8
0
 62
     7
 10
-1.08728
 20
57.942700000000002
 30
0.0
 11
-0.139872
 21
57.942700000000002
 31
0.0
  0
LINE
  5
227
  8
0
 62
     7
 10
-1.0755699999999999
 20
62.477899999999998
 30
0.0
 11
-0.601517
 21
60.709899999999998
 31
0.0
  0
LINE
  5
228
  8
0
 62
     7
 10
-0.601517
 20
60.709899999999998
 30
0.0
 11
-0.128158
 21
62.477899999999998
 31
0.0
  0
LINE
  5
229
  8
0
 62
     7
 10
-0.128158
 20
62.477899999999998
 30
0.0
 11
-1.0755699999999999
 21
62.477899999999998
 31
0.0
  0
LINE
  5
22A
  8
0
 62
     7
 10
-0.607719
 20
66.6327
 30
0.0
 11
-0.607719
 21
56.676299999999991
 31
0.0
  0
LINE
  5
22B
  8
0
 62
     7
 10
11.5281
 20
59.851300000000002
 30
0.0
 11
10.995100000000001
 21
59.851300000000002
 31
0.0
  0
LINE
  5
22C
  8
0
 62
     7
 10
11.5281
 20
60.556899999999999
 30
0.0
 11
10.995100000000001
 21
60.556899999999999
 31
0.0
  0
LINE
  5
22D
  8
0
 62
     7
 10
11.6166
 20
59.740400000000001
 30
0.0
 11
11.6211
 21
59.740400000000001
 31
0.0
  0
LINE
  5
22E
  8
0
 62
     7
 10
10.995100000000001
 20
59.730800000000002
 30
0.0
 11
11.5281
 21
59.730800000000002
 31
0.0
  0
LINE
  5
22F
  8
0
 62
     7
 10
10.995100000000001
 20
60.676099999999998
 30
0.0
 11
11.5281
 21
60.676099999999998
 31
0.0
  0
ARC
  5
230
  8
0
 62
     7
 10
11.781166000000001
 20
59.567377999999998
 30
0.0
 40
0.251738
 50
157.07346699999999
 51
179.825459
  0
ARC
  5
231
  8
0
 62
     7
 10
11.718824
 20
59.584054000000002
 30
0.0
 40
0.188036
 50
106.64679
 51
154.35251700000001
  0
ARC
  5
232
  8
0
 62
     7
 10
11.795738999999999
 20
59.384498000000001
 30
0.0
 40
0.4016030000000001
 50
88.083088000000004
 51
109.004983
  0
ARC
  5
233
  8
0
 62
     7
 10
11.81541
 20
59.379353000000002
 30
0.0
 40
0.40657
 50
73.498393000000007
 51
90.878998999999993
  0
ARC
  5
234
  8
0
 62
     7
 10
11.860405
 20
59.550792000000001
 30
0.0
 40
0.22948
 50
25.081801000000009
 51
72.111568000000005
  0
ARC
  5
235
  8
0
 62
     7
 10
11.767289
 20
60.824943999999988
 30
0.0
 40
0.238872
 50
182.98126999999991
 51
206.064773
  0
ARC
  5
236
  8
0
 62
     7
 10
11.716616
 20
60.810425999999993
 30
0.0
 40
0.1872
 50
208.88879900000001
 51
256.348725
  0
ARC
  5
237
  8
0
 62
     7
 10
11.796377
 20
61.044651999999992
 30
0.0
 40
0.434203
 50
253.41431700000001
 51
271.68875400000002
  0
ARC
  5
238
  8
0
 62
     7
 10
11.8096
 20
61.049857999999993
 30
0.0
 40
0.439222
 50
269.94431800000001
 51
286.62064199999998
  0
ARC
  5
239
  8
0
 62
     7
 10
11.867184
 20
60.840237000000002
 30
0.0
 40
0.221939
 50
287.85491300000001
 51
335.37293399999999
  0
ARC
  5
23A
  8
0
 62
     7
 10
11.826438
 20
60.313908999999988
 30
0.0
 40
0.29723
 50
93.329902000000004
 51
177.78799900000001
  0
ARC
  5
23B
  8
0
 62
     7
 10
11.80885
 20
60.349696999999999
 30
0.0
 40
0.26094
 50
26.729371
 51
89.929113999999998
  0
ARC
  5
23C
  8
0
 62
     7
 10
11.739966000000001
 20
60.296695999999997
 30
0.0
 40
0.346689
 50
8.6451449999999994
 51
29.433229000000001
  0
ARC
  5
23D
  8
0
 62
     7
 10
11.824611000000001
 20
60.082403999999997
 30
0.0
 40
0.29693
 50
184.84001000000001
 51
267.01964500000003
  0
ARC
  5
23E
  8
0
 62
     7
 10
11.809188000000001
 20
60.217703
 30
0.0
 40
0.431827
 50
269.99801600000001
 51
286.71117900000002
  0
ARC
  5
23F
  8
0
 62
     7
 10
11.86356
 20
60.01661099999999
 30
0.0
 40
0.223668
 50
288.183787
 51
348.47206699999998
  0
LINE
  5
240
  8
0
 62
     7
 10
11.885300000000001
 20
59.526800000000001
 30
0.0
 11
11.5281
 21
59.526800000000001
 31
0.0
  0
LINE
  5
241
  8
0
 62
     7
 10
12.082700000000001
 20
60.676099999999998
 30
0.0
 11
12.082700000000001
 21
59.724600000000002
 31
0.0
  0
ARC
  5
242
  8
0
 62
     7
 10
11.877407
 20
59.732098000000001
 30
0.0
 40
0.205447
 50
272.20466099999999
 51
357.89525400000002
  0
LINE
  5
243
  8
0
 62
     7
 10
11.885300000000001
 20
60.873199999999997
 30
0.0
 11
11.5281
 21
60.873199999999997
 31
0.0
  0
ARC
  5
244
  8
0
 62
     7
 10
11.877775
 20
60.66820100000001
 30
0.0
 40
0.205092
 50
2.205592999999999
 51
87.894476999999995
  0
LINE
  5
245
  8
0
 62
     7
 10
11.5281
 20
60.873199999999997
 30
0.0
 11
11.5281
 21
59.526800000000001
 31
0.0
  0
LINE
  5
246
  8
0
 62
     7
 10
10.9079
 20
59.758299999999998
 30
0.0
 11
10.9086
 21
59.758299999999998
 31
0.0
  0
LINE
  5
247
  8
0
 62
     7
 10
10.995100000000001
 20
60.888999999999989
 30
0.0
 11
10.7936
 21
61.061900000000001
 31
0.0
  0
LINE
  5
248
  8
0
 62
     7
 10
10.995100000000001
 20
59.542000000000002
 30
0.0
 11
10.7936
 21
59.370399999999989
 31
0.0
  0
LINE
  5
249
  8
0
 62
     7
 10
8.2596699999999998
 20
59.370399999999989
 30
0.0
 11
8.0581300000000002
 21
59.542000000000002
 31
0.0
  0
LINE
  5
24A
  8
0
 62
     7
 10
8.2596699999999998
 20
61.060600000000001
 30
0.0
 11
8.0581300000000002
 21
60.888300000000001
 31
0.0
  0
LINE
  5
24B
  8
0
 62
     7
 10
8.0581300000000002
 20
60.888300000000001
 30
0.0
 11
8.0581300000000002
 21
59.542000000000002
 31
0.0
  0
ARC
  5
24C
  8
0
 62
     7
 10
8.6630590000000005
 20
59.722988999999998
 30
0.0
 40
0.352595
 50
239.63368500000001
 51
269.89343000000002
  0
ARC
  5
24D
  8
0
 62
     7
 10
8.7374860000000005
 20
59.865367999999997
 30
0.0
 40
0.5131250000000001
 50
222.37933100000001
 51
240.50017800000001
  0
ARC
  5
24E
  8
0
 62
     7
 10
8.9592179999999981
 20
60.076487
 30
0.0
 40
0.8192459999999998
 50
200.65539699999999
 51
222.833798
  0
ARC
  5
24F
  8
0
 62
     7
 10
9.2658000000000005
 20
60.219047000000003
 30
0.0
 40
1.156682999999999
 50
179.954724
 51
201.906251
  0
ARC
  5
250
  8
0
 62
     7
 10
9.2959240000000012
 20
60.218058999999997
 30
0.0
 40
1.1868080000000001
 50
151.70014800000001
 51
179.908151
  0
ARC
  5
251
  8
0
 62
     7
 10
8.8832070000000005
 20
60.429667000000002
 30
0.0
 40
0.7231600000000001
 50
128.06763100000001
 51
150.959598
  0
ARC
  5
252
  8
0
 62
     7
 10
8.6713300000000011
 20
60.675848999999992
 30
0.0
 40
0.398985
 50
105.367448
 51
125.91109899999999
  0
ARC
  5
253
  8
0
 62
     7
 10
10.430846000000001
 20
60.696601000000001
 30
0.0
 40
0.368371
 50
50.14780300000001
 51
81.133147999999991
  0
ARC
  5
254
  8
0
 62
     7
 10
10.290247000000001
 20
60.501978999999999
 30
0.0
 40
0.608111
 50
34.468119000000002
 51
51.728774000000001
  0
ARC
  5
255
  8
0
 62
     7
 10
9.9918130000000005
 20
60.285833999999987
 30
0.0
 40
0.9765219999999999
 50
14.163423
 51
35.013820000000003
  0
ARC
  5
256
  8
0
 62
     7
 10
9.7744689999999999
 20
60.207996999999999
 30
0.0
 40
1.206512
 50
0.273648
 51
15.221987
  0
ARC
  5
257
  8
0
 62
     7
 10
9.8065130000000007
 20
60.215387
 30
0.0
 40
1.174455
 50
331.65244999999999
 51
359.92059999999998
  0
ARC
  5
258
  8
0
 62
     7
 10
10.199768000000001
 20
60.012867999999997
 30
0.0
 40
0.732247
 50
308.39405199999999
 51
330.98804100000001
  0
ARC
  5
259
  8
0
 62
     7
 10
10.416036
 20
59.762407999999994
 30
0.0
 40
0.401873
 50
282.71768200000002
 51
306.40482100000003
  0
LINE
  5
25A
  8
0
 62
     7
 10
8.2486399999999982
 20
60.301299999999991
 30
0.0
 11
9.4451300000000007
 21
60.301299999999991
 31
0.0
  0
LINE
  5
25B
  8
0
 62
     7
 10
8.2486399999999982
 20
60.128999999999998
 30
0.0
 11
9.4451300000000007
 21
60.128999999999998
 31
0.0
  0
ARC
  5
25C
  8
0
 62
     7
 10
8.9562639999999991
 20
60.201432999999987
 30
0.0
 40
0.713583
 50
112.65499699999999
 51
179.010177
  0
ARC
  5
25D
  8
0
 62
     7
 10
8.8483100000000015
 20
60.383003000000002
 30
0.0
 40
0.5053130000000001
 50
90.180612999999994
 51
109.28695
  0
ARC
  5
25E
  8
0
 62
     7
 10
8.8450649999999982
 20
60.370035999999999
 30
0.0
 40
0.51828
 50
54.270740000000011
 51
89.817377000000008
  0
ARC
  5
25F
  8
0
 62
     7
 10
8.7324380000000001
 20
60.203437999999998
 30
0.0
 40
0.719315
 50
0.822211
 51
54.737286000000012
  0
ARC
  5
260
  8
0
 62
     7
 10
8.7425809999999995
 20
60.226199000000001
 30
0.0
 40
0.709207
 50
292.34706199999999
 51
358.99499900000001
  0
ARC
  5
261
  8
0
 62
     7
 10
8.8450820000000014
 20
60.049812000000003
 30
0.0
 40
0.507853
 50
270.18441999999999
 51
289.21613400000001
  0
ARC
  5
262
  8
0
 62
     7
 10
8.8483669999999996
 20
60.059995999999991
 30
0.0
 40
0.518037
 50
234.3079680000001
 51
269.81742200000002
  0
ARC
  5
263
  8
0
 62
     7
 10
8.9595929999999981
 20
60.224912000000003
 30
0.0
 40
0.716892
 50
180.89139800000001
 51
234.77819400000001
  0
LINE
  5
264
  8
0
 62
     7
 10
8.2558799999999994
 20
59.370399999999989
 30
0.0
 11
10.797000000000001
 21
59.370399999999989
 31
0.0
  0
LINE
  5
265
  8
0
 62
     7
 10
8.2596699999999998
 20
61.060600000000001
 30
0.0
 11
10.795299999999999
 21
61.060600000000001
 31
0.0
  0
LINE
  5
266
  8
0
 62
     7
 10
10.995100000000001
 20
60.888999999999989
 30
0.0
 11
10.995100000000001
 21
59.542000000000002
 31
0.0
  0
LINE
  5
267
  8
0
 62
     7
 10
-28.834299999999999
 20
75.0471
 30
0.0
 11
-28.834299999999999
 21
79.159099999999995
 31
0.0
  0
LINE
  5
268
  8
0
 62
     7
 10
-28.587599999999998
 20
74.668099999999995
 30
0.0
 11
-16.502500000000001
 21
74.668099999999995
 31
0.0
  0
ARC
  5
269
  8
0
 62
     7
 10
-16.511970000000002
 20
74.411193000000011
 30
0.0
 40
0.257077
 50
2.280692999999999
 51
87.879118000000005
  0
ARC
  5
26A
  8
0
 62
     7
 10
-28.579135000000001
 20
74.412261999999998
 30
0.0
 40
0.255283
 50
91.896366
 51
177.94333700000001
  0
LINE
  5
26B
  8
0
 62
     7
 10
-28.834299999999999
 20
74.320800000000006
 30
0.0
 11
-28.834299999999999
 21
74.421400000000006
 31
0.0
  0
LINE
  5
26C
  8
0
 62
     7
 10
-18.6233
 20
67.986599999999996
 30
0.0
 11
-18.5502
 21
67.986599999999996
 31
0.0
  0
LINE
  5
26D
  8
0
 62
     7
 10
-18.944400000000002
 20
68.309100000000001
 30
0.0
 11
-18.944400000000002
 21
70.065399999999997
 31
0.0
  0
ARC
  5
26E
  8
0
 62
     7
 10
-18.610831999999998
 20
68.32010600000001
 30
0.0
 40
0.333705
 50
181.89070599999999
 51
267.863946
  0
LINE
  5
26F
  8
0
 62
     7
 10
-26.1357
 20
68.309100000000001
 30
0.0
 11
-26.1357
 21
70.065399999999997
 31
0.0
  0
LINE
  5
270
  8
0
 62
     7
 10
-26.5395
 20
67.986599999999996
 30
0.0
 11
-26.456800000000001
 21
67.986599999999996
 31
0.0
  0
ARC
  5
271
  8
0
 62
     7
 10
-26.470531999999999
 20
68.321415999999985
 30
0.0
 40
0.335065
 50
272.35257999999999
 51
357.892808
  0
LINE
  5
272
  8
0
 62
     7
 10
-18.6233
 20
70.386499999999998
 30
0.0
 11
-18.5502
 21
70.386499999999998
 31
0.0
  0
ARC
  5
273
  8
0
 62
     7
 10
-18.61093
 20
70.053076000000004
 30
0.0
 40
0.333654
 50
92.119619999999983
 51
177.88035099999999
  0
LINE
  5
274
  8
0
 62
     7
 10
-26.5395
 20
70.386499999999998
 30
0.0
 11
-26.456800000000001
 21
70.386499999999998
 31
0.0
  0
ARC
  5
275
  8
0
 62
     7
 10
-26.469118999999999
 20
70.053076000000004
 30
0.0
 40
0.333654
 50
2.1196470000000001
 51
87.880343000000011
  0
LINE
  5
276
  8
0
 62
     7
 10
-26.5395
 20
70.386499999999998
 30
0.0
 11
-26.5395
 21
72.456999999999994
 31
0.0
  0
LINE
  5
277
  8
0
 62
     7
 10
-26.5395
 20
67.587000000000003
 30
0.0
 11
-26.5395
 21
67.986599999999996
 31
0.0
  0
LINE
  5
278
  8
0
 62
     7
 10
-26.5395
 20
72.456999999999994
 30
0.0
 11
-26.688300000000002
 21
72.612700000000004
 31
0.0
  0
LINE
  5
279
  8
0
 62
     7
 10
-18.437899999999999
 20
72.612700000000004
 30
0.0
 11
-18.5502
 21
72.456999999999994
 31
0.0
  0
LINE
  5
27A
  8
0
 62
     7
 10
-18.5502
 20
67.986599999999996
 30
0.0
 11
-18.5502
 21
67.587000000000003
 31
0.0
  0
LINE
  5
27B
  8
0
 62
     7
 10
-18.5502
 20
72.456999999999994
 30
0.0
 11
-18.5502
 21
70.386499999999998
 31
0.0
  0
LINE
  5
27C
  8
0
 62
     7
 10
-28.834299999999999
 20
74.320800000000006
 30
0.0
 11
-16.234400000000001
 21
74.320800000000006
 31
0.0
  0
LINE
  5
27D
  8
0
 62
     7
 10
-12.6012
 20
58.513199999999998
 30
0.0
 11
-12.6012
 21
61.984499999999997
 31
0.0
  0
ARC
  5
27E
  8
0
 62
     7
 10
-12.849843999999999
 20
58.522796999999997
 30
0.0
 40
0.256395
 50
272.133962
 51
357.86604799999998
  0
ARC
  5
27F
  8
0
 62
     7
 10
-12.857277
 20
61.972993000000002
 30
0.0
 40
0.256333
 50
2.5840730000000001
 51
87.898066
  0
LINE
  5
280
  8
0
 62
     7
 10
-18.377300000000002
 20
58.396799999999999
 30
0.0
 11
-26.712399999999999
 21
58.396799999999999
 31
0.0
  0
LINE
  5
281
  8
0
 62
     7
 10
-16.520399999999999
 20
66.6678
 30
0.0
 11
-28.569700000000001
 21
66.6678
 31
0.0
  0
LINE
  5
282
  8
0
 62
     7
 10
-15.960900000000001
 20
61.851599999999991
 30
0.0
 11
-15.960900000000001
 21
58.569099999999999
 31
0.0
  0
LINE
  5
283
  8
0
 62
     7
 10
-16.255099999999999
 20
74.850700000000003
 30
0.0
 11
-16.255099999999999
 21
79.159099999999995
 31
0.0
  0
LINE
  5
284
  8
0
 62
     7
 10
-18.023099999999999
 20
78.346100000000007
 30
0.0
 11
-16.255099999999999
 21
78.819500000000005
 31
0.0
  0
LINE
  5
285
  8
0
 62
     7
 10
-16.255099999999999
 20
78.819500000000005
 30
0.0
 11
-18.023099999999999
 21
79.293499999999995
 31
0.0
  0
LINE
  5
286
  8
0
 62
     7
 10
-18.023099999999999
 20
79.293499999999995
 30
0.0
 11
-18.023099999999999
 21
78.346100000000007
 31
0.0
  0
LINE
  5
287
  8
0
 62
     7
 10
-27.065899999999999
 20
79.282499999999999
 30
0.0
 11
-28.834299999999999
 21
78.808400000000006
 31
0.0
  0
LINE
  5
288
  8
0
 62
     7
 10
-28.834299999999999
 20
78.808400000000006
 30
0.0
 11
-27.065899999999999
 21
78.334400000000002
 31
0.0
  0
LINE
  5
289
  8
0
 62
     7
 10
-27.065899999999999
 20
78.334400000000002
 30
0.0
 11
-27.065899999999999
 21
79.282499999999999
 31
0.0
  0
LINE
  5
28A
  8
0
 62
     7
 10
-16.276499999999999
 20
78.813900000000004
 30
0.0
 11
-28.754300000000001
 21
78.813900000000004
 31
0.0
  0
LINE
  5
28B
  8
0
 62
     7
 10
-22.545200000000001
 20
54.148999999999987
 30
0.0
 11
-22.545200000000001
 21
42.4955
 31
0.0
  0
LINE
  5
28C
  8
0
 62
     7
 10
12.0848
 20
59.696300000000001
 30
0.0
 11
13.2423
 21
59.696300000000001
 31
0.0
  0
LINE
  5
28D
  8
0
 62
     7
 10
-12.6005
 20
59.710799999999999
 30
0.0
 11
9.2094899999999988
 21
59.710799999999999
 31
0.0
  0
LINE
  5
28E
  8
0
  6
AIGENLINE001
 62
     7
 10
-20.047499999999999
 20
60.210299999999989
 30
0.0
 11
15.144
 21
60.210299999999989
 31
0.0
  0
LINE
  5
28F
  8
0
 62
     7
 10
12.0848
 20
60.696100000000001
 30
0.0
 11
13.2423
 21
60.696100000000001
 31
0.0
  0
LINE
  5
290
  8
0
 62
     7
 10
-12.6005
 20
60.709899999999998
 30
0.0
 11
9.2094899999999988
 21
60.709899999999998
 31
0.0
  0
ARC
  5
291
  8
0
 62
     7
 10
-18.073388000000001
 20
58.214924000000003
 30
0.0
 40
0.35417
 50
90.787019999999984
 51
149.10001
  0
LINE
  5
292
  8
0
 62
     7
 10
-15.1919
 20
58.353400000000001
 30
0.0
 11
-15.1919
 21
62.0672
 31
0.0
  0
ARC
  5
293
  8
0
 62
     7
 10
-18.019010999999999
 20
62.209872999999988
 30
0.0
 40
0.358543
 50
182.20471900000001
 51
267.90978799999999
  0
LINE
  5
294
  8
0
 62
     7
 10
-15.1919
 20
58.353400000000001
 30
0.0
 11
-15.1058
 21
58.266599999999997
 31
0.0
  0
LINE
  5
295
  8
0
 62
     7
 10
-15.1058
 20
62.152000000000001
 30
0.0
 11
-15.1919
 21
62.0672
 31
0.0
  0
LINE
  5
296
  8
0
 62
     7
 10
-18.0321
 20
61.851599999999991
 30
0.0
 11
-15.1919
 21
61.851599999999991
 31
0.0
  0
LINE
  5
297
  8
0
 62
     7
 10
-15.1919
 20
58.569099999999999
 30
0.0
 11
-18.078299999999999
 21
58.569099999999999
 31
0.0
  0
LINE
  5
298
  8
0
 62
     7
 10
-15.6129
 20
61.649700000000003
 30
0.0
 11
-15.1919
 21
61.649700000000003
 31
0.0
  0
LINE
  5
299
  8
0
 62
     7
 10
-15.1919
 20
58.768900000000002
 30
0.0
 11
-15.6129
 21
58.768900000000002
 31
0.0
  0
LINE
  5
29A
  8
0
 62
     7
 10
13.2423
 20
60.696100000000001
 30
0.0
 11
13.2423
 21
59.696300000000001
 31
0.0
  0
ARC
  5
29B
  8
0
 62
     7
 10
-17.176100999999999
 20
72.610939000000002
 30
0.0
 40
1.261822999999999
 50
152.32709700000001
 51
179.91834499999999
  0
ARC
  5
29C
  8
0
 62
     7
 10
-16.724636
 20
72.401475000000005
 30
0.0
 40
1.759093
 50
131.91711599999999
 51
153.11427900000001
  0
ARC
  5
29D
  8
0
 62
     7
 10
-16.258134999999999
 20
71.935264000000004
 30
0.0
 40
2.4179169999999992
 50
98.762539000000004
 51
132.76248899999999
  0
ARC
  5
29E
  8
0
 62
     7
 10
-28.781419
 20
72.191718999999992
 30
0.0
 40
2.1516239999999991
 50
60.91098800000001
 51
82.505112999999994
  0
ARC
  5
29F
  8
0
 62
     7
 10
-28.861816999999999
 20
71.967076000000006
 30
0.0
 40
2.387335999999999
 50
41.056691000000001
 51
61.84598900000001
  0
ARC
  5
2A0
  8
0
 62
     7
 10
-28.368828000000011
 20
72.42455600000001
 30
0.0
 40
1.715247999999999
 50
19.781497999999999
 51
40.349513000000002
  0
ARC
  5
2A1
  8
0
 62
     7
 10
-27.958887000000001
 20
72.599136999999999
 30
0.0
 40
1.2706699999999991
 50
0.6132080000000001
 51
18.629742
  0
LINE
  5
2A2
  8
0
 62
     7
 10
-21.045200000000001
 20
68.486900000000006
 30
0.0
 11
-21.045200000000001
 21
69.887
 31
0.0
  0
LINE
  5
2A3
  8
0
 62
     7
 10
-24.045200000000001
 20
68.486900000000006
 30
0.0
 11
-24.045200000000001
 21
69.887
 31
0.0
  0
LINE
  5
2A4
  8
0
  6
AIGENLINE001
 62
     7
 10
-22.545200000000001
 20
54.971699999999998
 30
0.0
 11
-22.545200000000001
 21
75.793300000000002
 31
0.0
  0
ARC
  5
2A5
  8
0
 62
     7
 10
-27.74155
 20
67.072869999999995
 30
0.0
 40
0.526354
 50
180.58722700000001
 51
230.30881600000009
  0
ARC
  5
2A6
  8
0
 62
     7
 10
-27.728432999999999
 20
67.047584000000001
 30
0.0
 40
0.539809
 50
92.187875000000005
 51
177.88813500000001
  0
ARC
  5
2A7
  8
0
 62
     7
 10
-17.359679
 20
67.050271999999993
 30
0.0
 40
0.5371020000000001
 50
1.8355399999999999
 51
87.859685999999996
  0
ARC
  5
2A8
  8
0
 62
     7
 10
-17.347536999999999
 20
67.071511999999998
 30
0.0
 40
0.524701
 50
309.70593400000001
 51
359.55926199999999
  0
LINE
  5
2A9
  8
0
 62
     7
 10
-18.377300000000002
 20
64.923199999999994
 30
0.0
 11
-18.377300000000002
 21
62.196100000000001
 31
0.0
  0
ARC
  5
2AA
  8
0
 62
     7
 10
-27.59365300000001
 20
64.913997999999992
 30
0.0
 40
0.8812959999999998
 50
0.600513
 51
59.353631999999998
  0
ARC
  5
2AB
  8
0
 62
     7
 10
-17.494523999999998
 20
64.913122999999999
 30
0.0
 40
0.8828229999999999
 50
120.702133
 51
179.343681
  0
LINE
  5
2AC
  8
0
 62
     7
 10
-26.712399999999999
 20
58.396799999999999
 30
0.0
 11
-26.712399999999999
 21
64.923199999999994
 31
0.0
  0
LINE
  5
2AD
  8
0
 62
     7
 10
-15.6129
 20
58.768900000000002
 30
0.0
 11
-15.960900000000001
 21
58.569099999999999
 31
0.0
  0
LINE
  5
2AE
  8
0
 62
     7
 10
-18.783799999999999
 20
56.667999999999999
 30
0.0
 11
-18.783799999999999
 21
57.878
 31
0.0
  0
LINE
  5
2AF
  8
0
 62
     7
 10
-26.5395
 20
56.90229999999999
 30
0.0
 11
-18.5502
 21
56.90229999999999
 31
0.0
  0
LINE
  5
2B0
  8
0
 62
     7
 10
-16.520399999999999
 20
66.494200000000006
 30
0.0
 11
-17.9453
 21
65.672200000000004
 31
0.0
  0
LINE
  5
2B1
  8
0
 62
     7
 10
-16.520399999999999
 20
66.494200000000006
 30
0.0
 11
-16.520399999999999
 21
66.6678
 31
0.0
  0
LINE
  5
2B2
  8
0
 62
     7
 10
-18.5502
 20
57.878
 30
0.0
 11
-26.496700000000001
 21
57.878
 31
0.0
  0
LINE
  5
2B3
  8
0
 62
     7
 10
-18.593599999999999
 20
57.878
 30
0.0
 11
-18.593599999999999
 21
58.396799999999999
 31
0.0
  0
LINE
  5
2B4
  8
0
 62
     7
 10
-26.496700000000001
 20
57.878
 30
0.0
 11
-26.496700000000001
 21
58.396799999999999
 31
0.0
  0
LINE
  5
2B5
  8
0
 62
     7
 10
-26.5395
 20
56.90229999999999
 30
0.0
 11
-26.305199999999999
 21
56.667999999999999
 31
0.0
  0
LINE
  5
2B6
  8
0
 62
     7
 10
-18.5502
 20
56.90229999999999
 30
0.0
 11
-18.783799999999999
 21
56.667999999999999
 31
0.0
  0
LINE
  5
2B7
  8
0
 62
     7
 10
-18.5502
 20
57.878
 30
0.0
 11
-18.5502
 21
56.90229999999999
 31
0.0
  0
LINE
  5
2B8
  8
0
 62
     7
 10
-26.5395
 20
56.90229999999999
 30
0.0
 11
-26.5395
 21
57.878
 31
0.0
  0
LINE
  5
2B9
  8
0
 62
     7
 10
-18.783799999999999
 20
56.667999999999999
 30
0.0
 11
-26.305199999999999
 21
56.667999999999999
 31
0.0
  0
LINE
  5
2BA
  8
0
 62
     7
 10
-28.569700000000001
 20
66.494200000000006
 30
0.0
 11
-27.144400000000001
 21
65.672200000000004
 31
0.0
  0
LINE
  5
2BB
  8
0
 62
     7
 10
-28.569700000000001
 20
66.494200000000006
 30
0.0
 11
-28.569700000000001
 21
66.6678
 31
0.0
  0
LINE
  5
2BC
  8
0
 62
     7
 10
13.4139
 20
59.867899999999999
 30
0.0
 11
13.2423
 21
59.696300000000001
 31
0.0
  0
LINE
  5
2BD
  8
0
 62
     7
 10
13.2423
 20
60.696100000000001
 30
0.0
 11
13.4139
 21
60.521799999999992
 31
0.0
  0
LINE
  5
2BE
  8
0
 62
     7
 10
13.4139
 20
59.867899999999999
 30
0.0
 11
13.4139
 21
60.521799999999992
 31
0.0
  0
LINE
  5
2BF
  8
0
 62
     7
 10
-26.305199999999999
 20
56.667999999999999
 30
0.0
 11
-26.305199999999999
 21
57.878
 31
0.0
  0
LINE
  5
2C0
  8
0
 62
     7
 10
-23.545000000000002
 20
70.386499999999998
 30
0.0
 11
-21.545100000000001
 21
70.386499999999998
 31
0.0
  0
LINE
  5
2C1
  8
0
 62
     7
 10
-23.545000000000002
 20
67.986599999999996
 30
0.0
 11
-21.545100000000001
 21
67.986599999999996
 31
0.0
  0
LINE
  5
2C2
  8
0
 62
     7
 10
-27.749000000000009
 20
67.587000000000003
 30
0.0
 11
-17.339600000000001
 21
67.587000000000003
 31
0.0
  0
LINE
  5
2C3
  8
0
 62
     7
 10
-15.6129
 20
58.569099999999999
 30
0.0
 11
-15.6129
 21
61.851599999999991
 31
0.0
  0
LINE
  5
2C4
  8
0
 62
     7
 10
-15.960900000000001
 20
61.851599999999991
 30
0.0
 11
-15.6129
 21
61.649700000000003
 31
0.0
  0
LINE
  5
2C5
  8
0
 62
     7
 10
-14.5008
 20
62.152000000000001
 30
0.0
 11
-15.1058
 21
62.152000000000001
 31
0.0
  0
LINE
  5
2C6
  8
0
 62
     7
 10
31.017099999999999
 20
171.48400000000001
 30
0.0
 11
34.255499999999998
 21
180.3829999999999
 31
0.0
  0
LINE
  5
2C7
  8
0
  6
AIGENLINE001
 62
     7
 10
34.3964
 20
180.77000000000001
 30
0.0
 11
35.404800000000002
 21
183.54300000000001
 31
0.0
  0
LINE
  5
2C8
  8
0
 62
     7
 10
-21.295300000000001
 20
145.13300000000001
 30
0.0
 11
-21.294799999999999
 21
125.899
 31
0.0
  0
ARC
  5
2C9
  8
0
  6
AIGENLINE001
 62
     7
 10
-15.295287999999999
 20
124.899455
 30
0.0
 40
7.2500780000000002
 50
269.99865899999998
 51
359.99862899999999
  0
ARC
  5
2CA
  8
0
  6
AIGENLINE001
 62
     7
 10
-15.295461
 20
124.89928
 30
0.0
 40
7.249903999999999
 50
179.99996999999999
 51
270.00002000000001
  0
LINE
  5
2CB
  8
0
 62
     7
 10
106.828
 20
254.55199999999999
 30
0.0
 11
100.88
 21
254.55199999999999
 31
0.0
  0
LINE
  5
2CC
  8
0
 62
     7
 10
90.136300000000006
 20
242.97
 30
0.0
 11
91.2804
 21
244.952
 31
0.0
  0
LINE
  5
2CD
  8
0
 62
     7
 10
91.2804
 20
244.952
 30
0.0
 11
89.2988
 21
243.80799999999999
 31
0.0
  0
LINE
  5
2CE
  8
0
 62
     7
 10
89.2988
 20
243.80799999999999
 30
0.0
 11
90.136300000000006
 21
242.97
 31
0.0
  0
LINE
  5
2CF
  8
0
 62
     7
 10
97.644599999999997
 20
252.14400000000001
 30
0.0
 11
96.500100000000003
 21
250.16200000000001
 31
0.0
  0
LINE
  5
2D0
  8
0
 62
     7
 10
96.500100000000003
 20
250.16200000000001
 30
0.0
 11
98.482500000000002
 21
251.30600000000001
 31
0.0
  0
LINE
  5
2D1
  8
0
 62
     7
 10
98.482500000000002
 20
251.30600000000001
 30
0.0
 11
97.644599999999997
 21
252.14400000000001
 31
0.0
  0
LINE
  5
2D2
  8
0
 62
     7
 10
100.88
 20
254.55199999999999
 30
0.0
 11
86.893100000000004
 21
240.565
 31
0.0
  0
LINE
  5
2D3
  8
0
 62
     7
 10
81.827699999999993
 20
254.55199999999999
 30
0.0
 11
75.880099999999999
 21
254.55199999999999
 31
0.0
  0
LINE
  5
2D4
  8
0
 62
     7
 10
65.136499999999998
 20
242.97
 30
0.0
 11
66.280600000000007
 21
244.952
 31
0.0
  0
LINE
  5
2D5
  8
0
 62
     7
 10
66.280600000000007
 20
244.952
 30
0.0
 11
64.298999999999992
 21
243.80799999999999
 31
0.0
  0
LINE
  5
2D6
  8
0
 62
     7
 10
64.298999999999992
 20
243.80799999999999
 30
0.0
 11
65.136499999999998
 21
242.97
 31
0.0
  0
LINE
  5
2D7
  8
0
 62
     7
 10
72.644800000000004
 20
252.14400000000001
 30
0.0
 11
71.500299999999996
 21
250.16200000000001
 31
0.0
  0
LINE
  5
2D8
  8
0
 62
     7
 10
71.500299999999996
 20
250.16200000000001
 30
0.0
 11
73.482600000000005
 21
251.30600000000001
 31
0.0
  0
LINE
  5
2D9
  8
0
 62
     7
 10
73.482600000000005
 20
251.30600000000001
 30
0.0
 11
72.644800000000004
 21
252.14400000000001
 31
0.0
  0
LINE
  5
2DA
  8
0
 62
     7
 10
75.880099999999999
 20
254.55199999999999
 30
0.0
 11
61.893300000000004
 21
240.565
 31
0.0
  0
LINE
  5
2DB
  8
0
 62
     7
 10
56.826900000000002
 20
254.55199999999999
 30
0.0
 11
50.879199999999997
 21
254.55199999999999
 31
0.0
  0
LINE
  5
2DC
  8
0
 62
     7
 10
40.135599999999997
 20
242.97
 30
0.0
 11
41.279699999999998
 21
244.952
 31
0.0
  0
LINE
  5
2DD
  8
0
 62
     7
 10
41.279699999999998
 20
244.952
 30
0.0
 11
39.298099999999998
 21
243.80799999999999
 31
0.0
  0
LINE
  5
2DE
  8
0
 62
     7
 10
39.298099999999998
 20
243.80799999999999
 30
0.0
 11
40.135599999999997
 21
242.97
 31
0.0
  0
LINE
  5
2DF
  8
0
 62
     7
 10
47.643900000000002
 20
252.14400000000001
 30
0.0
 11
46.499399999999987
 21
250.16200000000001
 31
0.0
  0
LINE
  5
2E0
  8
0
 62
     7
 10
46.499399999999987
 20
250.16200000000001
 30
0.0
 11
48.4818
 21
251.30600000000001
 31
0.0
  0
LINE
  5
2E1
  8
0
 62
     7
 10
48.4818
 20
251.30600000000001
 30
0.0
 11
47.643900000000002
 21
252.14400000000001
 31
0.0
  0
LINE
  5
2E2
  8
0
 62
     7
 10
50.879199999999997
 20
254.55199999999999
 30
0.0
 11
36.892400000000002
 21
240.565
 31
0.0
  0
ARC
  5
2E3
  8
0
 62
     7
 10
93.892535999999993
 20
247.554586
 30
0.0
 40
3.6876540000000002
 50
270.00002000000001
 51
359.99999000000003
  0
ARC
  5
2E4
  8
0
 62
     7
 10
93.892535999999993
 20
247.554585
 30
0.0
 40
3.6876530000000001
 50
179.99996999999999
 51
270.00002000000001
  0
ARC
  5
2E5
  8
0
 62
     7
 10
93.892364999999998
 20
247.55441300000001
 30
0.0
 40
3.6874820000000001
 50
89.997324000000006
 51
179.99729400000001
  0
ARC
  5
2E6
  8
0
 62
     7
 10
93.892708999999996
 20
247.55441300000001
 30
0.0
 40
3.6874820000000001
 50
0.002686
 51
90.002656999999985
  0
ARC
  5
2E7
  8
0
 62
     7
 10
68.892697999999996
 20
247.554586
 30
0.0
 40
3.6876540000000002
 50
270.00002000000001
 51
359.99999000000003
  0
ARC
  5
2E8
  8
0
 62
     7
 10
68.892697999999996
 20
247.554585
 30
0.0
 40
3.6876530000000001
 50
179.99996999999999
 51
270.00002000000001
  0
ARC
  5
2E9
  8
0
 62
     7
 10
68.892527000000001
 20
247.55441300000001
 30
0.0
 40
3.6874820000000001
 50
89.997324000000006
 51
179.99729400000001
  0
ARC
  5
2EA
  8
0
 62
     7
 10
68.892871
 20
247.55441300000001
 30
0.0
 40
3.6874820000000001
 50
0.002686
 51
90.002656999999985
  0
ARC
  5
2EB
  8
0
 62
     7
 10
43.892170999999998
 20
247.554586
 30
0.0
 40
3.6876540000000002
 50
270.00002000000001
 51
359.99999000000003
  0
ARC
  5
2EC
  8
0
 62
     7
 10
43.892170999999998
 20
247.554585
 30
0.0
 40
3.6876530000000001
 50
179.99996999999999
 51
270.00002000000001
  0
ARC
  5
2ED
  8
0
 62
     7
 10
43.891999999999989
 20
247.55441300000001
 30
0.0
 40
3.6874820000000001
 50
89.997324000000006
 51
179.99729400000001
  0
ARC
  5
2EE
  8
0
 62
     7
 10
43.892344000000001
 20
247.55441300000001
 30
0.0
 40
3.6874820000000001
 50
0.002686
 51
90.002656999999985
  0
LINE
  5
2EF
  8
0
 62
     7
 10
-46.0685
 20
160.928
 30
0.0
 11
-43.8581
 21
161.52000000000001
 31
0.0
  0
LINE
  5
2F0
  8
0
 62
     7
 10
-43.8581
 20
161.52000000000001
 30
0.0
 11
-46.0685
 21
162.113
 31
0.0
  0
LINE
  5
2F1
  8
0
 62
     7
 10
-46.0685
 20
162.113
 30
0.0
 11
-46.0685
 21
160.928
 31
0.0
  0
LINE
  5
2F2
  8
0
 62
     7
 10
-49.022300000000001
 20
160.928
 30
0.0
 11
-51.232700000000001
 21
161.52000000000001
 31
0.0
  0
LINE
  5
2F3
  8
0
 62
     7
 10
-51.232700000000001
 20
161.52000000000001
 30
0.0
 11
-49.022300000000001
 21
162.11199999999999
 31
0.0
  0
LINE
  5
2F4
  8
0
 62
     7
 10
-49.022300000000001
 20
162.11199999999999
 30
0.0
 11
-49.022300000000001
 21
160.928
 31
0.0
  0
LINE
  5
2F5
  8
0
 62
     7
 10
-43.8581
 20
161.52000000000001
 30
0.0
 11
-54.448
 21
161.52000000000001
 31
0.0
  0
LINE
  5
2F6
  8
0
 62
     7
 10
-20.568000000000001
 20
160.928
 30
0.0
 11
-18.357700000000001
 21
161.52000000000001
 31
0.0
  0
LINE
  5
2F7
  8
0
 62
     7
 10
-18.357700000000001
 20
161.52000000000001
 30
0.0
 11
-20.568000000000001
 21
162.113
 31
0.0
  0
LINE
  5
2F8
  8
0
 62
     7
 10
-20.568000000000001
 20
162.113
 30
0.0
 11
-20.568000000000001
 21
160.928
 31
0.0
  0
LINE
  5
2F9
  8
0
 62
     7
 10
-24.521999999999998
 20
160.928
 30
0.0
 11
-26.732399999999998
 21
161.52000000000001
 31
0.0
  0
LINE
  5
2FA
  8
0
 62
     7
 10
-26.732399999999998
 20
161.52000000000001
 30
0.0
 11
-24.521999999999998
 21
162.11199999999999
 31
0.0
  0
LINE
  5
2FB
  8
0
 62
     7
 10
-24.521999999999998
 20
162.11199999999999
 30
0.0
 11
-24.521999999999998
 21
160.928
 31
0.0
  0
LINE
  5
2FC
  8
0
 62
     7
 10
-18.357700000000001
 20
161.52000000000001
 30
0.0
 11
-28.947600000000001
 21
161.52000000000001
 31
0.0
  0
LINE
  5
2FD
  8
0
 62
     7
 10
-17.880500000000001
 20
168.833
 30
0.0
 11
-15.6701
 21
169.42500000000001
 31
0.0
  0
LINE
  5
2FE
  8
0
 62
     7
 10
-15.6701
 20
169.42500000000001
 30
0.0
 11
-17.880500000000001
 21
170.018
 31
0.0
  0
LINE
  5
2FF
  8
0
 62
     7
 10
-17.880500000000001
 20
170.018
 30
0.0
 11
-17.880500000000001
 21
168.833
 31
0.0
  0
LINE
  5
300
  8
0
 62
     7
 10
-27.2133
 20
168.833
 30
0.0
 11
-29.4237
 21
169.42500000000001
 31
0.0
  0
LINE
  5
301
  8
0
 62
     7
 10
-29.4237
 20
169.42500000000001
 30
0.0
 11
-27.2133
 21
170.017
 31
0.0
  0
LINE
  5
302
  8
0
 62
     7
 10
-27.2133
 20
170.017
 30
0.0
 11
-27.2133
 21
168.833
 31
0.0
  0
LINE
  5
303
  8
0
 62
     7
 10
-29.419899999999998
 20
170.39500000000001
 30
0.0
 11
-29.419899999999998
 21
166.88399999999999
 31
0.0
  0
LINE
  5
304
  8
0
 62
     7
 10
-15.6701
 20
170.39500000000001
 30
0.0
 11
-15.6701
 21
166.88399999999999
 31
0.0
  0
LINE
  5
305
  8
0
 62
     7
 10
-15.6701
 20
169.42500000000001
 30
0.0
 11
-34.466999999999999
 21
169.42500000000001
 31
0.0
  0
LINE
  5
306
  8
0
 62
     7
 10
-8.4172799999999999
 20
195.66
 30
0.0
 11
-19.2956
 21
195.63399999999999
 31
0.0
  0
LINE
  5
307
  8
0
 62
     7
 10
86.879699999999985
 20
167.33000000000001
 30
0.0
 11
86.287099999999995
 21
165.12100000000001
 31
0.0
  0
LINE
  5
308
  8
0
 62
     7
 10
86.287099999999995
 20
165.12100000000001
 30
0.0
 11
85.6952
 21
167.33000000000001
 31
0.0
  0
LINE
  5
309
  8
0
 62
     7
 10
85.6952
 20
167.33000000000001
 30
0.0
 11
86.879699999999985
 21
167.33000000000001
 31
0.0
  0
LINE
  5
30A
  8
0
 62
     7
 10
86.879699999999985
 20
193.42400000000001
 30
0.0
 11
86.287099999999995
 21
195.63399999999999
 31
0.0
  0
LINE
  5
30B
  8
0
 62
     7
 10
86.287099999999995
 20
195.63399999999999
 30
0.0
 11
85.694500000000005
 21
193.423
 31
0.0
  0
LINE
  5
30C
  8
0
 62
     7
 10
85.694500000000005
 20
193.423
 30
0.0
 11
86.879699999999985
 21
193.42400000000001
 31
0.0
  0
LINE
  5
30D
  8
0
 62
     7
 10
86.287099999999995
 20
165.12100000000001
 30
0.0
 11
86.287099999999995
 21
195.63399999999999
 31
0.0
  0
LINE
  5
30E
  8
0
 62
     7
 10
87.168999999999997
 20
165.13399999999999
 30
0.0
 11
77.042100000000005
 21
165.13399999999999
 31
0.0
  0
LINE
  5
30F
  8
0
 62
     7
 10
87.168999999999997
 20
195.63399999999999
 30
0.0
 11
77.392099999999985
 21
195.63399999999999
 31
0.0
  0
LINE
  5
310
  8
0
 62
     7
 10
37.089399999999998
 20
171.178
 30
0.0
 11
34.879100000000001
 21
171.77099999999999
 31
0.0
  0
LINE
  5
311
  8
0
 62
     7
 10
34.879100000000001
 20
171.77099999999999
 30
0.0
 11
37.089399999999998
 21
172.363
 31
0.0
  0
LINE
  5
312
  8
0
 62
     7
 10
37.089399999999998
 20
172.363
 30
0.0
 11
37.089399999999998
 21
171.178
 31
0.0
  0
LINE
  5
313
  8
0
 62
     7
 10
66.681600000000003
 20
171.178
 30
0.0
 11
68.891999999999996
 21
171.77099999999999
 31
0.0
  0
LINE
  5
314
  8
0
 62
     7
 10
68.891999999999996
 20
171.77099999999999
 30
0.0
 11
66.681600000000003
 21
172.363
 31
0.0
  0
LINE
  5
315
  8
0
 62
     7
 10
66.681600000000003
 20
172.363
 30
0.0
 11
66.681600000000003
 21
171.178
 31
0.0
  0
LINE
  5
316
  8
0
 62
     7
 10
68.891999999999996
 20
171.77099999999999
 30
0.0
 11
34.879100000000001
 21
171.77099999999999
 31
0.0
  0
LINE
  5
317
  8
0
 62
     7
 10
34.892099999999999
 20
170.94999999999999
 30
0.0
 11
34.892099999999999
 21
181.13399999999999
 31
0.0
  0
LINE
  5
318
  8
0
 62
     7
 10
68.465500000000006
 20
126.33
 30
0.0
 11
66.255099999999999
 21
126.923
 31
0.0
  0
LINE
  5
319
  8
0
 62
     7
 10
66.255099999999999
 20
126.923
 30
0.0
 11
68.465500000000006
 21
127.515
 31
0.0
  0
LINE
  5
31A
  8
0
 62
     7
 10
68.465500000000006
 20
127.515
 30
0.0
 11
68.465500000000006
 21
126.33
 31
0.0
  0
LINE
  5
31B
  8
0
 62
     7
 10
69.3078
 20
126.33
 30
0.0
 11
71.518199999999993
 21
126.923
 31
0.0
  0
LINE
  5
31C
  8
0
 62
     7
 10
71.518199999999993
 20
126.923
 30
0.0
 11
69.3078
 21
127.515
 31
0.0
  0
LINE
  5
31D
  8
0
 62
     7
 10
69.3078
 20
127.515
 30
0.0
 11
69.3078
 21
126.33
 31
0.0
  0
LINE
  5
31E
  8
0
 62
     7
 10
71.518199999999993
 20
126.923
 30
0.0
 11
55.770200000000003
 21
126.923
 31
0.0
  0
LINE
  5
31F
  8
0
 62
     7
 10
66.268199999999993
 20
126.041
 30
0.0
 11
66.268199999999993
 21
133.63300000000001
 31
0.0
  0
LINE
  5
320
  8
0
 62
     7
 10
71.518199999999993
 20
126.041
 30
0.0
 11
71.518199999999993
 21
133.63300000000001
 31
0.0
  0
LINE
  5
321
  8
0
 62
     7
 10
-42.881
 20
168.833
 30
0.0
 11
-40.6706
 21
169.42500000000001
 31
0.0
  0
LINE
  5
322
  8
0
 62
     7
 10
-40.6706
 20
169.42500000000001
 30
0.0
 11
-42.881
 21
170.018
 31
0.0
  0
LINE
  5
323
  8
0
 62
     7
 10
-42.881
 20
170.018
 30
0.0
 11
-42.881
 21
168.833
 31
0.0
  0
LINE
  5
324
  8
0
 62
     7
 10
-52.214199999999998
 20
168.833
 30
0.0
 11
-54.424599999999998
 21
169.42500000000001
 31
0.0
  0
LINE
  5
325
  8
0
 62
     7
 10
-54.424599999999998
 20
169.42500000000001
 30
0.0
 11
-52.214199999999998
 21
170.017
 31
0.0
  0
LINE
  5
326
  8
0
 62
     7
 10
-52.214199999999998
 20
170.017
 30
0.0
 11
-52.214199999999998
 21
168.833
 31
0.0
  0
LINE
  5
327
  8
0
 62
     7
 10
-54.4208
 20
170.39500000000001
 30
0.0
 11
-54.4208
 21
166.88399999999999
 31
0.0
  0
LINE
  5
328
  8
0
 62
     7
 10
-40.6706
 20
170.39500000000001
 30
0.0
 11
-40.6706
 21
166.88399999999999
 31
0.0
  0
LINE
  5
329
  8
0
 62
     7
 10
-51.210299999999997
 20
134.13399999999999
 30
0.0
 11
-64.674199999999999
 21
134.13399999999999
 31
0.0
  0
LINE
  5
32A
  8
0
 62
     7
 10
-55.746299999999991
 20
165.13399999999999
 30
0.0
 11
-64.674199999999999
 21
165.13399999999999
 31
0.0
  0
LINE
  5
32B
  8
0
 62
     7
 10
-40.6706
 20
169.42500000000001
 30
0.0
 11
-59.4679
 21
169.42500000000001
 31
0.0
  0
LINE
  5
32C
  8
0
 62
     7
 10
15.791
 20
167.34299999999999
 30
0.0
 11
15.198499999999999
 21
165.13399999999999
 31
0.0
  0
LINE
  5
32D
  8
0
 62
     7
 10
15.198499999999999
 20
165.13399999999999
 30
0.0
 11
14.6066
 21
167.34299999999999
 31
0.0
  0
LINE
  5
32E
  8
0
 62
     7
 10
14.6066
 20
167.34299999999999
 30
0.0
 11
15.791
 21
167.34299999999999
 31
0.0
  0
LINE
  5
32F
  8
0
 62
     7
 10
14.6059
 20
157.673
 30
0.0
 11
15.198499999999999
 21
159.88399999999999
 31
0.0
  0
LINE
  5
330
  8
0
 62
     7
 10
15.198499999999999
 20
159.88399999999999
 30
0.0
 11
15.791
 21
157.673
 31
0.0
  0
LINE
  5
331
  8
0
 62
     7
 10
15.791
 20
157.673
 30
0.0
 11
14.6059
 21
157.673
 31
0.0
  0
LINE
  5
332
  8
0
 62
     7
 10
15.198499999999999
 20
148.636
 30
0.0
 11
15.198499999999999
 21
168.38300000000001
 31
0.0
  0
LINE
  5
333
  8
0
 62
     7
 10
43.705399999999997
 20
167.34299999999999
 30
0.0
 11
43.112900000000003
 21
165.13399999999999
 31
0.0
  0
LINE
  5
334
  8
0
 62
     7
 10
43.112900000000003
 20
165.13399999999999
 30
0.0
 11
42.521000000000001
 21
167.34299999999999
 31
0.0
  0
LINE
  5
335
  8
0
 62
     7
 10
42.521000000000001
 20
167.34299999999999
 30
0.0
 11
43.705399999999997
 21
167.34299999999999
 31
0.0
  0
LINE
  5
336
  8
0
 62
     7
 10
42.520299999999999
 20
179.06800000000001
 30
0.0
 11
43.112900000000003
 21
181.279
 31
0.0
  0
LINE
  5
337
  8
0
 62
     7
 10
43.112900000000003
 20
181.279
 30
0.0
 11
43.705399999999997
 21
179.06800000000001
 31
0.0
  0
LINE
  5
338
  8
0
 62
     7
 10
43.705399999999997
 20
179.06800000000001
 30
0.0
 11
42.520299999999999
 21
179.06800000000001
 31
0.0
  0
LINE
  5
339
  8
0
 62
     7
 10
43.112900000000003
 20
165.13399999999999
 30
0.0
 11
43.112900000000003
 21
181.279
 31
0.0
  0
LINE
  5
33A
  8
0
 62
     7
 10
25.782900000000001
 20
167.34299999999999
 30
0.0
 11
25.1904
 21
165.13399999999999
 31
0.0
  0
LINE
  5
33B
  8
0
 62
     7
 10
25.1904
 20
165.13399999999999
 30
0.0
 11
24.598500000000001
 21
167.34299999999999
 31
0.0
  0
LINE
  5
33C
  8
0
 62
     7
 10
24.598500000000001
 20
167.34299999999999
 30
0.0
 11
25.782900000000001
 21
167.34299999999999
 31
0.0
  0
LINE
  5
33D
  8
0
 62
     7
 10
24.597799999999999
 20
179.93600000000001
 30
0.0
 11
25.1904
 21
182.14699999999999
 31
0.0
  0
LINE
  5
33E
  8
0
 62
     7
 10
25.1904
 20
182.14699999999999
 30
0.0
 11
25.782900000000001
 21
179.93600000000001
 31
0.0
  0
LINE
  5
33F
  8
0
 62
     7
 10
25.782900000000001
 20
179.93600000000001
 30
0.0
 11
24.597799999999999
 21
179.93600000000001
 31
0.0
  0
LINE
  5
340
  8
0
 62
     7
 10
25.1904
 20
165.13399999999999
 30
0.0
 11
25.1904
 21
182.14699999999999
 31
0.0
  0
LINE
  5
341
  8
0
 62
     7
 10
29.626300000000001
 20
173.90199999999999
 30
0.0
 11
31.348500000000001
 21
172.39500000000001
 31
0.0
  0
LINE
  5
342
  8
0
 62
     7
 10
31.348500000000001
 20
172.39500000000001
 30
0.0
 11
29.102599999999999
 21
172.839
 31
0.0
  0
LINE
  5
343
  8
0
 62
     7
 10
29.102599999999999
 20
172.839
 30
0.0
 11
29.626300000000001
 21
173.90199999999999
 31
0.0
  0
LINE
  5
344
  8
0
 62
     7
 10
24.490300000000001
 20
165.13399999999999
 30
0.0
 11
60.3919
 21
165.13399999999999
 31
0.0
  0
LINE
  5
345
  8
0
 62
     7
 10
37.941099999999999
 20
181.279
 30
0.0
 11
43.812899999999992
 21
181.279
 31
0.0
  0
LINE
  5
346
  8
0
 62
     7
 10
24.490300000000001
 20
182.13399999999999
 30
0.0
 11
33.892000000000003
 21
182.13399999999999
 31
0.0
  0
LINE
  5
347
  8
0
 62
     7
 10
-63.377600000000001
 20
136.34299999999999
 30
0.0
 11
-63.970100000000002
 21
134.13399999999999
 31
0.0
  0
LINE
  5
348
  8
0
 62
     7
 10
-63.970100000000002
 20
134.13399999999999
 30
0.0
 11
-64.561999999999983
 21
136.34299999999999
 31
0.0
  0
LINE
  5
349
  8
0
 62
     7
 10
-64.561999999999983
 20
136.34299999999999
 30
0.0
 11
-63.377600000000001
 21
136.34299999999999
 31
0.0
  0
LINE
  5
34A
  8
0
 62
     7
 10
-64.562700000000007
 20
162.923
 30
0.0
 11
-63.970100000000002
 21
165.13399999999999
 31
0.0
  0
LINE
  5
34B
  8
0
 62
     7
 10
-63.970100000000002
 20
165.13399999999999
 30
0.0
 11
-63.377600000000001
 21
162.923
 31
0.0
  0
LINE
  5
34C
  8
0
 62
     7
 10
-63.377600000000001
 20
162.923
 30
0.0
 11
-64.562700000000007
 21
162.923
 31
0.0
  0
LINE
  5
34D
  8
0
 62
     7
 10
-63.970100000000002
 20
134.13399999999999
 30
0.0
 11
-63.970100000000002
 21
165.13399999999999
 31
0.0
  0
LINE
  5
34E
  8
0
 62
     7
 10
-8.706669999999999
 20
167.35599999999999
 30
0.0
 11
-9.2992299999999997
 21
165.14699999999999
 31
0.0
  0
LINE
  5
34F
  8
0
 62
     7
 10
-9.2992299999999997
 20
165.14699999999999
 30
0.0
 11
-9.8910999999999998
 21
167.35599999999999
 31
0.0
  0
LINE
  5
350
  8
0
 62
     7
 10
-9.8910999999999998
 20
167.35599999999999
 30
0.0
 11
-8.706669999999999
 21
167.35599999999999
 31
0.0
  0
LINE
  5
351
  8
0
 62
     7
 10
-9.8917900000000003
 20
193.44999999999999
 30
0.0
 11
-9.2992299999999997
 21
195.66
 31
0.0
  0
LINE
  5
352
  8
0
 62
     7
 10
-9.2992299999999997
 20
195.66
 30
0.0
 11
-8.706669999999999
 21
193.44900000000001
 31
0.0
  0
LINE
  5
353
  8
0
 62
     7
 10
-8.706669999999999
 20
193.44900000000001
 30
0.0
 11
-9.8917900000000003
 21
193.44999999999999
 31
0.0
  0
LINE
  5
354
  8
0
 62
     7
 10
-9.2992299999999997
 20
165.14699999999999
 30
0.0
 11
-9.2992299999999997
 21
195.66
 31
0.0
  0
LINE
  5
355
  8
0
 62
     7
 10
46.103200000000001
 20
266.38400000000001
 30
0.0
 11
43.89289999999999
 21
265.791
 31
0.0
  0
LINE
  5
356
  8
0
 62
     7
 10
43.89289999999999
 20
265.791
 30
0.0
 11
46.103200000000001
 21
265.19900000000001
 31
0.0
  0
LINE
  5
357
  8
0
 62
     7
 10
46.103200000000001
 20
265.19900000000001
 30
0.0
 11
46.103200000000001
 21
266.38400000000001
 31
0.0
  0
LINE
  5
358
  8
0
 62
     7
 10
66.682299999999998
 20
265.19900000000001
 30
0.0
 11
68.892700000000005
 21
265.791
 31
0.0
  0
LINE
  5
359
  8
0
 62
     7
 10
68.892700000000005
 20
265.791
 30
0.0
 11
66.682299999999998
 21
266.38400000000001
 31
0.0
  0
LINE
  5
35A
  8
0
 62
     7
 10
66.682299999999998
 20
266.38400000000001
 30
0.0
 11
66.682299999999998
 21
265.19900000000001
 31
0.0
  0
LINE
  5
35B
  8
0
 62
     7
 10
71.103099999999998
 20
266.38400000000001
 30
0.0
 11
68.892700000000005
 21
265.791
 31
0.0
  0
LINE
  5
35C
  8
0
 62
     7
 10
68.892700000000005
 20
265.791
 30
0.0
 11
71.103099999999998
 21
265.19900000000001
 31
0.0
  0
LINE
  5
35D
  8
0
 62
     7
 10
71.103099999999998
 20
265.19900000000001
 30
0.0
 11
71.103099999999998
 21
266.38400000000001
 31
0.0
  0
LINE
  5
35E
  8
0
 62
     7
 10
91.682100000000005
 20
265.19900000000001
 30
0.0
 11
93.892499999999998
 21
265.791
 31
0.0
  0
LINE
  5
35F
  8
0
 62
     7
 10
93.892499999999998
 20
265.791
 30
0.0
 11
91.682100000000005
 21
266.38400000000001
 31
0.0
  0
LINE
  5
360
  8
0
 62
     7
 10
91.682100000000005
 20
266.38400000000001
 30
0.0
 11
91.682100000000005
 21
265.19900000000001
 31
0.0
  0
LINE
  5
361
  8
0
 62
     7
 10
93.892499999999998
 20
259.80500000000001
 30
0.0
 11
93.892499999999998
 21
266.49200000000002
 31
0.0
  0
LINE
  5
362
  8
0
 62
     7
 10
68.892700000000005
 20
259.80500000000001
 30
0.0
 11
68.892700000000005
 21
266.49200000000002
 31
0.0
  0
LINE
  5
363
  8
0
 62
     7
 10
43.892200000000003
 20
259.80500000000001
 30
0.0
 11
43.892200000000003
 21
266.49200000000002
 31
0.0
  0
LINE
  5
364
  8
0
 62
     7
 10
93.892499999999998
 20
265.791
 30
0.0
 11
43.892200000000003
 21
265.791
 31
0.0
  0
LINE
  5
365
  8
0
  6
AIGENLINE001
 62
     7
 10
93.892499999999998
 20
258.80500000000001
 30
0.0
 11
93.892499999999998
 21
236.304
 31
0.0
  0
LINE
  5
366
  8
0
  6
AIGENLINE001
 62
     7
 10
68.892700000000005
 20
258.80500000000001
 30
0.0
 11
68.892700000000005
 21
236.304
 31
0.0
  0
LINE
  5
367
  8
0
  6
AIGENLINE001
 62
     7
 10
37.526600000000002
 20
247.55500000000001
 30
0.0
 11
101.181
 21
247.55500000000001
 31
0.0
  0
LINE
  5
368
  8
0
  6
AIGENLINE001
 62
     7
 10
43.892200000000003
 20
258.80500000000001
 30
0.0
 11
43.892200000000003
 21
236.304
 31
0.0
  0
LINE
  5
369
  8
0
 62
     7
 10
-45.334600000000002
 20
266.38400000000001
 30
0.0
 11
-47.545000000000002
 21
265.791
 31
0.0
  0
LINE
  5
36A
  8
0
 62
     7
 10
-47.545000000000002
 20
265.791
 30
0.0
 11
-45.334600000000002
 21
265.19900000000001
 31
0.0
  0
LINE
  5
36B
  8
0
 62
     7
 10
-45.334600000000002
 20
265.19900000000001
 30
0.0
 11
-45.334600000000002
 21
266.38400000000001
 31
0.0
  0
LINE
  5
36C
  8
0
 62
     7
 10
-24.755600000000001
 20
265.19900000000001
 30
0.0
 11
-22.545200000000001
 21
265.791
 31
0.0
  0
LINE
  5
36D
  8
0
 62
     7
 10
-22.545200000000001
 20
265.791
 30
0.0
 11
-24.755600000000001
 21
266.38400000000001
 31
0.0
  0
LINE
  5
36E
  8
0
 62
     7
 10
-24.755600000000001
 20
266.38400000000001
 30
0.0
 11
-24.755600000000001
 21
265.19900000000001
 31
0.0
  0
LINE
  5
36F
  8
0
 62
     7
 10
-20.334800000000001
 20
266.38400000000001
 30
0.0
 11
-22.545200000000001
 21
265.791
 31
0.0
  0
LINE
  5
370
  8
0
 62
     7
 10
-22.545200000000001
 20
265.791
 30
0.0
 11
-20.334800000000001
 21
265.19900000000001
 31
0.0
  0
LINE
  5
371
  8
0
 62
     7
 10
-20.334800000000001
 20
265.19900000000001
 30
0.0
 11
-20.334800000000001
 21
266.38400000000001
 31
0.0
  0
LINE
  5
372
  8
0
 62
     7
 10
0.244259
 20
265.19900000000001
 30
0.0
 11
2.4546499999999991
 21
265.791
 31
0.0
  0
LINE
  5
373
  8
0
 62
     7
 10
2.4546499999999991
 20
265.791
 30
0.0
 11
0.244259
 21
266.38400000000001
 31
0.0
  0
LINE
  5
374
  8
0
 62
     7
 10
0.244259
 20
266.38400000000001
 30
0.0
 11
0.244259
 21
265.19900000000001
 31
0.0
  0
LINE
  5
375
  8
0
 62
     7
 10
2.4546499999999991
 20
259.80500000000001
 30
0.0
 11
2.4546499999999991
 21
266.49200000000002
 31
0.0
  0
LINE
  5
376
  8
0
 62
     7
 10
-22.545200000000001
 20
259.80500000000001
 30
0.0
 11
-22.545200000000001
 21
266.49200000000002
 31
0.0
  0
LINE
  5
377
  8
0
 62
     7
 10
-47.545699999999997
 20
259.80500000000001
 30
0.0
 11
-47.545699999999997
 21
266.49200000000002
 31
0.0
  0
LINE
  5
378
  8
0
 62
     7
 10
2.4546499999999991
 20
265.791
 30
0.0
 11
-47.545699999999997
 21
265.791
 31
0.0
  0
LINE
  5
379
  8
0
 62
     7
 10
-9.8917900000000003
 20
94.842699999999994
 30
0.0
 11
-9.2992299999999997
 21
92.632999999999996
 31
0.0
  0
LINE
  5
37A
  8
0
 62
     7
 10
-9.2992299999999997
 20
92.632999999999996
 30
0.0
 11
-8.7073600000000013
 21
94.842699999999994
 31
0.0
  0
LINE
  5
37B
  8
0
 62
     7
 10
-8.7073600000000013
 20
94.842699999999994
 30
0.0
 11
-9.8917900000000003
 21
94.842699999999994
 31
0.0
  0
LINE
  5
37C
  8
0
 62
     7
 10
-8.706669999999999
 20
162.93600000000001
 30
0.0
 11
-9.2992299999999997
 21
165.14699999999999
 31
0.0
  0
LINE
  5
37D
  8
0
 62
     7
 10
-9.2992299999999997
 20
165.14699999999999
 30
0.0
 11
-9.8917900000000003
 21
162.93600000000001
 31
0.0
  0
LINE
  5
37E
  8
0
 62
     7
 10
-9.8917900000000003
 20
162.93600000000001
 30
0.0
 11
-8.706669999999999
 21
162.93600000000001
 31
0.0
  0
LINE
  5
37F
  8
0
 62
     7
 10
-9.2992299999999997
 20
92.632999999999996
 30
0.0
 11
-9.2992299999999997
 21
165.14699999999999
 31
0.0
  0
LINE
  5
380
  8
0
 62
     7
 10
-8.4172799999999999
 20
92.632999999999996
 30
0.0
 11
-20.920000000000002
 21
92.632999999999996
 31
0.0
  0
LINE
  5
381
  8
0
 62
     7
 10
-8.4172799999999999
 20
165.13399999999999
 30
0.0
 11
-14.045199999999999
 21
165.13399999999999
 31
0.0
  0
LINE
  5
382
  8
0
 62
     7
 10
69.517300000000006
 20
92.632999999999996
 30
0.0
 11
68.267399999999995
 21
92.632999999999996
 31
0.0
  0
LINE
  5
383
  8
0
 62
     7
 10
-21.920200000000001
 20
92.632999999999996
 30
0.0
 11
-23.170100000000001
 21
92.632300000000001
 31
0.0
  0
LINE
  5
384
  8
0
 62
     7
 10
-25.380500000000001
 20
96.053299999999993
 30
0.0
 11
-23.170100000000001
 21
96.645200000000017
 31
0.0
  0
LINE
  5
385
  8
0
 62
     7
 10
-23.170100000000001
 20
96.645200000000017
 30
0.0
 11
-25.380500000000001
 21
97.237700000000004
 31
0.0
  0
LINE
  5
386
  8
0
 62
     7
 10
-25.380500000000001
 20
97.237700000000004
 30
0.0
 11
-25.380500000000001
 21
96.053299999999993
 31
0.0
  0
LINE
  5
387
  8
0
 62
     7
 10
-19.709900000000001
 20
96.053299999999993
 30
0.0
 11
-21.920200000000001
 21
96.645200000000017
 31
0.0
  0
LINE
  5
388
  8
0
 62
     7
 10
-21.920200000000001
 20
96.645200000000017
 30
0.0
 11
-19.709900000000001
 21
97.237700000000004
 31
0.0
  0
LINE
  5
389
  8
0
 62
     7
 10
-19.709900000000001
 20
97.237700000000004
 30
0.0
 11
-19.709900000000001
 21
96.053299999999993
 31
0.0
  0
LINE
  5
38A
  8
0
 62
     7
 10
-15.003299999999999
 20
96.645200000000017
 30
0.0
 11
-27.414200000000001
 21
96.645200000000017
 31
0.0
  0
ARC
  5
38B
  8
0
  6
AIGENLINE001
 62
     7
 10
-30.592286999999999
 20
124.913892
 30
0.0
 40
22.547082
 50
359.962872
 51
7.5959139999999978
  0
ARC
  5
38C
  8
0
  6
AIGENLINE001
 62
     7
 10
-25.225532999999999
 20
125.53468100000001
 30
0.0
 40
17.145619
 50
7.910258999999999
 51
16.901185999999999
  0
ARC
  5
38D
  8
0
  6
AIGENLINE001
 62
     7
 10
-21.896391999999999
 20
126.470857
 30
0.0
 40
13.688295
 50
17.203040999999999
 51
31.462444000000001
  0
ARC
  5
38E
  8
0
  6
AIGENLINE001
 62
     7
 10
-20.788239999999998
 20
127.03548000000001
 30
0.0
 40
12.448738000000001
 50
31.907858000000001
 51
53.005769999999998
  0
ARC
  5
38F
  8
0
  6
AIGENLINE001
 62
     7
 10
-22.363448000000002
 20
125.08544000000001
 30
0.0
 40
14.954324
 50
52.681224999999991
 51
63.455441
  0
ARC
  5
390
  8
0
  6
AIGENLINE001
 62
     7
 10
-24.457457000000002
 20
121.145293
 30
0.0
 40
19.415254000000001
 50
63.123598000000008
 51
71.867533999999992
  0
ARC
  5
391
  8
0
  6
AIGENLINE001
 62
     7
 10
-26.804523
 20
114.49663200000001
 30
0.0
 40
26.464673000000001
 50
71.518217000000007
 51
78.348306999999991
  0
ARC
  5
392
  8
0
  6
AIGENLINE001
 62
     7
 10
-29.229002000000001
 20
103.69619899999999
 30
0.0
 40
37.532694999999997
 50
78.053303
 51
84.064076999999997
  0
ARC
  5
393
  8
0
  6
AIGENLINE001
 62
     7
 10
-31.328806
 20
86.332794999999976
 30
0.0
 40
55.02093399999999
 50
83.759074999999996
 51
87.490884999999992
  0
ARC
  5
394
  8
0
  6
AIGENLINE001
 62
     7
 10
-32.496943000000002
 20
63.985365999999999
 30
0.0
 40
77.398306000000005
 50
87.35120400000001
 51
90.128260999999981
  0
ARC
  5
395
  8
0
  6
AIGENLINE001
 62
     7
 10
-15.606649000000001
 20
126.16292300000001
 30
0.0
 40
22.688244999999998
 50
173.931487
 51
180.034751
  0
ARC
  5
396
  8
0
  6
AIGENLINE001
 62
     7
 10
-20.800211000000001
 20
126.64877300000001
 30
0.0
 40
17.472549000000001
 50
166.56479200000001
 51
173.715318
  0
ARC
  5
397
  8
0
  6
AIGENLINE001
 62
     7
 10
-24.387964
 20
127.451369
 30
0.0
 40
13.796602
 50
156.094615
 51
166.344829
  0
ARC
  5
398
  8
0
  6
AIGENLINE001
 62
     7
 10
-26.675464000000002
 20
128.375427
 30
0.0
 40
11.331177
 50
124.188767
 51
155.679126
  0
ARC
  5
399
  8
0
  6
AIGENLINE001
 62
     7
 10
-25.243188
 20
126.348384
 30
0.0
 40
13.81283
 50
115.007411
 51
124.37844200000001
  0
ARC
  5
39A
  8
0
  6
AIGENLINE001
 62
     7
 10
-23.470683000000001
 20
122.753728
 30
0.0
 40
17.820011000000001
 50
107.64753399999999
 51
115.286332
  0
ARC
  5
39B
  8
0
  6
AIGENLINE001
 62
     7
 10
-21.451170000000001
 20
116.800315
 30
0.0
 40
24.105786999999999
 50
101.941118
 51
107.931882
  0
ARC
  5
39C
  8
0
  6
AIGENLINE001
 62
     7
 10
-19.237466000000001
 20
107.025464
 30
0.0
 40
34.127448000000001
 50
96.760637000000003
 51
102.181736
  0
ARC
  5
39D
  8
0
  6
AIGENLINE001
 62
     7
 10
-16.85549
 20
89.019969999999986
 30
0.0
 40
52.288730999999999
 50
93.254539000000008
 51
97.029943999999986
  0
ARC
  5
39E
  8
0
  6
AIGENLINE001
 62
     7
 10
-14.961663
 20
60.227614000000003
 30
0.0
 40
81.142570000000006
 50
91.084524000000016
 51
93.435424999999995
  0
ARC
  5
39F
  8
0
  6
AIGENLINE001
 62
     7
 10
-13.826983999999999
 20
13.685129999999999
 30
0.0
 40
127.69844500000001
 50
89.929500999999988
 51
91.198281999999978
  0
ARC
  5
3A0
  8
0
  6
AIGENLINE001
 62
     7
 10
-29.794754000000001
 20
126.149344
 30
0.0
 40
8.4999669999999998
 50
269.99885899999998
 51
359.998829
  0
ARC
  5
3A1
  8
0
  6
AIGENLINE001
 62
     7
 10
-29.795012
 20
126.149255
 30
0.0
 40
8.4998780000000007
 50
180.00058999999999
 51
270.00060000000002
  0
LINE
  5
3A2
  8
0
 62
     7
 10
-25.295400000000001
 20
137.63300000000001
 30
0.0
 11
-26.670400000000001
 21
137.63300000000001
 31
0.0
  0
LINE
  5
3A3
  8
0
 62
     7
 10
-24.795500000000001
 20
138.63399999999999
 30
0.0
 11
-25.295400000000001
 21
138.63399999999999
 31
0.0
  0
LINE
  5
3A4
  8
0
 62
     7
 10
-24.795500000000001
 20
138.63399999999999
 30
0.0
 11
-24.795500000000001
 21
137.63300000000001
 31
0.0
  0
LINE
  5
3A5
  8
0
 62
     7
 10
-25.295400000000001
 20
138.63399999999999
 30
0.0
 11
-25.295400000000001
 21
137.63300000000001
 31
0.0
  0
LINE
  5
3A6
  8
0
 62
     7
 10
-24.295300000000001
 20
140.38399999999999
 30
0.0
 11
-24.295300000000001
 21
137.63300000000001
 31
0.0
  0
LINE
  5
3A7
  8
0
 62
     7
 10
-25.795300000000001
 20
140.38399999999999
 30
0.0
 11
-25.795300000000001
 21
137.63300000000001
 31
0.0
  0
LINE
  5
3A8
  8
0
 62
     7
 10
-23.795400000000001
 20
137.63300000000001
 30
0.0
 11
-24.795500000000001
 21
137.63300000000001
 31
0.0
  0
LINE
  5
3A9
  8
0
 62
     7
 10
-26.670400000000001
 20
140.38399999999999
 30
0.0
 11
-26.670400000000001
 21
137.63300000000001
 31
0.0
  0
LINE
  5
3AA
  8
0
 62
     7
 10
-25.045300000000001
 20
140.38399999999999
 30
0.0
 11
-26.670400000000001
 21
140.38399999999999
 31
0.0
  0
ARC
  5
3AB
  8
0
 62
     7
 10
-26.535658000000002
 20
143.89291499999999
 30
0.0
 40
0.259955
 50
182.129638
 51
267.87039199999998
  0
LINE
  5
3AC
  8
0
 62
     7
 10
-23.795400000000001
 20
143.63300000000001
 30
0.0
 11
-26.545300000000001
 21
143.63300000000001
 31
0.0
  0
LINE
  5
3AD
  8
0
 62
     7
 10
-26.795400000000001
 20
143.88300000000001
 30
0.0
 11
-26.795400000000001
 21
144.178
 31
0.0
  0
LINE
  5
3AE
  8
0
 62
     7
 10
-23.795400000000001
 20
140.38399999999999
 30
0.0
 11
-26.545300000000001
 21
140.38399999999999
 31
0.0
  0
LINE
  5
3AF
  8
0
 62
     7
 10
-19.483899999999998
 20
240.68000000000001
 30
0.0
 11
-15.920199999999999
 21
240.68000000000001
 31
0.0
  0
LINE
  5
3B0
  8
0
  6
AIGENLINE001
 62
     7
 10
-22.545200000000001
 20
198.684
 30
0.0
 11
-22.545200000000001
 21
90.137999999999991
 31
0.0
  0
LINE
  5
3B1
  8
0
 62
     7
 10
-37.920400000000001
 20
139.88399999999999
 30
0.0
 11
-37.920400000000001
 21
140.50399999999999
 31
0.0
  0
LINE
  5
3B2
  8
0
 62
     7
 10
-37.920400000000001
 20
140.75399999999999
 30
0.0
 11
-37.920400000000001
 21
141.38300000000001
 31
0.0
  0
LINE
  5
3B3
  8
0
 62
     7
 10
-35.170499999999997
 20
139.88399999999999
 30
0.0
 11
-35.170499999999997
 21
140.50399999999999
 31
0.0
  0
LINE
  5
3B4
  8
0
 62
     7
 10
-35.170499999999997
 20
140.75399999999999
 30
0.0
 11
-35.170499999999997
 21
141.38300000000001
 31
0.0
  0
LINE
  5
3B5
  8
0
 62
     7
 10
-35.170499999999997
 20
139.88399999999999
 30
0.0
 11
-37.920400000000001
 21
139.88399999999999
 31
0.0
  0
LINE
  5
3B6
  8
0
 62
     7
 10
-38.6708
 20
139.88399999999999
 30
0.0
 11
-38.6708
 21
141.38300000000001
 31
0.0
  0
LINE
  5
3B7
  8
0
 62
     7
 10
-38.920200000000001
 20
139.88399999999999
 30
0.0
 11
-38.6708
 21
139.88399999999999
 31
0.0
  0
LINE
  5
3B8
  8
0
 62
     7
 10
-31.670300000000001
 20
139.88399999999999
 30
0.0
 11
-34.170699999999997
 21
139.88399999999999
 31
0.0
  0
LINE
  5
3B9
  8
0
 62
     7
 10
-37.920400000000001
 20
140.50399999999999
 30
0.0
 11
-35.170499999999997
 21
140.50399999999999
 31
0.0
  0
LINE
  5
3BA
  8
0
 62
     7
 10
-34.170699999999997
 20
139.63300000000001
 30
0.0
 11
-34.170699999999997
 21
141.38300000000001
 31
0.0
  0
ARC
  5
3BB
  8
0
 62
     7
 10
-34.900849999999998
 20
139.90296900000001
 30
0.0
 40
0.270318
 50
183.98931200000001
 51
265.853095
  0
LINE
  5
3BC
  8
0
 62
     7
 10
-34.920400000000001
 20
139.63300000000001
 30
0.0
 11
-34.170699999999997
 21
139.63300000000001
 31
0.0
  0
ARC
  5
3BD
  8
0
 62
     7
 10
-38.401088999999999
 20
139.90296900000001
 30
0.0
 40
0.270318
 50
183.98931200000001
 51
265.853095
  0
ARC
  5
3BE
  8
0
 62
     7
 10
-38.188563000000002
 20
139.901467
 30
0.0
 40
0.268715
 50
273.84976999999998
 51
356.307862
  0
LINE
  5
3BF
  8
0
 62
     7
 10
-38.4206
 20
139.63300000000001
 30
0.0
 11
-38.170499999999997
 21
139.63300000000001
 31
0.0
  0
LINE
  5
3C0
  8
0
 62
     7
 10
-37.920400000000001
 20
142.88300000000001
 30
0.0
 11
-37.920400000000001
 21
142.26300000000001
 31
0.0
  0
LINE
  5
3C1
  8
0
 62
     7
 10
-37.920400000000001
 20
142.01300000000001
 30
0.0
 11
-37.920400000000001
 21
141.38300000000001
 31
0.0
  0
LINE
  5
3C2
  8
0
 62
     7
 10
-35.170499999999997
 20
142.88300000000001
 30
0.0
 11
-35.170499999999997
 21
142.26300000000001
 31
0.0
  0
LINE
  5
3C3
  8
0
 62
     7
 10
-35.170499999999997
 20
142.01300000000001
 30
0.0
 11
-35.170499999999997
 21
141.38300000000001
 31
0.0
  0
LINE
  5
3C4
  8
0
 62
     7
 10
-35.170499999999997
 20
142.88300000000001
 30
0.0
 11
-37.920400000000001
 21
142.88300000000001
 31
0.0
  0
LINE
  5
3C5
  8
0
 62
     7
 10
-38.6708
 20
142.88300000000001
 30
0.0
 11
-38.6708
 21
141.38300000000001
 31
0.0
  0
LINE
  5
3C6
  8
0
 62
     7
 10
-38.920200000000001
 20
142.88300000000001
 30
0.0
 11
-38.6708
 21
142.88300000000001
 31
0.0
  0
LINE
  5
3C7
  8
0
 62
     7
 10
-31.670300000000001
 20
142.88300000000001
 30
0.0
 11
-34.170699999999997
 21
142.88300000000001
 31
0.0
  0
LINE
  5
3C8
  8
0
 62
     7
 10
-37.920400000000001
 20
142.26300000000001
 30
0.0
 11
-35.170499999999997
 21
142.26300000000001
 31
0.0
  0
LINE
  5
3C9
  8
0
 62
     7
 10
-34.170699999999997
 20
143.13399999999999
 30
0.0
 11
-34.170699999999997
 21
141.38300000000001
 31
0.0
  0
ARC
  5
3CA
  8
0
 62
     7
 10
-34.902421999999987
 20
142.86550600000001
 30
0.0
 40
0.268694
 50
93.836039
 51
176.16393099999999
  0
LINE
  5
3CB
  8
0
 62
     7
 10
-34.920400000000001
 20
143.13399999999999
 30
0.0
 11
-34.170699999999997
 21
143.13399999999999
 31
0.0
  0
ARC
  5
3CC
  8
0
 62
     7
 10
-38.402661000000002
 20
142.86550600000001
 30
0.0
 40
0.268694
 50
93.836039
 51
176.16393099999999
  0
ARC
  5
3CD
  8
0
 62
     7
 10
-38.189403000000013
 20
142.86460099999999
 30
0.0
 40
0.269659
 50
4.0151339999999998
 51
85.984856000000008
  0
LINE
  5
3CE
  8
0
 62
     7
 10
-38.4206
 20
143.13399999999999
 30
0.0
 11
-38.170499999999997
 21
143.13399999999999
 31
0.0
  0
LINE
  5
3CF
  8
0
 62
     7
 10
-22.545200000000001
 20
145.13300000000001
 30
0.0
 11
-29.545300000000001
 21
145.13300000000001
 31
0.0
  0
LINE
  5
3D0
  8
0
 62
     7
 10
-29.545300000000001
 20
143.88300000000001
 30
0.0
 11
-29.545300000000001
 21
145.13300000000001
 31
0.0
  0
LINE
  5
3D1
  8
0
 62
     7
 10
-22.545200000000001
 20
144.63399999999999
 30
0.0
 11
-29.545300000000001
 21
143.88300000000001
 31
0.0
  0
LINE
  5
3D2
  8
0
 62
     7
 10
-22.545200000000001
 20
145.13300000000001
 30
0.0
 11
-22.545200000000001
 21
144.63399999999999
 31
0.0
  0
LINE
  5
3D3
  8
0
 62
     7
 10
-23.795400000000001
 20
144.499
 30
0.0
 11
-23.794899999999998
 21
125.899
 31
0.0
  0
LINE
  5
3D4
  8
0
 62
     7
 10
-26.545300000000001
 20
143.63300000000001
 30
0.0
 11
-26.545300000000001
 21
140.38399999999999
 31
0.0
  0
LINE
  5
3D5
  8
0
 62
     7
 10
68.267399999999995
 20
134.13300000000001
 30
0.0
 11
68.267399999999995
 21
92.632999999999996
 31
0.0
  0
LINE
  5
3D6
  8
0
 62
     7
 10
69.517600000000002
 20
134.13300000000001
 30
0.0
 11
69.517600000000002
 21
92.633700000000005
 31
0.0
  0
LINE
  5
3D7
  8
0
 62
     7
 10
-23.170100000000001
 20
117.509
 30
0.0
 11
-23.170100000000001
 21
92.632300000000001
 31
0.0
  0
LINE
  5
3D8
  8
0
 62
     7
 10
15.7483
 20
159.88399999999999
 30
0.0
 11
9.4337600000000013
 21
159.88399999999999
 31
0.0
  0
LINE
  5
3D9
  8
0
 62
     7
 10
9.9167699999999996
 20
165.13399999999999
 30
0.0
 11
15.7483
 21
165.13399999999999
 31
0.0
  0
LINE
  5
3DA
  8
0
  6
AIGENLINE001
 62
     7
 10
68.892700000000005
 20
198.684
 30
0.0
 11
68.892700000000005
 21
90.137999999999991
 31
0.0
  0
LINE
  5
3DB
  8
0
 62
     7
 10
-22.545200000000001
 20
145.13300000000001
 30
0.0
 11
-16.544799999999999
 21
145.13300000000001
 31
0.0
  0
LINE
  5
3DC
  8
0
 62
     7
 10
-16.544799999999999
 20
144.63399999999999
 30
0.0
 11
-16.544799999999999
 21
145.13300000000001
 31
0.0
  0
LINE
  5
3DD
  8
0
 62
     7
 10
-20.045400000000001
 20
144.63399999999999
 30
0.0
 11
-16.544799999999999
 21
144.63399999999999
 31
0.0
  0
LINE
  5
3DE
  8
0
 62
     7
 10
-20.045400000000001
 20
145.13300000000001
 30
0.0
 11
-20.044899999999998
 21
125.899
 31
0.0
  0
LINE
  5
3DF
  8
0
 62
     7
 10
-21.920200000000001
 20
117.509
 30
0.0
 11
-21.920200000000001
 21
92.632999999999996
 31
0.0
  0
LINE
  5
3E0
  8
0
 62
     7
 10
72.579999999999998
 20
159.88399999999999
 30
0.0
 11
72.579999999999998
 21
164.88399999999999
 31
0.0
  0
LINE
  5
3E1
  8
0
 62
     7
 10
72.892499999999998
 20
159.25899999999999
 30
0.0
 11
72.892499999999998
 21
151.75899999999999
 31
0.0
  0
LINE
  5
3E2
  8
0
 62
     7
 10
72.518000000000001
 20
151.75899999999999
 30
0.0
 11
72.518000000000001
 21
146.38399999999999
 31
0.0
  0
LINE
  5
3E3
  8
0
 62
     7
 10
72.266800000000003
 20
151.75899999999999
 30
0.0
 11
72.266800000000003
 21
146.63399999999999
 31
0.0
  0
LINE
  5
3E4
  8
0
 62
     7
 10
68.892700000000005
 20
146.38399999999999
 30
0.0
 11
72.518000000000001
 21
146.38399999999999
 31
0.0
  0
LINE
  5
3E5
  8
0
 62
     7
 10
68.892700000000005
 20
146.63399999999999
 30
0.0
 11
72.518000000000001
 21
146.63399999999999
 31
0.0
  0
LINE
  5
3E6
  8
0
 62
     7
 10
72.518000000000001
 20
137.13300000000001
 30
0.0
 11
72.518000000000001
 21
146.38399999999999
 31
0.0
  0
LINE
  5
3E7
  8
0
 62
     7
 10
72.518000000000001
 20
137.13300000000001
 30
0.0
 11
68.892700000000005
 21
137.13300000000001
 31
0.0
  0
LINE
  5
3E8
  8
0
 62
     7
 10
71.517899999999997
 20
134.38399999999999
 30
0.0
 11
71.517899999999997
 21
137.13300000000001
 31
0.0
  0
LINE
  5
3E9
  8
0
 62
     7
 10
71.267399999999995
 20
134.13300000000001
 30
0.0
 11
68.892700000000005
 21
134.13300000000001
 31
0.0
  0
LINE
  5
3EA
  8
0
 62
     7
 10
71.267399999999995
 20
134.13300000000001
 30
0.0
 11
71.267399999999995
 21
137.13300000000001
 31
0.0
  0
LINE
  5
3EB
  8
0
 62
     7
 10
71.517899999999997
 20
134.38399999999999
 30
0.0
 11
68.892700000000005
 21
134.38399999999999
 31
0.0
  0
LINE
  5
3EC
  8
0
 62
     7
 10
71.517899999999997
 20
134.38399999999999
 30
0.0
 11
71.267399999999995
 21
134.13300000000001
 31
0.0
  0
LINE
  5
3ED
  8
0
 62
     7
 10
65.205399999999997
 20
159.88399999999999
 30
0.0
 11
65.205399999999997
 21
164.88399999999999
 31
0.0
  0
LINE
  5
3EE
  8
0
 62
     7
 10
64.892899999999997
 20
159.25899999999999
 30
0.0
 11
64.892899999999997
 21
151.75899999999999
 31
0.0
  0
LINE
  5
3EF
  8
0
 62
     7
 10
68.892700000000005
 20
159.25899999999999
 30
0.0
 11
68.892700000000005
 21
151.75899999999999
 31
0.0
  0
LINE
  5
3F0
  8
0
 62
     7
 10
64.892899999999997
 20
151.75899999999999
 30
0.0
 11
68.892700000000005
 21
151.75899999999999
 31
0.0
  0
LINE
  5
3F1
  8
0
 62
     7
 10
65.267099999999999
 20
151.75899999999999
 30
0.0
 11
65.267099999999999
 21
146.38399999999999
 31
0.0
  0
LINE
  5
3F2
  8
0
 62
     7
 10
65.517499999999998
 20
151.75899999999999
 30
0.0
 11
65.517499999999998
 21
146.63399999999999
 31
0.0
  0
LINE
  5
3F3
  8
0
 62
     7
 10
68.892700000000005
 20
146.38399999999999
 30
0.0
 11
65.267099999999999
 21
146.38399999999999
 31
0.0
  0
LINE
  5
3F4
  8
0
 62
     7
 10
65.267099999999999
 20
137.13300000000001
 30
0.0
 11
65.267099999999999
 21
146.38399999999999
 31
0.0
  0
LINE
  5
3F5
  8
0
 62
     7
 10
65.267099999999999
 20
137.13300000000001
 30
0.0
 11
68.892700000000005
 21
137.13300000000001
 31
0.0
  0
LINE
  5
3F6
  8
0
 62
     7
 10
66.267499999999998
 20
134.38399999999999
 30
0.0
 11
66.267499999999998
 21
137.13300000000001
 31
0.0
  0
LINE
  5
3F7
  8
0
 62
     7
 10
66.518000000000001
 20
134.13300000000001
 30
0.0
 11
68.892700000000005
 21
134.13300000000001
 31
0.0
  0
LINE
  5
3F8
  8
0
 62
     7
 10
66.518000000000001
 20
134.13300000000001
 30
0.0
 11
66.518000000000001
 21
137.13300000000001
 31
0.0
  0
LINE
  5
3F9
  8
0
 62
     7
 10
66.267499999999998
 20
134.38399999999999
 30
0.0
 11
68.892700000000005
 21
134.38399999999999
 31
0.0
  0
LINE
  5
3FA
  8
0
 62
     7
 10
66.267499999999998
 20
134.38399999999999
 30
0.0
 11
66.518000000000001
 21
134.13300000000001
 31
0.0
  0
LINE
  5
3FB
  8
0
 62
     7
 10
72.266800000000003
 20
146.63399999999999
 30
0.0
 11
72.518000000000001
 21
146.38399999999999
 31
0.0
  0
LINE
  5
3FC
  8
0
 62
     7
 10
68.892700000000005
 20
146.63399999999999
 30
0.0
 11
65.267099999999999
 21
146.63399999999999
 31
0.0
  0
LINE
  5
3FD
  8
0
 62
     7
 10
65.517499999999998
 20
146.63399999999999
 30
0.0
 11
65.267099999999999
 21
146.38399999999999
 31
0.0
  0
LINE
  5
3FE
  8
0
 62
     7
 10
68.892700000000005
 20
151.75899999999999
 30
0.0
 11
72.892499999999998
 21
151.75899999999999
 31
0.0
  0
LINE
  5
3FF
  8
0
  6
AIGENLINE001
 62
     7
 10
-25.045300000000001
 20
148.13200000000001
 30
0.0
 11
-25.045300000000001
 21
134.27699999999999
 31
0.0
  0
LINE
  5
400
  8
0
  6
AIGENLINE001
 62
     7
 10
-21.295300000000001
 20
148.13200000000001
 30
0.0
 11
-21.295300000000001
 21
125.899
 31
0.0
  0
LINE
  5
401
  8
0
 62
     7
 10
-37.920400000000001
 20
142.01300000000001
 30
0.0
 11
-35.170499999999997
 21
142.01300000000001
 31
0.0
  0
LINE
  5
402
  8
0
 62
     7
 10
-37.920400000000001
 20
140.75399999999999
 30
0.0
 11
-35.170499999999997
 21
140.75399999999999
 31
0.0
  0
LINE
  5
403
  8
0
 62
     7
 10
64.704800000000006
 20
159.88399999999999
 30
0.0
 11
64.704800000000006
 21
164.88399999999999
 31
0.0
  0
LINE
  5
404
  8
0
 62
     7
 10
73.080200000000005
 20
159.88399999999999
 30
0.0
 11
73.080200000000005
 21
164.88399999999999
 31
0.0
  0
LINE
  5
405
  8
0
 62
     7
 10
73.642499999999998
 20
140.13399999999999
 30
0.0
 11
72.518000000000001
 21
140.13399999999999
 31
0.0
  0
LINE
  5
406
  8
0
 62
     7
 10
75.892499999999984
 20
143.88300000000001
 30
0.0
 11
72.518000000000001
 21
144.1329999999999
 31
0.0
  0
LINE
  5
407
  8
0
 62
     7
 10
75.892499999999984
 20
145.13300000000001
 30
0.0
 11
72.518000000000001
 21
145.13300000000001
 31
0.0
  0
LINE
  5
408
  8
0
 62
     7
 10
62.892699999999998
 20
144.63399999999999
 30
0.0
 11
62.892699999999998
 21
145.13300000000001
 31
0.0
  0
LINE
  5
409
  8
0
 62
     7
 10
75.892499999999984
 20
143.88300000000001
 30
0.0
 11
75.892499999999984
 21
145.13300000000001
 31
0.0
  0
LINE
  5
40A
  8
0
 62
     7
 10
64.142600000000002
 20
158.88399999999999
 30
0.0
 11
64.142600000000002
 21
145.13300000000001
 31
0.0
  0
LINE
  5
40B
  8
0
 62
     7
 10
73.642499999999998
 20
158.88399999999999
 30
0.0
 11
73.642499999999998
 21
145.13300000000001
 31
0.0
  0
LINE
  5
40C
  8
0
 62
     7
 10
65.267099999999999
 20
144.63399999999999
 30
0.0
 11
62.892699999999998
 21
144.63399999999999
 31
0.0
  0
LINE
  5
40D
  8
0
 62
     7
 10
65.267099999999999
 20
145.13300000000001
 30
0.0
 11
62.892699999999998
 21
145.13300000000001
 31
0.0
  0
LINE
  5
40E
  8
0
 62
     7
 10
73.391999999999996
 20
140.13399999999999
 30
0.0
 11
73.391999999999996
 21
144.06899999999999
 31
0.0
  0
LINE
  5
40F
  8
0
 62
     7
 10
73.642499999999998
 20
137.13399999999999
 30
0.0
 11
73.642499999999998
 21
140.13399999999999
 31
0.0
  0
LINE
  5
410
  8
0
 62
     7
 10
73.642499999999998
 20
137.13399999999999
 30
0.0
 11
72.518000000000001
 21
137.13399999999999
 31
0.0
  0
LINE
  5
411
  8
0
 62
     7
 10
66.892099999999999
 20
195.63399999999999
 30
0.0
 11
66.892099999999999
 21
194.38399999999999
 31
0.0
  0
LINE
  5
412
  8
0
 62
     7
 10
70.892200000000003
 20
195.63399999999999
 30
0.0
 11
70.892200000000003
 21
194.38399999999999
 31
0.0
  0
LINE
  5
413
  8
0
 62
     7
 10
61.391999999999989
 20
194.38399999999999
 30
0.0
 11
65.8262
 21
193.542
 31
0.0
  0
ARC
  5
414
  8
0
 62
     7
 10
65.42013
 20
191.77125599999999
 30
0.0
 40
1.817999999999999
 50
349.92634900000002
 51
75.719486000000003
  0
ARC
  5
415
  8
0
 62
     7
 10
65.615519999999975
 20
192.39659800000001
 30
0.0
 40
1.164313999999999
 50
77.446996999999996
 51
79.575023000000002
  0
ARC
  5
416
  8
0
 62
     7
 10
128.46398199999999
 20
178.26470699999999
 30
0.0
 40
62.657606000000008
 50
167.84913999999989
 51
187.713233
  0
ARC
  5
417
  8
0
 62
     7
 10
73.246780999999984
 20
169.60474400000001
 30
0.0
 40
1.8526990000000001
 50
172.232789
 51
189.618819
  0
ARC
  5
418
  8
0
 62
     7
 10
72.84292099999999
 20
169.569199
 30
0.0
 40
1.448939999999999
 50
190.90157400000001
 51
217.672932
  0
ARC
  5
419
  8
0
 62
     7
 10
73.308026999999996
 20
169.90615
 30
0.0
 40
2.023082
 50
217.17588799999999
 51
231.41122100000001
  0
ARC
  5
41A
  8
0
 62
     7
 10
74.115347999999997
 20
170.848781
 30
0.0
 40
3.2637160000000001
 50
230.654697
 51
238.05673300000001
  0
ARC
  5
41B
  8
0
 62
     7
 10
74.903379000000001
 20
172.06220500000001
 30
0.0
 40
4.7103989999999989
 50
237.73191700000001
 51
240.52792400000001
  0
LINE
  5
41C
  8
0
 62
     7
 10
76.391999999999996
 20
194.38399999999999
 30
0.0
 11
71.958200000000005
 21
193.542
 31
0.0
  0
ARC
  5
41D
  8
0
 62
     7
 10
72.362092000000004
 20
191.76993999999999
 30
0.0
 40
1.817213999999999
 50
102.84290300000001
 51
188.67082300000001
  0
ARC
  5
41E
  8
0
 62
     7
 10
71.596166999999994
 20
191.67327700000001
 30
0.0
 40
1.0456589999999999
 50
189.76189199999999
 51
192.14627100000001
  0
ARC
  5
41F
  8
0
 62
     7
 10
9.3258850000000013
 20
178.26394300000001
 30
0.0
 40
62.652051
 50
352.28680400000002
 51
12.152647999999999
  0
LINE
  5
420
  8
0
 62
     7
 10
68.891999999999996
 20
191.13399999999999
 30
0.0
 11
70.642099999999999
 21
191.13399999999999
 31
0.0
  0
LINE
  5
421
  8
0
 62
     7
 10
75.767799999999994
 20
165.88399999999999
 30
0.0
 11
62.017600000000002
 21
165.88399999999999
 31
0.0
  0
LINE
  5
422
  8
0
 62
     7
 10
62.017600000000002
 20
165.88399999999999
 30
0.0
 11
62.017600000000002
 21
165.13399999999999
 31
0.0
  0
LINE
  5
423
  8
0
 62
     7
 10
61.391999999999989
 20
195.63399999999999
 30
0.0
 11
61.391999999999989
 21
194.38399999999999
 31
0.0
  0
LINE
  5
424
  8
0
 62
     7
 10
68.891999999999996
 20
191.13399999999999
 30
0.0
 11
67.142200000000003
 21
191.13399999999999
 31
0.0
  0
LINE
  5
425
  8
0
 62
     7
 10
76.391999999999996
 20
195.63399999999999
 30
0.0
 11
61.391999999999989
 21
195.63399999999999
 31
0.0
  0
LINE
  5
426
  8
0
 62
     7
 10
75.767799999999994
 20
165.88399999999999
 30
0.0
 11
75.767799999999994
 21
165.13399999999999
 31
0.0
  0
LINE
  5
427
  8
0
 62
     7
 10
76.391999999999996
 20
195.63399999999999
 30
0.0
 11
76.391999999999996
 21
194.38399999999999
 31
0.0
  0
LINE
  5
428
  8
0
 62
     7
 10
61.391999999999989
 20
194.38399999999999
 30
0.0
 11
76.391999999999996
 21
194.38399999999999
 31
0.0
  0
LINE
  5
429
  8
0
 62
     7
 10
63.877299999999998
 20
179.8059999999999
 30
0.0
 11
42.565800000000003
 21
184.328
 31
0.0
  0
LINE
  5
42A
  8
0
 62
     7
 10
64.750299999999996
 20
186.05099999999999
 30
0.0
 11
43.308599999999998
 21
189.273
 31
0.0
  0
ARC
  5
42B
  8
0
 62
     7
 10
41.897156000000003
 20
179.236842
 30
0.0
 40
5.1351199999999988
 50
82.518243999999996
 51
151.115194
  0
ARC
  5
42C
  8
0
 62
     7
 10
41.987909999999992
 20
179.073047
 30
0.0
 40
10.284943999999999
 50
82.622439999999997
 51
153.30489299999999
  0
LINE
  5
42D
  8
0
 62
     7
 10
32.5426
 20
182.989
 30
0.0
 11
37.241
 21
181.279
 31
0.0
  0
LINE
  5
42E
  8
0
 62
     7
 10
37.241
 20
181.279
 30
0.0
 11
37.4009
 21
181.71700000000001
 31
0.0
  0
LINE
  5
42F
  8
0
 62
     7
 10
32.5426
 20
182.989
 30
0.0
 11
32.799199999999999
 21
183.69300000000001
 31
0.0
  0
LINE
  5
430
  8
0
 62
     7
 10
67.142200000000003
 20
191.13399999999999
 30
0.0
 11
66.958299999999994
 21
192.78899999999999
 31
0.0
  0
LINE
  5
431
  8
0
 62
     7
 10
70.826099999999997
 20
192.78899999999999
 30
0.0
 11
70.642099999999999
 21
191.13399999999999
 31
0.0
  0
LINE
  5
432
  8
0
 62
     7
 10
67.142200000000003
 20
191.13399999999999
 30
0.0
 11
70.642099999999999
 21
191.13399999999999
 31
0.0
  0
LINE
  5
433
  8
0
 62
     7
 10
66.642300000000006
 20
195.63399999999999
 30
0.0
 11
71.142399999999995
 21
195.63399999999999
 31
0.0
  0
ARC
  5
434
  8
0
 62
     7
 10
64.924684999999997
 20
187.60044300000001
 30
0.0
 40
1.55891
 50
263.57689399999998
 51
349.33295900000002
  0
LINE
  5
435
  8
0
 62
     7
 10
66.456699999999984
 20
187.31200000000001
 30
0.0
 11
66.457700000000003
 21
187.321
 31
0.0
  0
LINE
  5
436
  8
0
 62
     7
 10
75.767799999999994
 20
165.13399999999999
 30
0.0
 11
62.017600000000002
 21
165.13399999999999
 31
0.0
  0
LINE
  5
437
  8
0
 62
     7
 10
-27.2957
 20
165.13399999999999
 30
0.0
 11
-17.795100000000001
 21
165.13399999999999
 31
0.0
  0
LINE
  5
438
  8
0
  6
AIGENLINE001
 62
     7
 10
2.4546499999999991
 20
258.80500000000001
 30
0.0
 11
2.4546499999999991
 21
236.304
 31
0.0
  0
ARC
  5
439
  8
0
 62
     7
 10
-75.085251999999997
 20
179.44116
 30
0.0
 40
55.534731999999991
 50
10.313513
 51
12.154481000000001
  0
LINE
  5
43A
  8
0
 62
     7
 10
0.4547550000000001
 20
195.63399999999999
 30
0.0
 11
0.4547550000000001
 21
194.38399999999999
 31
0.0
  0
LINE
  5
43B
  8
0
 62
     7
 10
4.4548800000000002
 20
195.63399999999999
 30
0.0
 11
4.4548800000000002
 21
194.38399999999999
 31
0.0
  0
LINE
  5
43C
  8
0
 62
     7
 10
-49.5456
 20
195.63399999999999
 30
0.0
 11
-49.5456
 21
194.38399999999999
 31
0.0
  0
LINE
  5
43D
  8
0
 62
     7
 10
-45.54549999999999
 20
195.63399999999999
 30
0.0
 11
-45.54549999999999
 21
194.38399999999999
 31
0.0
  0
ARC
  5
43E
  8
0
 62
     7
 10
-22.565338000000001
 20
244.54760400000001
 30
0.0
 40
2.145163999999999
 50
2.1052810000000002
 51
37.386189000000002
  0
LINE
  5
43F
  8
0
 62
     7
 10
-25.791899999999998
 20
211.45500000000001
 30
0.0
 11
-24.6691
 21
244.626
 31
0.0
  0
LINE
  5
440
  8
0
 62
     7
 10
-19.299199999999999
 20
211.45500000000001
 30
0.0
 11
-20.421600000000002
 21
244.626
 31
0.0
  0
ARC
  5
441
  8
0
 62
     7
 10
-19.29920199999999
 20
211.45509699999999
 30
0.0
 40
0.250116
 50
270.00002000000001
 51
359.99999000000003
  0
LINE
  5
442
  8
0
 62
     7
 10
-19.049099999999999
 20
211.45500000000001
 30
0.0
 11
-19.049099999999999
 21
211.459
 31
0.0
  0
ARC
  5
443
  8
0
 62
     7
 10
-25.781853000000002
 20
211.46465699999999
 30
0.0
 40
0.259853
 50
181.272595
 51
267.03019899999998
  0
LINE
  5
444
  8
0
 62
     7
 10
-25.795300000000001
 20
211.20500000000001
 30
0.0
 11
-25.791899999999998
 21
211.20500000000001
 31
0.0
  0
ARC
  5
445
  8
0
 62
     7
 10
-22.528618999999999
 20
244.54876200000001
 30
0.0
 40
2.141894999999999
 50
142.58598599999999
 51
177.92250300000001
  0
LINE
  5
446
  8
0
 62
     7
 10
-19.545200000000001
 20
244.80500000000001
 30
0.0
 11
-19.049099999999999
 21
211.459
 31
0.0
  0
LINE
  5
447
  8
0
 62
     7
 10
-25.545200000000001
 20
244.80500000000001
 30
0.0
 11
-26.041599999999999
 21
211.459
 31
0.0
  0
LINE
  5
448
  8
0
 62
     7
 10
-25.791899999999998
 20
211.20500000000001
 30
0.0
 11
-19.299199999999999
 21
211.20500000000001
 31
0.0
  0
LINE
  5
449
  8
0
  6
AIGENLINE001
 62
     7
 10
-22.545200000000001
 20
258.80500000000001
 30
0.0
 11
-22.545200000000001
 21
208.047
 31
0.0
  0
LINE
  5
44A
  8
0
 62
     7
 10
-25.295400000000001
 20
250.30500000000001
 30
0.0
 11
-24.239799999999999
 21
249.249
 31
0.0
  0
LINE
  5
44B
  8
0
 62
     7
 10
-19.795300000000001
 20
250.30500000000001
 30
0.0
 11
-20.850899999999999
 21
249.249
 31
0.0
  0
ARC
  5
44C
  8
0
 62
     7
 10
-22.545365
 20
247.554757
 30
0.0
 40
2.249833999999999
 50
359.99562300000002
 51
89.995592999999985
  0
ARC
  5
44D
  8
0
 62
     7
 10
-22.545363999999999
 20
247.55441300000001
 30
0.0
 40
2.2501790000000002
 50
89.995614000000018
 51
179.99558400000001
  0
ARC
  5
44E
  8
0
 62
     7
 10
-22.545365
 20
247.554757
 30
0.0
 40
2.250178
 50
180.00439600000001
 51
270.00440600000002
  0
ARC
  5
44F
  8
0
 62
     7
 10
-22.545365
 20
247.55441400000001
 30
0.0
 40
2.249833999999999
 50
270.00440700000001
 51
0.004377
  0
ARC
  5
450
  8
0
 62
     7
 10
-24.283799999999999
 20
182.13471200000001
 30
0.0
 40
0.261629
 50
180.22089600000001
 51
216.46084999999999
  0
ARC
  5
451
  8
0
 62
     7
 10
-24.082104999999999
 20
182.262461
 30
0.0
 40
0.5000560000000001
 50
214.499111
 51
233.62950599999999
  0
ARC
  5
452
  8
0
 62
     7
 10
-23.741105999999998
 20
182.68722399999999
 30
0.0
 40
1.0445349999999991
 50
232.38502199999999
 51
245.36905200000001
  0
ARC
  5
453
  8
0
 62
     7
 10
-23.307219
 20
183.56260800000001
 30
0.0
 40
2.0213169999999989
 50
244.53078300000001
 51
253.76572400000009
  0
ARC
  5
454
  8
0
 62
     7
 10
-22.885694999999998
 20
184.902388
 30
0.0
 40
3.4256509999999998
 50
253.26126600000001
 51
260.41892899999999
  0
ARC
  5
455
  8
0
 62
     7
 10
-22.585006
 20
186.54300499999999
 30
0.0
 40
5.0934850000000003
 50
260.15542699999997
 51
270.447878
  0
ARC
  5
456
  8
0
 62
     7
 10
-22.546427999999999
 20
186.99179899999999
 30
0.0
 40
5.5421239999999994
 50
270.01279199999999
 51
280.13963100000001
  0
ARC
  5
457
  8
0
 62
     7
 10
-22.163136000000002
 20
184.68860900000001
 30
0.0
 40
3.2075520000000002
 50
280.64273900000001
 51
291.22343000000001
  0
ARC
  5
458
  8
0
 62
     7
 10
-21.544778999999998
 20
183.03032200000001
 30
0.0
 40
1.438086
 50
292.17538999999999
 51
303.39829800000001
  0
ARC
  5
459
  8
0
 62
     7
 10
-21.131163999999998
 20
182.388645
 30
0.0
 40
0.674743
 50
304.06929000000002
 51
319.96118200000012
  0
ARC
  5
45A
  8
0
 62
     7
 10
-20.85622
 20
182.1509889999999
 30
0.0
 40
0.311399
 50
320.89565199999998
 51
356.81787300000002
  0
ARC
  5
45B
  8
0
 62
     7
 10
-20.807404999999999
 20
182.13252900000001
 30
0.0
 40
0.262107
 50
0.256652
 51
36.428652
  0
ARC
  5
45C
  8
0
 62
     7
 10
-21.008378
 20
182.00521499999999
 30
0.0
 40
0.4996970000000001
 50
34.489909999999988
 51
53.633332999999993
  0
ARC
  5
45D
  8
0
 62
     7
 10
-21.349748999999999
 20
181.580003
 30
0.0
 40
1.044756999999999
 50
52.38529599999999
 51
65.366038000000003
  0
ARC
  5
45E
  8
0
 62
     7
 10
-21.783096
 20
180.70599799999999
 30
0.0
 40
2.0200629999999991
 50
64.526296000000002
 51
73.766121999999996
  0
ARC
  5
45F
  8
0
 62
     7
 10
-22.204806000000001
 20
179.366197
 30
0.0
 40
3.4244720000000002
 50
73.258448000000001
 51
80.417436999999993
  0
ARC
  5
460
  8
0
 62
     7
 10
-22.505431000000002
 20
177.72639000000001
 30
0.0
 40
5.0914970000000004
 50
80.153503999999998
 51
90.447437999999991
  0
ARC
  5
461
  8
0
 62
     7
 10
-22.543953999999999
 20
177.27292600000001
 30
0.0
 40
5.5448059999999986
 50
90.012777000000014
 51
100.137152
  0
ARC
  5
462
  8
0
 62
     7
 10
-22.92755
 20
179.57841099999999
 30
0.0
 40
3.2079189999999991
 50
100.640294
 51
111.221255
  0
ARC
  5
463
  8
0
 62
     7
 10
-23.545666000000001
 20
181.236491
 30
0.0
 40
1.4387350000000001
 50
112.176089
 51
123.394491
  0
ARC
  5
464
  8
0
 62
     7
 10
-23.959472000000002
 20
181.87864300000001
 30
0.0
 40
0.67489
 50
124.069737
 51
139.958482
  0
ARC
  5
465
  8
0
 62
     7
 10
-24.234638
 20
182.116468
 30
0.0
 40
0.311266
 50
140.88770400000001
 51
176.82578100000001
  0
ARC
  5
466
  8
0
 62
     7
 10
-19.905511000000001
 20
189.124391
 30
0.0
 40
0.25952
 50
7.4687979999999996
 51
88.181343999999996
  0
ARC
  5
467
  8
0
 62
     7
 10
-25.185542999999999
 20
189.124763
 30
0.0
 40
0.2591489999999999
 50
91.825460000000007
 51
172.60328100000001
  0
LINE
  5
468
  8
0
 62
     7
 10
-26.045400000000001
 20
182.989
 30
0.0
 11
-25.442499999999999
 21
189.15799999999999
 31
0.0
  0
LINE
  5
469
  8
0
 62
     7
 10
-19.648199999999999
 20
189.15799999999999
 30
0.0
 11
-19.045300000000001
 21
182.989
 31
0.0
  0
LINE
  5
46A
  8
0
 62
     7
 10
-19.045300000000001
 20
181.279
 30
0.0
 11
-19.045300000000001
 21
182.989
 31
0.0
  0
LINE
  5
46B
  8
0
 62
     7
 10
-26.045400000000001
 20
181.279
 30
0.0
 11
-26.045400000000001
 21
182.989
 31
0.0
  0
LINE
  5
46C
  8
0
 62
     7
 10
-26.045400000000001
 20
181.279
 30
0.0
 11
-19.045300000000001
 21
181.279
 31
0.0
  0
LINE
  5
46D
  8
0
 62
     7
 10
-26.045400000000001
 20
182.989
 30
0.0
 11
-19.045300000000001
 21
182.989
 31
0.0
  0
LINE
  5
46E
  8
0
 62
     7
 10
-25.1938
 20
189.38399999999999
 30
0.0
 11
-19.897300000000001
 21
189.38399999999999
 31
0.0
  0
LINE
  5
46F
  8
0
 62
     7
 10
-55.045699999999997
 20
194.38399999999999
 30
0.0
 11
-50.611499999999999
 21
193.542
 31
0.0
  0
ARC
  5
470
  8
0
 62
     7
 10
-51.017598999999997
 20
191.77125599999999
 30
0.0
 40
1.817999999999999
 50
349.92634900000002
 51
75.719486000000003
  0
ARC
  5
471
  8
0
 62
     7
 10
-50.822209000000001
 20
192.39659800000001
 30
0.0
 40
1.164313999999999
 50
77.446996999999996
 51
79.575023000000002
  0
ARC
  5
472
  8
0
 62
     7
 10
12.026253000000001
 20
178.26470699999999
 30
0.0
 40
62.657606000000008
 50
167.84913999999989
 51
187.713233
  0
LINE
  5
473
  8
0
 62
     7
 10
-40.045699999999997
 20
194.38399999999999
 30
0.0
 11
-44.479599999999998
 21
193.542
 31
0.0
  0
ARC
  5
474
  8
0
 62
     7
 10
-44.075635999999989
 20
191.76993999999999
 30
0.0
 40
1.817213999999999
 50
102.84290300000001
 51
188.67082300000001
  0
ARC
  5
475
  8
0
 62
     7
 10
-44.841562000000003
 20
191.67327700000001
 30
0.0
 40
1.0456589999999999
 50
189.76189199999999
 51
192.14627100000001
  0
ARC
  5
476
  8
0
 62
     7
 10
-107.123232
 20
178.26350099999999
 30
0.0
 40
62.663277000000001
 50
352.28860100000003
 51
12.150850999999999
  0
LINE
  5
477
  8
0
 62
     7
 10
-47.545699999999997
 20
191.13399999999999
 30
0.0
 11
-45.795599999999993
 21
191.13399999999999
 31
0.0
  0
LINE
  5
478
  8
0
 62
     7
 10
-40.6706
 20
165.88399999999999
 30
0.0
 11
-54.4208
 21
165.88399999999999
 31
0.0
  0
LINE
  5
479
  8
0
 62
     7
 10
-54.4208
 20
165.88399999999999
 30
0.0
 11
-54.4208
 21
165.13399999999999
 31
0.0
  0
LINE
  5
47A
  8
0
 62
     7
 10
-55.045699999999997
 20
195.63399999999999
 30
0.0
 11
-55.045699999999997
 21
194.38399999999999
 31
0.0
  0
LINE
  5
47B
  8
0
 62
     7
 10
-47.545699999999997
 20
191.13399999999999
 30
0.0
 11
-49.29549999999999
 21
191.13399999999999
 31
0.0
  0
LINE
  5
47C
  8
0
 62
     7
 10
-40.045699999999997
 20
195.63399999999999
 30
0.0
 11
-55.045699999999997
 21
195.63399999999999
 31
0.0
  0
LINE
  5
47D
  8
0
 62
     7
 10
-40.6706
 20
165.88399999999999
 30
0.0
 11
-40.6706
 21
165.13399999999999
 31
0.0
  0
LINE
  5
47E
  8
0
 62
     7
 10
-54.4208
 20
165.13399999999999
 30
0.0
 11
-40.6706
 21
165.13399999999999
 31
0.0
  0
LINE
  5
47F
  8
0
 62
     7
 10
-40.045699999999997
 20
195.63399999999999
 30
0.0
 11
-40.045699999999997
 21
194.38399999999999
 31
0.0
  0
LINE
  5
480
  8
0
 62
     7
 10
-55.045699999999997
 20
194.38399999999999
 30
0.0
 11
-40.045699999999997
 21
194.38399999999999
 31
0.0
  0
LINE
  5
481
  8
0
  6
AIGENLINE001
 62
     7
 10
-47.545699999999997
 20
198.684
 30
0.0
 11
-47.545699999999997
 21
132.42500000000001
 31
0.0
  0
LINE
  5
482
  8
0
 62
     7
 10
-5.0453700000000001
 20
194.38399999999999
 30
0.0
 11
-0.6115079999999999
 21
193.542
 31
0.0
  0
ARC
  5
483
  8
0
 62
     7
 10
-1.0172339999999991
 20
191.77125599999999
 30
0.0
 40
1.817999999999999
 50
349.92634900000002
 51
75.719486000000003
  0
ARC
  5
484
  8
0
 62
     7
 10
-0.8026180000000001
 20
192.48353900000001
 30
0.0
 40
1.075272999999999
 50
77.440097999999992
 51
79.762359000000004
  0
ARC
  5
485
  8
0
 62
     7
 10
62.026618000000013
 20
178.26470699999999
 30
0.0
 40
62.657606000000008
 50
167.84913999999989
 51
187.713233
  0
LINE
  5
486
  8
0
 62
     7
 10
9.9546700000000001
 20
194.38399999999999
 30
0.0
 11
5.5208000000000004
 21
193.542
 31
0.0
  0
ARC
  5
487
  8
0
 62
     7
 10
5.847224999999999
 20
191.822407
 30
0.0
 40
1.7499990000000001
 50
100.75024500000001
 51
190.750294
  0
ARC
  5
488
  8
0
 62
     7
 10
8.0834589999999995
 20
192.27123800000001
 30
0.0
 40
4.0307760000000004
 50
191.08905100000001
 51
191.70851200000001
  0
ARC
  5
489
  8
0
 62
     7
 10
-57.111479000000003
 20
178.26394300000001
 30
0.0
 40
62.652051
 50
352.28680400000002
 51
12.152647999999999
  0
LINE
  5
48A
  8
0
 62
     7
 10
2.4546499999999991
 20
191.13399999999999
 30
0.0
 11
4.204769999999999
 21
191.13399999999999
 31
0.0
  0
LINE
  5
48B
  8
0
 62
     7
 10
-20.795400000000001
 20
191.13399999999999
 30
0.0
 11
-20.295500000000001
 21
195.63399999999999
 31
0.0
  0
LINE
  5
48C
  8
0
 62
     7
 10
-24.795500000000001
 20
195.63399999999999
 30
0.0
 11
-24.295300000000001
 21
191.13399999999999
 31
0.0
  0
ARC
  5
48D
  8
0
 62
     7
 10
29.360980000000001
 20
179.556365
 30
0.0
 40
54.891137000000001
 50
167.82382000000001
 51
169.68644599999999
  0
LINE
  5
48E
  8
0
 62
     7
 10
-15.6701
 20
165.88399999999999
 30
0.0
 11
-29.420300000000001
 21
165.88399999999999
 31
0.0
  0
LINE
  5
48F
  8
0
 62
     7
 10
-29.420300000000001
 20
165.88399999999999
 30
0.0
 11
-29.420300000000001
 21
165.13399999999999
 31
0.0
  0
LINE
  5
490
  8
0
 62
     7
 10
-22.545200000000001
 20
191.13399999999999
 30
0.0
 11
-24.295300000000001
 21
191.13399999999999
 31
0.0
  0
LINE
  5
491
  8
0
 62
     7
 10
-20.295500000000001
 20
195.63399999999999
 30
0.0
 11
-24.795500000000001
 21
195.63399999999999
 31
0.0
  0
LINE
  5
492
  8
0
 62
     7
 10
-15.6701
 20
165.88399999999999
 30
0.0
 11
-15.6701
 21
165.13399999999999
 31
0.0
  0
LINE
  5
493
  8
0
 62
     7
 10
-29.420300000000001
 20
165.13399999999999
 30
0.0
 11
-15.6701
 21
165.13399999999999
 31
0.0
  0
LINE
  5
494
  8
0
 62
     7
 10
-22.545200000000001
 20
191.13399999999999
 30
0.0
 11
-20.795400000000001
 21
191.13399999999999
 31
0.0
  0
LINE
  5
495
  8
0
 62
     7
 10
9.32972
 20
165.88399999999999
 30
0.0
 11
-4.4204299999999996
 21
165.88399999999999
 31
0.0
  0
LINE
  5
496
  8
0
 62
     7
 10
-4.4204299999999996
 20
165.88399999999999
 30
0.0
 11
-4.4204299999999996
 21
165.13399999999999
 31
0.0
  0
LINE
  5
497
  8
0
 62
     7
 10
-5.0453700000000001
 20
195.63399999999999
 30
0.0
 11
-5.0453700000000001
 21
194.38399999999999
 31
0.0
  0
LINE
  5
498
  8
0
 62
     7
 10
2.4546499999999991
 20
191.13399999999999
 30
0.0
 11
0.704871
 21
191.13399999999999
 31
0.0
  0
LINE
  5
499
  8
0
 62
     7
 10
9.9546700000000001
 20
195.63399999999999
 30
0.0
 11
-5.0453700000000001
 21
195.63399999999999
 31
0.0
  0
LINE
  5
49A
  8
0
 62
     7
 10
9.32972
 20
165.88399999999999
 30
0.0
 11
9.32972
 21
165.13399999999999
 31
0.0
  0
LINE
  5
49B
  8
0
 62
     7
 10
-4.4204299999999996
 20
165.13399999999999
 30
0.0
 11
9.32972
 21
165.13399999999999
 31
0.0
  0
LINE
  5
49C
  8
0
 62
     7
 10
9.9546700000000001
 20
195.63399999999999
 30
0.0
 11
9.9546700000000001
 21
194.38399999999999
 31
0.0
  0
LINE
  5
49D
  8
0
 62
     7
 10
-5.0453700000000001
 20
194.38399999999999
 30
0.0
 11
9.9546700000000001
 21
194.38399999999999
 31
0.0
  0
LINE
  5
49E
  8
0
 62
     7
 10
-4.1703099999999989
 20
254.18000000000001
 30
0.0
 11
-0.6556060000000001
 21
250.66499999999999
 31
0.0
  0
LINE
  5
49F
  8
0
 62
     7
 10
-0.6556060000000001
 20
244.44399999999999
 30
0.0
 11
-4.1703099999999989
 21
240.929
 31
0.0
  0
LINE
  5
4A0
  8
0
 62
     7
 10
9.0796100000000006
 20
254.18000000000001
 30
0.0
 11
5.5652400000000002
 21
250.66499999999999
 31
0.0
  0
LINE
  5
4A1
  8
0
 62
     7
 10
5.5652400000000002
 20
244.44399999999999
 30
0.0
 11
9.0796100000000006
 21
240.929
 31
0.0
  0
ARC
  5
4A2
  8
0
 62
     7
 10
9.6962149999999987
 20
245.82513
 30
0.0
 40
0.259249
 50
269.48193800000001
 51
355.504683
  0
LINE
  5
4A3
  8
0
 62
     7
 10
9.9546700000000001
 20
245.80500000000001
 30
0.0
 11
9.9546700000000001
 21
245.816
 31
0.0
  0
ARC
  5
4A4
  8
0
 62
     7
 10
5.0167269999999986
 20
244.990039
 30
0.0
 40
0.7789620000000002
 50
89.590633999999994
 51
175.421087
  0
ARC
  5
4A5
  8
0
 62
     7
 10
4.9181419999999987
 20
245.019668
 30
0.0
 40
0.678673
 50
177.25040999999999
 51
182.74959000000001
  0
LINE
  5
4A6
  8
0
 62
     7
 10
9.6938700000000004
 20
245.566
 30
0.0
 11
5.022289999999999
 21
245.76900000000001
 31
0.0
  0
ARC
  5
4A7
  8
0
 62
     7
 10
9.6950710000000004
 20
249.283863
 30
0.0
 40
0.259774
 50
2.1278509999999988
 51
87.832638000000003
  0
LINE
  5
4A8
  8
0
 62
     7
 10
9.7049000000000003
 20
249.54300000000001
 30
0.0
 11
9.6938700000000004
 21
249.54300000000001
 31
0.0
  0
LINE
  5
4A9
  8
0
 62
     7
 10
9.6938700000000004
 20
249.54300000000001
 30
0.0
 11
5.022289999999999
 21
249.34
 31
0.0
  0
LINE
  5
4AA
  8
0
 62
     7
 10
9.9546700000000001
 20
249.29400000000001
 30
0.0
 11
9.9546700000000001
 21
245.816
 31
0.0
  0
ARC
  5
4AB
  8
0
 62
     7
 10
4.1840830000000002
 20
240.314346
 30
0.0
 40
0.25996
 50
272.12917900000002
 51
357.83135800000002
  0
LINE
  5
4AC
  8
0
 62
     7
 10
4.443859999999999
 20
240.30500000000001
 30
0.0
 11
4.443509999999999
 21
240.315
 31
0.0
  0
LINE
  5
4AD
  8
0
 62
     7
 10
4.443509999999999
 20
240.315
 30
0.0
 11
4.2402499999999987
 21
244.98699999999999
 31
0.0
  0
ARC
  5
4AE
  8
0
 62
     7
 10
0.7255810000000001
 20
240.313401
 30
0.0
 40
0.259464
 50
179.56727699999999
 51
265.498177
  0
LINE
  5
4AF
  8
0
 62
     7
 10
0.705216
 20
240.05500000000001
 30
0.0
 11
0.715895
 21
240.05500000000001
 31
0.0
  0
ARC
  5
4B0
  8
0
 62
     7
 10
-0.11021
 20
244.991893
 30
0.0
 40
0.7796110000000001
 50
359.648639
 51
85.389391999999987
  0
ARC
  5
4B1
  8
0
 62
     7
 10
-0.080099
 20
244.88922199999999
 30
0.0
 40
0.880361
 50
87.880669999999995
 51
92.119309999999984
  0
LINE
  5
4B2
  8
0
 62
     7
 10
0.6693859999999999
 20
244.98699999999999
 30
0.0
 11
0.466124
 21
240.315
 31
0.0
  0
LINE
  5
4B3
  8
0
 62
     7
 10
0.715895
 20
240.05500000000001
 30
0.0
 11
4.19374
 21
240.05500000000001
 31
0.0
  0
ARC
  5
4B4
  8
0
 62
     7
 10
4.1834739999999986
 20
254.79523499999999
 30
0.0
 40
0.260044
 50
359.648167
 51
85.379571999999996
  0
LINE
  5
4B5
  8
0
 62
     7
 10
4.2044199999999989
 20
255.054
 30
0.0
 11
4.19374
 21
255.05500000000001
 31
0.0
  0
ARC
  5
4B6
  8
0
 62
     7
 10
5.020020999999999
 20
250.117267
 30
0.0
 40
0.7797850000000001
 50
179.64783600000001
 51
265.37761999999998
  0
LINE
  5
4B7
  8
0
 62
     7
 10
4.9571800000000001
 20
249.34
 30
0.0
 11
5.022289999999999
 21
249.34
 31
0.0
  0
LINE
  5
4B8
  8
0
 62
     7
 10
4.443509999999999
 20
254.79400000000001
 30
0.0
 11
4.2402499999999987
 21
250.12200000000001
 31
0.0
  0
ARC
  5
4B9
  8
0
 62
     7
 10
0.7255430000000001
 20
254.794836
 30
0.0
 40
0.259949
 50
92.126972999999978
 51
177.83352400000001
  0
LINE
  5
4BA
  8
0
 62
     7
 10
0.46578
 20
254.80500000000001
 30
0.0
 11
0.466124
 21
254.79400000000001
 31
0.0
  0
ARC
  5
4BB
  8
0
 62
     7
 10
-0.10709
 20
250.11895999999999
 30
0.0
 40
0.7789620000000002
 50
269.59065399999997
 51
355.42110700000001
  0
ARC
  5
4BC
  8
0
 62
     7
 10
-0.370223
 20
250.089417
 30
0.0
 40
1.0401219999999991
 50
358.201573
 51
1.798427
  0
LINE
  5
4BD
  8
0
 62
     7
 10
0.6693859999999999
 20
250.12200000000001
 30
0.0
 11
0.466124
 21
254.79400000000001
 31
0.0
  0
ARC
  5
4BE
  8
0
 62
     7
 10
-4.7952589999999988
 20
245.815663
 30
0.0
 40
0.250115
 50
179.99996999999999
 51
270.00002000000001
  0
LINE
  5
4BF
  8
0
 62
     7
 10
-4.795259999999999
 20
245.566
 30
0.0
 11
-4.7842299999999991
 21
245.566
 31
0.0
  0
LINE
  5
4C0
  8
0
 62
     7
 10
-4.7842299999999991
 20
245.566
 30
0.0
 11
-0.112655
 21
245.76900000000001
 31
0.0
  0
ARC
  5
4C1
  8
0
 62
     7
 10
-4.7850799999999998
 20
249.28240600000001
 30
0.0
 40
0.260875
 50
89.814168999999993
 51
175.17241200000001
  0
ARC
  5
4C2
  8
0
 62
     7
 10
-4.9441189999999997
 20
249.295726
 30
0.0
 40
0.101279
 50
175.109016
 51
181.254378
  0
LINE
  5
4C3
  8
0
 62
     7
 10
-4.7842299999999991
 20
249.54300000000001
 30
0.0
 11
-0.112655
 21
249.34
 31
0.0
  0
LINE
  5
4C4
  8
0
 62
     7
 10
-5.0453700000000001
 20
249.29400000000001
 30
0.0
 11
-5.0453700000000001
 21
245.816
 31
0.0
  0
LINE
  5
4C5
  8
0
 62
     7
 10
0.715895
 20
255.05500000000001
 30
0.0
 11
4.19374
 21
255.05500000000001
 31
0.0
  0
ARC
  5
4C6
  8
0
 62
     7
 10
5.195225999999999
 20
244.813999
 30
0.0
 40
0.259601
 50
272.131821
 51
357.90769
  0
ARC
  5
4C7
  8
0
 62
     7
 10
5.1950589999999988
 20
250.295005
 30
0.0
 40
0.259774
 50
2.1278509999999988
 51
87.832638000000003
  0
LINE
  5
4C8
  8
0
 62
     7
 10
5.4546499999999991
 20
249.35900000000001
 30
0.0
 11
5.4546499999999991
 21
250.30500000000001
 31
0.0
  0
LINE
  5
4C9
  8
0
 62
     7
 10
5.4546499999999991
 20
244.80500000000001
 30
0.0
 11
5.4546499999999991
 21
245.75
 31
0.0
  0
ARC
  5
4CA
  8
0
 62
     7
 10
-0.285756
 20
244.81419
 30
0.0
 40
0.259786
 50
182.1331439999999
 51
267.90635900000001
  0
LINE
  5
4CB
  8
0
 62
     7
 10
4.259199999999999
 20
244.55500000000001
 30
0.0
 11
5.2048800000000002
 21
244.55500000000001
 31
0.0
  0
LINE
  5
4CC
  8
0
 62
     7
 10
-0.295247
 20
244.55500000000001
 30
0.0
 11
0.650438
 21
244.55500000000001
 31
0.0
  0
ARC
  5
4CD
  8
0
 62
     7
 10
-0.285599
 20
250.29482400000001
 30
0.0
 40
0.259949
 50
92.126972999999978
 51
177.83352400000001
  0
LINE
  5
4CE
  8
0
 62
     7
 10
4.259199999999999
 20
250.55500000000001
 30
0.0
 11
5.2048800000000002
 21
250.55500000000001
 31
0.0
  0
LINE
  5
4CF
  8
0
 62
     7
 10
-0.295247
 20
250.55500000000001
 30
0.0
 11
0.650438
 21
250.55500000000001
 31
0.0
  0
LINE
  5
4D0
  8
0
 62
     7
 10
-0.545362
 20
249.35900000000001
 30
0.0
 11
-0.545362
 21
250.30500000000001
 31
0.0
  0
LINE
  5
4D1
  8
0
 62
     7
 10
-0.545362
 20
244.80500000000001
 30
0.0
 11
-0.545362
 21
245.75
 31
0.0
  0
ARC
  5
4D2
  8
0
 62
     7
 10
9.0701160000000005
 20
254.16987599999999
 30
0.0
 40
0.259786
 50
2.133124
 51
87.906339000000017
  0
ARC
  5
4D3
  8
0
 62
     7
 10
9.0699640000000006
 20
240.93927400000001
 30
0.0
 40
0.259944
 50
272.12590299999999
 51
357.834633
  0
LINE
  5
4D4
  8
0
 62
     7
 10
9.32972
 20
245.58199999999999
 30
0.0
 11
9.32972
 21
240.929
 31
0.0
  0
LINE
  5
4D5
  8
0
 62
     7
 10
9.32972
 20
254.18000000000001
 30
0.0
 11
9.32972
 21
249.52699999999999
 31
0.0
  0
LINE
  5
4D6
  8
0
 62
     7
 10
4.4276599999999986
 20
254.429
 30
0.0
 11
9.0796100000000006
 21
254.429
 31
0.0
  0
LINE
  5
4D7
  8
0
 62
     7
 10
-4.1703099999999989
 20
254.429
 30
0.0
 11
0.4819720000000001
 21
254.429
 31
0.0
  0
ARC
  5
4D8
  8
0
 62
     7
 10
-4.160823999999999
 20
240.939122
 30
0.0
 40
0.259786
 50
182.1331439999999
 51
267.90635900000001
  0
LINE
  5
4D9
  8
0
 62
     7
 10
4.4276599999999986
 20
240.68000000000001
 30
0.0
 11
9.0796100000000006
 21
240.68000000000001
 31
0.0
  0
LINE
  5
4DA
  8
0
 62
     7
 10
-4.1703099999999989
 20
240.68000000000001
 30
0.0
 11
0.4819720000000001
 21
240.68000000000001
 31
0.0
  0
ARC
  5
4DB
  8
0
 62
     7
 10
-4.1606670000000001
 20
254.16971899999999
 30
0.0
 40
0.259949
 50
92.126972999999978
 51
177.83352400000001
  0
LINE
  5
4DC
  8
0
 62
     7
 10
-4.4204299999999996
 20
245.58199999999999
 30
0.0
 11
-4.4204299999999996
 21
240.929
 31
0.0
  0
LINE
  5
4DD
  8
0
 62
     7
 10
-4.4204299999999996
 20
254.18000000000001
 30
0.0
 11
-4.4204299999999996
 21
249.52699999999999
 31
0.0
  0
LINE
  5
4DE
  8
0
 62
     7
 10
-29.170500000000001
 20
254.18000000000001
 30
0.0
 11
-25.655799999999999
 21
250.66499999999999
 31
0.0
  0
LINE
  5
4DF
  8
0
 62
     7
 10
-25.655799999999999
 20
244.44399999999999
 30
0.0
 11
-29.170500000000001
 21
240.929
 31
0.0
  0
LINE
  5
4E0
  8
0
 62
     7
 10
-15.920199999999999
 20
254.18000000000001
 30
0.0
 11
-19.434899999999999
 21
250.66499999999999
 31
0.0
  0
LINE
  5
4E1
  8
0
 62
     7
 10
-19.434899999999999
 20
244.44399999999999
 30
0.0
 11
-15.920199999999999
 21
240.929
 31
0.0
  0
ARC
  5
4E2
  8
0
 62
     7
 10
-19.804790000000001
 20
250.29498100000001
 30
0.0
 40
0.259786
 50
2.133124
 51
87.906339000000017
  0
LINE
  5
4E3
  8
0
 62
     7
 10
-19.545200000000001
 20
244.80500000000001
 30
0.0
 11
-19.545200000000001
 21
250.30500000000001
 31
0.0
  0
ARC
  5
4E4
  8
0
 62
     7
 10
-25.285772000000001
 20
250.29517300000001
 30
0.0
 40
0.259601
 50
92.131783999999982
 51
177.90768700000001
  0
LINE
  5
4E5
  8
0
 62
     7
 10
-25.295400000000001
 20
250.55500000000001
 30
0.0
 11
-19.795300000000001
 21
250.55500000000001
 31
0.0
  0
LINE
  5
4E6
  8
0
 62
     7
 10
-25.545200000000001
 20
244.80500000000001
 30
0.0
 11
-25.545200000000001
 21
250.30500000000001
 31
0.0
  0
ARC
  5
4E7
  8
0
 62
     7
 10
-15.930056
 20
254.16990100000001
 30
0.0
 40
0.259774
 50
2.1278509999999988
 51
87.832638000000003
  0
ARC
  5
4E8
  8
0
 62
     7
 10
-15.929898
 20
240.938941
 30
0.0
 40
0.259612
 50
272.13400799999999
 51
357.90550300000001
  0
LINE
  5
4E9
  8
0
 62
     7
 10
-15.670500000000001
 20
254.18000000000001
 30
0.0
 11
-15.670500000000001
 21
240.929
 31
0.0
  0
LINE
  5
4EA
  8
0
 62
     7
 10
-29.170500000000001
 20
254.429
 30
0.0
 11
-15.920199999999999
 21
254.429
 31
0.0
  0
ARC
  5
4EB
  8
0
 62
     7
 10
-29.160672999999999
 20
240.939098
 30
0.0
 40
0.259774
 50
182.127871
 51
267.83265799999998
  0
LINE
  5
4EC
  8
0
 62
     7
 10
-29.170500000000001
 20
240.68000000000001
 30
0.0
 11
-25.6069
 21
240.68000000000001
 31
0.0
  0
ARC
  5
4ED
  8
0
 62
     7
 10
-29.160840000000011
 20
254.17006799999999
 30
0.0
 40
0.259601
 50
92.131783999999982
 51
177.90768700000001
  0
LINE
  5
4EE
  8
0
 62
     7
 10
-29.420300000000001
 20
254.18000000000001
 30
0.0
 11
-29.420300000000001
 21
240.929
 31
0.0
  0
LINE
  5
4EF
  8
0
  6
AIGENLINE001
 62
     7
 10
-58.795400000000001
 20
247.55500000000001
 30
0.0
 11
12.8592
 21
247.55500000000001
 31
0.0
  0
LINE
  5
4F0
  8
0
  6
AIGENLINE001
 62
     7
 10
-47.545699999999997
 20
258.80500000000001
 30
0.0
 11
-47.545699999999997
 21
236.304
 31
0.0
  0
LINE
  5
4F1
  8
0
 62
     7
 10
-45.57269999999999
 20
240.68000000000001
 30
0.0
 11
-40.920399999999987
 21
240.68000000000001
 31
0.0
  0
LINE
  5
4F2
  8
0
 62
     7
 10
-40.6706
 20
245.58199999999999
 30
0.0
 11
-40.6706
 21
240.929
 31
0.0
  0
LINE
  5
4F3
  8
0
 62
     7
 10
-54.4208
 20
245.58199999999999
 30
0.0
 11
-54.4208
 21
240.929
 31
0.0
  0
LINE
  5
4F4
  8
0
 62
     7
 10
-45.57269999999999
 20
254.429
 30
0.0
 11
-40.920399999999987
 21
254.429
 31
0.0
  0
LINE
  5
4F5
  8
0
 62
     7
 10
-54.170699999999989
 20
254.18000000000001
 30
0.0
 11
-50.655999999999999
 21
250.66499999999999
 31
0.0
  0
LINE
  5
4F6
  8
0
 62
     7
 10
-50.655999999999999
 20
244.44399999999999
 30
0.0
 11
-54.170699999999989
 21
240.929
 31
0.0
  0
LINE
  5
4F7
  8
0
 62
     7
 10
-40.920399999999987
 20
254.18000000000001
 30
0.0
 11
-44.435099999999991
 21
250.66499999999999
 31
0.0
  0
LINE
  5
4F8
  8
0
 62
     7
 10
-44.435099999999991
 20
244.44399999999999
 30
0.0
 11
-40.920399999999987
 21
240.929
 31
0.0
  0
LINE
  5
4F9
  8
0
 62
     7
 10
-44.545699999999989
 20
249.35900000000001
 30
0.0
 11
-44.545699999999989
 21
250.30500000000001
 31
0.0
  0
LINE
  5
4FA
  8
0
 62
     7
 10
-45.741199999999992
 20
244.55500000000001
 30
0.0
 11
-44.79549999999999
 21
244.55500000000001
 31
0.0
  0
LINE
  5
4FB
  8
0
 62
     7
 10
-50.545699999999997
 20
249.35900000000001
 30
0.0
 11
-50.545699999999997
 21
250.30500000000001
 31
0.0
  0
LINE
  5
4FC
  8
0
 62
     7
 10
-45.741199999999992
 20
250.55500000000001
 30
0.0
 11
-44.79549999999999
 21
250.55500000000001
 31
0.0
  0
ARC
  5
4FD
  8
0
 62
     7
 10
-44.805306000000002
 20
250.295005
 30
0.0
 40
0.259774
 50
2.1278509999999988
 51
87.832638000000003
  0
ARC
  5
4FE
  8
0
 62
     7
 10
-50.285964
 20
250.29482400000001
 30
0.0
 40
0.259949
 50
92.126972999999978
 51
177.83352400000001
  0
ARC
  5
4FF
  8
0
 62
     7
 10
-50.286121000000001
 20
244.81419
 30
0.0
 40
0.259786
 50
182.1331439999999
 51
267.90635900000001
  0
ARC
  5
500
  8
0
 62
     7
 10
-44.805143999999991
 20
244.81400400000001
 30
0.0
 40
0.259606
 50
272.13291299999997
 51
357.90659699999998
  0
ARC
  5
501
  8
0
 62
     7
 10
-40.930075999999993
 20
240.93893600000001
 30
0.0
 40
0.259606
 50
272.13291299999997
 51
357.90659699999998
  0
ARC
  5
502
  8
0
 62
     7
 10
-54.161189
 20
240.939122
 30
0.0
 40
0.259786
 50
182.1331439999999
 51
267.90635900000001
  0
ARC
  5
503
  8
0
 62
     7
 10
-40.930238000000003
 20
254.16990100000001
 30
0.0
 40
0.259774
 50
2.1278509999999988
 51
87.832638000000003
  0
ARC
  5
504
  8
0
 62
     7
 10
-54.161020999999991
 20
254.16970900000001
 30
0.0
 40
0.25996
 50
92.129159000000001
 51
177.83133799999999
  0
ARC
  5
505
  8
0
 62
     7
 10
-44.980752999999993
 20
250.11689200000001
 30
0.0
 40
0.7793790000000002
 50
179.62011000000001
 51
265.40534700000001
  0
LINE
  5
506
  8
0
 62
     7
 10
-45.043199999999992
 20
249.34
 30
0.0
 11
-44.978099999999998
 21
249.34
 31
0.0
  0
ARC
  5
507
  8
0
 62
     7
 10
-44.983626999999998
 20
244.990026
 30
0.0
 40
0.778975
 50
89.591502000000006
 51
175.420219
  0
ARC
  5
508
  8
0
 62
     7
 10
-45.082222999999992
 20
245.019668
 30
0.0
 40
0.678673
 50
177.25040999999999
 51
182.74959000000001
  0
ARC
  5
509
  8
0
 62
     7
 10
-50.11057499999999
 20
244.991893
 30
0.0
 40
0.7796110000000001
 50
359.648639
 51
85.389391999999987
  0
ARC
  5
50A
  8
0
 62
     7
 10
-50.080463999999999
 20
244.88922199999999
 30
0.0
 40
0.880361
 50
87.880669999999995
 51
92.119309999999984
  0
ARC
  5
50B
  8
0
 62
     7
 10
-50.107455000000002
 20
250.11895999999999
 30
0.0
 40
0.7789620000000002
 50
269.59065399999997
 51
355.42110700000001
  0
ARC
  5
50C
  8
0
 62
     7
 10
-50.370587999999998
 20
250.089417
 30
0.0
 40
1.0401219999999991
 50
358.201573
 51
1.798427
  0
ARC
  5
50D
  8
0
 62
     7
 10
-40.303804
 20
245.82475600000001
 30
0.0
 40
0.258875
 50
269.48100099999999
 51
355.581073
  0
LINE
  5
50E
  8
0
 62
     7
 10
-40.045699999999997
 20
245.80500000000001
 30
0.0
 11
-40.045699999999997
 21
245.816
 31
0.0
  0
LINE
  5
50F
  8
0
 62
     7
 10
-40.306100000000001
 20
245.566
 30
0.0
 11
-44.978099999999998
 21
245.76900000000001
 31
0.0
  0
ARC
  5
510
  8
0
 62
     7
 10
-40.305294000000004
 20
249.283863
 30
0.0
 40
0.259774
 50
2.1278509999999988
 51
87.832638000000003
  0
LINE
  5
511
  8
0
 62
     7
 10
-40.29549999999999
 20
249.54300000000001
 30
0.0
 11
-40.306100000000001
 21
249.54300000000001
 31
0.0
  0
LINE
  5
512
  8
0
 62
     7
 10
-40.306100000000001
 20
249.54300000000001
 30
0.0
 11
-44.978099999999998
 21
249.34
 31
0.0
  0
LINE
  5
513
  8
0
 62
     7
 10
-40.045699999999997
 20
249.29400000000001
 30
0.0
 11
-40.045699999999997
 21
245.816
 31
0.0
  0
ARC
  5
514
  8
0
 62
     7
 10
-45.816271999999991
 20
240.314335
 30
0.0
 40
0.259949
 50
272.12699300000003
 51
357.83354300000002
  0
ARC
  5
515
  8
0
 62
     7
 10
-45.685651999999997
 20
240.30583999999999
 30
0.0
 40
0.129151
 50
359.40919700000001
 51
4.2274089999999989
  0
LINE
  5
516
  8
0
 62
     7
 10
-45.556899999999999
 20
240.315
 30
0.0
 11
-45.760100000000001
 21
244.98699999999999
 31
0.0
  0
ARC
  5
517
  8
0
 62
     7
 10
-49.274376000000011
 20
240.31377499999999
 30
0.0
 40
0.259869
 50
179.65042700000001
 51
265.41502700000001
  0
LINE
  5
518
  8
0
 62
     7
 10
-49.295099999999998
 20
240.05500000000001
 30
0.0
 11
-49.284500000000001
 21
240.05500000000001
 31
0.0
  0
LINE
  5
519
  8
0
 62
     7
 10
-49.331000000000003
 20
244.98699999999999
 30
0.0
 11
-49.534199999999998
 21
240.315
 31
0.0
  0
LINE
  5
51A
  8
0
 62
     7
 10
-49.284500000000001
 20
240.05500000000001
 30
0.0
 11
-45.806600000000003
 21
240.05500000000001
 31
0.0
  0
ARC
  5
51B
  8
0
 62
     7
 10
-54.795623999999989
 20
245.815663
 30
0.0
 40
0.250115
 50
179.99996999999999
 51
270.00002000000001
  0
LINE
  5
51C
  8
0
 62
     7
 10
-54.7956
 20
245.566
 30
0.0
 11
-54.784599999999998
 21
245.566
 31
0.0
  0
ARC
  5
51D
  8
0
 62
     7
 10
-54.785444999999989
 20
249.28240600000001
 30
0.0
 40
0.260875
 50
89.814168999999993
 51
175.17241200000001
  0
LINE
  5
51E
  8
0
 62
     7
 10
-55.045400000000001
 20
249.304
 30
0.0
 11
-55.045699999999997
 21
249.29400000000001
 31
0.0
  0
ARC
  5
51F
  8
0
 62
     7
 10
-49.274813000000002
 20
254.795185
 30
0.0
 40
0.259601
 50
92.131783999999982
 51
177.90768700000001
  0
LINE
  5
520
  8
0
 62
     7
 10
-49.534199999999998
 20
254.80500000000001
 30
0.0
 11
-49.534199999999998
 21
254.79400000000001
 31
0.0
  0
ARC
  5
521
  8
0
 62
     7
 10
-45.816895000000002
 20
254.79526000000001
 30
0.0
 40
0.260047
 50
359.642696
 51
85.302740999999983
  0
LINE
  5
522
  8
0
 62
     7
 10
-45.795599999999993
 20
255.054
 30
0.0
 11
-45.806600000000003
 21
255.05500000000001
 31
0.0
  0
LINE
  5
523
  8
0
 62
     7
 10
-45.556899999999999
 20
254.79400000000001
 30
0.0
 11
-45.760100000000001
 21
250.12200000000001
 31
0.0
  0
LINE
  5
524
  8
0
 62
     7
 10
-49.331000000000003
 20
250.12200000000001
 30
0.0
 11
-49.534199999999998
 21
254.79400000000001
 31
0.0
  0
LINE
  5
525
  8
0
 62
     7
 10
-54.784599999999998
 20
245.566
 30
0.0
 11
-50.113
 21
245.76900000000001
 31
0.0
  0
LINE
  5
526
  8
0
 62
     7
 10
-54.784599999999998
 20
249.54300000000001
 30
0.0
 11
-50.113
 21
249.34
 31
0.0
  0
LINE
  5
527
  8
0
 62
     7
 10
-55.045699999999997
 20
249.29400000000001
 30
0.0
 11
-55.045699999999997
 21
245.816
 31
0.0
  0
LINE
  5
528
  8
0
 62
     7
 10
-49.284500000000001
 20
255.05500000000001
 30
0.0
 11
-45.806600000000003
 21
255.05500000000001
 31
0.0
  0
LINE
  5
529
  8
0
 62
     7
 10
-44.545699999999989
 20
244.80500000000001
 30
0.0
 11
-44.545699999999989
 21
245.75
 31
0.0
  0
LINE
  5
52A
  8
0
 62
     7
 10
-50.2956
 20
244.55500000000001
 30
0.0
 11
-49.349899999999991
 21
244.55500000000001
 31
0.0
  0
LINE
  5
52B
  8
0
 62
     7
 10
-50.2956
 20
250.55500000000001
 30
0.0
 11
-49.349899999999991
 21
250.55500000000001
 31
0.0
  0
LINE
  5
52C
  8
0
 62
     7
 10
-50.545699999999997
 20
244.80500000000001
 30
0.0
 11
-50.545699999999997
 21
245.75
 31
0.0
  0
LINE
  5
52D
  8
0
 62
     7
 10
-40.6706
 20
254.18000000000001
 30
0.0
 11
-40.6706
 21
249.52699999999999
 31
0.0
  0
LINE
  5
52E
  8
0
 62
     7
 10
-54.170699999999989
 20
254.429
 30
0.0
 11
-49.5184
 21
254.429
 31
0.0
  0
LINE
  5
52F
  8
0
 62
     7
 10
-54.170699999999989
 20
240.68000000000001
 30
0.0
 11
-49.5184
 21
240.68000000000001
 31
0.0
  0
LINE
  5
530
  8
0
 62
     7
 10
-54.4208
 20
254.18000000000001
 30
0.0
 11
-54.4208
 21
249.52699999999999
 31
0.0
  0
TEXT
  5
531
  8
_________2
 62
     7
 10
247.22647499999999
 20
30.3553
 30
0.0
 40
3.9357000000000002
  1
ZU1425R
 41
0.5
 72
     1
 11
253.458
 21
30.3553
 31
0.0
  0
TEXT
  5
532
  8
_________2
 62
     7
 10
149.3328003333333
 20
34.850499999999997
 30
0.0
 40
3.6545800000000002
  1
井田
 41
0.5
 72
     1
 11
151.221
 21
34.850499999999997
 31
0.0
  0
TEXT
  5
533
  8
_________2
 62
     7
 10
130.69789066666669
 20
34.850499999999997
 30
0.0
 40
3.6545800000000002
  1
恋塚
 41
0.5
 72
     1
 11
132.64699999999999
 21
34.850499999999997
 31
0.0
  0
TEXT
  5
534
  8
_________2
 62
     7
 10
177.69399999999999
 20
34.465299999999999
 30
0.0
 40
3.6545800000000002
  1
18.12.13
 41
0.5
  0
TEXT
  5
535
  8
_________2
 62
     7
 10
290.64778333333328
 20
12.808299999999999
 30
0.0
 40
3.3734599999999988
  1
A3
 41
0.5
 72
     2
 11
293.459
 21
12.808299999999999
 31
0.0
  0
TEXT
  5
536
  8
_________2
 62
     7
 10
134.495
 20
21.954699999999999
 30
0.0
 40
3.9357000000000002
  1
（社）日本水道協会認証品
 41
0.5
  0
LINE
  5
537
  8
_________2
 62
     7
 10
315.209
 20
148.65899999999999
 30
0.0
 11
293.459
 21
148.65899999999999
 31
0.0
  0
LINE
  5
538
  8
_________2
 62
     7
 10
105.20699999999999
 20
17.156300000000002
 30
0.0
 11
105.20699999999999
 21
0.176045
 31
0.0
  0
LINE
  5
539
  8
_________2
 62
     7
 10
105.20699999999999
 20
297.178
 30
0.0
 11
105.20699999999999
 21
280.15800000000002
 31
0.0
  0
LINE
  5
53A
  8
_________2
 62
     7
 10
-83.043899999999994
 20
148.65899999999999
 30
0.0
 11
-104.794
 21
148.65899999999999
 31
0.0
  0
LINE
  5
53B
  8
_________2
 62
     7
 10
186.649
 20
51.052199999999999
 30
0.0
 11
184.46299999999999
 21
51.052199999999999
 31
0.0
  0
LINE
  5
53C
  8
_________2
 62
     7
 10
187.142
 20
51.052199999999999
 30
0.0
 11
186.88900000000001
 21
51.052199999999999
 31
0.0
  0
LINE
  5
53D
  8
_________2
 62
     7
 10
187.63399999999999
 20
51.052199999999999
 30
0.0
 11
190.559
 21
51.052199999999999
 31
0.0
  0
LINE
  5
53E
  8
_________2
 62
     7
 10
187.142
 20
51.052199999999999
 30
0.0
 11
187.39400000000001
 21
51.052199999999999
 31
0.0
  0
LINE
  5
53F
  8
_________2
 62
     7
 10
180.745
 20
51.052199999999999
 30
0.0
 11
178.55799999999999
 21
51.052199999999999
 31
0.0
  0
LINE
  5
540
  8
_________2
 62
     7
 10
181.23699999999999
 20
51.052199999999999
 30
0.0
 11
180.98599999999999
 21
51.052199999999999
 31
0.0
  0
LINE
  5
541
  8
_________2
 62
     7
 10
181.23699999999999
 20
51.544800000000002
 30
0.0
 11
181.23699999999999
 21
53.7318
 31
0.0
  0
LINE
  5
542
  8
_________2
 62
     7
 10
181.23699999999999
 20
51.052199999999999
 30
0.0
 11
181.23699999999999
 21
51.304299999999998
 31
0.0
  0
LINE
  5
543
  8
_________2
 62
     7
 10
181.72999999999999
 20
51.052199999999999
 30
0.0
 11
183.917
 21
51.052199999999999
 31
0.0
  0
LINE
  5
544
  8
_________2
 62
     7
 10
181.23699999999999
 20
51.052199999999999
 30
0.0
 11
181.489
 21
51.052199999999999
 31
0.0
  0
LINE
  5
545
  8
_________2
 62
     7
 10
181.23699999999999
 20
50.560200000000002
 30
0.0
 11
181.23699999999999
 21
48.373199999999997
 31
0.0
  0
LINE
  5
546
  8
_________2
 62
     7
 10
181.23699999999999
 20
51.052199999999999
 30
0.0
 11
181.23699999999999
 21
50.800699999999999
 31
0.0
  0
LINE
  5
547
  8
_________2
 62
     7
 10
184.94799999999989
 20
49.832599999999999
 30
0.0
 11
190.12599999999989
 21
48.9679
 31
0.0
  0
LINE
  5
548
  8
_________2
 62
     7
 10
184.94799999999989
 20
52.271700000000003
 30
0.0
 11
190.12599999999989
 21
53.137099999999997
 31
0.0
  0
LINE
  5
549
  8
_________2
 62
     7
 10
190.12599999999989
 20
48.9679
 30
0.0
 11
190.12599999999989
 21
53.137099999999997
 31
0.0
  0
LINE
  5
54A
  8
_________2
 62
     7
 10
184.94799999999989
 20
49.832599999999999
 30
0.0
 11
184.94799999999989
 21
52.271700000000003
 31
0.0
  0
ARC
  5
54B
  8
_________2
 62
     7
 10
181.190651
 20
51.004810999999989
 30
0.0
 40
1.2677780000000001
 50
2.1403449999999991
 51
87.892005999999995
  0
ARC
  5
54C
  8
_________2
 62
     7
 10
181.28420199999999
 20
51.005241999999988
 30
0.0
 40
1.2673579999999991
 50
92.121564999999975
 51
177.87840600000001
  0
ARC
  5
54D
  8
_________2
 62
     7
 10
181.28381400000001
 20
51.098689
 30
0.0
 40
1.2669559999999991
 50
182.10473099999999
 51
267.89529900000002
  0
ARC
  5
54E
  8
_________2
 62
     7
 10
181.19038399999999
 20
51.099775000000001
 30
0.0
 40
1.268054
 50
272.11960599999998
 51
357.84804300000002
  0
ARC
  5
54F
  8
_________2
 62
     7
 10
181.23728399999999
 20
51.05215900000001
 30
0.0
 40
2.0849849999999992
 50
0.00001
 51
89.999980000000008
  0
ARC
  5
550
  8
_________2
 62
     7
 10
181.317331
 20
50.972827000000002
 30
0.0
 40
2.1657969999999991
 50
92.118111999999996
 51
177.90079600000001
  0
ARC
  5
551
  8
_________2
 62
     7
 10
181.31728799999999
 20
51.132162999999998
 30
0.0
 40
2.1657779999999991
 50
182.11700400000001
 51
267.88302499999998
  0
ARC
  5
552
  8
_________2
 62
     7
 10
181.15730300000001
 20
51.132855999999997
 30
0.0
 40
2.166469999999999
 50
272.115725
 51
357.86534699999999
  0
TEXT
  5
553
  8
_________2
 62
     7
 10
214.51300000000001
 20
22.9269
 30
0.0
 40
3.0923400000000001
  1
図番
 41
0.5
  0
LINE
  5
554
  8
_________2
 62
     7
 10
213.458
 20
27.156099999999999
 30
0.0
 11
293.459
 21
27.156099999999999
 31
0.0
  0
TEXT
  5
555
  8
_________2
 62
     7
 10
214.51300000000001
 20
32.926699999999997
 30
0.0
 40
3.0923400000000001
  1
品番
 41
0.5
  0
TEXT
  5
556
  8
_________2
 62
     7
 10
214.51300000000001
 20
53.0655
 30
0.0
 40
3.0923400000000001
  1
名称
 41
0.5
  0
TEXT
  5
557
  8
_________2
 62
     7
 10
201.75325833333329
 20
48.069400000000002
 30
0.0
 40
3.6545800000000002
  1
mm
 41
0.5
 72
     1
 11
203.27600000000001
 21
48.069400000000002
 31
0.0
  0
TEXT
  5
558
  8
_________2
 62
     7
 10
195.55099999999999
 20
53.0655
 30
0.0
 40
3.0923400000000001
  1
単位
 41
0.5
  0
TEXT
  5
559
  8
_________2
 62
     7
 10
195.55099999999999
 20
40.658200000000001
 30
0.0
 40
3.0923400000000001
  1
尺度
 41
0.5
  0
TEXT
  5
55A
  8
_________2
 62
     7
 10
200.4570586666666
 20
34.465299999999999
 30
0.0
 40
3.6545800000000002
  1
1 ： 4
 41
0.5
 72
     1
 11
203.86799999999999
 21
34.465299999999999
 31
0.0
  0
TEXT
  5
55B
  8
_________2
 62
     7
 10
247.22647499999999
 20
20.354800000000001
 30
0.0
 40
3.9357000000000002
  1
ZU1425R
 41
0.5
 72
     1
 11
253.458
 21
20.354800000000001
 31
0.0
  0
TEXT
  5
55C
  8
_________2
 62
     7
 10
129.49600000000001
 20
132.15600000000001
 30
0.0
 40
3.9357000000000002
  1
給水圧力
 41
0.5
  0
TEXT
  5
55D
  8
_________2
 62
     7
 10
129.49600000000001
 20
139.91900000000001
 30
0.0
 40
3.9357000000000002
  1
用途
 41
0.5
  0
TEXT
  5
55E
  8
_________2
 62
     7
 10
169.50999999999999
 20
139.91900000000001
 30
0.0
 40
3.9357000000000002
  1
一般住宅用（屋内用）
 41
0.5
  0
LINE
  5
55F
  8
_________2
 62
     7
 10
145.64099999999999
 20
137.81100000000001
 30
0.0
 11
145.64099999999999
 21
116.474
 31
0.0
  0
LINE
  5
560
  8
_________2
 62
     7
 10
166.97200000000001
 20
145.57299999999989
 30
0.0
 11
166.97200000000001
 21
61.980800000000002
 31
0.0
  0
LINE
  5
561
  8
_________2
 62
     7
 10
290.16199999999998
 20
145.57299999999989
 30
0.0
 11
126.95699999999999
 21
145.57299999999989
 31
0.0
  0
LINE
  5
562
  8
_________2
 62
     7
 10
126.95699999999999
 20
145.57299999999989
 30
0.0
 11
126.95699999999999
 21
61.980800000000002
 31
0.0
  0
LINE
  5
563
  8
_________2
 62
     7
 10
126.95699999999999
 20
61.980800000000002
 30
0.0
 11
290.16199999999998
 21
61.980800000000002
 31
0.0
  0
LINE
  5
564
  8
_________2
 62
     7
 10
290.16199999999998
 20
61.980800000000002
 30
0.0
 11
290.16199999999998
 21
145.57299999999989
 31
0.0
  0
TEXT
  5
565
  8
_________2
 62
     7
 10
147.41499999999999
 20
132.15600000000001
 30
0.0
 40
3.9357000000000002
  1
最低必要水圧
 41
0.5
  0
TEXT
  5
566
  8
_________2
 62
     7
 10
169.50999999999999
 20
132.15600000000001
 30
0.0
 40
3.9357000000000002
  1
0.1MPa（流動圧）
 41
0.5
  0
LINE
  5
567
  8
_________2
 62
     7
 10
126.95699999999999
 20
137.81100000000001
 30
0.0
 11
290.16199999999998
 21
137.81100000000001
 31
0.0
  0
TEXT
  5
568
  8
_________2
 62
     7
 10
129.49600000000001
 20
110.819
 30
0.0
 40
3.9357000000000002
  1
使用可能水質
 41
0.5
  0
TEXT
  5
569
  8
_________2
 62
     7
 10
169.50999999999999
 20
110.819
 30
0.0
 40
3.9357000000000002
  1
水道水
 41
0.5
  0
LINE
  5
56A
  8
_________2
 62
     7
 10
126.95699999999999
 20
116.474
 30
0.0
 11
290.16199999999998
 21
116.474
 31
0.0
  0
TEXT
  5
56B
  8
_________2
 62
     7
 10
147.41499999999999
 20
124.53400000000001
 30
0.0
 40
3.9357000000000002
  1
最高水圧
 41
0.5
  0
TEXT
  5
56C
  8
_________2
 62
     7
 10
169.50999999999999
 20
124.53400000000001
 30
0.0
 40
3.9357000000000002
  1
0.5MPa（流動圧）※快適にお使いいただくためには、0.2～0.3MPa程度の圧力をおすすめします。
 41
0.5
  0
LINE
  5
56D
  8
_________2
 62
     7
 10
145.64099999999999
 20
130.048
 30
0.0
 11
290.16199999999998
 21
130.048
 31
0.0
  0
TEXT
  5
56E
  8
_________2
 62
     7
 10
129.49600000000001
 20
103.197
 30
0.0
 40
3.9357000000000002
  1
使用環境温度
 41
0.5
  0
TEXT
  5
56F
  8
_________2
 62
     7
 10
129.49600000000001
 20
89.623299999999986
 30
0.0
 40
3.9357000000000002
  1
最高給湯温度
 41
0.5
  0
TEXT
  5
570
  8
_________2
 62
     7
 10
129.49600000000001
 20
75.920699999999997
 30
0.0
 40
3.9357000000000002
  1
特記事項
 41
0.5
  0
TEXT
  5
571
  8
_________2
 62
     7
 10
169.50999999999999
 20
103.197
 30
0.0
 40
3.9357000000000002
  1
1～40℃
 41
0.5
  0
TEXT
  5
572
  8
_________2
 62
     7
 10
169.50999999999999
 20
98.277799999999999
 30
0.0
 40
3.9357000000000002
  1
※寒冷地仕様ではありません、凍結が予想される場合は凍結予防をしてください。
 41
0.5
  0
LINE
  5
573
  8
_________2
 62
     7
 10
126.95699999999999
 20
108.711
 30
0.0
 11
290.16199999999998
 21
108.711
 31
0.0
  0
TEXT
  5
574
  8
_________2
 62
     7
 10
169.50999999999999
 20
89.623299999999986
 30
0.0
 40
3.9357000000000002
  1
80℃
 41
0.5
  0
TEXT
  5
575
  8
_________2
 62
     7
 10
169.50999999999999
 20
84.703699999999998
 30
0.0
 40
3.9357000000000002
  1
※安全のため給湯温度は60℃以下でのご使用をおすすめします。
 41
0.5
  0
TEXT
  5
576
  8
_________2
 62
     7
 10
169.50999999999999
 20
75.920699999999997
 30
0.0
 40
3.9357000000000002
  1
（1）水圧は湯水ほぼ同圧、且つ湯圧が水圧より高くならないように設定してください。
 41
0.5
  0
TEXT
  5
577
  8
_________2
 62
     7
 10
169.50999999999999
 20
71.001099999999994
 30
0.0
 40
3.9357000000000002
  1
（2）湯水を逆に配管しないでください。
 41
0.5
  0
TEXT
  5
578
  8
_________2
 62
     7
 10
219.08699999999999
 20
45.473100000000002
 30
0.0
 40
3.9357000000000002
  1
ベラッジオ 湯水混合水栓
 41
0.5
  0
TEXT
  5
579
  8
_________2
 62
     7
 10
176.501
 20
40.658200000000001
 30
0.0
 40
3.0923400000000001
  1
日付
 41
0.5
  0
TEXT
  5
57A
  8
_________2
 62
     7
 10
139.547
 20
40.658200000000001
 30
0.0
 40
3.0923400000000001
  1
検図
 41
0.5
  0
TEXT
  5
57B
  8
_________2
 62
     7
 10
127.929
 20
26.4588
 30
0.0
 40
3.0923400000000001
  1
備考
 41
0.5
  0
TEXT
  5
57C
  8
_________2
 62
     7
 10
127.929
 20
40.658200000000001
 30
0.0
 40
3.0923400000000001
  1
製図
 41
0.5
  0
TEXT
  5
57D
  8
_________2
 62
     7
 10
133.69596533333331
 20
49.184199999999997
 30
0.0
 40
4.4979399999999989
  1
セラトレーディング株式会社
 41
0.5
 72
     1
 11
151.08799999999999
 21
49.184199999999997
 31
0.0
  0
LINE
  5
57E
  8
_________2
 62
     7
 10
293.459
 20
17.156300000000002
 30
0.0
 11
-83.043899999999994
 21
17.156300000000002
 31
0.0
  0
LINE
  5
57F
  8
_________2
 62
     7
 10
-83.043899999999994
 20
17.156300000000002
 30
0.0
 11
-83.043899999999994
 21
280.15800000000002
 31
0.0
  0
LINE
  5
580
  8
_________2
 62
     7
 10
-83.043899999999994
 20
280.15800000000002
 30
0.0
 11
293.459
 21
280.15800000000002
 31
0.0
  0
LINE
  5
581
  8
_________2
 62
     7
 10
293.459
 20
280.15800000000002
 30
0.0
 11
293.459
 21
17.156300000000002
 31
0.0
  0
LINE
  5
582
  8
_________2
 62
     7
 10
175.458
 20
30.656400000000001
 30
0.0
 11
175.458
 21
57.156199999999998
 31
0.0
  0
LINE
  5
583
  8
_________2
 62
     7
 10
194.458
 20
30.656400000000001
 30
0.0
 11
194.458
 21
57.156199999999998
 31
0.0
  0
LINE
  5
584
  8
_________2
 62
     7
 10
126.95699999999999
 20
17.156300000000002
 30
0.0
 11
126.95699999999999
 21
57.156199999999998
 31
0.0
  0
LINE
  5
585
  8
_________2
 62
     7
 10
213.458
 20
17.156300000000002
 30
0.0
 11
213.458
 21
57.156199999999998
 31
0.0
  0
LINE
  5
586
  8
_________2
 62
     7
 10
138.45699999999999
 20
30.656400000000001
 30
0.0
 11
138.45699999999999
 21
44.65659999999999
 31
0.0
  0
LINE
  5
587
  8
_________2
 62
     7
 10
126.95699999999999
 20
30.656400000000001
 30
0.0
 11
213.458
 21
30.656400000000001
 31
0.0
  0
LINE
  5
588
  8
_________2
 62
     7
 10
126.95699999999999
 20
44.65659999999999
 30
0.0
 11
213.458
 21
44.65659999999999
 31
0.0
  0
LINE
  5
589
  8
_________2
 62
     7
 10
213.458
 20
37.15590000000001
 30
0.0
 11
293.459
 21
37.15590000000001
 31
0.0
  0
LINE
  5
58A
  8
_________2
 62
     7
 10
126.95699999999999
 20
95.137299999999996
 30
0.0
 11
290.16199999999998
 21
95.137299999999996
 31
0.0
  0
LINE
  5
58B
  8
_________2
 62
     7
 10
126.95699999999999
 20
81.563199999999995
 30
0.0
 11
290.16199999999998
 21
81.563199999999995
 31
0.0
  0
LINE
  5
58C
  8
_________2
 62
     7
 10
126.95699999999999
 20
57.156199999999998
 30
0.0
 11
293.459
 21
57.156199999999998
 31
0.0
  0
ENDSEC
  0
EOF
