  0
SECTION
  2
HEADER
  9
$ACADVER
  1
AC1009
  9
$INSBASE
 10
0.0
 20
0.0
 30
0.0
  9
$EXTMIN
 10
-4.7006899999999989
 20
-21.070999999999991
 30
0.0
  9
$EXTMAX
 10
205.30099999999999
 20
275.93099999999993
 30
0.0
  9
$LIMMIN
 10
0.0
 20
0.0
  9
$LIMMAX
 10
12.0
 20
9.0
  9
$ORTHOMODE
 70
     0
  9
$REGENMODE
 70
     1
  9
$FILLMODE
 70
     1
  9
$QTEXTMODE
 70
     0
  9
$MIRRTEXT
 70
     1
  9
$DRAGMODE
 70
     2
  9
$LTSCALE
 40
1.0
  9
$OSMODE
 70
    37
  9
$ATTMODE
 70
     1
  9
$TEXTSIZE
 40
0.0
  9
$TRACEWID
 40
0.05
  9
$TEXTSTYLE
  7
STANDARD
  9
$CLAYER
  8
0
  9
$CELTYPE
  6
CONTINUOUS
  9
$CECOLOR
 62
   256
  9
$DIMSCALE
 40
1.0
  9
$DIMASZ
 40
0.18
  9
$DIMEXO
 40
0.0625
  9
$DIMDLI
 40
0.38
  9
$DIMRND
 40
0.0
  9
$DIMDLE
 40
0.0
  9
$DIMEXE
 40
0.18
  9
$DIMTP
 40
0.0
  9
$DIMTM
 40
0.0
  9
$DIMTXT
 40
0.18
  9
$DIMCEN
 40
0.09
  9
$DIMTSZ
 40
0.0
  9
$DIMTOL
 70
     0
  9
$DIMLIM
 70
     0
  9
$DIMTIH
 70
     1
  9
$DIMTOH
 70
     1
  9
$DIMSE1
 70
     0
  9
$DIMSE2
 70
     0
  9
$DIMTAD
 70
     0
  9
$DIMZIN
 70
     0
  9
$DIMBLK
  1

  9
$DIMASO
 70
     1
  9
$DIMSHO
 70
     1
  9
$DIMPOST
  1

  9
$DIMAPOST
  1

  9
$DIMALT
 70
     0
  9
$DIMALTD
 70
     2
  9
$DIMALTF
 40
25.399999999999999
  9
$DIMLFAC
 40
1.0
  9
$DIMTOFL
 70
     0
  9
$DIMTVP
 40
0.0
  9
$DIMTIX
 70
     0
  9
$DIMSOXD
 70
     0
  9
$DIMSAH
 70
     0
  9
$DIMBLK1
  1

  9
$DIMBLK2
  1

  9
$DIMSTYLE
  2
STANDARD
  9
$DIMCLRD
 70
     0
  9
$DIMCLRE
 70
     0
  9
$DIMCLRT
 70
     0
  9
$DIMTFAC
 40
1.0
  9
$DIMGAP
 40
0.09
  9
$LUNITS
 70
     2
  9
$LUPREC
 70
     4
  9
$SKETCHINC
 40
0.1
  9
$FILLETRAD
 40
0.0
  9
$AUNITS
 70
     0
  9
$AUPREC
 70
     0
  9
$MENU
  1
.
  9
$ELEVATION
 40
0.0
  9
$PELEVATION
 40
0.0
  9
$THICKNESS
 40
0.0
  9
$LIMCHECK
 70
     0
  9
$BLIPMODE
 70
     0
  9
$CHAMFERA
 40
0.0
  9
$CHAMFERB
 40
0.0
  9
$SKPOLY
 70
     0
  9
$TDCREATE
 40
2444972.375
  9
$TDUPDATE
 40
2456676.2508978238
  9
$TDINDWG
 40
0.0000093403
  9
$TDUSRTIMER
 40
0.0000093403
  9
$USRTIMER
 70
     1
  9
$ANGBASE
 50
0.0
  9
$ANGDIR
 70
     0
  9
$PDMODE
 70
     0
  9
$PDSIZE
 40
0.0
  9
$PLINEWID
 40
0.0
  9
$COORDS
 70
     1
  9
$SPLFRAME
 70
     0
  9
$SPLINETYPE
 70
     6
  9
$SPLINESEGS
 70
     8
  9
$ATTDIA
 70
     0
  9
$ATTREQ
 70
     1
  9
$HANDLING
 70
     1
  9
$HANDSEED
  5
57F
  9
$SURFTAB1
 70
     6
  9
$SURFTAB2
 70
     6
  9
$SURFTYPE
 70
     6
  9
$SURFU
 70
     6
  9
$SURFV
 70
     6
  9
$UCSNAME
  2

  9
$UCSORG
 10
0.0
 20
0.0
 30
0.0
  9
$UCSXDIR
 10
1.0
 20
0.0
 30
0.0
  9
$UCSYDIR
 10
0.0
 20
1.0
 30
0.0
  9
$PUCSNAME
  2

  9
$PUCSORG
 10
0.0
 20
0.0
 30
0.0
  9
$PUCSXDIR
 10
1.0
 20
0.0
 30
0.0
  9
$PUCSYDIR
 10
0.0
 20
1.0
 30
0.0
  9
$USERI1
 70
     0
  9
$USERI2
 70
     0
  9
$USERI3
 70
     0
  9
$USERI4
 70
     0
  9
$USERI5
 70
     0
  9
$USERR1
 40
0.0
  9
$USERR2
 40
0.0
  9
$USERR3
 40
0.0
  9
$USERR4
 40
0.0
  9
$USERR5
 40
0.0
  9
$WORLDVIEW
 70
     1
  9
$SHADEDGE
 70
     3
  9
$SHADEDIF
 70
    70
  9
$TILEMODE
 70
     1
  9
$MAXACTVP
 70
    48
  9
$PLIMCHECK
 70
     0
  9
$PEXTMIN
 10
1.0000000000000000E+020
 20
1.0000000000000000E+020
 30
1.0000000000000000E+020
  9
$PEXTMAX
 10
-1.0000000000000000E+020
 20
-1.0000000000000000E+020
 30
-1.0000000000000000E+020
  9
$PLIMMIN
 10
0.0
 20
0.0
  9
$PLIMMAX
 10
12.0
 20
9.0
  9
$UNITMODE
 70
     0
  9
$VISRETAIN
 70
     1
  9
$PLINEGEN
 70
     0
  9
$PSLTSCALE
 70
     1
  0
ENDSEC
  0
SECTION
  2
TABLES
  0
TABLE
  2
VPORT
 70
     2
  0
VPORT
  2
*ACTIVE
 70
     0
 10
0.0
 20
0.0
 11
1.0
 21
1.0
 12
202.006561769564
 22
127.42999999999989
 13
0.0
 23
0.0
 14
1.0
 24
1.0
 15
0.0
 25
0.0
 16
0.0
 26
0.0
 36
1.0
 17
0.0
 27
0.0
 37
0.0
 40
299.45318569463541
 41
2.2894736842105261
 42
50.0
 43
0.0
 44
0.0
 50
0.0
 51
0.0
 71
     0
 72
   100
 73
     1
 74
     1
 75
     0
 76
     0
 77
     0
 78
     0
  0
ENDTAB
  0
TABLE
  2
LTYPE
 70
     2
  0
LTYPE
  2
CONTINUOUS
 70
     0
  3
Solid line
 72
    65
 73
     0
 40
0.0
  0
LTYPE
  2
AIGENLINE001
 70
     0
  3
generate AI->DXF Converter
 72
    65
 73
     4
 40
5.8561449999999988
 49
3.5278
 49
-0.776115
 49
0.776115
 49
-0.776115
  0
ENDTAB
  0
TABLE
  2
LAYER
 70
     2
  0
LAYER
  2
0
 70
     0
 62
     7
  6
CONTINUOUS
  0
LAYER
  2
_________2
 70
     0
 62
     7
  6
CONTINUOUS
  0
ENDTAB
  0
TABLE
  2
STYLE
 70
     1
  0
STYLE
  2
STANDARD
 70
     0
 40
0.0
 41
0.0
 50
0.0
 71
     0
 42
0.0
  3
TXT
  4
EXTFONT.SHX
  0
ENDTAB
  0
TABLE
  2
VIEW
 70
     0
  0
ENDTAB
  0
TABLE
  2
UCS
 70
     0
  0
ENDTAB
  0
TABLE
  2
APPID
 70
     1
  0
APPID
  2
ACAD
 70
     0
  0
ENDTAB
  0
TABLE
  2
DIMSTYLE
 70
     1
  0
DIMSTYLE
  2
STANDARD
 70
     0
  3

  4

  5

  6

  7

 40
1.0
 41
0.18
 42
0.0625
 43
0.38
 44
0.18
 45
0.0
 46
0.0
 47
0.0
 48
0.0
140
0.18
141
0.09
142
0.0
143
25.399999999999999
144
1.0
145
0.0
146
1.0
147
0.09
 71
     0
 72
     0
 73
     1
 74
     1
 75
     0
 76
     0
 77
     0
 78
     0
170
     0
171
     2
172
     0
173
     0
174
     0
175
     0
176
     0
177
     0
178
     0
  0
ENDTAB
  0
ENDSEC
  0
SECTION
  2
BLOCKS
  0
BLOCK
  8
0
  2
$MODEL_SPACE
 70
     0
 10
0.0
 20
0.0
 30
0.0
  3
$MODEL_SPACE
  1

  0
ENDBLK
  5
1A
  8
0
  0
BLOCK
 67
     1
  8
0
  2
$PAPER_SPACE
 70
     0
 10
0.0
 20
0.0
 30
0.0
  3
$PAPER_SPACE
  1

  0
ENDBLK
  5
17
 67
     1
  8
0
  0
ENDSEC
  0
SECTION
  2
ENTITIES
  0
TEXT
  5
22
  8
0
 62
     7
 10
28.768319999999999
 20
141.012
 30
0.0
 40
3.0923400000000001
  1
%%c29.5
 41
0.5
 72
     2
 11
34.953000000000003
 21
141.012
 31
0.0
  0
TEXT
  5
23
  8
0
 62
     7
 10
54.268720000000002
 20
141.012
 30
0.0
 40
3.0923400000000001
  1
%%c33.5
 41
0.5
 72
     2
 11
60.453400000000002
 21
141.012
 31
0.0
  0
TEXT
  5
24
  8
0
 62
     7
 10
121.8319825
 20
51.498999999999988
 30
0.0
 40
3.0923400000000001
  1
180
 41
0.5
 72
     1
 11
123.50700000000001
 21
51.498999999999988
 31
0.0
  0
TEXT
  5
25
  8
0
 62
     7
 10
129.49100000000001
 20
71.130324999999999
 30
0.0
 40
3.0923400000000001
  1
%%c5
 50
90.0
 41
0.5
 72
     1
 11
129.49100000000001
 21
72.418800000000005
 31
0.0
  0
TEXT
  5
26
  8
0
 62
     7
 10
111.7416179999999
 20
58.832999999999998
 30
0.0
 40
3.0923400000000001
  1
G1 1/4
 41
0.5
 72
     2
 11
118.8539999999999
 21
58.832999999999998
 31
0.0
  0
TEXT
  5
27
  8
0
 62
     7
 10
95.368799999999993
 20
67.367872500000004
 30
0.0
 40
3.0923400000000001
  1
50
 50
90.0
 41
0.5
 72
     1
 11
95.368799999999993
 21
68.527500000000003
 31
0.0
  0
TEXT
  5
28
  8
0
 62
     7
 10
95.028400000000005
 20
74.608522500000007
 30
0.0
 40
3.0923400000000001
  1
max.50
 50
90.0
 41
0.5
 72
     1
 11
95.028400000000005
 21
78.345100000000002
 31
0.0
  0
TEXT
  5
29
  8
0
 62
     7
 10
112.7684399999999
 20
87.461500000000001
 30
0.0
 40
3.0923400000000001
  1
%%c63
 41
0.5
 72
     1
 11
114.83
 21
87.461500000000001
 31
0.0
  0
TEXT
  5
2A
  8
0
 62
     7
 10
136.80964599999999
 20
208.07199999999989
 30
0.0
 40
3.0923400000000001
  1
水栓取付穴
 41
0.5
 72
     1
 11
141.24199999999999
 21
208.07199999999989
 31
0.0
  0
TEXT
  5
2B
  8
0
 62
     7
 10
175.75287999999989
 20
232.65700000000001
 30
0.0
 40
3.0923400000000001
  1
%%c35
 41
0.5
 72
     2
 11
179.87599999999989
 21
232.65700000000001
 31
0.0
  0
TEXT
  5
2C
  8
0
 62
     7
 10
150.75388000000001
 20
232.65700000000001
 30
0.0
 40
3.0923400000000001
  1
%%c35
 41
0.5
 72
     2
 11
154.87700000000001
 21
232.65700000000001
 31
0.0
  0
TEXT
  5
2D
  8
0
 62
     7
 10
125.75288
 20
232.65700000000001
 30
0.0
 40
3.0923400000000001
  1
%%c35
 41
0.5
 72
     2
 11
129.876
 21
232.65700000000001
 31
0.0
  0
TEXT
  5
2E
  8
0
 62
     7
 10
56.125225
 20
150.804
 30
0.0
 40
3.0923400000000001
  1
55
 41
0.5
 72
     1
 11
57.413699999999992
 21
150.804
 31
0.0
  0
TEXT
  5
2F
  8
0
 62
     7
 10
174.83699999999999
 20
157.71999999999991
 30
0.0
 40
3.092309999999999
  1
122
 50
90.0
 41
0.5
  0
TEXT
  5
30
  8
0
 62
     7
 10
139.85313500000001
 20
153.24899999999991
 30
0.0
 40
3.0923400000000001
  1
136
 41
0.5
 72
     1
 11
141.65700000000001
 21
153.24899999999991
 31
0.0
  0
TEXT
  5
31
  8
0
 62
     7
 10
31.045500000000001
 20
108.401
 30
0.0
 40
3.0923400000000001
  1
G 1/2
 41
0.5
  0
TEXT
  5
32
  8
0
 62
     7
 10
121.035
 20
147.893
 30
0.0
 40
3.0923400000000001
  1
20%%d
 41
0.5
  0
TEXT
  5
33
  8
0
 62
     7
 10
31.124424999999999
 20
150.804
 30
0.0
 40
3.0923400000000001
  1
55
 41
0.5
 72
     1
 11
32.4129
 21
150.804
 31
0.0
  0
TEXT
  5
34
  8
0
 62
     7
 10
104.1479999999999
 20
129.25399999999999
 30
0.0
 40
3.092309999999999
  1
max.35
 50
90.0
 41
0.5
  0
TEXT
  5
35
  8
0
 62
     7
 10
132.22599999999991
 20
154.7837674999999
 30
0.0
 40
3.092309999999999
  1
64.5
 50
90.0
 41
0.5
 72
     1
 11
132.22599999999991
 21
157.10299999999989
 31
0.0
  0
TEXT
  5
36
  8
0
 62
     7
 10
115.70399999999999
 20
152.9295374999999
 30
0.0
 40
3.092309999999999
  1
68
 50
90.0
 41
0.5
 72
     1
 11
115.70399999999999
 21
154.2179999999999
 31
0.0
  0
TEXT
  5
37
  8
0
 62
     7
 10
79.750799999999998
 20
159.14215250000001
 30
0.0
 40
3.092309999999999
  1
122
 50
90.0
 41
0.5
 72
     1
 11
79.750799999999998
 21
160.946
 31
0.0
  0
TEXT
  5
38
  8
0
 62
     7
 10
127.19583
 20
243.65199999999999
 30
0.0
 40
3.0923400000000001
  1
100
 41
0.5
 72
     1
 11
128.74199999999999
 21
243.65199999999999
 31
0.0
  0
TEXT
  5
39
  8
0
 62
     7
 10
152.19483
 20
243.65199999999999
 30
0.0
 40
3.0923400000000001
  1
100
 41
0.5
 72
     1
 11
153.74100000000001
 21
243.65199999999999
 31
0.0
  0
TEXT
  5
3A
  8
0
 62
     7
 10
53.222230000000003
 20
243.65199999999999
 30
0.0
 40
3.0923400000000001
  1
100
 41
0.5
 72
     1
 11
54.7684
 21
243.65199999999999
 31
0.0
  0
TEXT
  5
3B
  8
0
 62
     7
 10
78.22202999999999
 20
243.65199999999999
 30
0.0
 40
3.0923400000000001
  1
100
 41
0.5
 72
     1
 11
79.768199999999993
 21
243.65199999999999
 31
0.0
  0
TEXT
  5
3C
  8
0
 62
     7
 10
25.889500000000002
 20
127.994135
 30
0.0
 40
3.0923400000000001
  1
124
 50
90.0
 41
0.5
 72
     1
 11
25.889500000000002
 21
129.798
 31
0.0
  0
TEXT
  5
3D
  8
0
 62
     7
 10
79.450599999999994
 20
106.7052874999999
 30
0.0
 40
3.0923400000000001
  1
290
 50
90.0
 41
0.5
 72
     1
 11
79.450599999999994
 21
108.63799999999991
 31
0.0
  0
TEXT
  5
3E
  8
0
 62
     7
 10
72.233274999999992
 20
78.603099999999998
 30
0.0
 40
3.092309999999999
  1
%%c5
 41
0.5
 72
     2
 11
74.810199999999995
 21
78.603099999999998
 31
0.0
  0
LINE
  5
3F
  8
0
 62
     7
 10
72.768100000000004
 20
145.46199999999999
 30
0.0
 11
67.268299999999996
 21
145.46199999999999
 31
0.0
  0
LINE
  5
40
  8
0
 62
     7
 10
61.7682
 20
145.46199999999999
 30
0.0
 11
67.268299999999996
 21
145.46199999999999
 31
0.0
  0
ARC
  5
41
  8
0
 62
     7
 10
153.12222299999999
 20
157.88848299999989
 30
0.0
 40
2.559126
 50
12.668570000000001
 51
77.162761000000003
  0
LINE
  5
42
  8
0
 62
     7
 10
35.392699999999998
 20
146.46199999999999
 30
0.0
 11
38.573900000000002
 21
148.5389999999999
 31
0.0
  0
ARC
  5
43
  8
0
 62
     7
 10
37.913024
 20
150.18272300000001
 30
0.0
 40
1.8527029999999991
 50
350.38122099999993
 51
7.7671720000000013
  0
ARC
  5
44
  8
0
 62
     7
 10
38.316889000000003
 20
150.14717799999991
 30
0.0
 40
1.448939999999999
 50
322.327088
 51
349.09844600000002
  0
ARC
  5
45
  8
0
 62
     7
 10
37.851683000000001
 20
150.484207
 30
0.0
 40
2.023209
 50
308.58974000000001
 51
322.824071
  0
ARC
  5
46
  8
0
 62
     7
 10
37.043486999999999
 20
151.4281639999999
 30
0.0
 40
3.265422
 50
301.94475899999992
 51
309.34299800000002
  0
ARC
  5
47
  8
0
 62
     7
 10
36.261184999999998
 20
152.63222999999991
 30
0.0
 40
4.701134999999999
 50
299.46933999999999
 51
302.27085899999992
  0
LINE
  5
48
  8
0
 62
     7
 10
49.142899999999997
 20
146.46199999999999
 30
0.0
 11
45.961699999999993
 21
148.5389999999999
 31
0.0
  0
ARC
  5
49
  8
0
 62
     7
 10
46.622570000000003
 20
150.18272300000001
 30
0.0
 40
1.8526990000000001
 50
172.232789
 51
189.618819
  0
ARC
  5
4A
  8
0
 62
     7
 10
46.219149000000002
 20
150.14738700000001
 30
0.0
 40
1.449411
 50
190.90637699999999
 51
217.66896700000001
  0
ARC
  5
4B
  8
0
 62
     7
 10
46.683121
 20
150.48342700000001
 30
0.0
 40
2.0221
 50
217.17202700000001
 51
231.41420099999991
  0
ARC
  5
4C
  8
0
 62
     7
 10
47.491137000000002
 20
151.426761
 30
0.0
 40
3.2637160000000001
 50
230.654697
 51
238.05673300000001
  0
ARC
  5
4D
  8
0
 62
     7
 10
48.279167999999999
 20
152.640184
 30
0.0
 40
4.7103989999999989
 50
237.7319169999999
 51
240.52792400000001
  0
LINE
  5
4E
  8
0
 62
     7
 10
60.393599999999999
 20
146.46199999999999
 30
0.0
 11
63.5745
 21
148.5389999999999
 31
0.0
  0
ARC
  5
4F
  8
0
 62
     7
 10
62.913550999999998
 20
150.18272300000001
 30
0.0
 40
1.8527029999999991
 50
350.38122099999993
 51
7.7671720000000013
  0
ARC
  5
50
  8
0
 62
     7
 10
63.317414999999997
 20
150.14717799999991
 30
0.0
 40
1.448939999999999
 50
322.327088
 51
349.09844600000002
  0
ARC
  5
51
  8
0
 62
     7
 10
62.852308999999998
 20
150.48412899999991
 30
0.0
 40
2.023082
 50
308.58879899999988
 51
322.82413100000002
  0
ARC
  5
52
  8
0
 62
     7
 10
62.044987999999996
 20
151.426761
 30
0.0
 40
3.2637160000000001
 50
301.943287
 51
309.34532300000001
  0
ARC
  5
53
  8
0
 62
     7
 10
61.256956999999993
 20
152.640184
 30
0.0
 40
4.7103989999999989
 50
299.47209500000002
 51
302.268103
  0
LINE
  5
54
  8
0
 62
     7
 10
74.1434
 20
146.46199999999999
 30
0.0
 11
70.962199999999996
 21
148.5389999999999
 31
0.0
  0
ARC
  5
55
  8
0
 62
     7
 10
71.623097000000001
 20
150.18272300000001
 30
0.0
 40
1.8526990000000001
 50
172.232789
 51
189.618819
  0
ARC
  5
56
  8
0
 62
     7
 10
71.219236999999993
 20
150.14717799999991
 30
0.0
 40
1.448939999999999
 50
190.90157400000001
 51
217.67293199999989
  0
ARC
  5
57
  8
0
 62
     7
 10
71.684342999999998
 20
150.48412899999991
 30
0.0
 40
2.023082
 50
217.17588799999999
 51
231.4112209999999
  0
ARC
  5
58
  8
0
 62
     7
 10
72.491664
 20
151.426761
 30
0.0
 40
3.2637160000000001
 50
230.654697
 51
238.05673300000001
  0
ARC
  5
59
  8
0
 62
     7
 10
73.27969499999999
 20
152.640184
 30
0.0
 40
4.7103989999999989
 50
237.7319169999999
 51
240.52792400000001
  0
ARC
  5
5A
  8
0
 62
     7
 10
126.731408
 20
158.850189
 30
0.0
 40
62.550713000000002
 50
177.24507500000001
 51
187.73342999999991
  0
ARC
  5
5B
  8
0
 62
     7
 10
7.8025969999999996
 20
158.8503649999999
 30
0.0
 40
62.553699999999999
 50
352.26679899999999
 51
2.754770999999999
  0
LINE
  5
5C
  8
0
 62
     7
 10
85.393100000000004
 20
146.46199999999999
 30
0.0
 11
88.574299999999994
 21
148.5389999999999
 31
0.0
  0
ARC
  5
5D
  8
0
 62
     7
 10
87.913388999999995
 20
150.18272300000001
 30
0.0
 40
1.8527029999999991
 50
350.38122099999993
 51
7.7671720000000013
  0
ARC
  5
5E
  8
0
 62
     7
 10
88.317252999999994
 20
150.14717799999991
 30
0.0
 40
1.448939999999999
 50
322.327088
 51
349.09844600000002
  0
ARC
  5
5F
  8
0
 62
     7
 10
87.852147000000002
 20
150.48412899999991
 30
0.0
 40
2.023082
 50
308.58879899999988
 51
322.82413100000002
  0
ARC
  5
60
  8
0
 62
     7
 10
87.044826
 20
151.426761
 30
0.0
 40
3.2637160000000001
 50
301.943287
 51
309.34532300000001
  0
ARC
  5
61
  8
0
 62
     7
 10
86.256794999999997
 20
152.640184
 30
0.0
 40
4.7103989999999989
 50
299.47209500000002
 51
302.268103
  0
LINE
  5
62
  8
0
 62
     7
 10
99.143199999999993
 20
146.46199999999999
 30
0.0
 11
95.962000000000003
 21
148.5389999999999
 31
0.0
  0
ARC
  5
63
  8
0
 62
     7
 10
96.62305400000001
 20
150.18270799999999
 30
0.0
 40
1.8528189999999991
 50
172.23280500000001
 51
189.61770100000001
  0
ARC
  5
64
  8
0
 62
     7
 10
96.219991000000007
 20
150.147604
 30
0.0
 40
1.449926
 50
190.911215
 51
217.664129
  0
ARC
  5
65
  8
0
 62
     7
 10
96.683381999999995
 20
150.483349
 30
0.0
 40
2.0219740000000002
 50
217.17196699999991
 51
231.41514299999989
  0
ARC
  5
66
  8
0
 62
     7
 10
97.491782000000015
 20
151.42711199999999
 30
0.0
 40
3.2641640000000001
 50
230.65481899999989
 51
238.055758
  0
ARC
  5
67
  8
0
 62
     7
 10
98.277233999999993
 20
152.63645199999999
 30
0.0
 40
4.7060190000000004
 50
237.73127599999989
 51
240.52994200000001
  0
LINE
  5
68
  8
0
 62
     7
 10
151.83099999999999
 20
146.46199999999999
 30
0.0
 11
155.01199999999989
 21
148.5389999999999
 31
0.0
  0
ARC
  5
69
  8
0
 62
     7
 10
154.35063400000001
 20
150.18270799999999
 30
0.0
 40
1.852822999999999
 50
350.382338
 51
7.7671549999999998
  0
ARC
  5
6A
  8
0
 62
     7
 10
154.75370100000001
 20
150.147604
 30
0.0
 40
1.449926
 50
322.33589099999989
 51
349.08880499999992
  0
ARC
  5
6B
  8
0
 62
     7
 10
154.290311
 20
150.483349
 30
0.0
 40
2.0219740000000002
 50
308.58487700000001
 51
322.8280529999999
  0
ARC
  5
6C
  8
0
 62
     7
 10
153.48191099999991
 20
151.42711199999999
 30
0.0
 40
3.2641640000000001
 50
301.94426199999998
 51
309.34520099999997
  0
ARC
  5
6D
  8
0
 62
     7
 10
152.69645800000001
 20
152.63645199999999
 30
0.0
 40
4.7060190000000004
 50
299.470077
 51
302.26874399999991
  0
LINE
  5
6E
  8
0
 62
     7
 10
165.5809999999999
 20
146.46199999999999
 30
0.0
 11
162.399
 21
148.5389999999999
 31
0.0
  0
LINE
  5
6F
  8
0
 62
     7
 10
152.45599999999999
 20
139.46100000000001
 30
0.0
 11
154.70599999999999
 21
139.46100000000001
 31
0.0
  0
LINE
  5
70
  8
0
 62
     7
 10
152.45599999999999
 20
140.46100000000001
 30
0.0
 11
153.20599999999999
 21
140.46100000000001
 31
0.0
  0
LINE
  5
71
  8
0
 62
     7
 10
152.45599999999999
 20
140.46100000000001
 30
0.0
 11
152.45599999999999
 21
139.46100000000001
 31
0.0
  0
LINE
  5
72
  8
0
 62
     7
 10
164.9559999999999
 20
139.46100000000001
 30
0.0
 11
162.70599999999999
 21
139.46100000000001
 31
0.0
  0
LINE
  5
73
  8
0
 62
     7
 10
164.9559999999999
 20
140.46100000000001
 30
0.0
 11
164.2059999999999
 21
140.46100000000001
 31
0.0
  0
LINE
  5
74
  8
0
 62
     7
 10
72.018799999999999
 20
139.46100000000001
 30
0.0
 11
72.018799999999999
 21
125.7109999999999
 31
0.0
  0
LINE
  5
75
  8
0
 62
     7
 10
73.518799999999999
 20
139.46100000000001
 30
0.0
 11
67.268299999999996
 21
139.46100000000001
 31
0.0
  0
LINE
  5
76
  8
0
 62
     7
 10
73.518799999999999
 20
139.71199999999999
 30
0.0
 11
73.518799999999999
 21
139.46100000000001
 31
0.0
  0
LINE
  5
77
  8
0
 62
     7
 10
73.518799999999999
 20
139.71199999999999
 30
0.0
 11
67.268299999999996
 21
139.71199999999999
 31
0.0
  0
LINE
  5
78
  8
0
 62
     7
 10
73.518799999999999
 20
140.46100000000001
 30
0.0
 11
73.518799999999999
 21
139.71199999999999
 31
0.0
  0
LINE
  5
79
  8
0
 62
     7
 10
73.518799999999999
 20
140.46100000000001
 30
0.0
 11
67.268299999999996
 21
140.46100000000001
 31
0.0
  0
LINE
  5
7A
  8
0
 62
     7
 10
71.4559
 20
140.46100000000001
 30
0.0
 11
67.268299999999996
 21
140.46100000000001
 31
0.0
  0
LINE
  5
7B
  8
0
 62
     7
 10
72.768100000000004
 20
145.71199999999999
 30
0.0
 11
72.768100000000004
 21
145.46199999999999
 31
0.0
  0
LINE
  5
7C
  8
0
 62
     7
 10
71.4559
 20
140.46100000000001
 30
0.0
 11
71.4559
 21
145.46100000000001
 31
0.0
  0
LINE
  5
7D
  8
0
 62
     7
 10
62.51850000000001
 20
139.46100000000001
 30
0.0
 11
62.51850000000001
 21
125.7109999999999
 31
0.0
  0
LINE
  5
7E
  8
0
 62
     7
 10
61.0182
 20
139.46100000000001
 30
0.0
 11
67.268299999999996
 21
139.46100000000001
 31
0.0
  0
LINE
  5
7F
  8
0
 62
     7
 10
61.0182
 20
139.71199999999999
 30
0.0
 11
61.0182
 21
139.46100000000001
 31
0.0
  0
LINE
  5
80
  8
0
 62
     7
 10
61.0182
 20
139.71199999999999
 30
0.0
 11
67.268299999999996
 21
139.71199999999999
 31
0.0
  0
LINE
  5
81
  8
0
 62
     7
 10
61.0182
 20
140.46100000000001
 30
0.0
 11
61.0182
 21
139.71199999999999
 31
0.0
  0
LINE
  5
82
  8
0
 62
     7
 10
61.0182
 20
140.46100000000001
 30
0.0
 11
67.268299999999996
 21
140.46100000000001
 31
0.0
  0
LINE
  5
83
  8
0
 62
     7
 10
63.081099999999999
 20
140.46100000000001
 30
0.0
 11
67.268299999999996
 21
140.46100000000001
 31
0.0
  0
LINE
  5
84
  8
0
 62
     7
 10
61.7682
 20
145.71199999999999
 30
0.0
 11
61.7682
 21
145.46199999999999
 31
0.0
  0
LINE
  5
85
  8
0
 62
     7
 10
63.081099999999999
 20
140.46100000000001
 30
0.0
 11
63.081099999999999
 21
145.46100000000001
 31
0.0
  0
ARC
  5
86
  8
0
 62
     7
 10
83.893463999999994
 20
119.31427600000001
 30
0.0
 40
0.102884
 50
232.20288999999991
 51
269.78839199999987
  0
ARC
  5
87
  8
0
 62
     7
 10
83.946196
 20
119.3936179999999
 30
0.0
 40
0.198019
 50
219.16421299999999
 51
234.216556
  0
ARC
  5
88
  8
0
 62
     7
 10
84.067543000000015
 20
119.4941129999999
 30
0.0
 40
0.355573
 50
208.60700700000001
 51
219.37078799999989
  0
ARC
  5
89
  8
0
 62
     7
 10
84.29441700000001
 20
119.61865
 30
0.0
 40
0.6143800000000002
 50
200.2172459999999
 51
208.67295200000001
  0
ARC
  5
8A
  8
0
 62
     7
 10
84.744679999999988
 20
119.7830389999999
 30
0.0
 40
1.093712
 50
187.23574099999999
 51
200.14695699999999
  0
ARC
  5
8B
  8
0
 62
     7
 10
85.383172999999999
 20
119.8908489999999
 30
0.0
 40
1.7409009999999989
 50
179.82117600000001
 51
188.109005
  0
ARC
  5
8C
  8
0
 62
     7
 10
85.368204000000006
 20
119.896309
 30
0.0
 40
1.725924999999999
 50
166.70194900000001
 51
180.00090299999999
  0
ARC
  5
8D
  8
0
 62
     7
 10
84.452145999999985
 20
120.102321
 30
0.0
 40
0.7871090000000001
 50
151.1027409999999
 51
165.95802299999991
  0
ARC
  5
8E
  8
0
 62
     7
 10
83.983251999999993
 20
120.35705899999989
 30
0.0
 40
0.253524
 50
123.71162699999999
 51
150.296233
  0
ARC
  5
8F
  8
0
 62
     7
 10
83.894762999999998
 20
120.476983
 30
0.0
 40
0.104891
 50
90.917395999999997
 51
119.858059
  0
ARC
  5
90
  8
0
 62
     7
 10
83.893463999999994
 20
123.44359299999989
 30
0.0
 40
0.102884
 50
232.20288999999991
 51
269.78839199999987
  0
ARC
  5
91
  8
0
 62
     7
 10
83.946196
 20
123.522936
 30
0.0
 40
0.198019
 50
219.16421299999999
 51
234.216556
  0
ARC
  5
92
  8
0
 62
     7
 10
84.067543000000015
 20
123.623431
 30
0.0
 40
0.355573
 50
208.60700700000001
 51
219.37078799999989
  0
ARC
  5
93
  8
0
 62
     7
 10
84.29441700000001
 20
123.747968
 30
0.0
 40
0.6143800000000002
 50
200.2172459999999
 51
208.67295200000001
  0
ARC
  5
94
  8
0
 62
     7
 10
84.744679999999988
 20
123.912356
 30
0.0
 40
1.093712
 50
187.23574099999999
 51
200.14695699999999
  0
ARC
  5
95
  8
0
 62
     7
 10
85.383172999999999
 20
124.0201669999999
 30
0.0
 40
1.7409009999999989
 50
179.82117600000001
 51
188.109005
  0
ARC
  5
96
  8
0
 62
     7
 10
85.370183999999995
 20
124.025622
 30
0.0
 40
1.7279049999999989
 50
166.70960500000001
 51
180.00074699999999
  0
ARC
  5
97
  8
0
 62
     7
 10
84.454269999999994
 20
124.2315709999999
 30
0.0
 40
0.789241
 50
151.14145300000001
 51
165.97471299999989
  0
ARC
  5
98
  8
0
 62
     7
 10
83.983762999999996
 20
124.4867949999999
 30
0.0
 40
0.254005
 50
123.777658
 51
150.3383419999999
  0
ARC
  5
99
  8
0
 62
     7
 10
83.894756999999998
 20
124.607225
 30
0.0
 40
0.104656
 50
90.915718999999996
 51
119.9277979999999
  0
ARC
  5
9A
  8
0
 62
     7
 10
83.893096
 20
120.6301489999999
 30
0.0
 40
0.048289
 50
246.43639400000001
 51
269.98619600000001
  0
ARC
  5
9B
  8
0
 62
     7
 10
83.907109000000005
 20
120.66033899999989
 30
0.0
 40
0.081567
 50
224.258264
 51
245.89142599999991
  0
ARC
  5
9C
  8
0
 62
     7
 10
83.988315999999983
 20
120.73903799999989
 30
0.0
 40
0.194651
 50
209.26478499999999
 51
224.16713799999999
  0
ARC
  5
9D
  8
0
 62
     7
 10
84.228138000000001
 20
120.87709199999991
 30
0.0
 40
0.4713630000000001
 50
200.66730799999999
 51
209.6536209999999
  0
ARC
  5
9E
  8
0
 62
     7
 10
84.756503000000009
 20
121.08055299999999
 30
0.0
 40
1.0375430000000001
 50
194.68824799999999
 51
200.88183799999999
  0
ARC
  5
9F
  8
0
 62
     7
 10
85.727056999999974
 20
121.340109
 30
0.0
 40
2.0421979999999991
 50
190.31876099999999
 51
194.82799899999989
  0
ARC
  5
A0
  8
0
 62
     7
 10
87.193453000000005
 20
121.6125279999999
 30
0.0
 40
3.5336780000000001
 50
186.8660209999999
 51
190.40544999999989
  0
ARC
  5
A1
  8
0
 62
     7
 10
89.711973999999984
 20
121.9116489999999
 30
0.0
 40
6.0698970000000001
 50
179.53144
 51
186.827245
  0
ARC
  5
A2
  8
0
 62
     7
 10
90.545901999999984
 20
121.961753
 30
0.0
 40
6.9036229999999987
 50
173.36212900000001
 51
180.003905
  0
ARC
  5
A3
  8
0
 62
     7
 10
86.417268000000007
 20
122.4244919999999
 30
0.0
 40
2.7492320000000001
 50
164.893495
 51
172.99520000000001
  0
ARC
  5
A4
  8
0
 62
     7
 10
84.531203000000005
 20
122.91871500000001
 30
0.0
 40
0.7996710000000001
 50
155.918307
 51
163.86237199999999
  0
ARC
  5
A5
  8
0
 62
     7
 10
84.079233999999985
 20
123.1228159999999
 30
0.0
 40
0.303764
 50
143.0588149999999
 51
156.27971700000001
  0
ARC
  5
A6
  8
0
 62
     7
 10
83.923354999999987
 20
123.2410129999999
 30
0.0
 40
0.108145
 50
121.1309729999999
 51
143.47578200000001
  0
ARC
  5
A7
  8
0
 62
     7
 10
83.893855000000016
 20
123.28825399999999
 30
0.0
 40
0.052462
 50
90.842477000000017
 51
120.2268149999999
  0
LINE
  5
A8
  8
0
 62
     7
 10
83.642999999999986
 20
124.0569999999999
 30
0.0
 11
83.642999999999986
 21
121.961
 31
0.0
  0
LINE
  5
A9
  8
0
 62
     7
 10
83.642300000000006
 20
119.896
 30
0.0
 11
83.642999999999986
 21
121.961
 31
0.0
  0
LINE
  5
AA
  8
0
 62
     7
 10
152.45599999999999
 20
139.83699999999999
 30
0.0
 11
158.70599999999999
 21
139.83699999999999
 31
0.0
  0
LINE
  5
AB
  8
0
 62
     7
 10
152.45599999999999
 20
140.21100000000001
 30
0.0
 11
158.70599999999999
 21
140.21100000000001
 31
0.0
  0
LINE
  5
AC
  8
0
 62
     7
 10
153.20599999999999
 20
140.21100000000001
 30
0.0
 11
158.70599999999999
 21
140.21100000000001
 31
0.0
  0
LINE
  5
AD
  8
0
 62
     7
 10
153.20599999999999
 20
140.46199999999999
 30
0.0
 11
158.70599999999999
 21
140.46199999999999
 31
0.0
  0
LINE
  5
AE
  8
0
 62
     7
 10
153.20599999999999
 20
140.46199999999999
 30
0.0
 11
153.20599999999999
 21
140.21100000000001
 31
0.0
  0
LINE
  5
AF
  8
0
 62
     7
 10
164.9559999999999
 20
139.83699999999999
 30
0.0
 11
158.70599999999999
 21
139.83699999999999
 31
0.0
  0
LINE
  5
B0
  8
0
 62
     7
 10
164.9559999999999
 20
140.46100000000001
 30
0.0
 11
164.9559999999999
 21
139.46100000000001
 31
0.0
  0
LINE
  5
B1
  8
0
 62
     7
 10
164.9559999999999
 20
140.21100000000001
 30
0.0
 11
158.70599999999999
 21
140.21100000000001
 31
0.0
  0
LINE
  5
B2
  8
0
 62
     7
 10
164.2059999999999
 20
140.21100000000001
 30
0.0
 11
158.70599999999999
 21
140.21100000000001
 31
0.0
  0
LINE
  5
B3
  8
0
 62
     7
 10
164.2059999999999
 20
140.46199999999999
 30
0.0
 11
158.70599999999999
 21
140.46199999999999
 31
0.0
  0
LINE
  5
B4
  8
0
 62
     7
 10
164.2059999999999
 20
140.46199999999999
 30
0.0
 11
164.2059999999999
 21
140.21100000000001
 31
0.0
  0
ARC
  5
B5
  8
0
 62
     7
 10
86.393170999999995
 20
119.313866
 30
0.0
 40
0.102474
 50
270.21212200000002
 51
307.87558100000001
  0
ARC
  5
B6
  8
0
 62
     7
 10
86.340179000000006
 20
119.39346499999991
 30
0.0
 40
0.197965
 50
305.83722799999993
 51
320.88001299999991
  0
ARC
  5
B7
  8
0
 62
     7
 10
86.218808999999979
 20
119.49386199999999
 30
0.0
 40
0.355474
 50
320.66851899999989
 51
331.43043899999998
  0
ARC
  5
B8
  8
0
 62
     7
 10
85.989329999999995
 20
119.619581
 30
0.0
 40
0.617134
 50
331.36839199999997
 51
339.78485000000001
  0
ARC
  5
B9
  8
0
 62
     7
 10
85.53886700000001
 20
119.783523
 30
0.0
 40
1.0965
 50
339.87955899999992
 51
352.75727799999999
  0
ARC
  5
BA
  8
0
 62
     7
 10
84.901335000000003
 20
119.890936
 30
0.0
 40
1.742683
 50
351.89648799999992
 51
0.175777
  0
ARC
  5
BB
  8
0
 62
     7
 10
84.917283999999995
 20
119.896306
 30
0.0
 40
1.7267269999999999
 50
359.99919399999999
 51
13.291821999999989
  0
ARC
  5
BC
  8
0
 62
     7
 10
85.833518999999995
 20
120.10234199999999
 30
0.0
 40
0.7877310000000001
 50
14.029120999999989
 51
28.870578999999989
  0
ARC
  5
BD
  8
0
 62
     7
 10
86.303062999999995
 20
120.357215
 30
0.0
 40
0.253509
 50
29.665186999999989
 51
56.230086999999997
  0
ARC
  5
BE
  8
0
 62
     7
 10
86.391853999999995
 20
120.4773469999999
 30
0.0
 40
0.104527
 50
60.088442999999998
 51
89.070354000000009
  0
ARC
  5
BF
  8
0
 62
     7
 10
85.189616999999998
 20
121.964752
 30
0.0
 40
4.0564919999999987
 50
338.28575799999999
 51
359.95589999999987
  0
ARC
  5
C0
  8
0
 62
     7
 10
86.845369999999974
 20
121.33306999999991
 30
0.0
 40
2.2846660000000001
 50
329.13024799999999
 51
337.64038599999992
  0
ARC
  5
C1
  8
0
 62
     7
 10
88.045956000000004
 20
120.6165
 30
0.0
 40
0.8864969999999999
 50
312.35527400000001
 51
329.06895200000002
  0
ARC
  5
C2
  8
0
 62
     7
 10
85.189162999999979
 20
121.958173
 30
0.0
 40
4.0569449999999989
 50
0.043954
 51
21.713014000000001
  0
ARC
  5
C3
  8
0
 62
     7
 10
86.847331999999994
 20
122.5906759999999
 30
0.0
 40
2.282572
 50
22.361322000000001
 51
30.877825999999999
  0
ARC
  5
C4
  8
0
 62
     7
 10
88.046030000000002
 20
123.30640200000001
 30
0.0
 40
0.8864569999999998
 50
30.936033999999999
 51
47.648834999999977
  0
ARC
  5
C5
  8
0
 62
     7
 10
86.393170999999995
 20
123.443183
 30
0.0
 40
0.102474
 50
270.21212200000002
 51
307.87558100000001
  0
ARC
  5
C6
  8
0
 62
     7
 10
86.340179000000006
 20
123.522783
 30
0.0
 40
0.197965
 50
305.83722799999993
 51
320.88001299999991
  0
ARC
  5
C7
  8
0
 62
     7
 10
86.218808999999979
 20
123.62317899999999
 30
0.0
 40
0.355474
 50
320.66851899999989
 51
331.43043899999998
  0
ARC
  5
C8
  8
0
 62
     7
 10
85.989329999999995
 20
123.7488979999999
 30
0.0
 40
0.617134
 50
331.36839199999997
 51
339.78485000000001
  0
ARC
  5
C9
  8
0
 62
     7
 10
85.53886700000001
 20
123.91284
 30
0.0
 40
1.0965
 50
339.87955899999992
 51
352.75727799999999
  0
ARC
  5
CA
  8
0
 62
     7
 10
84.901335000000003
 20
124.0202529999999
 30
0.0
 40
1.742683
 50
351.89648799999992
 51
0.175777
  0
ARC
  5
CB
  8
0
 62
     7
 10
84.915302999999994
 20
124.02561899999991
 30
0.0
 40
1.7287079999999999
 50
359.99934999999999
 51
13.28417
  0
ARC
  5
CC
  8
0
 62
     7
 10
85.831392000000008
 20
124.23159099999999
 30
0.0
 40
0.789866
 50
14.012447
 51
28.83189299999999
  0
ARC
  5
CD
  8
0
 62
     7
 10
86.302550999999994
 20
124.486951
 30
0.0
 40
0.253992
 50
29.623118999999988
 51
56.164028999999999
  0
ARC
  5
CE
  8
0
 62
     7
 10
86.391860999999992
 20
124.60758800000001
 30
0.0
 40
0.104293
 50
60.018608
 51
89.071995999999999
  0
ARC
  5
CF
  8
0
 62
     7
 10
86.393540000000002
 20
120.629935
 30
0.0
 40
0.048074
 50
270.01185699999991
 51
293.61685799999998
  0
ARC
  5
D0
  8
0
 62
     7
 10
86.379446999999999
 20
120.6601919999999
 30
0.0
 40
0.081448
 50
294.17350199999993
 51
315.80393800000002
  0
ARC
  5
D1
  8
0
 62
     7
 10
86.298331999999974
 20
120.738703
 30
0.0
 40
0.194335
 50
315.879865
 51
330.796064
  0
ARC
  5
D2
  8
0
 62
     7
 10
86.036218999999974
 20
120.88760600000001
 30
0.0
 40
0.495787
 50
330.55509599999999
 51
339.98449199999999
  0
ARC
  5
D3
  8
0
 62
     7
 10
85.430700000000002
 20
121.11188899999991
 30
0.0
 40
1.1415049999999991
 50
339.80965800000001
 51
346.03391899999991
  0
ARC
  5
D4
  8
0
 62
     7
 10
84.380401000000006
 20
121.3787769999999
 30
0.0
 40
2.2251750000000001
 50
345.89200199999988
 51
350.13899199999992
  0
ARC
  5
D5
  8
0
 62
     7
 10
82.336340000000007
 20
121.731173
 30
0.0
 40
4.2993889999999988
 50
350.17728799999992
 51
356.74485800000002
  0
ARC
  5
D6
  8
0
 62
     7
 10
79.548065000000008
 20
121.95161899999989
 30
0.0
 40
7.0959519999999996
 50
356.24613399999998
 51
0.078053
  0
ARC
  5
D7
  8
0
 62
     7
 10
79.737088
 20
121.9617469999999
 30
0.0
 40
6.9069219999999989
 50
359.99616800000001
 51
6.6347179999999977
  0
ARC
  5
D8
  8
0
 62
     7
 10
83.866097999999994
 20
122.4244419999999
 30
0.0
 40
2.7521599999999991
 50
6.9983380000000004
 51
15.091106
  0
ARC
  5
D9
  8
0
 62
     7
 10
85.753592999999995
 20
122.918549
 30
0.0
 40
0.8012439999999999
 50
16.117387999999998
 51
24.044368999999989
  0
ARC
  5
DA
  8
0
 62
     7
 10
86.206466000000006
 20
123.1226399999999
 30
0.0
 40
0.304517
 50
23.694075999999999
 51
36.875957
  0
ARC
  5
DB
  8
0
 62
     7
 10
86.363084999999998
 20
123.24106399999989
 30
0.0
 40
0.10817
 50
36.480269999999997
 51
58.793920999999997
  0
ARC
  5
DC
  8
0
 62
     7
 10
86.392771999999994
 20
123.28844699999991
 30
0.0
 40
0.052269
 50
59.715792
 51
89.146441000000024
  0
LINE
  5
DD
  8
0
  6
AIGENLINE001
 62
     7
 10
76.143600000000006
 20
121.961
 30
0.0
 11
98.6434
 21
121.961
 31
0.0
  0
LINE
  5
DE
  8
0
 62
     7
 10
86.393600000000006
 20
123.34099999999999
 30
0.0
 11
83.893100000000004
 21
123.34099999999999
 31
0.0
  0
LINE
  5
DF
  8
0
 62
     7
 10
83.893100000000004
 20
124.7109999999999
 30
0.0
 11
86.393600000000006
 21
124.712
 31
0.0
  0
LINE
  5
E0
  8
0
 62
     7
 10
86.642999999999986
 20
124.0569999999999
 30
0.0
 11
86.642999999999986
 21
121.961
 31
0.0
  0
LINE
  5
E1
  8
0
 62
     7
 10
86.642999999999986
 20
123.962
 30
0.0
 11
88.643199999999993
 21
123.962
 31
0.0
  0
LINE
  5
E2
  8
0
 62
     7
 10
86.393600000000006
 20
120.58199999999999
 30
0.0
 11
83.893100000000004
 21
120.58199999999999
 31
0.0
  0
LINE
  5
E3
  8
0
 62
     7
 10
88.893299999999996
 20
127.212
 30
0.0
 11
88.643199999999993
 21
126.9619999999999
 31
0.0
  0
LINE
  5
E4
  8
0
 62
     7
 10
92.268199999999993
 20
127.212
 30
0.0
 11
88.643199999999993
 21
127.212
 31
0.0
  0
LINE
  5
E5
  8
0
 62
     7
 10
95.643699999999995
 20
127.212
 30
0.0
 11
95.893100000000004
 21
126.9619999999999
 31
0.0
  0
LINE
  5
E6
  8
0
 62
     7
 10
83.893100000000004
 20
119.211
 30
0.0
 11
86.393600000000006
 21
119.211
 31
0.0
  0
LINE
  5
E7
  8
0
 62
     7
 10
86.643999999999977
 20
119.896
 30
0.0
 11
86.642999999999986
 21
121.961
 31
0.0
  0
LINE
  5
E8
  8
0
 62
     7
 10
86.642999999999986
 20
119.961
 30
0.0
 11
88.643199999999993
 21
119.961
 31
0.0
  0
LINE
  5
E9
  8
0
 62
     7
 10
89.642999999999986
 20
114.961
 30
0.0
 11
89.893100000000004
 21
114.711
 31
0.0
  0
LINE
  5
EA
  8
0
 62
     7
 10
89.642999999999986
 20
114.961
 30
0.0
 11
92.268199999999993
 21
114.961
 31
0.0
  0
LINE
  5
EB
  8
0
 62
     7
 10
89.893100000000004
 20
114.711
 30
0.0
 11
89.893100000000004
 21
117.711
 31
0.0
  0
LINE
  5
EC
  8
0
 62
     7
 10
89.893100000000004
 20
114.711
 30
0.0
 11
92.268199999999993
 21
114.711
 31
0.0
  0
LINE
  5
ED
  8
0
 62
     7
 10
89.642999999999986
 20
114.961
 30
0.0
 11
89.642999999999986
 21
117.711
 31
0.0
  0
LINE
  5
EE
  8
0
 62
     7
 10
88.643199999999993
 20
117.711
 30
0.0
 11
92.268199999999993
 21
117.711
 31
0.0
  0
LINE
  5
EF
  8
0
 62
     7
 10
88.643199999999993
 20
117.711
 30
0.0
 11
88.643199999999993
 21
119.961
 31
0.0
  0
LINE
  5
F0
  8
0
 62
     7
 10
88.643199999999993
 20
123.962
 30
0.0
 11
88.643199999999993
 21
126.9619999999999
 31
0.0
  0
LINE
  5
F1
  8
0
 62
     7
 10
92.268199999999993
 20
126.9619999999999
 30
0.0
 11
88.643199999999993
 21
126.9619999999999
 31
0.0
  0
LINE
  5
F2
  8
0
 62
     7
 10
88.893299999999996
 20
132.33699999999999
 30
0.0
 11
88.893299999999996
 21
127.212
 31
0.0
  0
LINE
  5
F3
  8
0
 62
     7
 10
88.643199999999993
 20
132.33699999999999
 30
0.0
 11
88.643199999999993
 21
126.9619999999999
 31
0.0
  0
LINE
  5
F4
  8
0
 62
     7
 10
87.768500000000003
 20
132.33699999999999
 30
0.0
 11
92.268199999999993
 21
132.33699999999999
 31
0.0
  0
LINE
  5
F5
  8
0
 62
     7
 10
90.018500000000003
 20
139.83699999999999
 30
0.0
 11
90.018500000000003
 21
132.33699999999999
 31
0.0
  0
LINE
  5
F6
  8
0
 62
     7
 10
87.768500000000003
 20
139.83699999999999
 30
0.0
 11
87.768500000000003
 21
132.33699999999999
 31
0.0
  0
LINE
  5
F7
  8
0
 62
     7
 10
86.017999999999986
 20
139.83699999999999
 30
0.0
 11
92.268199999999993
 21
139.83699999999999
 31
0.0
  0
LINE
  5
F8
  8
0
 62
     7
 10
86.017999999999986
 20
140.21100000000001
 30
0.0
 11
86.017999999999986
 21
139.83699999999999
 31
0.0
  0
LINE
  5
F9
  8
0
 62
     7
 10
86.017999999999986
 20
140.21100000000001
 30
0.0
 11
92.268199999999993
 21
140.21100000000001
 31
0.0
  0
LINE
  5
FA
  8
0
 62
     7
 10
153.20599999999999
 20
145.71199999999999
 30
0.0
 11
153.20599999999999
 21
145.46199999999999
 31
0.0
  0
LINE
  5
FB
  8
0
 62
     7
 10
153.20599999999999
 20
145.46199999999999
 30
0.0
 11
158.70599999999999
 21
145.46199999999999
 31
0.0
  0
LINE
  5
FC
  8
0
 62
     7
 10
164.20699999999991
 20
145.71199999999999
 30
0.0
 11
164.20699999999991
 21
145.46199999999999
 31
0.0
  0
LINE
  5
FD
  8
0
 62
     7
 10
164.20699999999991
 20
145.46199999999999
 30
0.0
 11
158.70599999999999
 21
145.46199999999999
 31
0.0
  0
LINE
  5
FE
  8
0
 62
     7
 10
86.7684
 20
145.71199999999999
 30
0.0
 11
86.7684
 21
145.46199999999999
 31
0.0
  0
LINE
  5
FF
  8
0
 62
     7
 10
86.7684
 20
140.21100000000001
 30
0.0
 11
92.268199999999993
 21
140.21100000000001
 31
0.0
  0
LINE
  5
100
  8
0
 62
     7
 10
86.7684
 20
140.46199999999999
 30
0.0
 11
92.268199999999993
 21
140.46199999999999
 31
0.0
  0
LINE
  5
101
  8
0
 62
     7
 10
88.580500000000001
 20
140.46199999999999
 30
0.0
 11
88.580500000000001
 21
145.46199999999999
 31
0.0
  0
LINE
  5
102
  8
0
 62
     7
 10
86.7684
 20
145.46199999999999
 30
0.0
 11
92.268199999999993
 21
145.46199999999999
 31
0.0
  0
LINE
  5
103
  8
0
 62
     7
 10
86.7684
 20
140.46199999999999
 30
0.0
 11
86.7684
 21
140.21100000000001
 31
0.0
  0
LINE
  5
104
  8
0
 62
     7
 10
94.892999999999986
 20
114.961
 30
0.0
 11
94.643600000000006
 21
114.711
 31
0.0
  0
LINE
  5
105
  8
0
 62
     7
 10
94.892999999999986
 20
114.961
 30
0.0
 11
92.268199999999993
 21
114.961
 31
0.0
  0
LINE
  5
106
  8
0
 62
     7
 10
94.643600000000006
 20
114.711
 30
0.0
 11
94.643600000000006
 21
117.711
 31
0.0
  0
LINE
  5
107
  8
0
 62
     7
 10
94.643600000000006
 20
114.711
 30
0.0
 11
92.268199999999993
 21
114.711
 31
0.0
  0
LINE
  5
108
  8
0
 62
     7
 10
94.892999999999986
 20
114.961
 30
0.0
 11
94.892999999999986
 21
117.711
 31
0.0
  0
LINE
  5
109
  8
0
 62
     7
 10
95.893100000000004
 20
117.711
 30
0.0
 11
92.268199999999993
 21
117.711
 31
0.0
  0
LINE
  5
10A
  8
0
 62
     7
 10
95.893100000000004
 20
117.711
 30
0.0
 11
95.893100000000004
 21
126.9619999999999
 31
0.0
  0
LINE
  5
10B
  8
0
 62
     7
 10
92.268199999999993
 20
127.212
 30
0.0
 11
95.893100000000004
 21
127.212
 31
0.0
  0
LINE
  5
10C
  8
0
 62
     7
 10
92.268199999999993
 20
126.9619999999999
 30
0.0
 11
95.893100000000004
 21
126.9619999999999
 31
0.0
  0
LINE
  5
10D
  8
0
 62
     7
 10
95.643699999999995
 20
132.33699999999999
 30
0.0
 11
95.643699999999995
 21
127.212
 31
0.0
  0
LINE
  5
10E
  8
0
 62
     7
 10
95.893100000000004
 20
132.33699999999999
 30
0.0
 11
95.893100000000004
 21
126.9619999999999
 31
0.0
  0
LINE
  5
10F
  8
0
 62
     7
 10
96.768199999999993
 20
132.33699999999999
 30
0.0
 11
92.268199999999993
 21
132.33699999999999
 31
0.0
  0
LINE
  5
110
  8
0
 62
     7
 10
94.518199999999993
 20
139.83699999999999
 30
0.0
 11
94.518199999999993
 21
132.33699999999999
 31
0.0
  0
LINE
  5
111
  8
0
 62
     7
 10
96.768199999999993
 20
139.83699999999999
 30
0.0
 11
96.768199999999993
 21
132.33699999999999
 31
0.0
  0
LINE
  5
112
  8
0
 62
     7
 10
98.518299999999996
 20
139.83699999999999
 30
0.0
 11
92.268199999999993
 21
139.83699999999999
 31
0.0
  0
LINE
  5
113
  8
0
 62
     7
 10
98.518299999999996
 20
140.21100000000001
 30
0.0
 11
98.518299999999996
 21
139.83699999999999
 31
0.0
  0
LINE
  5
114
  8
0
 62
     7
 10
98.518299999999996
 20
140.21100000000001
 30
0.0
 11
92.268199999999993
 21
140.21100000000001
 31
0.0
  0
LINE
  5
115
  8
0
 62
     7
 10
97.768299999999996
 20
145.71199999999999
 30
0.0
 11
97.768299999999996
 21
145.46199999999999
 31
0.0
  0
LINE
  5
116
  8
0
 62
     7
 10
97.768299999999996
 20
140.21100000000001
 30
0.0
 11
92.268199999999993
 21
140.21100000000001
 31
0.0
  0
LINE
  5
117
  8
0
 62
     7
 10
97.768299999999996
 20
140.46199999999999
 30
0.0
 11
92.268199999999993
 21
140.46199999999999
 31
0.0
  0
LINE
  5
118
  8
0
 62
     7
 10
95.955100000000002
 20
140.46199999999999
 30
0.0
 11
95.955100000000002
 21
145.46199999999999
 31
0.0
  0
LINE
  5
119
  8
0
 62
     7
 10
97.768299999999996
 20
145.46199999999999
 30
0.0
 11
92.268199999999993
 21
145.46199999999999
 31
0.0
  0
LINE
  5
11A
  8
0
 62
     7
 10
97.768299999999996
 20
140.46199999999999
 30
0.0
 11
97.768299999999996
 21
140.21100000000001
 31
0.0
  0
LINE
  5
11B
  8
0
 62
     7
 10
82.642899999999997
 20
120.462
 30
0.0
 11
82.642899999999997
 21
121.08199999999999
 31
0.0
  0
LINE
  5
11C
  8
0
 62
     7
 10
82.642899999999997
 20
121.33199999999999
 30
0.0
 11
82.642899999999997
 21
121.961
 31
0.0
  0
LINE
  5
11D
  8
0
 62
     7
 10
79.893000000000001
 20
120.462
 30
0.0
 11
79.893000000000001
 21
121.08199999999999
 31
0.0
  0
LINE
  5
11E
  8
0
 62
     7
 10
79.893000000000001
 20
121.33199999999999
 30
0.0
 11
79.893000000000001
 21
121.961
 31
0.0
  0
LINE
  5
11F
  8
0
 62
     7
 10
79.893000000000001
 20
120.462
 30
0.0
 11
82.642899999999997
 21
120.462
 31
0.0
  0
LINE
  5
120
  8
0
 62
     7
 10
83.393199999999979
 20
120.462
 30
0.0
 11
83.393199999999979
 21
121.961
 31
0.0
  0
LINE
  5
121
  8
0
 62
     7
 10
83.642599999999987
 20
120.462
 30
0.0
 11
83.393199999999979
 21
120.462
 31
0.0
  0
LINE
  5
122
  8
0
 62
     7
 10
76.392700000000005
 20
120.462
 30
0.0
 11
78.893199999999993
 21
120.462
 31
0.0
  0
LINE
  5
123
  8
0
 62
     7
 10
82.642899999999997
 20
121.08199999999999
 30
0.0
 11
79.893000000000001
 21
121.08199999999999
 31
0.0
  0
LINE
  5
124
  8
0
 62
     7
 10
78.893199999999993
 20
120.211
 30
0.0
 11
78.893199999999993
 21
121.961
 31
0.0
  0
ARC
  5
125
  8
0
 62
     7
 10
79.623294999999999
 20
120.48077600000001
 30
0.0
 40
0.270318
 50
274.14692500000001
 51
356.01070699999991
  0
LINE
  5
126
  8
0
 62
     7
 10
79.642799999999994
 20
120.211
 30
0.0
 11
78.893199999999993
 21
120.211
 31
0.0
  0
ARC
  5
127
  8
0
 62
     7
 10
83.123491000000001
 20
120.48081999999989
 30
0.0
 40
0.270365
 50
274.15544099999988
 51
356.00219099999998
  0
ARC
  5
128
  8
0
 62
     7
 10
82.911850000000001
 20
120.4801129999999
 30
0.0
 40
0.26961
 50
183.85861199999999
 51
265.98379499999999
  0
LINE
  5
129
  8
0
 62
     7
 10
83.143100000000004
 20
120.211
 30
0.0
 11
82.892999999999986
 21
120.211
 31
0.0
  0
LINE
  5
12A
  8
0
 62
     7
 10
82.642899999999997
 20
123.4609999999999
 30
0.0
 11
82.642899999999997
 21
122.84099999999999
 31
0.0
  0
LINE
  5
12B
  8
0
 62
     7
 10
82.642899999999997
 20
122.59099999999999
 30
0.0
 11
82.642899999999997
 21
121.961
 31
0.0
  0
LINE
  5
12C
  8
0
 62
     7
 10
79.893000000000001
 20
123.4609999999999
 30
0.0
 11
79.893000000000001
 21
122.84099999999999
 31
0.0
  0
LINE
  5
12D
  8
0
 62
     7
 10
79.893000000000001
 20
122.59099999999999
 30
0.0
 11
79.893000000000001
 21
121.961
 31
0.0
  0
LINE
  5
12E
  8
0
 62
     7
 10
79.893000000000001
 20
123.4609999999999
 30
0.0
 11
82.642899999999997
 21
123.4609999999999
 31
0.0
  0
LINE
  5
12F
  8
0
 62
     7
 10
83.393199999999979
 20
123.4609999999999
 30
0.0
 11
83.393199999999979
 21
121.961
 31
0.0
  0
LINE
  5
130
  8
0
 62
     7
 10
83.642599999999987
 20
123.4609999999999
 30
0.0
 11
83.393199999999979
 21
123.4609999999999
 31
0.0
  0
LINE
  5
131
  8
0
 62
     7
 10
76.392700000000005
 20
123.4609999999999
 30
0.0
 11
78.893199999999993
 21
123.4609999999999
 31
0.0
  0
LINE
  5
132
  8
0
 62
     7
 10
82.642899999999997
 20
122.84099999999999
 30
0.0
 11
79.893000000000001
 21
122.84099999999999
 31
0.0
  0
LINE
  5
133
  8
0
 62
     7
 10
78.893199999999993
 20
123.7119999999999
 30
0.0
 11
78.893199999999993
 21
121.961
 31
0.0
  0
ARC
  5
134
  8
0
 62
     7
 10
79.624867000000009
 20
123.4433129999999
 30
0.0
 40
0.268694
 50
3.8360489999999992
 51
86.163940999999994
  0
LINE
  5
135
  8
0
 62
     7
 10
79.642799999999994
 20
123.7119999999999
 30
0.0
 11
78.893199999999993
 21
123.7119999999999
 31
0.0
  0
ARC
  5
136
  8
0
 62
     7
 10
83.125106000000017
 20
123.4433129999999
 30
0.0
 40
0.268694
 50
3.8360489999999992
 51
86.163940999999994
  0
ARC
  5
137
  8
0
 62
     7
 10
82.911805000000015
 20
123.44245099999991
 30
0.0
 40
0.269612
 50
94.006557999999998
 51
175.99341200000001
  0
LINE
  5
138
  8
0
 62
     7
 10
83.143100000000004
 20
123.7119999999999
 30
0.0
 11
82.892999999999986
 21
123.7119999999999
 31
0.0
  0
LINE
  5
139
  8
0
 62
     7
 10
82.642899999999997
 20
122.59099999999999
 30
0.0
 11
79.893000000000001
 21
122.59099999999999
 31
0.0
  0
LINE
  5
13A
  8
0
 62
     7
 10
82.642899999999997
 20
121.33199999999999
 30
0.0
 11
79.893000000000001
 21
121.33199999999999
 31
0.0
  0
LINE
  5
13B
  8
0
  6
AIGENLINE001
 62
     7
 10
92.268199999999993
 20
179.262
 30
0.0
 11
92.268199999999993
 21
113.00399999999991
 31
0.0
  0
ARC
  5
13C
  8
0
 62
     7
 10
50.642499000000001
 20
119.31427600000001
 30
0.0
 40
0.102884
 50
270.21162799999991
 51
307.79712999999992
  0
ARC
  5
13D
  8
0
 62
     7
 10
50.589766999999988
 20
119.3936179999999
 30
0.0
 40
0.198019
 50
305.78346399999998
 51
320.83580699999999
  0
ARC
  5
13E
  8
0
 62
     7
 10
50.468420999999999
 20
119.4941129999999
 30
0.0
 40
0.355573
 50
320.629232
 51
331.393013
  0
ARC
  5
13F
  8
0
 62
     7
 10
50.241546
 20
119.61865
 30
0.0
 40
0.6143800000000002
 50
331.327068
 51
339.78277400000002
  0
ARC
  5
140
  8
0
 62
     7
 10
49.791283999999997
 20
119.7830389999999
 30
0.0
 40
1.093712
 50
339.85306299999991
 51
352.76427899999987
  0
ARC
  5
141
  8
0
 62
     7
 10
49.152782000000002
 20
119.8908499999999
 30
0.0
 40
1.7409099999999991
 50
351.89103499999999
 51
0.178785
  0
ARC
  5
142
  8
0
 62
     7
 10
49.167753999999988
 20
119.896308
 30
0.0
 40
1.7259299999999991
 50
359.99913599999991
 51
13.298011000000001
  0
ARC
  5
143
  8
0
 62
     7
 10
50.083818000000001
 20
120.102321
 30
0.0
 40
0.7871090000000001
 50
14.041957
 51
28.89724
  0
ARC
  5
144
  8
0
 62
     7
 10
50.552710999999988
 20
120.35705899999989
 30
0.0
 40
0.253524
 50
29.703746999999989
 51
56.288353000000001
  0
ARC
  5
145
  8
0
 62
     7
 10
50.641199999999991
 20
120.476983
 30
0.0
 40
0.104891
 50
60.141921000000004
 51
89.082583999999997
  0
ARC
  5
146
  8
0
 62
     7
 10
50.642499000000001
 20
123.44359299999989
 30
0.0
 40
0.102884
 50
270.21162799999991
 51
307.79712999999992
  0
ARC
  5
147
  8
0
 62
     7
 10
50.589766999999988
 20
123.522936
 30
0.0
 40
0.198019
 50
305.78346399999998
 51
320.83580699999999
  0
ARC
  5
148
  8
0
 62
     7
 10
50.468420999999999
 20
123.623431
 30
0.0
 40
0.355573
 50
320.629232
 51
331.393013
  0
ARC
  5
149
  8
0
 62
     7
 10
50.241546
 20
123.747968
 30
0.0
 40
0.6143800000000002
 50
331.327068
 51
339.78277400000002
  0
ARC
  5
14A
  8
0
 62
     7
 10
49.791283999999997
 20
123.912356
 30
0.0
 40
1.093712
 50
339.85306299999991
 51
352.76427899999987
  0
ARC
  5
14B
  8
0
 62
     7
 10
49.152782000000002
 20
124.0201669999999
 30
0.0
 40
1.7409099999999991
 50
351.89103499999999
 51
0.178785
  0
ARC
  5
14C
  8
0
 62
     7
 10
49.165773999999999
 20
124.025621
 30
0.0
 40
1.7279099999999989
 50
359.99929200000003
 51
13.290354999999989
  0
ARC
  5
14D
  8
0
 62
     7
 10
50.081693000000001
 20
124.2315709999999
 30
0.0
 40
0.789241
 50
14.02526799999999
 51
28.858526999999999
  0
ARC
  5
14E
  8
0
 62
     7
 10
50.552199999999999
 20
124.4867949999999
 30
0.0
 40
0.254005
 50
29.661638
 51
56.222321999999998
  0
ARC
  5
14F
  8
0
 62
     7
 10
50.641207000000001
 20
124.607225
 30
0.0
 40
0.104656
 50
60.072181999999991
 51
89.084260999999984
  0
ARC
  5
150
  8
0
 62
     7
 10
50.642868
 20
120.6301489999999
 30
0.0
 40
0.048289
 50
270.01382299999989
 51
293.56362599999989
  0
ARC
  5
151
  8
0
 62
     7
 10
50.628855000000001
 20
120.66033899999989
 30
0.0
 40
0.081567
 50
294.10859399999993
 51
315.74175600000001
  0
ARC
  5
152
  8
0
 62
     7
 10
50.547648000000002
 20
120.73903799999989
 30
0.0
 40
0.194651
 50
315.83288099999999
 51
330.73523499999988
  0
ARC
  5
153
  8
0
 62
     7
 10
50.307825999999999
 20
120.87709199999991
 30
0.0
 40
0.4713630000000001
 50
330.34639900000002
 51
339.33271200000001
  0
ARC
  5
154
  8
0
 62
     7
 10
49.77946
 20
121.08055299999999
 30
0.0
 40
1.0375430000000001
 50
339.11818199999988
 51
345.31177100000002
  0
ARC
  5
155
  8
0
 62
     7
 10
48.808906
 20
121.340109
 30
0.0
 40
2.0421979999999991
 50
345.17202099999992
 51
349.68125900000001
  0
ARC
  5
156
  8
0
 62
     7
 10
47.34250999999999
 20
121.6125279999999
 30
0.0
 40
3.5336780000000001
 50
349.59456999999998
 51
353.13399900000002
  0
ARC
  5
157
  8
0
 62
     7
 10
44.823957
 20
121.91165100000001
 30
0.0
 40
6.0699300000000003
 50
353.17279500000001
 51
0.46852
  0
ARC
  5
158
  8
0
 62
     7
 10
43.990020000000001
 20
121.96175100000001
 30
0.0
 40
6.903664
 50
359.99613399999998
 51
6.6378309999999994
  0
ARC
  5
159
  8
0
 62
     7
 10
48.118695000000002
 20
122.4244919999999
 30
0.0
 40
2.7492320000000001
 50
7.0047800000000011
 51
15.106484999999999
  0
ARC
  5
15A
  8
0
 62
     7
 10
50.00475999999999
 20
122.91871500000001
 30
0.0
 40
0.7996710000000001
 50
16.137608
 51
24.081672999999999
  0
ARC
  5
15B
  8
0
 62
     7
 10
50.456728999999989
 20
123.1228159999999
 30
0.0
 40
0.303764
 50
23.720262999999999
 51
36.941164999999998
  0
ARC
  5
15C
  8
0
 62
     7
 10
50.612608000000002
 20
123.2410129999999
 30
0.0
 40
0.108145
 50
36.524197999999998
 51
58.869008000000001
  0
ARC
  5
15D
  8
0
 62
     7
 10
50.642108
 20
123.28825399999999
 30
0.0
 40
0.052462
 50
59.773164999999999
 51
89.15750300000002
  0
LINE
  5
15E
  8
0
 62
     7
 10
50.893000000000001
 20
124.0569999999999
 30
0.0
 11
50.893000000000001
 21
121.961
 31
0.0
  0
LINE
  5
15F
  8
0
 62
     7
 10
50.893700000000003
 20
119.896
 30
0.0
 11
50.893000000000001
 21
121.961
 31
0.0
  0
ARC
  5
160
  8
0
 62
     7
 10
48.14279299999999
 20
119.313866
 30
0.0
 40
0.102474
 50
232.124439
 51
269.78789699999999
  0
ARC
  5
161
  8
0
 62
     7
 10
48.19578400000001
 20
119.39346499999991
 30
0.0
 40
0.197965
 50
219.1200069999999
 51
234.162792
  0
ARC
  5
162
  8
0
 62
     7
 10
48.317154000000002
 20
119.49386199999999
 30
0.0
 40
0.355474
 50
208.56957999999989
 51
219.33150099999989
  0
ARC
  5
163
  8
0
 62
     7
 10
48.546633999999997
 20
119.619581
 30
0.0
 40
0.617134
 50
200.21517
 51
208.63162800000001
  0
ARC
  5
164
  8
0
 62
     7
 10
48.997095999999999
 20
119.783523
 30
0.0
 40
1.0965
 50
187.24274199999999
 51
200.12046100000001
  0
ARC
  5
165
  8
0
 62
     7
 10
49.634619999999991
 20
119.890935
 30
0.0
 40
1.742675
 50
179.824183
 51
188.10355100000001
  0
ARC
  5
166
  8
0
 62
     7
 10
49.618675000000003
 20
119.89630699999999
 30
0.0
 40
1.7267209999999991
 50
166.70813799999991
 51
180.000846
  0
ARC
  5
167
  8
0
 62
     7
 10
48.702444
 20
120.10234199999999
 30
0.0
 40
0.7877310000000001
 50
151.129401
 51
165.97085899999999
  0
ARC
  5
168
  8
0
 62
     7
 10
48.232900999999998
 20
120.357215
 30
0.0
 40
0.253509
 50
123.769893
 51
150.33479299999991
  0
ARC
  5
169
  8
0
 62
     7
 10
48.144109
 20
120.4773469999999
 30
0.0
 40
0.104527
 50
90.929625999999985
 51
119.91153799999999
  0
ARC
  5
16A
  8
0
 62
     7
 10
49.346345999999997
 20
121.964752
 30
0.0
 40
4.0564919999999987
 50
180.04411999999991
 51
201.71426199999999
  0
ARC
  5
16B
  8
0
 62
     7
 10
47.690593
 20
121.33306999999991
 30
0.0
 40
2.2846660000000001
 50
202.359634
 51
210.86977200000001
  0
ARC
  5
16C
  8
0
 62
     7
 10
46.490006999999999
 20
120.6165
 30
0.0
 40
0.8864969999999999
 50
210.93106800000001
 51
227.644745
  0
ARC
  5
16D
  8
0
 62
     7
 10
49.346800000000002
 20
121.958173
 30
0.0
 40
4.0569449999999989
 50
158.28696599999989
 51
179.95602599999989
  0
ARC
  5
16E
  8
0
 62
     7
 10
47.688630999999987
 20
122.5906759999999
 30
0.0
 40
2.282572
 50
149.12215399999991
 51
157.63865799999999
  0
ARC
  5
16F
  8
0
 62
     7
 10
46.489934000000012
 20
123.30640200000001
 30
0.0
 40
0.8864569999999998
 50
132.351145
 51
149.0639459999999
  0
ARC
  5
170
  8
0
 62
     7
 10
48.14279299999999
 20
123.443183
 30
0.0
 40
0.102474
 50
232.124439
 51
269.78789699999999
  0
ARC
  5
171
  8
0
 62
     7
 10
48.19578400000001
 20
123.522783
 30
0.0
 40
0.197965
 50
219.1200069999999
 51
234.162792
  0
ARC
  5
172
  8
0
 62
     7
 10
48.317154000000002
 20
123.62317899999999
 30
0.0
 40
0.355474
 50
208.56957999999989
 51
219.33150099999989
  0
ARC
  5
173
  8
0
 62
     7
 10
48.546633999999997
 20
123.7488979999999
 30
0.0
 40
0.617134
 50
200.21517
 51
208.63162800000001
  0
ARC
  5
174
  8
0
 62
     7
 10
48.997095999999999
 20
123.91284
 30
0.0
 40
1.0965
 50
187.24274199999999
 51
200.12046100000001
  0
ARC
  5
175
  8
0
 62
     7
 10
49.634619999999991
 20
124.0202529999999
 30
0.0
 40
1.742675
 50
179.824183
 51
188.10355100000001
  0
ARC
  5
176
  8
0
 62
     7
 10
49.62065599999999
 20
124.0256199999999
 30
0.0
 40
1.728702
 50
166.715791
 51
180.00068999999991
  0
ARC
  5
177
  8
0
 62
     7
 10
48.704571000000001
 20
124.23159099999999
 30
0.0
 40
0.789866
 50
151.1680879999999
 51
165.98753300000001
  0
ARC
  5
178
  8
0
 62
     7
 10
48.233412000000001
 20
124.486951
 30
0.0
 40
0.253992
 50
123.83595099999989
 51
150.37686099999999
  0
ARC
  5
179
  8
0
 62
     7
 10
48.144102000000011
 20
124.60758800000001
 30
0.0
 40
0.104293
 50
90.927983999999995
 51
119.98137199999989
  0
ARC
  5
17A
  8
0
 62
     7
 10
48.142423000000001
 20
120.629935
 30
0.0
 40
0.048074
 50
246.383162
 51
269.98816299999987
  0
ARC
  5
17B
  8
0
 62
     7
 10
48.156515999999989
 20
120.6601919999999
 30
0.0
 40
0.081448
 50
224.19608199999999
 51
245.82651799999999
  0
ARC
  5
17C
  8
0
 62
     7
 10
48.237631
 20
120.738703
 30
0.0
 40
0.194335
 50
209.20395599999989
 51
224.12015400000001
  0
ARC
  5
17D
  8
0
 62
     7
 10
48.499744
 20
120.88760600000001
 30
0.0
 40
0.495787
 50
200.0155279999999
 51
209.4449239999999
  0
ARC
  5
17E
  8
0
 62
     7
 10
49.105263999999998
 20
121.11188899999991
 30
0.0
 40
1.1415049999999991
 50
193.96610100000001
 51
200.19036199999999
  0
ARC
  5
17F
  8
0
 62
     7
 10
50.155561999999989
 20
121.3787769999999
 30
0.0
 40
2.2251750000000001
 50
189.86102799999989
 51
194.1080179999999
  0
ARC
  5
180
  8
0
 62
     7
 10
52.199622999999988
 20
121.731173
 30
0.0
 40
4.2993889999999988
 50
183.25516200000001
 51
189.822732
  0
ARC
  5
181
  8
0
 62
     7
 10
54.987825000000001
 20
121.9516159999999
 30
0.0
 40
7.095877999999999
 50
179.921908
 51
183.753906
  0
ARC
  5
182
  8
0
 62
     7
 10
54.798833999999999
 20
121.96174999999999
 30
0.0
 40
6.9068809999999994
 50
173.36524199999999
 51
180.003872
  0
ARC
  5
183
  8
0
 62
     7
 10
50.669865000000001
 20
122.4244419999999
 30
0.0
 40
2.7521599999999991
 50
164.908874
 51
173.001643
  0
ARC
  5
184
  8
0
 62
     7
 10
48.78237
 20
122.918549
 30
0.0
 40
0.8012439999999999
 50
155.955611
 51
163.8825919999999
  0
ARC
  5
185
  8
0
 62
     7
 10
48.329497000000003
 20
123.1226399999999
 30
0.0
 40
0.304517
 50
143.12402299999999
 51
156.30590399999991
  0
ARC
  5
186
  8
0
 62
     7
 10
48.172877999999997
 20
123.24106399999989
 30
0.0
 40
0.10817
 50
121.206059
 51
143.51971
  0
ARC
  5
187
  8
0
 62
     7
 10
48.143191999999992
 20
123.28844699999991
 30
0.0
 40
0.052269
 50
90.853539000000012
 51
120.284188
  0
LINE
  5
188
  8
0
  6
AIGENLINE001
 62
     7
 10
57.143300000000004
 20
121.961
 30
0.0
 11
35.892600000000002
 21
121.961
 31
0.0
  0
LINE
  5
189
  8
0
 62
     7
 10
48.142400000000002
 20
123.34099999999999
 30
0.0
 11
50.64289999999999
 21
123.34099999999999
 31
0.0
  0
LINE
  5
18A
  8
0
 62
     7
 10
50.64289999999999
 20
124.7109999999999
 30
0.0
 11
48.142400000000002
 21
124.712
 31
0.0
  0
LINE
  5
18B
  8
0
 62
     7
 10
47.892999999999986
 20
124.0569999999999
 30
0.0
 11
47.892999999999986
 21
121.961
 31
0.0
  0
LINE
  5
18C
  8
0
 62
     7
 10
47.892999999999986
 20
123.962
 30
0.0
 11
45.892800000000001
 21
123.962
 31
0.0
  0
LINE
  5
18D
  8
0
 62
     7
 10
48.142400000000002
 20
120.58199999999999
 30
0.0
 11
50.64289999999999
 21
120.58199999999999
 31
0.0
  0
LINE
  5
18E
  8
0
 62
     7
 10
45.642599999999987
 20
127.212
 30
0.0
 11
45.892800000000001
 21
126.9619999999999
 31
0.0
  0
LINE
  5
18F
  8
0
 62
     7
 10
42.267800000000001
 20
127.212
 30
0.0
 11
45.892800000000001
 21
127.212
 31
0.0
  0
LINE
  5
190
  8
0
 62
     7
 10
38.892299999999992
 20
127.212
 30
0.0
 11
38.642800000000001
 21
126.9619999999999
 31
0.0
  0
LINE
  5
191
  8
0
 62
     7
 10
50.64289999999999
 20
119.211
 30
0.0
 11
48.142400000000002
 21
119.211
 31
0.0
  0
LINE
  5
192
  8
0
 62
     7
 10
47.892000000000003
 20
119.896
 30
0.0
 11
47.892999999999986
 21
121.961
 31
0.0
  0
LINE
  5
193
  8
0
 62
     7
 10
47.892999999999986
 20
119.961
 30
0.0
 11
45.892800000000001
 21
119.961
 31
0.0
  0
LINE
  5
194
  8
0
 62
     7
 10
44.893000000000001
 20
114.961
 30
0.0
 11
44.642899999999997
 21
114.711
 31
0.0
  0
LINE
  5
195
  8
0
 62
     7
 10
44.893000000000001
 20
114.961
 30
0.0
 11
42.267800000000001
 21
114.961
 31
0.0
  0
LINE
  5
196
  8
0
 62
     7
 10
44.642899999999997
 20
114.711
 30
0.0
 11
44.642899999999997
 21
117.711
 31
0.0
  0
LINE
  5
197
  8
0
 62
     7
 10
44.642899999999997
 20
114.711
 30
0.0
 11
42.267800000000001
 21
114.711
 31
0.0
  0
LINE
  5
198
  8
0
 62
     7
 10
44.893000000000001
 20
114.961
 30
0.0
 11
44.893000000000001
 21
117.711
 31
0.0
  0
LINE
  5
199
  8
0
 62
     7
 10
45.892800000000001
 20
117.711
 30
0.0
 11
42.267800000000001
 21
117.711
 31
0.0
  0
LINE
  5
19A
  8
0
 62
     7
 10
45.892800000000001
 20
117.711
 30
0.0
 11
45.892800000000001
 21
119.961
 31
0.0
  0
LINE
  5
19B
  8
0
 62
     7
 10
45.892800000000001
 20
123.962
 30
0.0
 11
45.892800000000001
 21
126.9619999999999
 31
0.0
  0
LINE
  5
19C
  8
0
 62
     7
 10
42.267800000000001
 20
126.9619999999999
 30
0.0
 11
45.892800000000001
 21
126.9619999999999
 31
0.0
  0
LINE
  5
19D
  8
0
 62
     7
 10
45.642599999999987
 20
132.33699999999999
 30
0.0
 11
45.642599999999987
 21
127.212
 31
0.0
  0
LINE
  5
19E
  8
0
 62
     7
 10
45.892800000000001
 20
132.33699999999999
 30
0.0
 11
45.892800000000001
 21
126.9619999999999
 31
0.0
  0
LINE
  5
19F
  8
0
 62
     7
 10
46.767499999999998
 20
132.33699999999999
 30
0.0
 11
42.267800000000001
 21
132.33699999999999
 31
0.0
  0
LINE
  5
1A0
  8
0
 62
     7
 10
44.517499999999991
 20
139.83699999999999
 30
0.0
 11
44.517499999999991
 21
132.33699999999999
 31
0.0
  0
LINE
  5
1A1
  8
0
 62
     7
 10
46.767499999999998
 20
139.83699999999999
 30
0.0
 11
46.767499999999998
 21
132.33699999999999
 31
0.0
  0
LINE
  5
1A2
  8
0
 62
     7
 10
48.517899999999997
 20
139.83699999999999
 30
0.0
 11
42.267800000000001
 21
139.83699999999999
 31
0.0
  0
LINE
  5
1A3
  8
0
 62
     7
 10
48.517899999999997
 20
140.21100000000001
 30
0.0
 11
48.517899999999997
 21
139.83699999999999
 31
0.0
  0
LINE
  5
1A4
  8
0
 62
     7
 10
48.517899999999997
 20
140.21100000000001
 30
0.0
 11
42.267800000000001
 21
140.21100000000001
 31
0.0
  0
LINE
  5
1A5
  8
0
 62
     7
 10
47.767600000000002
 20
145.71199999999999
 30
0.0
 11
47.767600000000002
 21
145.46199999999999
 31
0.0
  0
LINE
  5
1A6
  8
0
 62
     7
 10
47.767600000000002
 20
140.21100000000001
 30
0.0
 11
42.267800000000001
 21
140.21100000000001
 31
0.0
  0
LINE
  5
1A7
  8
0
 62
     7
 10
47.767600000000002
 20
140.46199999999999
 30
0.0
 11
42.267800000000001
 21
140.46199999999999
 31
0.0
  0
LINE
  5
1A8
  8
0
 62
     7
 10
45.955500000000001
 20
140.46199999999999
 30
0.0
 11
45.955500000000001
 21
145.46199999999999
 31
0.0
  0
LINE
  5
1A9
  8
0
 62
     7
 10
47.767600000000002
 20
145.46199999999999
 30
0.0
 11
42.267800000000001
 21
145.46199999999999
 31
0.0
  0
LINE
  5
1AA
  8
0
 62
     7
 10
47.767600000000002
 20
140.46199999999999
 30
0.0
 11
47.767600000000002
 21
140.21100000000001
 31
0.0
  0
LINE
  5
1AB
  8
0
 62
     7
 10
39.643000000000001
 20
114.961
 30
0.0
 11
39.892400000000002
 21
114.711
 31
0.0
  0
LINE
  5
1AC
  8
0
 62
     7
 10
39.643000000000001
 20
114.961
 30
0.0
 11
42.267800000000001
 21
114.961
 31
0.0
  0
LINE
  5
1AD
  8
0
 62
     7
 10
39.892400000000002
 20
114.711
 30
0.0
 11
39.892400000000002
 21
117.711
 31
0.0
  0
LINE
  5
1AE
  8
0
 62
     7
 10
39.892400000000002
 20
114.711
 30
0.0
 11
42.267800000000001
 21
114.711
 31
0.0
  0
LINE
  5
1AF
  8
0
 62
     7
 10
39.643000000000001
 20
114.961
 30
0.0
 11
39.643000000000001
 21
117.711
 31
0.0
  0
LINE
  5
1B0
  8
0
 62
     7
 10
38.642800000000001
 20
117.711
 30
0.0
 11
42.267800000000001
 21
117.711
 31
0.0
  0
LINE
  5
1B1
  8
0
 62
     7
 10
38.642800000000001
 20
117.711
 30
0.0
 11
38.642800000000001
 21
126.9619999999999
 31
0.0
  0
LINE
  5
1B2
  8
0
 62
     7
 10
42.267800000000001
 20
127.212
 30
0.0
 11
38.642800000000001
 21
127.212
 31
0.0
  0
LINE
  5
1B3
  8
0
 62
     7
 10
42.267800000000001
 20
126.9619999999999
 30
0.0
 11
38.642800000000001
 21
126.9619999999999
 31
0.0
  0
LINE
  5
1B4
  8
0
 62
     7
 10
38.892299999999992
 20
132.33699999999999
 30
0.0
 11
38.892299999999992
 21
127.212
 31
0.0
  0
LINE
  5
1B5
  8
0
 62
     7
 10
38.642800000000001
 20
132.33699999999999
 30
0.0
 11
38.642800000000001
 21
126.9619999999999
 31
0.0
  0
LINE
  5
1B6
  8
0
 62
     7
 10
37.767800000000001
 20
132.33699999999999
 30
0.0
 11
42.267800000000001
 21
132.33699999999999
 31
0.0
  0
LINE
  5
1B7
  8
0
 62
     7
 10
40.017800000000001
 20
139.83699999999999
 30
0.0
 11
40.017800000000001
 21
132.33699999999999
 31
0.0
  0
LINE
  5
1B8
  8
0
 62
     7
 10
37.767800000000001
 20
139.83699999999999
 30
0.0
 11
37.767800000000001
 21
132.33699999999999
 31
0.0
  0
LINE
  5
1B9
  8
0
 62
     7
 10
36.017699999999998
 20
139.83699999999999
 30
0.0
 11
42.267800000000001
 21
139.83699999999999
 31
0.0
  0
LINE
  5
1BA
  8
0
 62
     7
 10
36.017699999999998
 20
140.21100000000001
 30
0.0
 11
36.017699999999998
 21
139.83699999999999
 31
0.0
  0
LINE
  5
1BB
  8
0
 62
     7
 10
36.017699999999998
 20
140.21100000000001
 30
0.0
 11
42.267800000000001
 21
140.21100000000001
 31
0.0
  0
LINE
  5
1BC
  8
0
 62
     7
 10
36.767699999999991
 20
145.71199999999999
 30
0.0
 11
36.767699999999991
 21
145.46199999999999
 31
0.0
  0
LINE
  5
1BD
  8
0
 62
     7
 10
36.767699999999991
 20
140.21100000000001
 30
0.0
 11
42.267800000000001
 21
140.21100000000001
 31
0.0
  0
LINE
  5
1BE
  8
0
 62
     7
 10
36.767699999999991
 20
140.46199999999999
 30
0.0
 11
42.267800000000001
 21
140.46199999999999
 31
0.0
  0
LINE
  5
1BF
  8
0
 62
     7
 10
38.580800000000004
 20
140.46199999999999
 30
0.0
 11
38.580800000000004
 21
145.46199999999999
 31
0.0
  0
LINE
  5
1C0
  8
0
 62
     7
 10
36.767699999999991
 20
145.46199999999999
 30
0.0
 11
42.267800000000001
 21
145.46199999999999
 31
0.0
  0
LINE
  5
1C1
  8
0
 62
     7
 10
36.767699999999991
 20
140.46199999999999
 30
0.0
 11
36.767699999999991
 21
140.21100000000001
 31
0.0
  0
ARC
  5
1C2
  8
0
 62
     7
 10
124.74027199999991
 20
162.80331100000001
 30
0.0
 40
10.45459799999999
 50
229.13098500000001
 51
269.81035299999991
  0
ARC
  5
1C3
  8
0
 62
     7
 10
107.282308
 20
75.989304000000004
 30
0.0
 40
0.519904
 50
272.167012
 51
357.87247100000002
  0
ARC
  5
1C4
  8
0
 62
     7
 10
105.302076
 20
75.970003000000005
 30
0.0
 40
0.5002310000000002
 50
179.99996999999991
 51
270.00002000000001
  0
ARC
  5
1C5
  8
0
 62
     7
 10
107.2826759999999
 20
77.350451000000007
 30
0.0
 40
0.519549
 50
2.1673520000000002
 51
87.872139000000004
  0
ARC
  5
1C6
  8
0
 62
     7
 10
105.32070399999991
 20
77.350756000000004
 30
0.0
 40
0.519219
 50
92.056011999999996
 51
177.86498399999999
  0
LINE
  5
1C7
  8
0
 62
     7
 10
108.071
 20
51.2592
 30
0.0
 11
106.30200000000001
 21
50.78520000000001
 31
0.0
  0
LINE
  5
1C8
  8
0
 62
     7
 10
106.30200000000001
 20
50.78520000000001
 30
0.0
 11
108.071
 21
50.311799999999991
 31
0.0
  0
LINE
  5
1C9
  8
0
 62
     7
 10
108.071
 20
50.311799999999991
 30
0.0
 11
108.071
 21
51.2592
 31
0.0
  0
LINE
  5
1CA
  8
0
 62
     7
 10
140.53399999999991
 20
50.323500000000003
 30
0.0
 11
142.30199999999999
 21
50.796900000000001
 31
0.0
  0
LINE
  5
1CB
  8
0
 62
     7
 10
142.30199999999999
 20
50.796900000000001
 30
0.0
 11
140.53399999999991
 21
51.27089999999999
 31
0.0
  0
LINE
  5
1CC
  8
0
 62
     7
 10
140.53399999999991
 20
51.27089999999999
 30
0.0
 11
140.53399999999991
 21
50.323500000000003
 31
0.0
  0
LINE
  5
1CD
  8
0
 62
     7
 10
106.32299999999989
 20
50.791400000000003
 30
0.0
 11
142.28100000000001
 21
50.791400000000003
 31
0.0
  0
LINE
  5
1CE
  8
0
 62
     7
 10
142.30199999999999
 20
66.833200000000005
 30
0.0
 11
142.30199999999999
 21
50.0961
 31
0.0
  0
LINE
  5
1CF
  8
0
 62
     7
 10
110.0629999999999
 20
57.99649999999999
 30
0.0
 11
119.113
 21
57.99649999999999
 31
0.0
  0
LINE
  5
1D0
  8
0
 62
     7
 10
104.31
 20
58.464300000000001
 30
0.0
 11
102.5419999999999
 21
57.991000000000007
 31
0.0
  0
LINE
  5
1D1
  8
0
 62
     7
 10
102.5419999999999
 20
57.991000000000007
 30
0.0
 11
104.31
 21
57.516899999999993
 31
0.0
  0
LINE
  5
1D2
  8
0
 62
     7
 10
104.31
 20
57.516899999999993
 30
0.0
 11
104.31
 21
58.464300000000001
 31
0.0
  0
LINE
  5
1D3
  8
0
 62
     7
 10
108.295
 20
57.528599999999997
 30
0.0
 11
110.0629999999999
 21
58.002699999999997
 31
0.0
  0
LINE
  5
1D4
  8
0
 62
     7
 10
110.0629999999999
 20
58.002699999999997
 30
0.0
 11
108.295
 21
58.476700000000001
 31
0.0
  0
LINE
  5
1D5
  8
0
 62
     7
 10
108.295
 20
58.476700000000001
 30
0.0
 11
108.295
 21
57.528599999999997
 31
0.0
  0
LINE
  5
1D6
  8
0
 62
     7
 10
102.5629999999999
 20
57.99649999999999
 30
0.0
 11
110.0409999999999
 21
57.99649999999999
 31
0.0
  0
LINE
  5
1D7
  8
0
 62
     7
 10
102.5419999999999
 20
63.759500000000003
 30
0.0
 11
102.5419999999999
 21
57.4756
 31
0.0
  0
LINE
  5
1D8
  8
0
 62
     7
 10
110.0629999999999
 20
63.759500000000003
 30
0.0
 11
110.0629999999999
 21
57.532800000000002
 31
0.0
  0
LINE
  5
1D9
  8
0
 62
     7
 10
96.713700000000017
 20
80.382499999999993
 30
0.0
 11
96.239699999999985
 21
82.151200000000003
 31
0.0
  0
LINE
  5
1DA
  8
0
 62
     7
 10
96.239699999999985
 20
82.151200000000003
 30
0.0
 11
95.765600000000006
 21
80.382499999999993
 31
0.0
  0
LINE
  5
1DB
  8
0
 62
     7
 10
95.765600000000006
 20
80.382499999999993
 30
0.0
 11
96.713700000000017
 21
80.382499999999993
 31
0.0
  0
LINE
  5
1DC
  8
0
 62
     7
 10
95.7774
 20
75.909400000000005
 30
0.0
 11
96.251400000000004
 21
74.141300000000001
 31
0.0
  0
LINE
  5
1DD
  8
0
 62
     7
 10
96.251400000000004
 20
74.141300000000001
 30
0.0
 11
96.725500000000011
 21
75.909400000000005
 31
0.0
  0
LINE
  5
1DE
  8
0
 62
     7
 10
96.725500000000011
 20
75.909400000000005
 30
0.0
 11
95.7774
 21
75.909400000000005
 31
0.0
  0
LINE
  5
1DF
  8
0
 62
     7
 10
96.245199999999997
 20
82.151200000000003
 30
0.0
 11
96.245199999999997
 21
74.141300000000001
 31
0.0
  0
LINE
  5
1E0
  8
0
 62
     7
 10
96.713700000000017
 20
72.372600000000006
 30
0.0
 11
96.239699999999985
 21
74.141300000000001
 31
0.0
  0
LINE
  5
1E1
  8
0
 62
     7
 10
96.239699999999985
 20
74.141300000000001
 30
0.0
 11
95.765600000000006
 21
72.372600000000006
 31
0.0
  0
LINE
  5
1E2
  8
0
 62
     7
 10
95.765600000000006
 20
72.372600000000006
 30
0.0
 11
96.713700000000017
 21
72.372600000000006
 31
0.0
  0
LINE
  5
1E3
  8
0
 62
     7
 10
95.7774
 20
65.842399999999998
 30
0.0
 11
96.251400000000004
 21
64.074399999999997
 31
0.0
  0
LINE
  5
1E4
  8
0
 62
     7
 10
96.251400000000004
 20
64.074399999999997
 30
0.0
 11
96.725500000000011
 21
65.842399999999998
 31
0.0
  0
LINE
  5
1E5
  8
0
 62
     7
 10
96.725500000000011
 20
65.842399999999998
 30
0.0
 11
95.7774
 21
65.842399999999998
 31
0.0
  0
LINE
  5
1E6
  8
0
 62
     7
 10
96.245199999999997
 20
74.162700000000001
 30
0.0
 11
96.245199999999997
 21
64.074399999999997
 31
0.0
  0
LINE
  5
1E7
  8
0
 62
     7
 10
101.9379999999999
 20
64.074399999999997
 30
0.0
 11
95.902799999999985
 21
64.074399999999997
 31
0.0
  0
LINE
  5
1E8
  8
0
 62
     7
 10
99.790899999999993
 20
74.141300000000001
 30
0.0
 11
95.902799999999985
 21
74.141300000000001
 31
0.0
  0
LINE
  5
1E9
  8
0
 62
     7
 10
99.713800000000006
 20
82.151200000000003
 30
0.0
 11
95.900000000000006
 21
82.151200000000003
 31
0.0
  0
LINE
  5
1EA
  8
0
 62
     7
 10
112.592
 20
81.904599999999988
 30
0.0
 11
112.592
 21
81.804000000000002
 31
0.0
  0
ARC
  5
1EB
  8
0
 62
     7
 10
114.88302299999989
 20
68.909212999999994
 30
0.0
 40
5.071771
 50
197.75753499999999
 51
205.49168700000001
  0
ARC
  5
1EC
  8
0
 62
     7
 10
112.062156
 20
67.587468999999999
 30
0.0
 40
1.9567810000000001
 50
206.105852
 51
210.98749900000001
  0
ARC
  5
1ED
  8
0
 62
     7
 10
110.9882629999999
 20
66.93253399999999
 30
0.0
 40
0.699013
 50
210.28519999999989
 51
225.384389
  0
ARC
  5
1EE
  8
0
 62
     7
 10
112.37779999999989
 20
68.002938999999984
 30
0.0
 40
2.2834089999999989
 50
149.4926879999999
 51
157.23764700000001
  0
ARC
  5
1EF
  8
0
 62
     7
 10
114.031462
 20
67.273480000000006
 30
0.0
 40
4.0906459999999987
 50
156.7778129999999
 51
168.87007099999991
  0
LINE
  5
1F0
  8
0
 62
     7
 10
115.999
 20
69.711899999999986
 30
0.0
 11
115.535
 21
69.711899999999986
 31
0.0
  0
LINE
  5
1F1
  8
0
 62
     7
 10
114.45
 20
65.749399999999994
 30
0.0
 11
113.741
 21
65.749399999999994
 31
0.0
  0
LINE
  5
1F2
  8
0
 62
     7
 10
116.00700000000001
 20
65.749399999999994
 30
0.0
 11
115.58799999999999
 21
65.749399999999994
 31
0.0
  0
ARC
  5
1F3
  8
0
 62
     7
 10
114.99985599999999
 20
65.680276000000006
 30
0.0
 40
0.856652
 50
71.078858999999994
 51
90.030991999999983
  0
ARC
  5
1F4
  8
0
 62
     7
 10
115.0827449999999
 20
65.979845999999995
 30
0.0
 40
0.546712
 50
15.048963000000001
 51
69.115506000000011
  0
ARC
  5
1F5
  8
0
 62
     7
 10
114.74672700000001
 20
65.875202999999999
 30
0.0
 40
0.8984819999999999
 50
358.78636499999999
 51
15.929592
  0
ARC
  5
1F6
  8
0
 62
     7
 10
115.5690129999999
 20
65.856426999999996
 30
0.0
 40
0.075995
 50
340.13471800000002
 51
359.808041
  0
ARC
  5
1F7
  8
0
 62
     7
 10
115.47727500000001
 20
65.88665300000001
 30
0.0
 40
0.172567
 50
326.42623500000002
 51
341.0467109999999
  0
ARC
  5
1F8
  8
0
 62
     7
 10
115.3118709999999
 20
65.993622000000002
 30
0.0
 40
0.36954
 50
315.86858999999998
 51
326.78988700000002
  0
ARC
  5
1F9
  8
0
 62
     7
 10
115.066378
 20
66.230747999999991
 30
0.0
 40
0.710854
 50
300.00117999999992
 51
315.92842999999988
  0
ARC
  5
1FA
  8
0
 62
     7
 10
114.95729900000001
 20
66.389871999999997
 30
0.0
 40
0.903322
 50
271.49006500000002
 51
300.946236
  0
ARC
  5
1FB
  8
0
 62
     7
 10
114.98235099999999
 20
66.122341000000006
 30
0.0
 40
0.635487
 50
237.984679
 51
269.85918500000002
  0
ARC
  5
1FC
  8
0
 62
     7
 10
115.0424789999999
 20
66.249577000000002
 30
0.0
 40
0.775423
 50
216.68394699999999
 51
239.201741
  0
ARC
  5
1FD
  8
0
 62
     7
 10
114.7090989999999
 20
65.997013999999993
 30
0.0
 40
0.357206
 50
203.95539600000001
 51
216.14178799999991
  0
ARC
  5
1FE
  8
0
 62
     7
 10
114.481568
 20
65.898611000000002
 30
0.0
 40
0.109348
 50
183.10381599999999
 51
205.243054
  0
ARC
  5
1FF
  8
0
 62
     7
 10
115.4959139999999
 20
65.893201000000005
 30
0.0
 40
1.123532999999999
 50
169.3429689999999
 51
180.02602899999999
  0
ARC
  5
200
  8
0
 62
     7
 10
114.99061399999989
 20
65.981492000000003
 30
0.0
 40
0.6106580000000002
 50
143.498436
 51
168.71656200000001
  0
ARC
  5
201
  8
0
 62
     7
 10
114.87085999999999
 20
66.044422999999995
 30
0.0
 40
0.477407
 50
101.673451
 51
141.01954299999991
  0
ARC
  5
202
  8
0
 62
     7
 10
114.98345399999999
 20
65.653332999999975
 30
0.0
 40
0.8837379999999999
 50
88.9666
 51
103.69241
  0
ARC
  5
203
  8
0
 62
     7
 10
114.94471
 20
68.072915000000009
 30
0.0
 40
1.7637459999999989
 50
76.622655000000009
 51
90.014252999999997
  0
ARC
  5
204
  8
0
 62
     7
 10
115.1833239999999
 20
69.119236000000001
 30
0.0
 40
0.6906790000000002
 50
59.889006000000009
 51
75.798098999999993
  0
ARC
  5
205
  8
0
 62
     7
 10
115.42944199999999
 20
69.553379000000007
 30
0.0
 40
0.191713
 50
29.407636
 51
58.426393999999988
  0
ARC
  5
206
  8
0
 62
     7
 10
115.51864999999989
 20
69.611564999999999
 30
0.0
 40
0.085707
 50
0.317384
 51
24.799139
  0
ARC
  5
207
  8
0
 62
     7
 10
114.370287
 20
69.611025999999995
 30
0.0
 40
1.2340679999999991
 50
344.49416000000002
 51
0.047051
  0
ARC
  5
208
  8
0
 62
     7
 10
114.869935
 20
69.487366000000009
 30
0.0
 40
0.7196920000000001
 50
319.05672499999997
 51
343.34650299999993
  0
ARC
  5
209
  8
0
 62
     7
 10
115.0125239999999
 20
69.388137
 30
0.0
 40
0.5472730000000001
 50
268.62511499999988
 51
317.12088699999998
  0
ARC
  5
20A
  8
0
 62
     7
 10
115.005697
 20
69.460987000000003
 30
0.0
 40
0.6199970000000001
 50
212.58881
 51
269.41735799999998
  0
ARC
  5
20B
  8
0
 62
     7
 10
115.1533249999999
 20
69.563481999999993
 30
0.0
 40
0.799616
 50
190.5786479999999
 51
213.079275
  0
ARC
  5
20C
  8
0
 62
     7
 10
115.418978
 20
69.628506000000002
 30
0.0
 40
1.072797999999999
 50
179.6650689999999
 51
191.38775000000001
  0
ARC
  5
20D
  8
0
 62
     7
 10
114.4037329999999
 20
69.634724000000006
 30
0.0
 40
0.057534
 50
159.666786
 51
179.94680600000001
  0
ARC
  5
20E
  8
0
 62
     7
 10
114.4383889999999
 20
69.621234000000001
 30
0.0
 40
0.094721
 50
138.69445200000001
 51
159.29994500000001
  0
ARC
  5
20F
  8
0
 62
     7
 10
114.5146409999999
 20
69.555047000000002
 30
0.0
 40
0.195691
 50
124.30276000000001
 51
138.87346199999999
  0
ARC
  5
210
  8
0
 62
     7
 10
114.62894799999989
 20
69.391056999999975
 30
0.0
 40
0.395583
 50
114.19512399999989
 51
124.59347099999999
  0
ARC
  5
211
  8
0
 62
     7
 10
114.8001409999999
 20
69.008464000000004
 30
0.0
 40
0.8147300000000001
 50
99.289972999999975
 51
114.149432
  0
ARC
  5
212
  8
0
 62
     7
 10
114.93414799999989
 20
68.367165
 30
0.0
 40
1.469530999999999
 50
89.605311999999998
 51
100.409947
  0
ARC
  5
213
  8
0
 62
     7
 10
114.998
 20
68.140961000000004
 30
0.0
 40
0.4788870000000001
 50
54.486069999999998
 51
89.833435999999992
  0
ARC
  5
214
  8
0
 62
     7
 10
114.88699199999991
 20
67.966790000000003
 30
0.0
 40
0.685228
 50
31.408674999999999
 51
55.390701999999997
  0
ARC
  5
215
  8
0
 62
     7
 10
114.59054399999989
 20
67.765437000000006
 30
0.0
 40
1.0433149999999991
 50
4.874623999999999
 51
32.361995
  0
ARC
  5
216
  8
0
 62
     7
 10
114.3501659999999
 20
67.716800000000006
 30
0.0
 40
1.2872619999999999
 50
359.98824499999989
 51
6.1225279999999991
  0
ARC
  5
217
  8
0
 62
     7
 10
114.426857
 20
67.717783999999995
 30
0.0
 40
1.2105719999999991
 50
331.61258500000002
 51
359.94094899999999
  0
ARC
  5
218
  8
0
 62
     7
 10
114.816332
 20
67.532436000000004
 30
0.0
 40
0.7801230000000001
 50
307.38807000000003
 51
329.9886029999999
  0
ARC
  5
219
  8
0
 62
     7
 10
114.9864929999999
 20
67.329246999999995
 30
0.0
 40
0.5154930000000001
 50
271.43391200000002
 51
306.07406900000001
  0
ARC
  5
21A
  8
0
 62
     7
 10
115.000805
 20
67.292913999999996
 30
0.0
 40
0.4790010000000001
 50
234.51817199999999
 51
269.83108099999993
  0
ARC
  5
21B
  8
0
 62
     7
 10
115.113986
 20
67.470749999999995
 30
0.0
 40
0.6895970000000001
 50
210.80902
 51
235.437174
  0
ARC
  5
21C
  8
0
 62
     7
 10
115.413129
 20
67.671235999999993
 30
0.0
 40
1.049380999999999
 50
184.4273499999999
 51
211.845294
  0
ARC
  5
21D
  8
0
 62
     7
 10
115.6439389999999
 20
67.716343000000009
 30
0.0
 40
1.2832709999999989
 50
179.99138300000001
 51
185.63988999999989
  0
ARC
  5
21E
  8
0
 62
     7
 10
115.56864299999999
 20
67.715291000000008
 30
0.0
 40
1.2079759999999991
 50
151.531059
 51
179.940922
  0
ARC
  5
21F
  8
0
 62
     7
 10
115.1845969999999
 20
67.898893000000001
 30
0.0
 40
0.7831500000000001
 50
127.40236299999999
 51
149.94561399999989
  0
ARC
  5
220
  8
0
 62
     7
 10
115.01281399999991
 20
68.104055000000002
 30
0.0
 40
0.5159660000000002
 50
91.490566999999999
 51
126.08686899999999
  0
LINE
  5
221
  8
0
 62
     7
 10
123.13799999999991
 20
65.4255
 30
0.0
 11
122.66500000000001
 21
67.193600000000004
 31
0.0
  0
LINE
  5
222
  8
0
 62
     7
 10
122.66500000000001
 20
67.193600000000004
 30
0.0
 11
122.191
 21
65.4255
 31
0.0
  0
LINE
  5
223
  8
0
 62
     7
 10
122.191
 20
65.4255
 30
0.0
 11
123.13799999999991
 21
65.4255
 31
0.0
  0
LINE
  5
224
  8
0
 62
     7
 10
122.202
 20
69.960700000000003
 30
0.0
 11
122.676
 21
68.192700000000002
 31
0.0
  0
LINE
  5
225
  8
0
 62
     7
 10
122.676
 20
68.192700000000002
 30
0.0
 11
123.15000000000001
 21
69.960700000000003
 31
0.0
  0
LINE
  5
226
  8
0
 62
     7
 10
123.15000000000001
 20
69.960700000000003
 30
0.0
 11
122.202
 21
69.960700000000003
 31
0.0
  0
LINE
  5
227
  8
0
 62
     7
 10
122.67
 20
74.115799999999993
 30
0.0
 11
122.67
 21
64.159099999999995
 31
0.0
  0
LINE
  5
228
  8
0
 62
     7
 10
140.375
 20
67.334100000000007
 30
0.0
 11
139.84200000000001
 21
67.334100000000007
 31
0.0
  0
LINE
  5
229
  8
0
 62
     7
 10
140.375
 20
68.039699999999996
 30
0.0
 11
139.84200000000001
 21
68.039699999999996
 31
0.0
  0
LINE
  5
22A
  8
0
 62
     7
 10
140.464
 20
67.223200000000006
 30
0.0
 11
140.4679999999999
 21
67.223200000000006
 31
0.0
  0
LINE
  5
22B
  8
0
 62
     7
 10
139.84200000000001
 20
67.213499999999996
 30
0.0
 11
140.375
 21
67.213499999999996
 31
0.0
  0
LINE
  5
22C
  8
0
 62
     7
 10
139.84200000000001
 20
68.158900000000003
 30
0.0
 11
140.375
 21
68.158900000000003
 31
0.0
  0
ARC
  5
22D
  8
0
 62
     7
 10
140.63004699999991
 20
67.049796000000001
 30
0.0
 40
0.253579
 50
157.15717599999991
 51
179.74174999999991
  0
ARC
  5
22E
  8
0
 62
     7
 10
140.56579500000001
 20
67.066928000000004
 30
0.0
 40
0.187939
 50
106.63170599999999
 51
154.3649659999999
  0
ARC
  5
22F
  8
0
 62
     7
 10
140.64276699999999
 20
66.867415000000008
 30
0.0
 40
0.401481
 50
88.080568000000014
 51
109.008132
  0
ARC
  5
230
  8
0
 62
     7
 10
140.6624469999999
 20
66.862114000000005
 30
0.0
 40
0.406605
 50
73.499137000000005
 51
90.878256000000022
  0
ARC
  5
231
  8
0
 62
     7
 10
140.70741299999989
 20
67.033548999999994
 30
0.0
 40
0.229525
 50
25.086769
 51
72.1066
  0
ARC
  5
232
  8
0
 62
     7
 10
140.6142679999999
 20
68.307736000000006
 30
0.0
 40
0.23881
 50
182.98118799999989
 51
206.071102
  0
ARC
  5
233
  8
0
 62
     7
 10
140.563605
 20
68.293143000000001
 30
0.0
 40
0.187112
 50
208.87647199999989
 51
256.358566
  0
ARC
  5
234
  8
0
 62
     7
 10
140.64341799999991
 20
68.527445999999998
 30
0.0
 40
0.434203
 50
253.41431700000001
 51
271.68875400000002
  0
ARC
  5
235
  8
0
 62
     7
 10
140.65664099999989
 20
68.532652999999996
 30
0.0
 40
0.439222
 50
269.94431800000001
 51
286.62064199999992
  0
ARC
  5
236
  8
0
 62
     7
 10
140.71419399999991
 20
68.323067000000009
 30
0.0
 40
0.221982
 50
287.85980699999988
 51
335.36804000000001
  0
ARC
  5
237
  8
0
 62
     7
 10
140.6738719999999
 20
67.796317999999999
 30
0.0
 40
0.297638
 50
93.401216000000005
 51
177.71668500000001
  0
ARC
  5
238
  8
0
 62
     7
 10
140.65589199999991
 20
67.832500999999993
 30
0.0
 40
0.260931
 50
26.72805399999999
 51
89.929247000000004
  0
ARC
  5
239
  8
0
 62
     7
 10
140.58725799999999
 20
67.779562999999996
 30
0.0
 40
0.34643
 50
8.6394729999999988
 51
29.443562
  0
ARC
  5
23A
  8
0
 62
     7
 10
140.67165299999991
 20
67.565198999999993
 30
0.0
 40
0.29693
 50
184.84000999999989
 51
267.01964500000003
  0
ARC
  5
23B
  8
0
 62
     7
 10
140.65622899999991
 20
67.700497999999996
 30
0.0
 40
0.431827
 50
269.99801599999989
 51
286.71117900000002
  0
ARC
  5
23C
  8
0
 62
     7
 10
140.7106269999999
 20
67.499381999999983
 30
0.0
 40
0.223637
 50
288.17918900000001
 51
348.47666499999991
  0
LINE
  5
23D
  8
0
 62
     7
 10
140.732
 20
67.009600000000006
 30
0.0
 11
140.375
 21
67.009600000000006
 31
0.0
  0
LINE
  5
23E
  8
0
 62
     7
 10
140.92999999999989
 20
68.158900000000003
 30
0.0
 11
140.92999999999989
 21
67.207300000000004
 31
0.0
  0
ARC
  5
23F
  8
0
 62
     7
 10
140.724839
 20
67.214502999999993
 30
0.0
 40
0.2050429999999999
 50
272.09971300000001
 51
358.000202
  0
LINE
  5
240
  8
0
 62
     7
 10
140.732
 20
68.355900000000005
 30
0.0
 11
140.375
 21
68.355900000000005
 31
0.0
  0
ARC
  5
241
  8
0
 62
     7
 10
140.72481099999999
 20
68.150991000000005
 30
0.0
 40
0.2050969999999999
 50
2.206941
 51
87.893129000000016
  0
LINE
  5
242
  8
0
 62
     7
 10
140.375
 20
68.355900000000005
 30
0.0
 11
140.375
 21
67.009600000000006
 31
0.0
  0
LINE
  5
243
  8
0
 62
     7
 10
139.755
 20
67.241100000000003
 30
0.0
 11
139.756
 21
67.241100000000003
 31
0.0
  0
LINE
  5
244
  8
0
 62
     7
 10
139.84200000000001
 20
68.371799999999993
 30
0.0
 11
139.64099999999991
 21
68.544700000000006
 31
0.0
  0
LINE
  5
245
  8
0
 62
     7
 10
139.84200000000001
 20
67.024799999999999
 30
0.0
 11
139.64099999999991
 21
66.853200000000001
 31
0.0
  0
LINE
  5
246
  8
0
 62
     7
 10
137.107
 20
66.853200000000001
 30
0.0
 11
136.905
 21
67.024799999999999
 31
0.0
  0
LINE
  5
247
  8
0
 62
     7
 10
137.107
 20
68.543400000000005
 30
0.0
 11
136.905
 21
68.371099999999998
 31
0.0
  0
LINE
  5
248
  8
0
 62
     7
 10
136.905
 20
68.371099999999998
 30
0.0
 11
136.905
 21
67.024799999999999
 31
0.0
  0
ARC
  5
249
  8
0
 62
     7
 10
137.51009999999991
 20
67.205804999999998
 30
0.0
 40
0.352616
 50
239.63459199999991
 51
269.89340399999992
  0
ARC
  5
24A
  8
0
 62
     7
 10
137.5844139999999
 20
67.347987000000003
 30
0.0
 40
0.5129190000000001
 50
222.37375099999991
 51
240.50099900000001
  0
ARC
  5
24B
  8
0
 62
     7
 10
137.80602799999991
 20
67.559166000000005
 30
0.0
 40
0.818993
 50
200.653401
 51
222.839123
  0
ARC
  5
24C
  8
0
 62
     7
 10
138.11328700000001
 20
67.701915
 30
0.0
 40
1.1571290000000001
 50
179.95834699999989
 51
201.901252
  0
ARC
  5
24D
  8
0
 62
     7
 10
138.14011499999989
 20
67.701564000000005
 30
0.0
 40
1.183956999999999
 50
151.664929
 51
179.94233500000001
  0
ARC
  5
24E
  8
0
 62
     7
 10
137.72979499999991
 20
67.912875
 30
0.0
 40
0.7225580000000001
 50
128.05987899999991
 51
150.970618
  0
ARC
  5
24F
  8
0
 62
     7
 10
137.51843799999989
 20
68.158481999999992
 30
0.0
 40
0.399159
 50
105.370673
 51
125.90599899999989
  0
ARC
  5
250
  8
0
 62
     7
 10
139.27788699999999
 20
68.179395999999997
 30
0.0
 40
0.368371
 50
50.14780300000001
 51
81.133147999999991
  0
ARC
  5
251
  8
0
 62
     7
 10
139.13705100000001
 20
67.984572
 30
0.0
 40
0.608415
 50
34.471411000000003
 51
51.723014999999997
  0
ARC
  5
252
  8
0
 62
     7
 10
138.83977499999989
 20
67.769053
 30
0.0
 40
0.9755209999999998
 50
14.152601000000001
 51
35.024642
  0
ARC
  5
253
  8
0
 62
     7
 10
138.62225299999989
 20
67.690872999999996
 30
0.0
 40
1.2057690000000001
 50
0.269973
 51
15.22760899999999
  0
ARC
  5
254
  8
0
 62
     7
 10
138.656305
 20
67.697494999999989
 30
0.0
 40
1.1717029999999999
 50
331.61800499999993
 51
359.954002
  0
ARC
  5
255
  8
0
 62
     7
 10
139.04731100000001
 20
67.495221000000001
 30
0.0
 40
0.731589
 50
308.384725
 51
330.99900799999989
  0
ARC
  5
256
  8
0
 62
     7
 10
139.263148
 20
67.245047999999997
 30
0.0
 40
0.401706
 50
282.71268700000002
 51
306.40981599999998
  0
LINE
  5
257
  8
0
 62
     7
 10
137.09599999999989
 20
67.784099999999995
 30
0.0
 11
138.292
 21
67.784099999999995
 31
0.0
  0
LINE
  5
258
  8
0
 62
     7
 10
137.09599999999989
 20
67.611800000000002
 30
0.0
 11
138.292
 21
67.611800000000002
 31
0.0
  0
ARC
  5
259
  8
0
 62
     7
 10
137.803991
 20
67.683762000000002
 30
0.0
 40
0.7142770000000001
 50
112.691394
 51
178.97377900000001
  0
ARC
  5
25A
  8
0
 62
     7
 10
137.6953509999999
 20
67.865797000000001
 30
0.0
 40
0.5053130000000001
 50
90.180612999999994
 51
109.28695
  0
ARC
  5
25B
  8
0
 62
     7
 10
137.69211200000001
 20
67.852865000000008
 30
0.0
 40
0.518246
 50
54.269506000000007
 51
89.818010000000001
  0
ARC
  5
25C
  8
0
 62
     7
 10
137.57956899999991
 20
67.686274999999995
 30
0.0
 40
0.719225
 50
0.818867
 51
54.741467000000007
  0
ARC
  5
25D
  8
0
 62
     7
 10
137.58894100000001
 20
67.709458999999995
 30
0.0
 40
0.709897
 50
292.38365599999997
 51
358.95840499999991
  0
ARC
  5
25E
  8
0
 62
     7
 10
137.69212300000001
 20
67.532606999999999
 30
0.0
 40
0.507853
 50
270.18441999999999
 51
289.21613400000001
  0
ARC
  5
25F
  8
0
 62
     7
 10
137.69540900000001
 20
67.542789999999997
 30
0.0
 40
0.518037
 50
234.30796799999999
 51
269.81742200000002
  0
ARC
  5
260
  8
0
 62
     7
 10
137.806532
 20
67.707652999999993
 30
0.0
 40
0.716789
 50
180.88720000000001
 51
234.78239300000001
  0
LINE
  5
261
  8
0
 62
     7
 10
137.10299999999989
 20
66.853200000000001
 30
0.0
 11
139.64400000000001
 21
66.853200000000001
 31
0.0
  0
LINE
  5
262
  8
0
 62
     7
 10
137.107
 20
68.543400000000005
 30
0.0
 11
139.64199999999991
 21
68.543400000000005
 31
0.0
  0
LINE
  5
263
  8
0
 62
     7
 10
139.84200000000001
 20
68.371799999999993
 30
0.0
 11
139.84200000000001
 21
67.024799999999999
 31
0.0
  0
LINE
  5
264
  8
0
 62
     7
 10
100.01299999999991
 20
82.530199999999994
 30
0.0
 11
100.01299999999991
 21
86.642300000000006
 31
0.0
  0
LINE
  5
265
  8
0
 62
     7
 10
100.259
 20
82.151200000000003
 30
0.0
 11
112.345
 21
82.151200000000003
 31
0.0
  0
ARC
  5
266
  8
0
 62
     7
 10
112.3350709999999
 20
81.894331999999991
 30
0.0
 40
0.257077
 50
2.280692999999999
 51
87.879118000000005
  0
ARC
  5
267
  8
0
 62
     7
 10
100.2682929999999
 20
81.895013000000006
 30
0.0
 40
0.255684
 50
91.980152000000004
 51
177.85955000000001
  0
LINE
  5
268
  8
0
 62
     7
 10
100.01299999999991
 20
81.804000000000002
 30
0.0
 11
100.01299999999991
 21
81.904599999999988
 31
0.0
  0
LINE
  5
269
  8
0
 62
     7
 10
110.2239999999999
 20
75.469800000000006
 30
0.0
 11
110.297
 21
75.469800000000006
 31
0.0
  0
LINE
  5
26A
  8
0
 62
     7
 10
109.90299999999991
 20
75.792199999999994
 30
0.0
 11
109.90299999999991
 21
77.548599999999993
 31
0.0
  0
ARC
  5
26B
  8
0
 62
     7
 10
110.2362139999999
 20
75.803250000000006
 30
0.0
 40
0.33371
 50
181.8915429999999
 51
267.86310900000001
  0
LINE
  5
26C
  8
0
 62
     7
 10
102.7109999999999
 20
75.792199999999994
 30
0.0
 11
102.7109999999999
 21
77.548599999999993
 31
0.0
  0
LINE
  5
26D
  8
0
 62
     7
 10
102.30799999999989
 20
75.469800000000006
 30
0.0
 11
102.39
 21
75.469800000000006
 31
0.0
  0
ARC
  5
26E
  8
0
 62
     7
 10
102.37690499999999
 20
75.804160999999993
 30
0.0
 40
0.334656
 50
272.28766300000001
 51
357.95772399999998
  0
LINE
  5
26F
  8
0
 62
     7
 10
110.2239999999999
 20
77.869600000000005
 30
0.0
 11
110.297
 21
77.869600000000005
 31
0.0
  0
ARC
  5
270
  8
0
 62
     7
 10
110.235721
 20
77.536606000000006
 30
0.0
 40
0.3332489999999999
 50
92.055001999999988
 51
177.9449679999999
  0
LINE
  5
271
  8
0
 62
     7
 10
102.30799999999989
 20
77.869600000000005
 30
0.0
 11
102.39
 21
77.869600000000005
 31
0.0
  0
ARC
  5
272
  8
0
 62
     7
 10
102.377917
 20
77.536209999999997
 30
0.0
 40
0.333659
 50
2.1204839999999989
 51
87.879506000000006
  0
LINE
  5
273
  8
0
 62
     7
 10
102.30799999999989
 20
77.869600000000005
 30
0.0
 11
102.30799999999989
 21
79.940200000000004
 31
0.0
  0
LINE
  5
274
  8
0
 62
     7
 10
102.30799999999989
 20
75.070099999999996
 30
0.0
 11
102.30799999999989
 21
75.469800000000006
 31
0.0
  0
LINE
  5
275
  8
0
 62
     7
 10
102.30799999999989
 20
79.940200000000004
 30
0.0
 11
102.15899999999991
 21
80.095900000000015
 31
0.0
  0
LINE
  5
276
  8
0
 62
     7
 10
110.40900000000001
 20
80.095900000000015
 30
0.0
 11
110.297
 21
79.940200000000004
 31
0.0
  0
LINE
  5
277
  8
0
 62
     7
 10
110.297
 20
75.469800000000006
 30
0.0
 11
110.297
 21
75.070099999999996
 31
0.0
  0
LINE
  5
278
  8
0
 62
     7
 10
110.297
 20
79.940200000000004
 30
0.0
 11
110.297
 21
77.869600000000005
 31
0.0
  0
LINE
  5
279
  8
0
 62
     7
 10
100.01299999999991
 20
81.804000000000002
 30
0.0
 11
112.613
 21
81.804000000000002
 31
0.0
  0
LINE
  5
27A
  8
0
 62
     7
 10
116.246
 20
65.996000000000009
 30
0.0
 11
116.246
 21
69.467299999999994
 31
0.0
  0
ARC
  5
27B
  8
0
 62
     7
 10
115.9971979999999
 20
66.00559100000001
 30
0.0
 40
0.256395
 50
272.133962
 51
357.86604799999992
  0
ARC
  5
27C
  8
0
 62
     7
 10
115.9897689999999
 20
69.455793
 30
0.0
 40
0.256327
 50
2.5829589999999998
 51
87.899180000000001
  0
LINE
  5
27D
  8
0
 62
     7
 10
110.47
 20
65.879599999999996
 30
0.0
 11
102.13499999999991
 21
65.879599999999996
 31
0.0
  0
LINE
  5
27E
  8
0
 62
     7
 10
112.327
 20
74.15100000000001
 30
0.0
 11
100.2769999999999
 21
74.15100000000001
 31
0.0
  0
LINE
  5
27F
  8
0
 62
     7
 10
112.886
 20
69.334400000000002
 30
0.0
 11
112.886
 21
66.051900000000003
 31
0.0
  0
LINE
  5
280
  8
0
 62
     7
 10
112.592
 20
82.333799999999997
 30
0.0
 11
112.592
 21
86.642300000000006
 31
0.0
  0
LINE
  5
281
  8
0
 62
     7
 10
110.824
 20
85.829199999999986
 30
0.0
 11
112.592
 21
86.302599999999984
 31
0.0
  0
LINE
  5
282
  8
0
 62
     7
 10
112.592
 20
86.302599999999984
 30
0.0
 11
110.824
 21
86.776600000000016
 31
0.0
  0
LINE
  5
283
  8
0
 62
     7
 10
110.824
 20
86.776600000000016
 30
0.0
 11
110.824
 21
85.829199999999986
 31
0.0
  0
LINE
  5
284
  8
0
 62
     7
 10
101.78100000000001
 20
86.765600000000006
 30
0.0
 11
100.01299999999991
 21
86.291600000000003
 31
0.0
  0
LINE
  5
285
  8
0
 62
     7
 10
100.01299999999991
 20
86.291600000000003
 30
0.0
 11
101.78100000000001
 21
85.817499999999995
 31
0.0
  0
LINE
  5
286
  8
0
 62
     7
 10
101.78100000000001
 20
85.817499999999995
 30
0.0
 11
101.78100000000001
 21
86.765600000000006
 31
0.0
  0
LINE
  5
287
  8
0
 62
     7
 10
112.5709999999999
 20
86.297100000000015
 30
0.0
 11
100.0929999999999
 21
86.297100000000015
 31
0.0
  0
LINE
  5
288
  8
0
 62
     7
 10
106.30200000000001
 20
61.631799999999998
 30
0.0
 11
106.30200000000001
 21
49.978299999999997
 31
0.0
  0
LINE
  5
289
  8
0
 62
     7
 10
140.93199999999999
 20
67.179100000000005
 30
0.0
 11
142.08899999999991
 21
67.179100000000005
 31
0.0
  0
LINE
  5
28A
  8
0
 62
     7
 10
116.247
 20
67.193600000000004
 30
0.0
 11
138.05699999999999
 21
67.193600000000004
 31
0.0
  0
LINE
  5
28B
  8
0
  6
AIGENLINE001
 62
     7
 10
108.8
 20
67.693100000000001
 30
0.0
 11
143.99100000000001
 21
67.693100000000001
 31
0.0
  0
LINE
  5
28C
  8
0
 62
     7
 10
140.93199999999999
 20
68.178899999999999
 30
0.0
 11
142.08899999999991
 21
68.178899999999999
 31
0.0
  0
LINE
  5
28D
  8
0
 62
     7
 10
116.247
 20
68.192700000000002
 30
0.0
 11
138.05699999999999
 21
68.192700000000002
 31
0.0
  0
ARC
  5
28E
  8
0
 62
     7
 10
110.7736529999999
 20
65.697718999999992
 30
0.0
 40
0.35417
 50
90.787019999999984
 51
149.10000999999991
  0
LINE
  5
28F
  8
0
 62
     7
 10
113.6549999999999
 20
65.836200000000005
 30
0.0
 11
113.6549999999999
 21
69.549999999999997
 31
0.0
  0
ARC
  5
290
  8
0
 62
     7
 10
110.82803
 20
69.692668000000012
 30
0.0
 40
0.358543
 50
182.20471900000001
 51
267.90978799999999
  0
LINE
  5
291
  8
0
 62
     7
 10
113.6549999999999
 20
65.836200000000005
 30
0.0
 11
113.741
 21
65.749399999999994
 31
0.0
  0
LINE
  5
292
  8
0
 62
     7
 10
113.741
 20
69.634799999999998
 30
0.0
 11
113.6549999999999
 21
69.549999999999997
 31
0.0
  0
LINE
  5
293
  8
0
 62
     7
 10
110.8149999999999
 20
69.334400000000002
 30
0.0
 11
113.6549999999999
 21
69.334400000000002
 31
0.0
  0
LINE
  5
294
  8
0
 62
     7
 10
113.6549999999999
 20
66.051900000000003
 30
0.0
 11
110.76899999999991
 21
66.051900000000003
 31
0.0
  0
LINE
  5
295
  8
0
 62
     7
 10
113.2339999999999
 20
69.132499999999993
 30
0.0
 11
113.6549999999999
 21
69.132499999999993
 31
0.0
  0
LINE
  5
296
  8
0
 62
     7
 10
113.6549999999999
 20
66.2517
 30
0.0
 11
113.2339999999999
 21
66.2517
 31
0.0
  0
LINE
  5
297
  8
0
 62
     7
 10
142.08899999999991
 20
68.178899999999999
 30
0.0
 11
142.08899999999991
 21
67.179100000000005
 31
0.0
  0
ARC
  5
298
  8
0
 62
     7
 10
111.6708969999999
 20
80.094077999999996
 30
0.0
 40
1.261781
 50
152.32609299999999
 51
179.91835399999999
  0
ARC
  5
299
  8
0
 62
     7
 10
112.12246399999989
 20
79.884585999999999
 30
0.0
 40
1.7591529999999991
 50
131.91791399999991
 51
153.11423699999989
  0
ARC
  5
29A
  8
0
 62
     7
 10
112.58890599999999
 20
79.41840400000001
 30
0.0
 40
2.4179169999999992
 50
98.762539000000004
 51
132.7624889999999
  0
ARC
  5
29B
  8
0
 62
     7
 10
100.065623
 20
79.674858
 30
0.0
 40
2.1516239999999991
 50
60.91098800000001
 51
82.505112999999994
  0
ARC
  5
29C
  8
0
 62
     7
 10
99.984943000000001
 20
79.449861999999996
 30
0.0
 40
2.3877799999999989
 50
41.058647000000001
 51
61.844033000000003
  0
ARC
  5
29D
  8
0
 62
     7
 10
100.47862499999989
 20
79.907918000000009
 30
0.0
 40
1.7147899999999989
 50
19.779108999999991
 51
40.352773999999997
  0
ARC
  5
29E
  8
0
 62
     7
 10
100.8882819999999
 20
80.082314999999994
 30
0.0
 40
1.2705420000000001
 50
0.611548
 51
18.62987399999999
  0
LINE
  5
29F
  8
0
 62
     7
 10
107.80200000000001
 20
75.969999999999999
 30
0.0
 11
107.80200000000001
 21
77.370099999999994
 31
0.0
  0
LINE
  5
2A0
  8
0
 62
     7
 10
104.80200000000001
 20
75.969999999999999
 30
0.0
 11
104.80200000000001
 21
77.370099999999994
 31
0.0
  0
LINE
  5
2A1
  8
0
  6
AIGENLINE001
 62
     7
 10
106.30200000000001
 20
62.454500000000003
 30
0.0
 11
106.30200000000001
 21
83.276399999999995
 31
0.0
  0
ARC
  5
2A2
  8
0
 62
     7
 10
101.1064839999999
 20
74.556481999999974
 30
0.0
 40
0.5273520000000002
 50
180.63746599999999
 51
230.25857799999989
  0
ARC
  5
2A3
  8
0
 62
     7
 10
101.1186079999999
 20
74.530722999999995
 30
0.0
 40
0.539809
 50
92.187875000000005
 51
177.88813499999989
  0
ARC
  5
2A4
  8
0
 62
     7
 10
111.4873629999999
 20
74.533411000000001
 30
0.0
 40
0.5371020000000001
 50
1.8355399999999999
 51
87.859685999999996
  0
ARC
  5
2A5
  8
0
 62
     7
 10
111.501054
 20
74.553916000000001
 30
0.0
 40
0.523145
 50
309.62674299999998
 51
359.63845400000002
  0
LINE
  5
2A6
  8
0
 62
     7
 10
110.47
 20
72.406400000000005
 30
0.0
 11
110.47
 21
69.678899999999999
 31
0.0
  0
ARC
  5
2A7
  8
0
 62
     7
 10
101.253388
 20
72.397137000000001
 30
0.0
 40
0.8812959999999998
 50
0.600513
 51
59.353631999999998
  0
ARC
  5
2A8
  8
0
 62
     7
 10
111.35251699999991
 20
72.396261999999993
 30
0.0
 40
0.8828229999999999
 50
120.702133
 51
179.343681
  0
LINE
  5
2A9
  8
0
 62
     7
 10
102.13499999999991
 20
65.879599999999996
 30
0.0
 11
102.13499999999991
 21
72.406400000000005
 31
0.0
  0
LINE
  5
2AA
  8
0
 62
     7
 10
113.2339999999999
 20
66.2517
 30
0.0
 11
112.886
 21
66.051900000000003
 31
0.0
  0
LINE
  5
2AB
  8
0
 62
     7
 10
110.0629999999999
 20
64.150800000000004
 30
0.0
 11
110.0629999999999
 21
65.360799999999998
 31
0.0
  0
LINE
  5
2AC
  8
0
 62
     7
 10
102.30799999999989
 20
64.385099999999994
 30
0.0
 11
110.297
 21
64.385099999999994
 31
0.0
  0
LINE
  5
2AD
  8
0
 62
     7
 10
112.327
 20
73.9773
 30
0.0
 11
110.902
 21
73.155299999999997
 31
0.0
  0
LINE
  5
2AE
  8
0
 62
     7
 10
112.327
 20
73.9773
 30
0.0
 11
112.327
 21
74.15100000000001
 31
0.0
  0
LINE
  5
2AF
  8
0
 62
     7
 10
110.297
 20
65.360799999999998
 30
0.0
 11
102.34999999999989
 21
65.360799999999998
 31
0.0
  0
LINE
  5
2B0
  8
0
 62
     7
 10
110.2529999999999
 20
65.360799999999998
 30
0.0
 11
110.2529999999999
 21
65.879599999999996
 31
0.0
  0
LINE
  5
2B1
  8
0
 62
     7
 10
102.34999999999989
 20
65.360799999999998
 30
0.0
 11
102.34999999999989
 21
65.879599999999996
 31
0.0
  0
LINE
  5
2B2
  8
0
 62
     7
 10
102.30799999999989
 20
64.385099999999994
 30
0.0
 11
102.5419999999999
 21
64.150800000000004
 31
0.0
  0
LINE
  5
2B3
  8
0
 62
     7
 10
110.297
 20
64.385099999999994
 30
0.0
 11
110.0629999999999
 21
64.150800000000004
 31
0.0
  0
LINE
  5
2B4
  8
0
 62
     7
 10
110.297
 20
65.360799999999998
 30
0.0
 11
110.297
 21
64.385099999999994
 31
0.0
  0
LINE
  5
2B5
  8
0
 62
     7
 10
102.30799999999989
 20
64.385099999999994
 30
0.0
 11
102.30799999999989
 21
65.360799999999998
 31
0.0
  0
LINE
  5
2B6
  8
0
 62
     7
 10
110.0629999999999
 20
64.150800000000004
 30
0.0
 11
102.5419999999999
 21
64.150800000000004
 31
0.0
  0
LINE
  5
2B7
  8
0
 62
     7
 10
100.2769999999999
 20
73.9773
 30
0.0
 11
101.7029999999999
 21
73.155299999999997
 31
0.0
  0
LINE
  5
2B8
  8
0
 62
     7
 10
100.2769999999999
 20
73.9773
 30
0.0
 11
100.2769999999999
 21
74.15100000000001
 31
0.0
  0
LINE
  5
2B9
  8
0
 62
     7
 10
142.26099999999991
 20
67.350700000000003
 30
0.0
 11
142.08899999999991
 21
67.179100000000005
 31
0.0
  0
LINE
  5
2BA
  8
0
 62
     7
 10
142.08899999999991
 20
68.178899999999999
 30
0.0
 11
142.26099999999991
 21
68.004499999999993
 31
0.0
  0
LINE
  5
2BB
  8
0
 62
     7
 10
142.26099999999991
 20
67.350700000000003
 30
0.0
 11
142.26099999999991
 21
68.004499999999993
 31
0.0
  0
LINE
  5
2BC
  8
0
 62
     7
 10
102.5419999999999
 20
64.150800000000004
 30
0.0
 11
102.5419999999999
 21
65.360799999999998
 31
0.0
  0
LINE
  5
2BD
  8
0
 62
     7
 10
105.30200000000001
 20
77.869600000000005
 30
0.0
 11
107.30200000000001
 21
77.869600000000005
 31
0.0
  0
LINE
  5
2BE
  8
0
 62
     7
 10
105.30200000000001
 20
75.469800000000006
 30
0.0
 11
107.30200000000001
 21
75.469800000000006
 31
0.0
  0
LINE
  5
2BF
  8
0
 62
     7
 10
101.0979999999999
 20
75.070099999999996
 30
0.0
 11
111.50700000000001
 21
75.070099999999996
 31
0.0
  0
LINE
  5
2C0
  8
0
 62
     7
 10
113.2339999999999
 20
66.051900000000003
 30
0.0
 11
113.2339999999999
 21
69.334400000000002
 31
0.0
  0
LINE
  5
2C1
  8
0
 62
     7
 10
112.886
 20
69.334400000000002
 30
0.0
 11
113.2339999999999
 21
69.132499999999993
 31
0.0
  0
LINE
  5
2C2
  8
0
 62
     7
 10
114.346
 20
69.634799999999998
 30
0.0
 11
113.741
 21
69.634799999999998
 31
0.0
  0
LINE
  5
2C3
  8
0
 62
     7
 10
120.8309999999999
 20
152.06200000000001
 30
0.0
 11
124.069
 21
160.96100000000001
 31
0.0
  0
LINE
  5
2C4
  8
0
  6
AIGENLINE001
 62
     7
 10
124.20999999999989
 20
161.3479999999999
 30
0.0
 11
125.2179999999999
 21
164.1209999999999
 31
0.0
  0
LINE
  5
2C5
  8
0
 62
     7
 10
68.518199999999993
 20
125.7109999999999
 30
0.0
 11
68.518699999999995
 21
106.4769999999999
 31
0.0
  0
ARC
  5
2C6
  8
0
  6
AIGENLINE001
 62
     7
 10
74.518056999999999
 20
105.477434
 30
0.0
 40
7.2502509999999987
 50
270.00002000000001
 51
359.99998999999991
  0
ARC
  5
2C7
  8
0
  6
AIGENLINE001
 62
     7
 10
74.518230000000003
 20
105.477259
 30
0.0
 40
7.2500759999999991
 50
179.99860899999999
 51
269.99865899999992
  0
LINE
  5
2C8
  8
0
 62
     7
 10
179.87599999999989
 20
231.63
 30
0.0
 11
173.22900000000001
 21
231.63
 31
0.0
  0
LINE
  5
2C9
  8
0
 62
     7
 10
162.48500000000001
 20
220.048
 30
0.0
 11
163.62899999999991
 21
222.02999999999989
 31
0.0
  0
LINE
  5
2CA
  8
0
 62
     7
 10
163.62899999999991
 20
222.02999999999989
 30
0.0
 11
161.64799999999991
 21
220.886
 31
0.0
  0
LINE
  5
2CB
  8
0
 62
     7
 10
161.64799999999991
 20
220.886
 30
0.0
 11
162.48500000000001
 21
220.048
 31
0.0
  0
LINE
  5
2CC
  8
0
 62
     7
 10
169.99299999999991
 20
229.22199999999989
 30
0.0
 11
168.84899999999999
 21
227.24000000000001
 31
0.0
  0
LINE
  5
2CD
  8
0
 62
     7
 10
168.84899999999999
 20
227.24000000000001
 30
0.0
 11
170.8309999999999
 21
228.38399999999999
 31
0.0
  0
LINE
  5
2CE
  8
0
 62
     7
 10
170.8309999999999
 20
228.38399999999999
 30
0.0
 11
169.99299999999991
 21
229.22199999999989
 31
0.0
  0
LINE
  5
2CF
  8
0
 62
     7
 10
173.22900000000001
 20
231.63
 30
0.0
 11
159.24199999999999
 21
217.64199999999991
 31
0.0
  0
LINE
  5
2D0
  8
0
 62
     7
 10
154.87700000000001
 20
231.63
 30
0.0
 11
148.2289999999999
 21
231.63
 31
0.0
  0
LINE
  5
2D1
  8
0
 62
     7
 10
137.48500000000001
 20
220.048
 30
0.0
 11
138.62899999999999
 21
222.02999999999989
 31
0.0
  0
LINE
  5
2D2
  8
0
 62
     7
 10
138.62899999999999
 20
222.02999999999989
 30
0.0
 11
136.64799999999991
 21
220.886
 31
0.0
  0
LINE
  5
2D3
  8
0
 62
     7
 10
136.64799999999991
 20
220.886
 30
0.0
 11
137.48500000000001
 21
220.048
 31
0.0
  0
LINE
  5
2D4
  8
0
 62
     7
 10
144.99399999999989
 20
229.22199999999989
 30
0.0
 11
143.8489999999999
 21
227.24000000000001
 31
0.0
  0
LINE
  5
2D5
  8
0
 62
     7
 10
143.8489999999999
 20
227.24000000000001
 30
0.0
 11
145.83099999999999
 21
228.38399999999999
 31
0.0
  0
LINE
  5
2D6
  8
0
 62
     7
 10
145.83099999999999
 20
228.38399999999999
 30
0.0
 11
144.99399999999989
 21
229.22199999999989
 31
0.0
  0
LINE
  5
2D7
  8
0
 62
     7
 10
148.2289999999999
 20
231.63
 30
0.0
 11
134.24199999999999
 21
217.64199999999991
 31
0.0
  0
LINE
  5
2D8
  8
0
 62
     7
 10
129.876
 20
231.63
 30
0.0
 11
123.22799999999999
 21
231.63
 31
0.0
  0
LINE
  5
2D9
  8
0
 62
     7
 10
112.48399999999999
 20
220.048
 30
0.0
 11
113.629
 21
222.02999999999989
 31
0.0
  0
LINE
  5
2DA
  8
0
 62
     7
 10
113.629
 20
222.02999999999989
 30
0.0
 11
111.64700000000001
 21
220.886
 31
0.0
  0
LINE
  5
2DB
  8
0
 62
     7
 10
111.64700000000001
 20
220.886
 30
0.0
 11
112.48399999999999
 21
220.048
 31
0.0
  0
LINE
  5
2DC
  8
0
 62
     7
 10
119.9929999999999
 20
229.22199999999989
 30
0.0
 11
118.8479999999999
 21
227.24000000000001
 31
0.0
  0
LINE
  5
2DD
  8
0
 62
     7
 10
118.8479999999999
 20
227.24000000000001
 30
0.0
 11
120.8309999999999
 21
228.38399999999999
 31
0.0
  0
LINE
  5
2DE
  8
0
 62
     7
 10
120.8309999999999
 20
228.38399999999999
 30
0.0
 11
119.9929999999999
 21
229.22199999999989
 31
0.0
  0
LINE
  5
2DF
  8
0
 62
     7
 10
123.22799999999999
 20
231.63
 30
0.0
 11
109.241
 21
217.64199999999991
 31
0.0
  0
ARC
  5
2E0
  8
0
 62
     7
 10
166.241377
 20
224.63232600000001
 30
0.0
 40
3.6876540000000002
 50
270.00002000000001
 51
359.99998999999991
  0
ARC
  5
2E1
  8
0
 62
     7
 10
166.241377
 20
224.63232500000001
 30
0.0
 40
3.6876530000000001
 50
179.99996999999991
 51
270.00002000000001
  0
ARC
  5
2E2
  8
0
 62
     7
 10
166.24120600000001
 20
224.6321529999999
 30
0.0
 40
3.6874820000000001
 50
89.997324000000006
 51
179.9972939999999
  0
ARC
  5
2E3
  8
0
 62
     7
 10
166.24154899999991
 20
224.6321529999999
 30
0.0
 40
3.6874820000000001
 50
0.002686
 51
90.002656999999985
  0
ARC
  5
2E4
  8
0
 62
     7
 10
141.2415389999999
 20
224.63232600000001
 30
0.0
 40
3.6876540000000002
 50
270.00002000000001
 51
359.99998999999991
  0
ARC
  5
2E5
  8
0
 62
     7
 10
141.2415389999999
 20
224.63232500000001
 30
0.0
 40
3.6876530000000001
 50
179.99996999999991
 51
270.00002000000001
  0
ARC
  5
2E6
  8
0
 62
     7
 10
141.24136799999999
 20
224.6321529999999
 30
0.0
 40
3.6874820000000001
 50
89.997324000000006
 51
179.9972939999999
  0
ARC
  5
2E7
  8
0
 62
     7
 10
141.2417109999999
 20
224.6321529999999
 30
0.0
 40
3.6874820000000001
 50
0.002686
 51
90.002656999999985
  0
ARC
  5
2E8
  8
0
 62
     7
 10
116.241012
 20
224.63232600000001
 30
0.0
 40
3.6876540000000002
 50
270.00002000000001
 51
359.99998999999991
  0
ARC
  5
2E9
  8
0
 62
     7
 10
116.241012
 20
224.63232500000001
 30
0.0
 40
3.6876530000000001
 50
179.99996999999991
 51
270.00002000000001
  0
ARC
  5
2EA
  8
0
 62
     7
 10
116.2408409999999
 20
224.6321529999999
 30
0.0
 40
3.6874820000000001
 50
89.997324000000006
 51
179.9972939999999
  0
ARC
  5
2EB
  8
0
 62
     7
 10
116.241184
 20
224.6321529999999
 30
0.0
 40
3.6874820000000001
 50
0.002686
 51
90.002656999999985
  0
LINE
  5
2EC
  8
0
 62
     7
 10
43.745099999999987
 20
141.50599999999989
 30
0.0
 11
45.955500000000001
 21
142.0979999999999
 31
0.0
  0
LINE
  5
2ED
  8
0
 62
     7
 10
45.955500000000001
 20
142.0979999999999
 30
0.0
 11
43.745099999999987
 21
142.691
 31
0.0
  0
LINE
  5
2EE
  8
0
 62
     7
 10
43.745099999999987
 20
142.691
 30
0.0
 11
43.745099999999987
 21
141.50599999999989
 31
0.0
  0
LINE
  5
2EF
  8
0
 62
     7
 10
40.791200000000003
 20
141.50599999999989
 30
0.0
 11
38.580800000000004
 21
142.0979999999999
 31
0.0
  0
LINE
  5
2F0
  8
0
 62
     7
 10
38.580800000000004
 20
142.0979999999999
 30
0.0
 11
40.791200000000003
 21
142.69
 31
0.0
  0
LINE
  5
2F1
  8
0
 62
     7
 10
40.791200000000003
 20
142.69
 30
0.0
 11
40.791200000000003
 21
141.50599999999989
 31
0.0
  0
LINE
  5
2F2
  8
0
 62
     7
 10
45.955500000000001
 20
142.0979999999999
 30
0.0
 11
35.365499999999997
 21
142.0979999999999
 31
0.0
  0
LINE
  5
2F3
  8
0
 62
     7
 10
69.245500000000007
 20
141.50599999999989
 30
0.0
 11
71.4559
 21
142.0979999999999
 31
0.0
  0
LINE
  5
2F4
  8
0
 62
     7
 10
71.4559
 20
142.0979999999999
 30
0.0
 11
69.245500000000007
 21
142.691
 31
0.0
  0
LINE
  5
2F5
  8
0
 62
     7
 10
69.245500000000007
 20
142.691
 30
0.0
 11
69.245500000000007
 21
141.50599999999989
 31
0.0
  0
LINE
  5
2F6
  8
0
 62
     7
 10
65.291499999999999
 20
141.50599999999989
 30
0.0
 11
63.081099999999999
 21
142.0979999999999
 31
0.0
  0
LINE
  5
2F7
  8
0
 62
     7
 10
63.081099999999999
 20
142.0979999999999
 30
0.0
 11
65.291499999999999
 21
142.69
 31
0.0
  0
LINE
  5
2F8
  8
0
 62
     7
 10
65.291499999999999
 20
142.69
 30
0.0
 11
65.291499999999999
 21
141.50599999999989
 31
0.0
  0
LINE
  5
2F9
  8
0
 62
     7
 10
71.4559
 20
142.0979999999999
 30
0.0
 11
60.865900000000011
 21
142.0979999999999
 31
0.0
  0
LINE
  5
2FA
  8
0
 62
     7
 10
71.933000000000007
 20
149.411
 30
0.0
 11
74.1434
 21
150.0029999999999
 31
0.0
  0
LINE
  5
2FB
  8
0
 62
     7
 10
74.1434
 20
150.0029999999999
 30
0.0
 11
71.933000000000007
 21
150.59599999999989
 31
0.0
  0
LINE
  5
2FC
  8
0
 62
     7
 10
71.933000000000007
 20
150.59599999999989
 30
0.0
 11
71.933000000000007
 21
149.411
 31
0.0
  0
LINE
  5
2FD
  8
0
 62
     7
 10
62.600200000000001
 20
149.411
 30
0.0
 11
60.389800000000001
 21
150.0029999999999
 31
0.0
  0
LINE
  5
2FE
  8
0
 62
     7
 10
60.389800000000001
 20
150.0029999999999
 30
0.0
 11
62.600200000000001
 21
150.595
 31
0.0
  0
LINE
  5
2FF
  8
0
 62
     7
 10
62.600200000000001
 20
150.595
 30
0.0
 11
62.600200000000001
 21
149.411
 31
0.0
  0
LINE
  5
300
  8
0
 62
     7
 10
60.393599999999999
 20
150.9729999999999
 30
0.0
 11
60.393599999999999
 21
147.46199999999999
 31
0.0
  0
LINE
  5
301
  8
0
 62
     7
 10
74.1434
 20
150.9729999999999
 30
0.0
 11
74.1434
 21
147.46199999999999
 31
0.0
  0
LINE
  5
302
  8
0
 62
     7
 10
74.1434
 20
150.0029999999999
 30
0.0
 11
55.346499999999999
 21
150.0029999999999
 31
0.0
  0
LINE
  5
303
  8
0
 62
     7
 10
81.396199999999979
 20
176.238
 30
0.0
 11
70.517899999999997
 21
176.21199999999999
 31
0.0
  0
LINE
  5
304
  8
0
 62
     7
 10
176.6929999999999
 20
147.9079999999999
 30
0.0
 11
176.10099999999991
 21
145.69799999999989
 31
0.0
  0
LINE
  5
305
  8
0
 62
     7
 10
176.10099999999991
 20
145.69799999999989
 30
0.0
 11
175.50899999999999
 21
147.9079999999999
 31
0.0
  0
LINE
  5
306
  8
0
 62
     7
 10
175.50899999999999
 20
147.9079999999999
 30
0.0
 11
176.6929999999999
 21
147.9079999999999
 31
0.0
  0
LINE
  5
307
  8
0
 62
     7
 10
176.6929999999999
 20
174.00200000000001
 30
0.0
 11
176.10099999999991
 21
176.21199999999999
 31
0.0
  0
LINE
  5
308
  8
0
 62
     7
 10
176.10099999999991
 20
176.21199999999999
 30
0.0
 11
175.5079999999999
 21
174.00099999999989
 31
0.0
  0
LINE
  5
309
  8
0
 62
     7
 10
175.5079999999999
 20
174.00099999999989
 30
0.0
 11
176.6929999999999
 21
174.00200000000001
 31
0.0
  0
LINE
  5
30A
  8
0
 62
     7
 10
176.10099999999991
 20
145.69799999999989
 30
0.0
 11
176.10099999999991
 21
176.21199999999999
 31
0.0
  0
LINE
  5
30B
  8
0
 62
     7
 10
176.98299999999989
 20
145.71199999999999
 30
0.0
 11
166.85599999999999
 21
145.71199999999999
 31
0.0
  0
LINE
  5
30C
  8
0
 62
     7
 10
176.98299999999989
 20
176.21199999999999
 30
0.0
 11
167.2059999999999
 21
176.21199999999999
 31
0.0
  0
LINE
  5
30D
  8
0
 62
     7
 10
126.90299999999991
 20
151.756
 30
0.0
 11
124.693
 21
152.3489999999999
 31
0.0
  0
LINE
  5
30E
  8
0
 62
     7
 10
124.693
 20
152.3489999999999
 30
0.0
 11
126.90299999999991
 21
152.941
 31
0.0
  0
LINE
  5
30F
  8
0
 62
     7
 10
126.90299999999991
 20
152.941
 30
0.0
 11
126.90299999999991
 21
151.756
 31
0.0
  0
LINE
  5
310
  8
0
 62
     7
 10
156.495
 20
151.756
 30
0.0
 11
158.70599999999999
 21
152.3489999999999
 31
0.0
  0
LINE
  5
311
  8
0
 62
     7
 10
158.70599999999999
 20
152.3489999999999
 30
0.0
 11
156.495
 21
152.941
 31
0.0
  0
LINE
  5
312
  8
0
 62
     7
 10
156.495
 20
152.941
 30
0.0
 11
156.495
 21
151.756
 31
0.0
  0
LINE
  5
313
  8
0
 62
     7
 10
158.70599999999999
 20
152.3489999999999
 30
0.0
 11
124.693
 21
152.3489999999999
 31
0.0
  0
LINE
  5
314
  8
0
 62
     7
 10
124.706
 20
151.52799999999991
 30
0.0
 11
124.706
 21
161.71199999999999
 31
0.0
  0
LINE
  5
315
  8
0
 62
     7
 10
41.840600000000002
 20
106.9079999999999
 30
0.0
 11
39.630200000000002
 21
107.501
 31
0.0
  0
LINE
  5
316
  8
0
 62
     7
 10
39.630200000000002
 20
107.501
 30
0.0
 11
41.840600000000002
 21
108.0929999999999
 31
0.0
  0
LINE
  5
317
  8
0
 62
     7
 10
41.840600000000002
 20
108.0929999999999
 30
0.0
 11
41.840600000000002
 21
106.9079999999999
 31
0.0
  0
LINE
  5
318
  8
0
 62
     7
 10
42.682899999999989
 20
106.9079999999999
 30
0.0
 11
44.893300000000004
 21
107.501
 31
0.0
  0
LINE
  5
319
  8
0
 62
     7
 10
44.893300000000004
 20
107.501
 30
0.0
 11
42.682899999999989
 21
108.0929999999999
 31
0.0
  0
LINE
  5
31A
  8
0
 62
     7
 10
42.682899999999989
 20
108.0929999999999
 30
0.0
 11
42.682899999999989
 21
106.9079999999999
 31
0.0
  0
LINE
  5
31B
  8
0
 62
     7
 10
44.893300000000004
 20
107.501
 30
0.0
 11
31.045500000000001
 21
107.501
 31
0.0
  0
LINE
  5
31C
  8
0
 62
     7
 10
39.643300000000004
 20
106.6189999999999
 30
0.0
 11
39.643300000000004
 21
114.2109999999999
 31
0.0
  0
LINE
  5
31D
  8
0
 62
     7
 10
44.893300000000004
 20
106.6189999999999
 30
0.0
 11
44.893300000000004
 21
114.2109999999999
 31
0.0
  0
LINE
  5
31E
  8
0
 62
     7
 10
46.93249999999999
 20
149.411
 30
0.0
 11
49.142899999999997
 21
150.0029999999999
 31
0.0
  0
LINE
  5
31F
  8
0
 62
     7
 10
49.142899999999997
 20
150.0029999999999
 30
0.0
 11
46.93249999999999
 21
150.59599999999989
 31
0.0
  0
LINE
  5
320
  8
0
 62
     7
 10
46.93249999999999
 20
150.59599999999989
 30
0.0
 11
46.93249999999999
 21
149.411
 31
0.0
  0
LINE
  5
321
  8
0
 62
     7
 10
37.599299999999999
 20
149.411
 30
0.0
 11
35.3889
 21
150.0029999999999
 31
0.0
  0
LINE
  5
322
  8
0
 62
     7
 10
35.3889
 20
150.0029999999999
 30
0.0
 11
37.599299999999999
 21
150.595
 31
0.0
  0
LINE
  5
323
  8
0
 62
     7
 10
37.599299999999999
 20
150.595
 30
0.0
 11
37.599299999999999
 21
149.411
 31
0.0
  0
LINE
  5
324
  8
0
 62
     7
 10
35.392699999999998
 20
150.9729999999999
 30
0.0
 11
35.392699999999998
 21
147.46199999999999
 31
0.0
  0
LINE
  5
325
  8
0
 62
     7
 10
49.142899999999997
 20
150.9729999999999
 30
0.0
 11
49.142899999999997
 21
147.46199999999999
 31
0.0
  0
LINE
  5
326
  8
0
 62
     7
 10
38.603200000000001
 20
114.711
 30
0.0
 11
25.839400000000001
 21
114.711
 31
0.0
  0
LINE
  5
327
  8
0
 62
     7
 10
34.067199999999993
 20
145.71199999999999
 30
0.0
 11
25.839400000000001
 21
145.71199999999999
 31
0.0
  0
LINE
  5
328
  8
0
 62
     7
 10
49.142899999999997
 20
150.0029999999999
 30
0.0
 11
30.345600000000001
 21
150.0029999999999
 31
0.0
  0
LINE
  5
329
  8
0
 62
     7
 10
105.605
 20
147.92099999999991
 30
0.0
 11
105.0119999999999
 21
145.71199999999999
 31
0.0
  0
LINE
  5
32A
  8
0
 62
     7
 10
105.0119999999999
 20
145.71199999999999
 30
0.0
 11
104.42
 21
147.92099999999991
 31
0.0
  0
LINE
  5
32B
  8
0
 62
     7
 10
104.42
 20
147.92099999999991
 30
0.0
 11
105.605
 21
147.92099999999991
 31
0.0
  0
LINE
  5
32C
  8
0
 62
     7
 10
104.4189999999999
 20
138.251
 30
0.0
 11
105.0119999999999
 21
140.46199999999999
 31
0.0
  0
LINE
  5
32D
  8
0
 62
     7
 10
105.0119999999999
 20
140.46199999999999
 30
0.0
 11
105.605
 21
138.25
 31
0.0
  0
LINE
  5
32E
  8
0
 62
     7
 10
105.605
 20
138.25
 30
0.0
 11
104.4189999999999
 21
138.251
 31
0.0
  0
LINE
  5
32F
  8
0
 62
     7
 10
105.0119999999999
 20
129.214
 30
0.0
 11
105.0119999999999
 21
148.96100000000001
 31
0.0
  0
LINE
  5
330
  8
0
 62
     7
 10
133.51900000000001
 20
147.92099999999991
 30
0.0
 11
132.92599999999999
 21
145.71199999999999
 31
0.0
  0
LINE
  5
331
  8
0
 62
     7
 10
132.92599999999999
 20
145.71199999999999
 30
0.0
 11
132.33500000000001
 21
147.92099999999991
 31
0.0
  0
LINE
  5
332
  8
0
 62
     7
 10
132.33500000000001
 20
147.92099999999991
 30
0.0
 11
133.51900000000001
 21
147.92099999999991
 31
0.0
  0
LINE
  5
333
  8
0
 62
     7
 10
132.33399999999989
 20
159.64599999999999
 30
0.0
 11
132.92599999999999
 21
161.857
 31
0.0
  0
LINE
  5
334
  8
0
 62
     7
 10
132.92599999999999
 20
161.857
 30
0.0
 11
133.51900000000001
 21
159.64599999999999
 31
0.0
  0
LINE
  5
335
  8
0
 62
     7
 10
133.51900000000001
 20
159.64599999999999
 30
0.0
 11
132.33399999999989
 21
159.64599999999999
 31
0.0
  0
LINE
  5
336
  8
0
 62
     7
 10
132.92599999999999
 20
145.71199999999999
 30
0.0
 11
132.92599999999999
 21
161.857
 31
0.0
  0
LINE
  5
337
  8
0
 62
     7
 10
116.997
 20
147.92099999999991
 30
0.0
 11
116.4039999999999
 21
145.71199999999999
 31
0.0
  0
LINE
  5
338
  8
0
 62
     7
 10
116.4039999999999
 20
145.71199999999999
 30
0.0
 11
115.812
 21
147.92099999999991
 31
0.0
  0
LINE
  5
339
  8
0
 62
     7
 10
115.812
 20
147.92099999999991
 30
0.0
 11
116.997
 21
147.92099999999991
 31
0.0
  0
LINE
  5
33A
  8
0
 62
     7
 10
115.81100000000001
 20
160.51400000000001
 30
0.0
 11
116.4039999999999
 21
162.72499999999999
 31
0.0
  0
LINE
  5
33B
  8
0
 62
     7
 10
116.4039999999999
 20
162.72499999999999
 30
0.0
 11
116.997
 21
160.51400000000001
 31
0.0
  0
LINE
  5
33C
  8
0
 62
     7
 10
116.997
 20
160.51400000000001
 30
0.0
 11
115.81100000000001
 21
160.51400000000001
 31
0.0
  0
LINE
  5
33D
  8
0
 62
     7
 10
116.4039999999999
 20
145.71199999999999
 30
0.0
 11
116.4039999999999
 21
162.72499999999999
 31
0.0
  0
LINE
  5
33E
  8
0
 62
     7
 10
119.4399999999999
 20
154.4799999999999
 30
0.0
 11
121.16200000000001
 21
152.9729999999999
 31
0.0
  0
LINE
  5
33F
  8
0
 62
     7
 10
121.16200000000001
 20
152.9729999999999
 30
0.0
 11
118.916
 21
153.417
 31
0.0
  0
LINE
  5
340
  8
0
 62
     7
 10
118.916
 20
153.417
 30
0.0
 11
119.4399999999999
 21
154.4799999999999
 31
0.0
  0
LINE
  5
341
  8
0
 62
     7
 10
115.70399999999999
 20
145.71199999999999
 30
0.0
 11
150.20500000000001
 21
145.71199999999999
 31
0.0
  0
LINE
  5
342
  8
0
 62
     7
 10
127.7549999999999
 20
161.857
 30
0.0
 11
133.626
 21
161.857
 31
0.0
  0
LINE
  5
343
  8
0
 62
     7
 10
115.70399999999999
 20
162.71199999999999
 30
0.0
 11
123.706
 21
162.71199999999999
 31
0.0
  0
LINE
  5
344
  8
0
 62
     7
 10
27.135999999999999
 20
116.92100000000001
 30
0.0
 11
26.543399999999991
 21
114.711
 31
0.0
  0
LINE
  5
345
  8
0
 62
     7
 10
26.543399999999991
 20
114.711
 30
0.0
 11
25.951599999999988
 21
116.92100000000001
 31
0.0
  0
LINE
  5
346
  8
0
 62
     7
 10
25.951599999999988
 20
116.92100000000001
 30
0.0
 11
27.135999999999999
 21
116.92100000000001
 31
0.0
  0
LINE
  5
347
  8
0
 62
     7
 10
25.950900000000001
 20
143.501
 30
0.0
 11
26.543399999999991
 21
145.71199999999999
 31
0.0
  0
LINE
  5
348
  8
0
 62
     7
 10
26.543399999999991
 20
145.71199999999999
 30
0.0
 11
27.135999999999999
 21
143.501
 31
0.0
  0
LINE
  5
349
  8
0
 62
     7
 10
27.135999999999999
 20
143.501
 30
0.0
 11
25.950900000000001
 21
143.501
 31
0.0
  0
LINE
  5
34A
  8
0
 62
     7
 10
26.543399999999991
 20
114.711
 30
0.0
 11
26.543399999999991
 21
145.71199999999999
 31
0.0
  0
LINE
  5
34B
  8
0
 62
     7
 10
81.106800000000007
 20
147.934
 30
0.0
 11
80.514300000000006
 21
145.72499999999991
 31
0.0
  0
LINE
  5
34C
  8
0
 62
     7
 10
80.514300000000006
 20
145.72499999999991
 30
0.0
 11
79.922399999999996
 21
147.934
 31
0.0
  0
LINE
  5
34D
  8
0
 62
     7
 10
79.922399999999996
 20
147.934
 30
0.0
 11
81.106800000000007
 21
147.934
 31
0.0
  0
LINE
  5
34E
  8
0
 62
     7
 10
79.921700000000001
 20
174.02799999999999
 30
0.0
 11
80.514300000000006
 21
176.238
 31
0.0
  0
LINE
  5
34F
  8
0
 62
     7
 10
80.514300000000006
 20
176.238
 30
0.0
 11
81.106800000000007
 21
174.02699999999999
 31
0.0
  0
LINE
  5
350
  8
0
 62
     7
 10
81.106800000000007
 20
174.02699999999999
 30
0.0
 11
79.921700000000001
 21
174.02799999999999
 31
0.0
  0
LINE
  5
351
  8
0
 62
     7
 10
80.514300000000006
 20
145.72499999999991
 30
0.0
 11
80.514300000000006
 21
176.238
 31
0.0
  0
LINE
  5
352
  8
0
 62
     7
 10
118.452
 20
243.4609999999999
 30
0.0
 11
116.242
 21
242.869
 31
0.0
  0
LINE
  5
353
  8
0
 62
     7
 10
116.242
 20
242.869
 30
0.0
 11
118.452
 21
242.27699999999999
 31
0.0
  0
LINE
  5
354
  8
0
 62
     7
 10
118.452
 20
242.27699999999999
 30
0.0
 11
118.452
 21
243.4609999999999
 31
0.0
  0
LINE
  5
355
  8
0
 62
     7
 10
139.03100000000001
 20
242.27699999999999
 30
0.0
 11
141.24199999999999
 21
242.869
 31
0.0
  0
LINE
  5
356
  8
0
 62
     7
 10
141.24199999999999
 20
242.869
 30
0.0
 11
139.03100000000001
 21
243.46199999999999
 31
0.0
  0
LINE
  5
357
  8
0
 62
     7
 10
139.03100000000001
 20
243.46199999999999
 30
0.0
 11
139.03100000000001
 21
242.27699999999999
 31
0.0
  0
LINE
  5
358
  8
0
 62
     7
 10
143.452
 20
243.4609999999999
 30
0.0
 11
141.24199999999999
 21
242.869
 31
0.0
  0
LINE
  5
359
  8
0
 62
     7
 10
141.24199999999999
 20
242.869
 30
0.0
 11
143.452
 21
242.27699999999999
 31
0.0
  0
LINE
  5
35A
  8
0
 62
     7
 10
143.452
 20
242.27699999999999
 30
0.0
 11
143.452
 21
243.4609999999999
 31
0.0
  0
LINE
  5
35B
  8
0
 62
     7
 10
164.03099999999989
 20
242.27699999999999
 30
0.0
 11
166.2409999999999
 21
242.869
 31
0.0
  0
LINE
  5
35C
  8
0
 62
     7
 10
166.2409999999999
 20
242.869
 30
0.0
 11
164.03099999999989
 21
243.46199999999999
 31
0.0
  0
LINE
  5
35D
  8
0
 62
     7
 10
164.03099999999989
 20
243.46199999999999
 30
0.0
 11
164.03099999999989
 21
242.27699999999999
 31
0.0
  0
LINE
  5
35E
  8
0
 62
     7
 10
166.2409999999999
 20
236.88199999999989
 30
0.0
 11
166.2409999999999
 21
243.56999999999999
 31
0.0
  0
LINE
  5
35F
  8
0
 62
     7
 10
141.24199999999999
 20
236.88199999999989
 30
0.0
 11
141.24199999999999
 21
243.56999999999999
 31
0.0
  0
LINE
  5
360
  8
0
 62
     7
 10
116.2409999999999
 20
236.88199999999989
 30
0.0
 11
116.2409999999999
 21
243.56999999999999
 31
0.0
  0
LINE
  5
361
  8
0
 62
     7
 10
166.2409999999999
 20
242.869
 30
0.0
 11
116.2409999999999
 21
242.869
 31
0.0
  0
LINE
  5
362
  8
0
  6
AIGENLINE001
 62
     7
 10
166.2409999999999
 20
235.88200000000001
 30
0.0
 11
166.2409999999999
 21
213.38200000000001
 31
0.0
  0
LINE
  5
363
  8
0
  6
AIGENLINE001
 62
     7
 10
141.24199999999999
 20
235.88200000000001
 30
0.0
 11
141.24199999999999
 21
213.38200000000001
 31
0.0
  0
LINE
  5
364
  8
0
  6
AIGENLINE001
 62
     7
 10
109.875
 20
224.63200000000001
 30
0.0
 11
173.53
 21
224.63200000000001
 31
0.0
  0
LINE
  5
365
  8
0
  6
AIGENLINE001
 62
     7
 10
116.2409999999999
 20
235.88200000000001
 30
0.0
 11
116.2409999999999
 21
213.38200000000001
 31
0.0
  0
LINE
  5
366
  8
0
 62
     7
 10
44.478900000000003
 20
243.4609999999999
 30
0.0
 11
42.268500000000003
 21
242.869
 31
0.0
  0
LINE
  5
367
  8
0
 62
     7
 10
42.268500000000003
 20
242.869
 30
0.0
 11
44.478900000000003
 21
242.27699999999999
 31
0.0
  0
LINE
  5
368
  8
0
 62
     7
 10
44.478900000000003
 20
242.27699999999999
 30
0.0
 11
44.478900000000003
 21
243.4609999999999
 31
0.0
  0
LINE
  5
369
  8
0
 62
     7
 10
65.057900000000004
 20
242.27699999999999
 30
0.0
 11
67.268299999999996
 21
242.869
 31
0.0
  0
LINE
  5
36A
  8
0
 62
     7
 10
67.268299999999996
 20
242.869
 30
0.0
 11
65.057900000000004
 21
243.46199999999999
 31
0.0
  0
LINE
  5
36B
  8
0
 62
     7
 10
65.057900000000004
 20
243.46199999999999
 30
0.0
 11
65.057900000000004
 21
242.27699999999999
 31
0.0
  0
LINE
  5
36C
  8
0
 62
     7
 10
69.478700000000003
 20
243.4609999999999
 30
0.0
 11
67.268299999999996
 21
242.869
 31
0.0
  0
LINE
  5
36D
  8
0
 62
     7
 10
67.268299999999996
 20
242.869
 30
0.0
 11
69.478700000000003
 21
242.27699999999999
 31
0.0
  0
LINE
  5
36E
  8
0
 62
     7
 10
69.478700000000003
 20
242.27699999999999
 30
0.0
 11
69.478700000000003
 21
243.4609999999999
 31
0.0
  0
LINE
  5
36F
  8
0
 62
     7
 10
90.057799999999986
 20
242.27699999999999
 30
0.0
 11
92.268199999999993
 21
242.869
 31
0.0
  0
LINE
  5
370
  8
0
 62
     7
 10
92.268199999999993
 20
242.869
 30
0.0
 11
90.057799999999986
 21
243.46199999999999
 31
0.0
  0
LINE
  5
371
  8
0
 62
     7
 10
90.057799999999986
 20
243.46199999999999
 30
0.0
 11
90.057799999999986
 21
242.27699999999999
 31
0.0
  0
LINE
  5
372
  8
0
 62
     7
 10
92.268199999999993
 20
236.88199999999989
 30
0.0
 11
92.268199999999993
 21
243.56999999999999
 31
0.0
  0
LINE
  5
373
  8
0
 62
     7
 10
67.268299999999996
 20
236.88199999999989
 30
0.0
 11
67.268299999999996
 21
243.56999999999999
 31
0.0
  0
LINE
  5
374
  8
0
 62
     7
 10
42.267800000000001
 20
236.88199999999989
 30
0.0
 11
42.267800000000001
 21
243.56999999999999
 31
0.0
  0
LINE
  5
375
  8
0
 62
     7
 10
92.268199999999993
 20
242.869
 30
0.0
 11
42.267800000000001
 21
242.869
 31
0.0
  0
LINE
  5
376
  8
0
 62
     7
 10
79.921700000000001
 20
75.420900000000003
 30
0.0
 11
80.514300000000006
 21
73.211200000000005
 31
0.0
  0
LINE
  5
377
  8
0
 62
     7
 10
80.514300000000006
 20
73.211200000000005
 30
0.0
 11
81.106200000000001
 21
75.420900000000003
 31
0.0
  0
LINE
  5
378
  8
0
 62
     7
 10
81.106200000000001
 20
75.420900000000003
 30
0.0
 11
79.921700000000001
 21
75.420900000000003
 31
0.0
  0
LINE
  5
379
  8
0
 62
     7
 10
81.106800000000007
 20
143.51400000000001
 30
0.0
 11
80.514300000000006
 21
145.72499999999991
 31
0.0
  0
LINE
  5
37A
  8
0
 62
     7
 10
80.514300000000006
 20
145.72499999999991
 30
0.0
 11
79.921700000000001
 21
143.51400000000001
 31
0.0
  0
LINE
  5
37B
  8
0
 62
     7
 10
79.921700000000001
 20
143.51400000000001
 30
0.0
 11
81.106800000000007
 21
143.51400000000001
 31
0.0
  0
LINE
  5
37C
  8
0
 62
     7
 10
80.514300000000006
 20
73.211200000000005
 30
0.0
 11
80.514300000000006
 21
145.72499999999991
 31
0.0
  0
LINE
  5
37D
  8
0
 62
     7
 10
81.396199999999979
 20
73.211200000000005
 30
0.0
 11
68.893600000000006
 21
73.211200000000005
 31
0.0
  0
LINE
  5
37E
  8
0
 62
     7
 10
81.396199999999979
 20
145.71199999999999
 30
0.0
 11
75.768299999999996
 21
145.71199999999999
 31
0.0
  0
LINE
  5
37F
  8
0
 62
     7
 10
159.33099999999999
 20
73.211200000000005
 30
0.0
 11
158.08099999999999
 21
73.210800000000006
 31
0.0
  0
LINE
  5
380
  8
0
 62
     7
 10
67.893299999999996
 20
73.210800000000006
 30
0.0
 11
66.6434
 21
73.210499999999996
 31
0.0
  0
LINE
  5
381
  8
0
 62
     7
 10
64.433000000000007
 20
76.631100000000004
 30
0.0
 11
66.6434
 21
77.222999999999999
 31
0.0
  0
LINE
  5
382
  8
0
 62
     7
 10
66.6434
 20
77.222999999999999
 30
0.0
 11
64.433000000000007
 21
77.815600000000003
 31
0.0
  0
LINE
  5
383
  8
0
 62
     7
 10
64.433000000000007
 20
77.815600000000003
 30
0.0
 11
64.433000000000007
 21
76.631100000000004
 31
0.0
  0
LINE
  5
384
  8
0
 62
     7
 10
70.103700000000003
 20
76.631100000000004
 30
0.0
 11
67.893299999999996
 21
77.222999999999999
 31
0.0
  0
LINE
  5
385
  8
0
 62
     7
 10
67.893299999999996
 20
77.222999999999999
 30
0.0
 11
70.103700000000003
 21
77.815600000000003
 31
0.0
  0
LINE
  5
386
  8
0
 62
     7
 10
70.103700000000003
 20
77.815600000000003
 30
0.0
 11
70.103700000000003
 21
76.631100000000004
 31
0.0
  0
LINE
  5
387
  8
0
 62
     7
 10
74.810199999999995
 20
77.222999999999999
 30
0.0
 11
62.399299999999997
 21
77.222999999999999
 31
0.0
  0
ARC
  5
388
  8
0
  6
AIGENLINE001
 62
     7
 10
59.221411000000003
 20
105.492045
 30
0.0
 40
22.546901999999999
 50
359.96286900000001
 51
7.5959440000000003
  0
ARC
  5
389
  8
0
  6
AIGENLINE001
 62
     7
 10
64.589666000000008
 20
106.11317099999989
 30
0.0
 40
17.143906000000001
 50
7.9098759999999997
 51
16.901668000000001
  0
ARC
  5
38A
  8
0
  6
AIGENLINE001
 62
     7
 10
67.917687999999984
 20
107.0491659999999
 30
0.0
 40
13.687706
 50
17.203019000000001
 51
31.462914999999999
  0
ARC
  5
38B
  8
0
  6
AIGENLINE001
 62
     7
 10
69.026071000000002
 20
107.61408
 30
0.0
 40
12.447800000000001
 50
31.90782299999999
 51
53.007083000000002
  0
ARC
  5
38C
  8
0
  6
AIGENLINE001
 62
     7
 10
67.448408000000001
 20
105.66031
 30
0.0
 40
14.957839
 50
52.683482000000012
 51
63.455049000000002
  0
ARC
  5
38D
  8
0
  6
AIGENLINE001
 62
     7
 10
65.35776899999999
 20
101.72668400000001
 30
0.0
 40
19.411428999999998
 50
63.123528999999998
 51
71.869143000000008
  0
ARC
  5
38E
  8
0
  6
AIGENLINE001
 62
     7
 10
63.005974000000002
 20
95.061972999999995
 30
0.0
 40
26.477565999999989
 50
71.52064900000002
 51
78.347386
  0
ARC
  5
38F
  8
0
  6
AIGENLINE001
 62
     7
 10
60.586218000000002
 20
84.282268000000002
 30
0.0
 40
37.524334000000003
 50
78.053257000000002
 51
84.065360999999996
  0
ARC
  5
390
  8
0
  6
AIGENLINE001
 62
     7
 10
58.485965
 20
66.922685000000001
 30
0.0
 40
55.008818000000012
 50
83.759008000000009
 51
87.491637999999995
  0
ARC
  5
391
  8
0
  6
AIGENLINE001
 62
     7
 10
57.315566000000011
 20
44.507238000000001
 30
0.0
 40
77.454239000000001
 50
87.352370999999991
 51
90.127423000000007
  0
ARC
  5
392
  8
0
  6
AIGENLINE001
 62
     7
 10
74.206637999999984
 20
106.74107600000001
 30
0.0
 40
22.688013999999999
 50
173.93145599999991
 51
180.03475499999999
  0
ARC
  5
393
  8
0
  6
AIGENLINE001
 62
     7
 10
69.011799999999994
 20
107.227176
 30
0.0
 40
17.471022000000001
 50
166.56447899999989
 51
173.715631
  0
ARC
  5
394
  8
0
  6
AIGENLINE001
 62
     7
 10
65.424630000000008
 20
108.0297429999999
 30
0.0
 40
13.795648999999999
 50
156.094019
 51
166.344866
  0
ARC
  5
395
  8
0
  6
AIGENLINE001
 62
     7
 10
63.137515999999998
 20
108.9537959999999
 30
0.0
 40
11.330579
 50
124.187533
 51
155.679146
  0
ARC
  5
396
  8
0
  6
AIGENLINE001
 62
     7
 10
64.568974999999995
 20
106.92841
 30
0.0
 40
13.81040299999999
 50
115.00590699999999
 51
124.378522
  0
ARC
  5
397
  8
0
  6
AIGENLINE001
 62
     7
 10
66.346306000000013
 20
103.32203800000001
 30
0.0
 40
17.830235999999989
 50
107.6487849999999
 51
115.283146
  0
ARC
  5
398
  8
0
  6
AIGENLINE001
 62
     7
 10
68.360552999999996
 20
97.383374000000003
 30
0.0
 40
24.100359999999998
 50
101.93947199999999
 51
107.9315719999999
  0
ARC
  5
399
  8
0
  6
AIGENLINE001
 62
     7
 10
70.573931000000002
 20
87.614083999999977
 30
0.0
 40
34.116514000000002
 50
96.759226999999996
 51
102.182047
  0
ARC
  5
39A
  8
0
  6
AIGENLINE001
 62
     7
 10
72.955953000000008
 20
69.615437
 30
0.0
 40
52.271003
 50
93.253364999999974
 51
97.030047999999979
  0
ARC
  5
39B
  8
0
  6
AIGENLINE001
 62
     7
 10
74.850104000000002
 20
40.836509
 30
0.0
 40
81.111455000000007
 50
91.083703000000014
 51
93.435505000000006
  0
ARC
  5
39C
  8
0
  6
AIGENLINE001
 62
     7
 10
75.986533999999992
 20
-5.737063
 30
0.0
 40
127.69844500000001
 50
89.929500999999988
 51
91.198281999999978
  0
ARC
  5
39D
  8
0
  6
AIGENLINE001
 62
     7
 10
60.018592000000012
 20
106.727323
 30
0.0
 40
8.5001390000000008
 50
270.00002000000001
 51
359.99998999999991
  0
ARC
  5
39E
  8
0
  6
AIGENLINE001
 62
     7
 10
60.018678000000001
 20
106.727234
 30
0.0
 40
8.5000499999999999
 50
179.99938999999989
 51
269.999439
  0
LINE
  5
39F
  8
0
 62
     7
 10
64.518100000000004
 20
118.2109999999999
 30
0.0
 11
63.14309999999999
 21
118.2109999999999
 31
0.0
  0
LINE
  5
3A0
  8
0
 62
     7
 10
65.018000000000001
 20
119.211
 30
0.0
 11
64.518100000000004
 21
119.211
 31
0.0
  0
LINE
  5
3A1
  8
0
 62
     7
 10
65.018000000000001
 20
119.211
 30
0.0
 11
65.018000000000001
 21
118.2109999999999
 31
0.0
  0
LINE
  5
3A2
  8
0
 62
     7
 10
64.518100000000004
 20
119.211
 30
0.0
 11
64.518100000000004
 21
118.2109999999999
 31
0.0
  0
LINE
  5
3A3
  8
0
 62
     7
 10
65.518199999999993
 20
120.962
 30
0.0
 11
65.518199999999993
 21
118.2109999999999
 31
0.0
  0
LINE
  5
3A4
  8
0
 62
     7
 10
64.018199999999993
 20
120.962
 30
0.0
 11
64.018199999999993
 21
118.2109999999999
 31
0.0
  0
LINE
  5
3A5
  8
0
 62
     7
 10
66.018100000000004
 20
118.2109999999999
 30
0.0
 11
65.018000000000001
 21
118.2109999999999
 31
0.0
  0
LINE
  5
3A6
  8
0
 62
     7
 10
63.14309999999999
 20
120.962
 30
0.0
 11
63.14309999999999
 21
118.2109999999999
 31
0.0
  0
LINE
  5
3A7
  8
0
 62
     7
 10
64.768199999999993
 20
120.962
 30
0.0
 11
63.14309999999999
 21
120.962
 31
0.0
  0
ARC
  5
3A8
  8
0
 62
     7
 10
63.2682
 20
124.46140699999999
 30
0.0
 40
0.250115
 50
179.99996999999991
 51
270.00002000000001
  0
LINE
  5
3A9
  8
0
 62
     7
 10
66.018100000000004
 20
124.211
 30
0.0
 11
63.2682
 21
124.211
 31
0.0
  0
LINE
  5
3AA
  8
0
 62
     7
 10
63.01809999999999
 20
124.4609999999999
 30
0.0
 11
63.01809999999999
 21
124.756
 31
0.0
  0
LINE
  5
3AB
  8
0
 62
     7
 10
66.018100000000004
 20
120.962
 30
0.0
 11
63.2682
 21
120.962
 31
0.0
  0
LINE
  5
3AC
  8
0
 62
     7
 10
70.329700000000003
 20
217.75700000000001
 30
0.0
 11
73.893299999999996
 21
217.75700000000001
 31
0.0
  0
LINE
  5
3AD
  8
0
  6
AIGENLINE001
 62
     7
 10
67.268299999999996
 20
179.262
 30
0.0
 11
67.268299999999996
 21
70.716200000000001
 31
0.0
  0
LINE
  5
3AE
  8
0
 62
     7
 10
51.89309999999999
 20
120.462
 30
0.0
 11
51.89309999999999
 21
121.08199999999999
 31
0.0
  0
LINE
  5
3AF
  8
0
 62
     7
 10
51.89309999999999
 20
121.33199999999999
 30
0.0
 11
51.89309999999999
 21
121.961
 31
0.0
  0
LINE
  5
3B0
  8
0
 62
     7
 10
54.643000000000001
 20
120.462
 30
0.0
 11
54.643000000000001
 21
121.08199999999999
 31
0.0
  0
LINE
  5
3B1
  8
0
 62
     7
 10
54.643000000000001
 20
121.33199999999999
 30
0.0
 11
54.643000000000001
 21
121.961
 31
0.0
  0
LINE
  5
3B2
  8
0
 62
     7
 10
54.643000000000001
 20
120.462
 30
0.0
 11
51.89309999999999
 21
120.462
 31
0.0
  0
LINE
  5
3B3
  8
0
 62
     7
 10
51.142800000000001
 20
120.462
 30
0.0
 11
51.142800000000001
 21
121.961
 31
0.0
  0
LINE
  5
3B4
  8
0
 62
     7
 10
50.893300000000004
 20
120.462
 30
0.0
 11
51.142800000000001
 21
120.462
 31
0.0
  0
LINE
  5
3B5
  8
0
 62
     7
 10
58.1432
 20
120.462
 30
0.0
 11
55.642800000000001
 21
120.462
 31
0.0
  0
LINE
  5
3B6
  8
0
 62
     7
 10
51.89309999999999
 20
121.08199999999999
 30
0.0
 11
54.643000000000001
 21
121.08199999999999
 31
0.0
  0
LINE
  5
3B7
  8
0
 62
     7
 10
55.642800000000001
 20
120.211
 30
0.0
 11
55.642800000000001
 21
121.961
 31
0.0
  0
ARC
  5
3B8
  8
0
 62
     7
 10
54.912667999999996
 20
120.48077600000001
 30
0.0
 40
0.270318
 50
183.9893119999999
 51
265.85309499999988
  0
LINE
  5
3B9
  8
0
 62
     7
 10
54.89309999999999
 20
120.211
 30
0.0
 11
55.642800000000001
 21
120.211
 31
0.0
  0
ARC
  5
3BA
  8
0
 62
     7
 10
51.412472999999991
 20
120.48081999999989
 30
0.0
 40
0.270365
 50
183.997828
 51
265.84457900000001
  0
ARC
  5
3BB
  8
0
 62
     7
 10
51.624113999999992
 20
120.4801129999999
 30
0.0
 40
0.26961
 50
274.01622400000002
 51
356.14140800000001
  0
LINE
  5
3BC
  8
0
 62
     7
 10
51.39289999999999
 20
120.211
 30
0.0
 11
51.643000000000001
 21
120.211
 31
0.0
  0
LINE
  5
3BD
  8
0
 62
     7
 10
51.89309999999999
 20
123.4609999999999
 30
0.0
 11
51.89309999999999
 21
122.84099999999999
 31
0.0
  0
LINE
  5
3BE
  8
0
 62
     7
 10
51.89309999999999
 20
122.59099999999999
 30
0.0
 11
51.89309999999999
 21
121.961
 31
0.0
  0
LINE
  5
3BF
  8
0
 62
     7
 10
54.643000000000001
 20
123.4609999999999
 30
0.0
 11
54.643000000000001
 21
122.84099999999999
 31
0.0
  0
LINE
  5
3C0
  8
0
 62
     7
 10
54.643000000000001
 20
122.59099999999999
 30
0.0
 11
54.643000000000001
 21
121.961
 31
0.0
  0
LINE
  5
3C1
  8
0
 62
     7
 10
54.643000000000001
 20
123.4609999999999
 30
0.0
 11
51.89309999999999
 21
123.4609999999999
 31
0.0
  0
LINE
  5
3C2
  8
0
 62
     7
 10
51.142800000000001
 20
123.4609999999999
 30
0.0
 11
51.142800000000001
 21
121.961
 31
0.0
  0
LINE
  5
3C3
  8
0
 62
     7
 10
50.893300000000004
 20
123.4609999999999
 30
0.0
 11
51.142800000000001
 21
123.4609999999999
 31
0.0
  0
LINE
  5
3C4
  8
0
 62
     7
 10
58.1432
 20
123.4609999999999
 30
0.0
 11
55.642800000000001
 21
123.4609999999999
 31
0.0
  0
LINE
  5
3C5
  8
0
 62
     7
 10
51.89309999999999
 20
122.84099999999999
 30
0.0
 11
54.643000000000001
 21
122.84099999999999
 31
0.0
  0
LINE
  5
3C6
  8
0
 62
     7
 10
55.642800000000001
 20
123.7119999999999
 30
0.0
 11
55.642800000000001
 21
121.961
 31
0.0
  0
ARC
  5
3C7
  8
0
 62
     7
 10
54.911095999999993
 20
123.4433129999999
 30
0.0
 40
0.268694
 50
93.836039
 51
176.16393099999999
  0
LINE
  5
3C8
  8
0
 62
     7
 10
54.89309999999999
 20
123.7119999999999
 30
0.0
 11
55.642800000000001
 21
123.7119999999999
 31
0.0
  0
ARC
  5
3C9
  8
0
 62
     7
 10
51.410857
 20
123.4433129999999
 30
0.0
 40
0.268694
 50
93.836039
 51
176.16393099999999
  0
ARC
  5
3CA
  8
0
 62
     7
 10
51.624158999999999
 20
123.44245099999991
 30
0.0
 40
0.269612
 50
4.0065679999999988
 51
85.993421999999995
  0
LINE
  5
3CB
  8
0
 62
     7
 10
51.39289999999999
 20
123.7119999999999
 30
0.0
 11
51.643000000000001
 21
123.7119999999999
 31
0.0
  0
LINE
  5
3CC
  8
0
 62
     7
 10
67.268299999999996
 20
125.7109999999999
 30
0.0
 11
60.2682
 21
125.7109999999999
 31
0.0
  0
LINE
  5
3CD
  8
0
 62
     7
 10
60.2682
 20
124.4609999999999
 30
0.0
 11
60.2682
 21
125.7109999999999
 31
0.0
  0
LINE
  5
3CE
  8
0
 62
     7
 10
67.268299999999996
 20
125.211
 30
0.0
 11
60.2682
 21
124.4609999999999
 31
0.0
  0
LINE
  5
3CF
  8
0
 62
     7
 10
67.268299999999996
 20
125.7109999999999
 30
0.0
 11
67.268299999999996
 21
125.211
 31
0.0
  0
LINE
  5
3D0
  8
0
 62
     7
 10
66.018100000000004
 20
125.077
 30
0.0
 11
66.018600000000006
 21
106.4769999999999
 31
0.0
  0
LINE
  5
3D1
  8
0
 62
     7
 10
63.2682
 20
124.211
 30
0.0
 11
63.2682
 21
120.962
 31
0.0
  0
LINE
  5
3D2
  8
0
 62
     7
 10
158.08099999999999
 20
114.711
 30
0.0
 11
158.08099999999999
 21
73.210800000000006
 31
0.0
  0
LINE
  5
3D3
  8
0
 62
     7
 10
159.33099999999999
 20
114.711
 30
0.0
 11
159.33099999999999
 21
73.211500000000001
 31
0.0
  0
LINE
  5
3D4
  8
0
 62
     7
 10
66.6434
 20
98.086600000000004
 30
0.0
 11
66.6434
 21
73.210499999999996
 31
0.0
  0
LINE
  5
3D5
  8
0
 62
     7
 10
105.562
 20
140.46199999999999
 30
0.0
 11
99.247299999999996
 21
140.46199999999999
 31
0.0
  0
LINE
  5
3D6
  8
0
 62
     7
 10
99.730300000000014
 20
145.71199999999999
 30
0.0
 11
105.562
 21
145.71199999999999
 31
0.0
  0
LINE
  5
3D7
  8
0
  6
AIGENLINE001
 62
     7
 10
158.70599999999999
 20
179.262
 30
0.0
 11
158.70599999999999
 21
70.716200000000001
 31
0.0
  0
LINE
  5
3D8
  8
0
 62
     7
 10
67.268299999999996
 20
125.7109999999999
 30
0.0
 11
73.268699999999995
 21
125.7109999999999
 31
0.0
  0
LINE
  5
3D9
  8
0
 62
     7
 10
73.268699999999995
 20
125.211
 30
0.0
 11
73.268699999999995
 21
125.7109999999999
 31
0.0
  0
LINE
  5
3DA
  8
0
 62
     7
 10
69.768100000000004
 20
125.211
 30
0.0
 11
73.268699999999995
 21
125.211
 31
0.0
  0
LINE
  5
3DB
  8
0
 62
     7
 10
69.768100000000004
 20
125.7109999999999
 30
0.0
 11
69.768600000000006
 21
106.4769999999999
 31
0.0
  0
LINE
  5
3DC
  8
0
 62
     7
 10
67.893299999999996
 20
98.086600000000004
 30
0.0
 11
67.893299999999996
 21
73.210800000000006
 31
0.0
  0
LINE
  5
3DD
  8
0
 62
     7
 10
162.39400000000001
 20
140.46100000000001
 30
0.0
 11
162.39400000000001
 21
145.46199999999999
 31
0.0
  0
LINE
  5
3DE
  8
0
 62
     7
 10
162.70599999999999
 20
139.83699999999999
 30
0.0
 11
162.70599999999999
 21
132.33600000000001
 31
0.0
  0
LINE
  5
3DF
  8
0
 62
     7
 10
162.33199999999991
 20
132.33600000000001
 30
0.0
 11
162.33199999999991
 21
126.9619999999999
 31
0.0
  0
LINE
  5
3E0
  8
0
 62
     7
 10
162.08000000000001
 20
132.33600000000001
 30
0.0
 11
162.08000000000001
 21
127.212
 31
0.0
  0
LINE
  5
3E1
  8
0
 62
     7
 10
158.70599999999999
 20
126.9619999999999
 30
0.0
 11
162.33199999999991
 21
126.9619999999999
 31
0.0
  0
LINE
  5
3E2
  8
0
 62
     7
 10
158.70599999999999
 20
127.212
 30
0.0
 11
162.33199999999991
 21
127.212
 31
0.0
  0
LINE
  5
3E3
  8
0
 62
     7
 10
162.33199999999991
 20
117.711
 30
0.0
 11
162.33199999999991
 21
126.9619999999999
 31
0.0
  0
LINE
  5
3E4
  8
0
 62
     7
 10
162.33199999999991
 20
117.711
 30
0.0
 11
158.70599999999999
 21
117.711
 31
0.0
  0
LINE
  5
3E5
  8
0
 62
     7
 10
161.33099999999999
 20
114.961
 30
0.0
 11
161.33099999999999
 21
117.711
 31
0.0
  0
LINE
  5
3E6
  8
0
 62
     7
 10
161.08099999999999
 20
114.711
 30
0.0
 11
158.70599999999999
 21
114.711
 31
0.0
  0
LINE
  5
3E7
  8
0
 62
     7
 10
161.08099999999999
 20
114.711
 30
0.0
 11
161.08099999999999
 21
117.711
 31
0.0
  0
LINE
  5
3E8
  8
0
 62
     7
 10
161.33099999999999
 20
114.961
 30
0.0
 11
158.70599999999999
 21
114.961
 31
0.0
  0
LINE
  5
3E9
  8
0
 62
     7
 10
161.33099999999999
 20
114.961
 30
0.0
 11
161.08099999999999
 21
114.711
 31
0.0
  0
LINE
  5
3EA
  8
0
 62
     7
 10
155.01900000000001
 20
140.46100000000001
 30
0.0
 11
155.01900000000001
 21
145.46199999999999
 31
0.0
  0
LINE
  5
3EB
  8
0
 62
     7
 10
154.70599999999999
 20
139.83699999999999
 30
0.0
 11
154.70599999999999
 21
132.33600000000001
 31
0.0
  0
LINE
  5
3EC
  8
0
 62
     7
 10
158.70599999999999
 20
139.83600000000001
 30
0.0
 11
158.70599999999999
 21
132.33600000000001
 31
0.0
  0
LINE
  5
3ED
  8
0
 62
     7
 10
154.70599999999999
 20
132.33600000000001
 30
0.0
 11
158.70599999999999
 21
132.33600000000001
 31
0.0
  0
LINE
  5
3EE
  8
0
 62
     7
 10
155.08099999999999
 20
132.33600000000001
 30
0.0
 11
155.08099999999999
 21
126.9619999999999
 31
0.0
  0
LINE
  5
3EF
  8
0
 62
     7
 10
155.33099999999999
 20
132.33600000000001
 30
0.0
 11
155.33099999999999
 21
127.212
 31
0.0
  0
LINE
  5
3F0
  8
0
 62
     7
 10
158.70599999999999
 20
126.9619999999999
 30
0.0
 11
155.08099999999999
 21
126.9619999999999
 31
0.0
  0
LINE
  5
3F1
  8
0
 62
     7
 10
155.08099999999999
 20
117.711
 30
0.0
 11
155.08099999999999
 21
126.9619999999999
 31
0.0
  0
LINE
  5
3F2
  8
0
 62
     7
 10
155.08099999999999
 20
117.711
 30
0.0
 11
158.70599999999999
 21
117.711
 31
0.0
  0
LINE
  5
3F3
  8
0
 62
     7
 10
156.08099999999999
 20
114.961
 30
0.0
 11
156.08099999999999
 21
117.711
 31
0.0
  0
LINE
  5
3F4
  8
0
 62
     7
 10
156.33099999999999
 20
114.711
 30
0.0
 11
158.70599999999999
 21
114.711
 31
0.0
  0
LINE
  5
3F5
  8
0
 62
     7
 10
156.33099999999999
 20
114.711
 30
0.0
 11
156.33099999999999
 21
117.711
 31
0.0
  0
LINE
  5
3F6
  8
0
 62
     7
 10
156.08099999999999
 20
114.961
 30
0.0
 11
158.70599999999999
 21
114.961
 31
0.0
  0
LINE
  5
3F7
  8
0
 62
     7
 10
156.08099999999999
 20
114.961
 30
0.0
 11
156.33099999999999
 21
114.711
 31
0.0
  0
LINE
  5
3F8
  8
0
 62
     7
 10
162.08000000000001
 20
127.212
 30
0.0
 11
162.33199999999991
 21
126.9619999999999
 31
0.0
  0
LINE
  5
3F9
  8
0
 62
     7
 10
158.70599999999999
 20
127.212
 30
0.0
 11
155.08099999999999
 21
127.212
 31
0.0
  0
LINE
  5
3FA
  8
0
 62
     7
 10
155.33099999999999
 20
127.212
 30
0.0
 11
155.08099999999999
 21
126.9619999999999
 31
0.0
  0
LINE
  5
3FB
  8
0
 62
     7
 10
158.70599999999999
 20
132.33600000000001
 30
0.0
 11
162.70599999999999
 21
132.33600000000001
 31
0.0
  0
LINE
  5
3FC
  8
0
  6
AIGENLINE001
 62
     7
 10
64.768199999999993
 20
128.71000000000001
 30
0.0
 11
64.768199999999993
 21
114.8549999999999
 31
0.0
  0
LINE
  5
3FD
  8
0
  6
AIGENLINE001
 62
     7
 10
68.518199999999993
 20
128.71000000000001
 30
0.0
 11
68.518199999999993
 21
106.4769999999999
 31
0.0
  0
LINE
  5
3FE
  8
0
 62
     7
 10
51.89309999999999
 20
122.59099999999999
 30
0.0
 11
54.643000000000001
 21
122.59099999999999
 31
0.0
  0
LINE
  5
3FF
  8
0
 62
     7
 10
51.89309999999999
 20
121.33199999999999
 30
0.0
 11
54.643000000000001
 21
121.33199999999999
 31
0.0
  0
LINE
  5
400
  8
0
 62
     7
 10
154.518
 20
140.46100000000001
 30
0.0
 11
154.518
 21
145.46199999999999
 31
0.0
  0
LINE
  5
401
  8
0
 62
     7
 10
162.89400000000001
 20
140.46100000000001
 30
0.0
 11
162.89400000000001
 21
145.46199999999999
 31
0.0
  0
LINE
  5
402
  8
0
 62
     7
 10
163.45599999999999
 20
120.7109999999999
 30
0.0
 11
162.33199999999991
 21
120.7109999999999
 31
0.0
  0
LINE
  5
403
  8
0
 62
     7
 10
165.7059999999999
 20
124.4609999999999
 30
0.0
 11
162.33199999999991
 21
124.7109999999999
 31
0.0
  0
LINE
  5
404
  8
0
 62
     7
 10
165.7059999999999
 20
125.7109999999999
 30
0.0
 11
162.33199999999991
 21
125.7109999999999
 31
0.0
  0
LINE
  5
405
  8
0
 62
     7
 10
152.70599999999999
 20
125.211
 30
0.0
 11
152.70599999999999
 21
125.7109999999999
 31
0.0
  0
LINE
  5
406
  8
0
 62
     7
 10
165.7059999999999
 20
124.4609999999999
 30
0.0
 11
165.7059999999999
 21
125.7109999999999
 31
0.0
  0
LINE
  5
407
  8
0
 62
     7
 10
153.95599999999999
 20
139.46199999999999
 30
0.0
 11
153.95599999999999
 21
125.7109999999999
 31
0.0
  0
LINE
  5
408
  8
0
 62
     7
 10
163.45599999999999
 20
139.46199999999999
 30
0.0
 11
163.45599999999999
 21
125.7109999999999
 31
0.0
  0
LINE
  5
409
  8
0
 62
     7
 10
155.08099999999999
 20
125.211
 30
0.0
 11
152.70599999999999
 21
125.211
 31
0.0
  0
LINE
  5
40A
  8
0
 62
     7
 10
155.08099999999999
 20
125.7109999999999
 30
0.0
 11
152.70599999999999
 21
125.7109999999999
 31
0.0
  0
LINE
  5
40B
  8
0
 62
     7
 10
163.20599999999999
 20
120.7109999999999
 30
0.0
 11
163.20599999999999
 21
124.646
 31
0.0
  0
LINE
  5
40C
  8
0
 62
     7
 10
163.45599999999999
 20
117.711
 30
0.0
 11
163.45599999999999
 21
120.7109999999999
 31
0.0
  0
LINE
  5
40D
  8
0
 62
     7
 10
163.45599999999999
 20
117.711
 30
0.0
 11
162.33199999999991
 21
117.711
 31
0.0
  0
LINE
  5
40E
  8
0
 62
     7
 10
156.70599999999999
 20
176.21199999999999
 30
0.0
 11
156.70599999999999
 21
174.96199999999999
 31
0.0
  0
LINE
  5
40F
  8
0
 62
     7
 10
160.70599999999999
 20
176.21199999999999
 30
0.0
 11
160.70599999999999
 21
174.96199999999999
 31
0.0
  0
LINE
  5
410
  8
0
 62
     7
 10
151.20599999999999
 20
174.96199999999999
 30
0.0
 11
155.63999999999999
 21
174.12
 31
0.0
  0
ARC
  5
411
  8
0
 62
     7
 10
155.23300699999999
 20
172.34882099999999
 30
0.0
 40
1.8185599999999991
 50
349.94272100000001
 51
75.703113000000002
  0
ARC
  5
412
  8
0
 62
     7
 10
155.37071900000001
 20
172.68764599999989
 30
0.0
 40
1.457071
 50
77.660797999999986
 51
79.361221999999984
  0
ARC
  5
413
  8
0
 62
     7
 10
218.27749999999989
 20
158.84268599999999
 30
0.0
 40
62.657606000000008
 50
167.84913999999989
 51
187.713233
  0
ARC
  5
414
  8
0
 62
     7
 10
163.06041799999991
 20
150.18270799999999
 30
0.0
 40
1.8528189999999991
 50
172.23280500000001
 51
189.61770100000001
  0
ARC
  5
415
  8
0
 62
     7
 10
162.65735499999991
 20
150.147604
 30
0.0
 40
1.449926
 50
190.911215
 51
217.664129
  0
ARC
  5
416
  8
0
 62
     7
 10
163.12074499999991
 20
150.483349
 30
0.0
 40
2.0219740000000002
 50
217.17196699999991
 51
231.41514299999989
  0
ARC
  5
417
  8
0
 62
     7
 10
163.92914499999989
 20
151.42711199999999
 30
0.0
 40
3.2641640000000001
 50
230.65481899999989
 51
238.055758
  0
ARC
  5
418
  8
0
 62
     7
 10
164.71459799999991
 20
152.63645199999999
 30
0.0
 40
4.7060190000000004
 50
237.73127599999989
 51
240.52994200000001
  0
LINE
  5
419
  8
0
 62
     7
 10
166.2059999999999
 20
174.96199999999999
 30
0.0
 11
161.77199999999999
 21
174.12
 31
0.0
  0
ARC
  5
41A
  8
0
 62
     7
 10
162.17660000000001
 20
172.3472459999999
 30
0.0
 40
1.81809
 50
102.86857500000001
 51
188.64515
  0
ARC
  5
41B
  8
0
 62
     7
 10
161.50142700000001
 20
172.269013
 30
0.0
 40
1.1390849999999999
 50
189.8596859999999
 51
192.04847699999999
  0
ARC
  5
41C
  8
0
 62
     7
 10
99.128015000000005
 20
158.84148099999999
 30
0.0
 40
62.663277000000001
 50
352.28860099999991
 51
12.150850999999999
  0
LINE
  5
41D
  8
0
 62
     7
 10
158.70599999999999
 20
171.71199999999999
 30
0.0
 11
160.45599999999999
 21
171.71199999999999
 31
0.0
  0
LINE
  5
41E
  8
0
 62
     7
 10
165.5809999999999
 20
146.46199999999999
 30
0.0
 11
151.83099999999999
 21
146.46199999999999
 31
0.0
  0
LINE
  5
41F
  8
0
 62
     7
 10
151.83099999999999
 20
146.46199999999999
 30
0.0
 11
151.83099999999999
 21
145.71199999999999
 31
0.0
  0
LINE
  5
420
  8
0
 62
     7
 10
151.20599999999999
 20
176.21199999999999
 30
0.0
 11
151.20599999999999
 21
174.96199999999999
 31
0.0
  0
LINE
  5
421
  8
0
 62
     7
 10
158.70599999999999
 20
171.71199999999999
 30
0.0
 11
156.95599999999999
 21
171.71199999999999
 31
0.0
  0
LINE
  5
422
  8
0
 62
     7
 10
166.2059999999999
 20
176.21199999999999
 30
0.0
 11
151.20599999999999
 21
176.21199999999999
 31
0.0
  0
LINE
  5
423
  8
0
 62
     7
 10
165.5809999999999
 20
146.46199999999999
 30
0.0
 11
165.5809999999999
 21
145.71199999999999
 31
0.0
  0
LINE
  5
424
  8
0
 62
     7
 10
166.2059999999999
 20
176.21199999999999
 30
0.0
 11
166.2059999999999
 21
174.96199999999999
 31
0.0
  0
LINE
  5
425
  8
0
 62
     7
 10
151.20599999999999
 20
174.96199999999999
 30
0.0
 11
166.2059999999999
 21
174.96199999999999
 31
0.0
  0
LINE
  5
426
  8
0
 62
     7
 10
153.69099999999989
 20
160.3839999999999
 30
0.0
 11
132.37899999999999
 21
164.90599999999989
 31
0.0
  0
LINE
  5
427
  8
0
 62
     7
 10
154.56399999999991
 20
166.62899999999999
 30
0.0
 11
133.12200000000001
 21
169.85099999999991
 31
0.0
  0
ARC
  5
428
  8
0
 62
     7
 10
131.7106169999999
 20
159.814933
 30
0.0
 40
5.1350160000000002
 50
82.517453000000003
 51
151.115984
  0
ARC
  5
429
  8
0
 62
     7
 10
131.80148299999999
 20
159.65092200000001
 30
0.0
 40
10.28503999999999
 50
82.622818999999993
 51
153.3045139999999
  0
LINE
  5
42A
  8
0
 62
     7
 10
122.35599999999999
 20
163.56700000000001
 30
0.0
 11
127.05500000000001
 21
161.857
 31
0.0
  0
LINE
  5
42B
  8
0
 62
     7
 10
127.05500000000001
 20
161.857
 30
0.0
 11
127.214
 21
162.2949999999999
 31
0.0
  0
LINE
  5
42C
  8
0
 62
     7
 10
122.35599999999999
 20
163.56700000000001
 30
0.0
 11
122.6129999999999
 21
164.2709999999999
 31
0.0
  0
LINE
  5
42D
  8
0
 62
     7
 10
156.95599999999999
 20
171.71199999999999
 30
0.0
 11
156.77199999999999
 21
173.36699999999999
 31
0.0
  0
LINE
  5
42E
  8
0
 62
     7
 10
160.6399999999999
 20
173.36699999999999
 30
0.0
 11
160.45599999999999
 21
171.71199999999999
 31
0.0
  0
LINE
  5
42F
  8
0
 62
     7
 10
156.95599999999999
 20
171.71199999999999
 30
0.0
 11
160.45599999999999
 21
171.71199999999999
 31
0.0
  0
LINE
  5
430
  8
0
 62
     7
 10
156.45599999999999
 20
176.21199999999999
 30
0.0
 11
160.95599999999999
 21
176.21199999999999
 31
0.0
  0
ARC
  5
431
  8
0
 62
     7
 10
154.73815799999991
 20
168.17848299999989
 30
0.0
 40
1.5589660000000001
 50
263.57877699999989
 51
349.33107599999988
  0
LINE
  5
432
  8
0
 62
     7
 10
156.27000000000001
 20
167.8899999999999
 30
0.0
 11
156.27099999999999
 21
167.89899999999989
 31
0.0
  0
LINE
  5
433
  8
0
 62
     7
 10
165.5809999999999
 20
145.71199999999999
 30
0.0
 11
151.83099999999999
 21
145.71199999999999
 31
0.0
  0
LINE
  5
434
  8
0
 62
     7
 10
62.51789999999999
 20
145.71199999999999
 30
0.0
 11
72.018500000000003
 21
145.71199999999999
 31
0.0
  0
LINE
  5
435
  8
0
  6
AIGENLINE001
 62
     7
 10
92.268199999999993
 20
235.88200000000001
 30
0.0
 11
92.268199999999993
 21
213.38200000000001
 31
0.0
  0
ARC
  5
436
  8
0
 62
     7
 10
14.728266
 20
160.01913899999991
 30
0.0
 40
55.534731999999991
 50
10.313513
 51
12.15448099999999
  0
LINE
  5
437
  8
0
 62
     7
 10
90.268299999999996
 20
176.21199999999999
 30
0.0
 11
90.268299999999996
 21
174.96199999999999
 31
0.0
  0
LINE
  5
438
  8
0
 62
     7
 10
94.2684
 20
176.21199999999999
 30
0.0
 11
94.2684
 21
174.96199999999999
 31
0.0
  0
LINE
  5
439
  8
0
 62
     7
 10
40.267899999999997
 20
176.21199999999999
 30
0.0
 11
40.267899999999997
 21
174.96199999999999
 31
0.0
  0
LINE
  5
43A
  8
0
 62
     7
 10
44.268000000000001
 20
176.21199999999999
 30
0.0
 11
44.268000000000001
 21
174.96199999999999
 31
0.0
  0
ARC
  5
43B
  8
0
 62
     7
 10
67.248181000000002
 20
221.62534400000001
 30
0.0
 40
2.145163999999999
 50
2.1052810000000002
 51
37.386189000000002
  0
LINE
  5
43C
  8
0
 62
     7
 10
64.021600000000007
 20
188.5329999999999
 30
0.0
 11
65.144400000000005
 21
221.70400000000001
 31
0.0
  0
LINE
  5
43D
  8
0
 62
     7
 10
70.514300000000006
 20
188.5329999999999
 30
0.0
 11
69.391900000000007
 21
221.70400000000001
 31
0.0
  0
ARC
  5
43E
  8
0
 62
     7
 10
70.514315999999994
 20
188.532837
 30
0.0
 40
0.250116
 50
270.00002000000001
 51
359.99998999999991
  0
LINE
  5
43F
  8
0
 62
     7
 10
70.764399999999995
 20
188.5329999999999
 30
0.0
 11
70.764399999999995
 21
188.53699999999989
 31
0.0
  0
ARC
  5
440
  8
0
 62
     7
 10
64.031665000000004
 20
188.54239699999991
 30
0.0
 40
0.259853
 50
181.27259499999991
 51
267.03019899999998
  0
LINE
  5
441
  8
0
 62
     7
 10
64.018199999999993
 20
188.28299999999999
 30
0.0
 11
64.021600000000007
 21
188.28299999999999
 31
0.0
  0
ARC
  5
442
  8
0
 62
     7
 10
67.284898999999996
 20
221.6265029999999
 30
0.0
 40
2.141894999999999
 50
142.58598599999999
 51
177.92250300000001
  0
LINE
  5
443
  8
0
 62
     7
 10
70.268299999999996
 20
221.88200000000001
 30
0.0
 11
70.764399999999995
 21
188.53699999999989
 31
0.0
  0
LINE
  5
444
  8
0
 62
     7
 10
64.268299999999996
 20
221.88200000000001
 30
0.0
 11
63.771900000000002
 21
188.53699999999989
 31
0.0
  0
LINE
  5
445
  8
0
 62
     7
 10
64.021600000000007
 20
188.28299999999999
 30
0.0
 11
70.514300000000006
 21
188.28299999999999
 31
0.0
  0
LINE
  5
446
  8
0
  6
AIGENLINE001
 62
     7
 10
67.268299999999996
 20
235.88200000000001
 30
0.0
 11
67.268299999999996
 21
185.125
 31
0.0
  0
LINE
  5
447
  8
0
 62
     7
 10
64.518100000000004
 20
227.38200000000001
 30
0.0
 11
65.573700000000002
 21
226.32699999999991
 31
0.0
  0
LINE
  5
448
  8
0
 62
     7
 10
70.018199999999993
 20
227.38200000000001
 30
0.0
 11
68.962599999999995
 21
226.32699999999991
 31
0.0
  0
ARC
  5
449
  8
0
 62
     7
 10
67.26815400000001
 20
224.632497
 30
0.0
 40
2.249833999999999
 50
359.99562300000002
 51
89.995592999999985
  0
ARC
  5
44A
  8
0
 62
     7
 10
67.26815400000001
 20
224.6321529999999
 30
0.0
 40
2.2501790000000002
 50
89.995614000000018
 51
179.99558400000001
  0
ARC
  5
44B
  8
0
 62
     7
 10
67.26815400000001
 20
224.632497
 30
0.0
 40
2.250178
 50
180.0043959999999
 51
270.00440600000002
  0
ARC
  5
44C
  8
0
 62
     7
 10
67.26815400000001
 20
224.63215400000001
 30
0.0
 40
2.249833999999999
 50
270.0044069999999
 51
0.004377
  0
ARC
  5
44D
  8
0
 62
     7
 10
65.529730000000001
 20
162.712703
 30
0.0
 40
0.261641
 50
180.223387
 51
216.4619569999999
  0
ARC
  5
44E
  8
0
 62
     7
 10
65.731833999999992
 20
162.84079299999991
 30
0.0
 40
0.500598
 50
214.50542200000001
 51
233.61536599999999
  0
ARC
  5
44F
  8
0
 62
     7
 10
66.071772999999993
 20
163.26431999999991
 30
0.0
 40
1.0434529999999991
 50
232.38359
 51
245.38077599999991
  0
ARC
  5
450
  8
0
 62
     7
 10
66.521131000000011
 20
164.17597000000001
 30
0.0
 40
2.059628
 50
244.58155699999989
 51
254.16900699999999
  0
ARC
  5
451
  8
0
 62
     7
 10
66.944331000000005
 20
165.54796499999989
 30
0.0
 40
3.4951879999999989
 50
253.630212
 51
260.69654199999991
  0
ARC
  5
452
  8
0
 62
     7
 10
67.232076000000006
 20
167.16833700000001
 30
0.0
 40
5.1408100000000001
 50
260.45129199999991
 51
270.40402999999992
  0
ARC
  5
453
  8
0
 62
     7
 10
67.269459999999995
 20
167.52754200000001
 30
0.0
 40
5.4998879999999994
 50
269.98820000000001
 51
280.41576099999992
  0
ARC
  5
454
  8
0
 62
     7
 10
67.668189999999996
 20
165.19895500000001
 30
0.0
 40
3.137718
 50
280.94210699999991
 51
291.66784000000001
  0
ARC
  5
455
  8
0
 62
     7
 10
68.291567000000001
 20
163.56378499999991
 30
0.0
 40
1.388137
 50
292.67569600000002
 51
304.15956699999992
  0
ARC
  5
456
  8
0
 62
     7
 10
68.702437000000003
 20
162.9436189999999
 30
0.0
 40
0.644313
 50
304.89213999999993
 51
321.29699599999992
  0
ARC
  5
457
  8
0
 62
     7
 10
68.964798000000002
 20
162.72636900000001
 30
0.0
 40
0.303774
 50
322.33272699999992
 51
357.22893099999987
  0
ARC
  5
458
  8
0
 62
     7
 10
69.006576999999993
 20
162.7106629999999
 30
0.0
 40
0.261641
 50
0.223367
 51
36.461938000000011
  0
ARC
  5
459
  8
0
 62
     7
 10
68.804417000000001
 20
162.58253099999999
 30
0.0
 40
0.5006689999999999
 50
34.50563799999999
 51
53.612442999999999
  0
ARC
  5
45A
  8
0
 62
     7
 10
68.464708000000002
 20
162.159381
 30
0.0
 40
1.043085
 50
52.379621999999991
 51
65.380655000000004
  0
ARC
  5
45B
  8
0
 62
     7
 10
68.015106000000003
 20
161.24732299999991
 30
0.0
 40
2.059733
 50
64.580065000000005
 51
74.166039999999995
  0
ARC
  5
45C
  8
0
 62
     7
 10
67.591791000000001
 20
159.87470699999989
 30
0.0
 40
3.4959210000000001
 50
73.629542999999998
 51
80.693353000000002
  0
ARC
  5
45D
  8
0
 62
     7
 10
67.304524000000001
 20
158.25702299999989
 30
0.0
 40
5.1388150000000001
 50
80.449435999999992
 51
90.403584999999993
  0
ARC
  5
45E
  8
0
 62
     7
 10
67.267193000000006
 20
157.89316099999999
 30
0.0
 40
5.5025500000000003
 50
89.988190000000003
 51
100.41321499999999
  0
ARC
  5
45F
  8
0
 62
     7
 10
66.868227000000005
 20
160.22385700000001
 30
0.0
 40
3.1382620000000001
 50
100.9402909999999
 51
111.66548299999999
  0
ARC
  5
460
  8
0
 62
     7
 10
66.244842000000006
 20
161.85931599999989
 30
0.0
 40
1.388409
 50
112.6743
 51
124.1566959999999
  0
ARC
  5
461
  8
0
 62
     7
 10
65.833877000000001
 20
162.47974600000001
 30
0.0
 40
0.644313
 50
124.89212000000001
 51
141.296976
  0
ARC
  5
462
  8
0
 62
     7
 10
65.571407999999991
 20
162.69702599999999
 30
0.0
 40
0.303671
 50
142.324862
 51
177.23357799999991
  0
ARC
  5
463
  8
0
 62
     7
 10
69.908006999999998
 20
169.70237
 30
0.0
 40
0.25952
 50
7.4687979999999996
 51
88.181343999999996
  0
ARC
  5
464
  8
0
 62
     7
 10
64.627975000000006
 20
169.70274199999989
 30
0.0
 40
0.2591489999999999
 50
91.825460000000007
 51
172.60328100000001
  0
LINE
  5
465
  8
0
 62
     7
 10
63.76809999999999
 20
163.56700000000001
 30
0.0
 11
64.370999999999995
 21
169.7359999999999
 31
0.0
  0
LINE
  5
466
  8
0
 62
     7
 10
70.165300000000002
 20
169.7359999999999
 30
0.0
 11
70.768199999999993
 21
163.56700000000001
 31
0.0
  0
LINE
  5
467
  8
0
 62
     7
 10
70.768199999999993
 20
161.857
 30
0.0
 11
70.768199999999993
 21
163.56700000000001
 31
0.0
  0
LINE
  5
468
  8
0
 62
     7
 10
63.76809999999999
 20
161.857
 30
0.0
 11
63.76809999999999
 21
163.56700000000001
 31
0.0
  0
LINE
  5
469
  8
0
 62
     7
 10
63.76809999999999
 20
161.857
 30
0.0
 11
70.768199999999993
 21
161.857
 31
0.0
  0
LINE
  5
46A
  8
0
 62
     7
 10
63.76809999999999
 20
163.56700000000001
 30
0.0
 11
70.768199999999993
 21
163.56700000000001
 31
0.0
  0
LINE
  5
46B
  8
0
 62
     7
 10
64.619699999999995
 20
169.96199999999999
 30
0.0
 11
69.916200000000003
 21
169.96199999999999
 31
0.0
  0
LINE
  5
46C
  8
0
 62
     7
 10
34.767800000000001
 20
174.96199999999999
 30
0.0
 11
39.201999999999991
 21
174.12
 31
0.0
  0
ARC
  5
46D
  8
0
 62
     7
 10
38.795734000000003
 20
172.3491159999999
 30
0.0
 40
1.8181619999999989
 50
349.93106999999998
 51
75.714764000000002
  0
ARC
  5
46E
  8
0
 62
     7
 10
38.939946999999997
 20
172.72187500000001
 30
0.0
 40
1.4221469999999989
 50
77.639918000000009
 51
79.382102000000003
  0
ARC
  5
46F
  8
0
 62
     7
 10
101.85100899999991
 20
158.84225000000001
 30
0.0
 40
62.668683999999992
 50
167.8509139999999
 51
187.71145899999991
  0
LINE
  5
470
  8
0
 62
     7
 10
49.767800000000001
 20
174.96199999999999
 30
0.0
 11
45.333999999999989
 21
174.12
 31
0.0
  0
ARC
  5
471
  8
0
 62
     7
 10
45.738779000000001
 20
172.34730799999991
 30
0.0
 40
1.8180089999999991
 50
102.8662069999999
 51
188.64751799999991
  0
ARC
  5
472
  8
0
 62
     7
 10
45.063697999999988
 20
172.269013
 30
0.0
 40
1.1390849999999999
 50
189.8596859999999
 51
192.04847699999999
  0
ARC
  5
473
  8
0
 62
     7
 10
-17.298325999999989
 20
158.84192200000001
 30
0.0
 40
62.652051
 50
352.28680400000002
 51
12.15264799999999
  0
LINE
  5
474
  8
0
 62
     7
 10
42.267800000000001
 20
171.71199999999999
 30
0.0
 11
44.017899999999997
 21
171.71199999999999
 31
0.0
  0
LINE
  5
475
  8
0
 62
     7
 10
49.142899999999997
 20
146.46199999999999
 30
0.0
 11
35.392699999999998
 21
146.46199999999999
 31
0.0
  0
LINE
  5
476
  8
0
 62
     7
 10
35.392699999999998
 20
146.46199999999999
 30
0.0
 11
35.392699999999998
 21
145.71199999999999
 31
0.0
  0
LINE
  5
477
  8
0
 62
     7
 10
34.767800000000001
 20
176.21199999999999
 30
0.0
 11
34.767800000000001
 21
174.96199999999999
 31
0.0
  0
LINE
  5
478
  8
0
 62
     7
 10
42.267800000000001
 20
171.71199999999999
 30
0.0
 11
40.518000000000001
 21
171.71199999999999
 31
0.0
  0
LINE
  5
479
  8
0
 62
     7
 10
49.767800000000001
 20
176.21199999999999
 30
0.0
 11
34.767800000000001
 21
176.21199999999999
 31
0.0
  0
LINE
  5
47A
  8
0
 62
     7
 10
49.142899999999997
 20
146.46199999999999
 30
0.0
 11
49.142899999999997
 21
145.71199999999999
 31
0.0
  0
LINE
  5
47B
  8
0
 62
     7
 10
35.392699999999998
 20
145.71199999999999
 30
0.0
 11
49.142899999999997
 21
145.71199999999999
 31
0.0
  0
LINE
  5
47C
  8
0
 62
     7
 10
49.767800000000001
 20
176.21199999999999
 30
0.0
 11
49.767800000000001
 21
174.96199999999999
 31
0.0
  0
LINE
  5
47D
  8
0
 62
     7
 10
34.767800000000001
 20
174.96199999999999
 30
0.0
 11
49.767800000000001
 21
174.96199999999999
 31
0.0
  0
LINE
  5
47E
  8
0
  6
AIGENLINE001
 62
     7
 10
42.267800000000001
 20
179.262
 30
0.0
 11
42.267800000000001
 21
113.00399999999991
 31
0.0
  0
LINE
  5
47F
  8
0
 62
     7
 10
84.768100000000004
 20
174.96199999999999
 30
0.0
 11
89.202000000000012
 21
174.12
 31
0.0
  0
ARC
  5
480
  8
0
 62
     7
 10
88.795642999999998
 20
172.34882099999999
 30
0.0
 40
1.8185599999999991
 50
349.94272100000001
 51
75.703113000000002
  0
ARC
  5
481
  8
0
 62
     7
 10
88.968587000000014
 20
172.85164399999991
 30
0.0
 40
1.2893330000000001
 50
77.63289300000001
 51
79.569564
  0
ARC
  5
482
  8
0
 62
     7
 10
151.840136
 20
158.84268599999999
 30
0.0
 40
62.657606000000008
 50
167.84913999999989
 51
187.713233
  0
LINE
  5
483
  8
0
 62
     7
 10
99.768199999999993
 20
174.96199999999999
 30
0.0
 11
95.334299999999999
 21
174.12
 31
0.0
  0
ARC
  5
484
  8
0
 62
     7
 10
95.660743000000025
 20
172.400386
 30
0.0
 40
1.7499990000000001
 50
100.75024500000001
 51
190.750294
  0
ARC
  5
485
  8
0
 62
     7
 10
99.700006999999985
 20
173.21273099999999
 30
0.0
 40
5.8700669999999988
 50
191.18610100000001
 51
191.61146199999999
  0
ARC
  5
486
  8
0
 62
     7
 10
32.690651000000003
 20
158.84148099999999
 30
0.0
 40
62.663277000000001
 50
352.28860099999991
 51
12.150850999999999
  0
LINE
  5
487
  8
0
 62
     7
 10
92.268199999999993
 20
171.71199999999999
 30
0.0
 11
94.018299999999996
 21
171.71199999999999
 31
0.0
  0
LINE
  5
488
  8
0
 62
     7
 10
69.018100000000004
 20
171.71199999999999
 30
0.0
 11
69.518000000000001
 21
176.21199999999999
 31
0.0
  0
LINE
  5
489
  8
0
 62
     7
 10
65.018000000000001
 20
176.21199999999999
 30
0.0
 11
65.518199999999993
 21
171.71199999999999
 31
0.0
  0
ARC
  5
48A
  8
0
 62
     7
 10
119.1744979999999
 20
160.13434399999991
 30
0.0
 40
54.891137000000001
 50
167.8238199999999
 51
169.68644599999999
  0
LINE
  5
48B
  8
0
 62
     7
 10
74.1434
 20
146.46199999999999
 30
0.0
 11
60.393300000000004
 21
146.46199999999999
 31
0.0
  0
LINE
  5
48C
  8
0
 62
     7
 10
60.393300000000004
 20
146.46199999999999
 30
0.0
 11
60.393300000000004
 21
145.71199999999999
 31
0.0
  0
LINE
  5
48D
  8
0
 62
     7
 10
67.268299999999996
 20
171.71199999999999
 30
0.0
 11
65.518199999999993
 21
171.71199999999999
 31
0.0
  0
LINE
  5
48E
  8
0
 62
     7
 10
69.518000000000001
 20
176.21199999999999
 30
0.0
 11
65.018000000000001
 21
176.21199999999999
 31
0.0
  0
LINE
  5
48F
  8
0
 62
     7
 10
74.1434
 20
146.46199999999999
 30
0.0
 11
74.1434
 21
145.71199999999999
 31
0.0
  0
LINE
  5
490
  8
0
 62
     7
 10
60.393300000000004
 20
145.71199999999999
 30
0.0
 11
74.1434
 21
145.71199999999999
 31
0.0
  0
LINE
  5
491
  8
0
 62
     7
 10
67.268299999999996
 20
171.71199999999999
 30
0.0
 11
69.018100000000004
 21
171.71199999999999
 31
0.0
  0
LINE
  5
492
  8
0
 62
     7
 10
99.143199999999993
 20
146.46199999999999
 30
0.0
 11
85.393100000000004
 21
146.46199999999999
 31
0.0
  0
LINE
  5
493
  8
0
 62
     7
 10
85.393100000000004
 20
146.46199999999999
 30
0.0
 11
85.393100000000004
 21
145.71199999999999
 31
0.0
  0
LINE
  5
494
  8
0
 62
     7
 10
84.768100000000004
 20
176.21199999999999
 30
0.0
 11
84.768100000000004
 21
174.96199999999999
 31
0.0
  0
LINE
  5
495
  8
0
 62
     7
 10
92.268199999999993
 20
171.71199999999999
 30
0.0
 11
90.5184
 21
171.71199999999999
 31
0.0
  0
LINE
  5
496
  8
0
 62
     7
 10
99.768199999999993
 20
176.21199999999999
 30
0.0
 11
84.768100000000004
 21
176.21199999999999
 31
0.0
  0
LINE
  5
497
  8
0
 62
     7
 10
99.143199999999993
 20
146.46199999999999
 30
0.0
 11
99.143199999999993
 21
145.71199999999999
 31
0.0
  0
LINE
  5
498
  8
0
 62
     7
 10
85.393100000000004
 20
145.71199999999999
 30
0.0
 11
99.143199999999993
 21
145.71199999999999
 31
0.0
  0
LINE
  5
499
  8
0
 62
     7
 10
99.768199999999993
 20
176.21199999999999
 30
0.0
 11
99.768199999999993
 21
174.96199999999999
 31
0.0
  0
LINE
  5
49A
  8
0
 62
     7
 10
84.768100000000004
 20
174.96199999999999
 30
0.0
 11
99.768199999999993
 21
174.96199999999999
 31
0.0
  0
LINE
  5
49B
  8
0
 62
     7
 10
85.643199999999993
 20
231.25700000000001
 30
0.0
 11
89.157899999999984
 21
227.74299999999991
 31
0.0
  0
LINE
  5
49C
  8
0
 62
     7
 10
89.157899999999984
 20
221.52199999999999
 30
0.0
 11
85.643199999999993
 21
218.00700000000001
 31
0.0
  0
LINE
  5
49D
  8
0
 62
     7
 10
98.893100000000004
 20
231.25700000000001
 30
0.0
 11
95.378799999999984
 21
227.74299999999991
 31
0.0
  0
LINE
  5
49E
  8
0
 62
     7
 10
95.378799999999984
 20
221.52199999999999
 30
0.0
 11
98.893100000000004
 21
218.00700000000001
 31
0.0
  0
ARC
  5
49F
  8
0
 62
     7
 10
99.509746000000007
 20
222.90285600000001
 30
0.0
 40
0.259235
 50
269.47915999999998
 51
355.50746199999998
  0
LINE
  5
4A0
  8
0
 62
     7
 10
99.768199999999993
 20
222.8829999999999
 30
0.0
 11
99.768199999999993
 21
222.893
 31
0.0
  0
ARC
  5
4A1
  8
0
 62
     7
 10
94.830256000000006
 20
222.06776600000001
 30
0.0
 40
0.778975
 50
89.591502000000006
 51
175.42021899999989
  0
ARC
  5
4A2
  8
0
 62
     7
 10
94.731659999999991
 20
222.09740799999989
 30
0.0
 40
0.678673
 50
177.25040999999999
 51
182.7495899999999
  0
LINE
  5
4A3
  8
0
 62
     7
 10
99.507400000000004
 20
222.64400000000001
 30
0.0
 11
94.835800000000006
 21
222.84700000000001
 31
0.0
  0
ARC
  5
4A4
  8
0
 62
     7
 10
99.508589000000001
 20
226.36160299999989
 30
0.0
 40
0.259774
 50
2.1278509999999988
 51
87.832638000000003
  0
LINE
  5
4A5
  8
0
 62
     7
 10
99.5184
 20
226.62100000000001
 30
0.0
 11
99.507400000000004
 21
226.62100000000001
 31
0.0
  0
LINE
  5
4A6
  8
0
 62
     7
 10
99.507400000000004
 20
226.62100000000001
 30
0.0
 11
94.835800000000006
 21
226.41800000000001
 31
0.0
  0
LINE
  5
4A7
  8
0
 62
     7
 10
99.768199999999993
 20
226.3709999999999
 30
0.0
 11
99.768199999999993
 21
222.893
 31
0.0
  0
ARC
  5
4A8
  8
0
 62
     7
 10
93.997606000000005
 20
217.39207999999991
 30
0.0
 40
0.259955
 50
272.12808499999988
 51
357.83245099999988
  0
LINE
  5
4A9
  8
0
 62
     7
 10
94.257400000000004
 20
217.38200000000001
 30
0.0
 11
94.257000000000005
 21
217.39299999999989
 31
0.0
  0
LINE
  5
4AA
  8
0
 62
     7
 10
94.257000000000005
 20
217.39299999999989
 30
0.0
 11
94.053799999999995
 21
222.065
 31
0.0
  0
ARC
  5
4AB
  8
0
 62
     7
 10
90.539098999999979
 20
217.391141
 30
0.0
 40
0.259464
 50
179.5672769999999
 51
265.498177
  0
LINE
  5
4AC
  8
0
 62
     7
 10
90.518699999999995
 20
217.13200000000001
 30
0.0
 11
90.529399999999995
 21
217.13200000000001
 31
0.0
  0
ARC
  5
4AD
  8
0
 62
     7
 10
89.703307999999993
 20
222.0696329999999
 30
0.0
 40
0.7796110000000001
 50
359.64863899999989
 51
85.389391999999987
  0
ARC
  5
4AE
  8
0
 62
     7
 10
89.733418999999984
 20
221.966962
 30
0.0
 40
0.880361
 50
87.880669999999995
 51
92.119309999999984
  0
LINE
  5
4AF
  8
0
 62
     7
 10
90.482899999999987
 20
222.065
 30
0.0
 11
90.279600000000002
 21
217.39299999999989
 31
0.0
  0
LINE
  5
4B0
  8
0
 62
     7
 10
90.529399999999995
 20
217.13200000000001
 30
0.0
 11
94.007300000000015
 21
217.13200000000001
 31
0.0
  0
ARC
  5
4B1
  8
0
 62
     7
 10
93.996992000000006
 20
231.872975
 30
0.0
 40
0.260044
 50
359.648167
 51
85.379571999999996
  0
LINE
  5
4B2
  8
0
 62
     7
 10
94.017899999999997
 20
232.13200000000001
 30
0.0
 11
94.007300000000015
 21
232.13200000000001
 31
0.0
  0
ARC
  5
4B3
  8
0
 62
     7
 10
94.833539000000002
 20
227.19500699999989
 30
0.0
 40
0.7797850000000001
 50
179.64783600000001
 51
265.37761999999998
  0
LINE
  5
4B4
  8
0
 62
     7
 10
94.770700000000005
 20
226.41800000000001
 30
0.0
 11
94.835800000000006
 21
226.41800000000001
 31
0.0
  0
LINE
  5
4B5
  8
0
 62
     7
 10
94.257000000000005
 20
231.8709999999999
 30
0.0
 11
94.053799999999995
 21
227.1999999999999
 31
0.0
  0
ARC
  5
4B6
  8
0
 62
     7
 10
90.539066000000005
 20
231.87257099999991
 30
0.0
 40
0.259955
 50
92.128064999999992
 51
177.83243200000001
  0
LINE
  5
4B7
  8
0
 62
     7
 10
90.279300000000006
 20
231.88200000000001
 30
0.0
 11
90.279600000000002
 21
231.8709999999999
 31
0.0
  0
ARC
  5
4B8
  8
0
 62
     7
 10
89.706428000000002
 20
227.19669999999999
 30
0.0
 40
0.7789620000000002
 50
269.59065399999997
 51
355.42110700000001
  0
ARC
  5
4B9
  8
0
 62
     7
 10
89.501047
 20
227.16715699999989
 30
0.0
 40
0.9823999999999999
 50
358.095867
 51
1.9041330000000001
  0
LINE
  5
4BA
  8
0
 62
     7
 10
90.482899999999987
 20
227.1999999999999
 30
0.0
 11
90.279600000000002
 21
231.8709999999999
 31
0.0
  0
ARC
  5
4BB
  8
0
 62
     7
 10
85.018259
 20
222.89340300000001
 30
0.0
 40
0.250115
 50
179.99996999999991
 51
270.00002000000001
  0
LINE
  5
4BC
  8
0
 62
     7
 10
85.018299999999996
 20
222.643
 30
0.0
 11
85.029300000000006
 21
222.64400000000001
 31
0.0
  0
LINE
  5
4BD
  8
0
 62
     7
 10
85.029300000000006
 20
222.64400000000001
 30
0.0
 11
89.700900000000004
 21
222.84700000000001
 31
0.0
  0
ARC
  5
4BE
  8
0
 62
     7
 10
85.028437999999994
 20
226.3601459999999
 30
0.0
 40
0.260875
 50
89.814168999999993
 51
175.17241200000001
  0
ARC
  5
4BF
  8
0
 62
     7
 10
84.869399000000016
 20
226.37346600000001
 30
0.0
 40
0.101279
 50
175.10901599999991
 51
181.254378
  0
LINE
  5
4C0
  8
0
 62
     7
 10
85.029300000000006
 20
226.62100000000001
 30
0.0
 11
89.700900000000004
 21
226.41800000000001
 31
0.0
  0
LINE
  5
4C1
  8
0
 62
     7
 10
84.768100000000004
 20
226.3709999999999
 30
0.0
 11
84.768100000000004
 21
222.893
 31
0.0
  0
LINE
  5
4C2
  8
0
 62
     7
 10
90.529399999999995
 20
232.13200000000001
 30
0.0
 11
94.007300000000015
 21
232.13200000000001
 31
0.0
  0
ARC
  5
4C3
  8
0
 62
     7
 10
95.008739000000006
 20
221.8917439999999
 30
0.0
 40
0.259606
 50
272.13291299999992
 51
357.90659699999998
  0
ARC
  5
4C4
  8
0
 62
     7
 10
95.008577000000002
 20
227.3727449999999
 30
0.0
 40
0.259774
 50
2.1278509999999988
 51
87.832638000000003
  0
LINE
  5
4C5
  8
0
 62
     7
 10
95.268199999999979
 20
226.4369999999999
 30
0.0
 11
95.268199999999979
 21
227.38200000000001
 31
0.0
  0
LINE
  5
4C6
  8
0
 62
     7
 10
95.268199999999979
 20
221.88200000000001
 30
0.0
 11
95.268199999999979
 21
222.828
 31
0.0
  0
ARC
  5
4C7
  8
0
 62
     7
 10
89.527761999999996
 20
221.89192999999989
 30
0.0
 40
0.259786
 50
182.1331439999999
 51
267.90635900000001
  0
LINE
  5
4C8
  8
0
 62
     7
 10
94.072699999999998
 20
221.63200000000001
 30
0.0
 11
95.018399999999986
 21
221.63200000000001
 31
0.0
  0
LINE
  5
4C9
  8
0
 62
     7
 10
89.518299999999996
 20
221.63200000000001
 30
0.0
 11
90.463999999999999
 21
221.63200000000001
 31
0.0
  0
ARC
  5
4CA
  8
0
 62
     7
 10
89.527918999999983
 20
227.37256400000001
 30
0.0
 40
0.259949
 50
92.126972999999978
 51
177.83352400000001
  0
LINE
  5
4CB
  8
0
 62
     7
 10
94.072699999999998
 20
227.63200000000001
 30
0.0
 11
95.018399999999986
 21
227.63200000000001
 31
0.0
  0
LINE
  5
4CC
  8
0
 62
     7
 10
89.518299999999996
 20
227.63200000000001
 30
0.0
 11
90.463999999999999
 21
227.63200000000001
 31
0.0
  0
LINE
  5
4CD
  8
0
 62
     7
 10
89.268199999999993
 20
226.4369999999999
 30
0.0
 11
89.268199999999993
 21
227.38200000000001
 31
0.0
  0
LINE
  5
4CE
  8
0
 62
     7
 10
89.268199999999993
 20
221.88200000000001
 30
0.0
 11
89.268199999999993
 21
222.828
 31
0.0
  0
ARC
  5
4CF
  8
0
 62
     7
 10
98.883634000000015
 20
231.24761599999999
 30
0.0
 40
0.259786
 50
2.133124
 51
87.906339000000017
  0
ARC
  5
4D0
  8
0
 62
     7
 10
98.883482000000015
 20
218.01701399999999
 30
0.0
 40
0.259944
 50
272.12590299999999
 51
357.834633
  0
LINE
  5
4D1
  8
0
 62
     7
 10
99.143199999999993
 20
222.65899999999999
 30
0.0
 11
99.143199999999993
 21
218.00700000000001
 31
0.0
  0
LINE
  5
4D2
  8
0
 62
     7
 10
99.143199999999993
 20
231.25700000000001
 30
0.0
 11
99.143199999999993
 21
226.6049999999999
 31
0.0
  0
LINE
  5
4D3
  8
0
 62
     7
 10
94.241200000000006
 20
231.50699999999989
 30
0.0
 11
98.893100000000004
 21
231.50699999999989
 31
0.0
  0
LINE
  5
4D4
  8
0
 62
     7
 10
85.643199999999993
 20
231.50699999999989
 30
0.0
 11
90.295500000000004
 21
231.50699999999989
 31
0.0
  0
ARC
  5
4D5
  8
0
 62
     7
 10
85.652693999999997
 20
218.01686199999989
 30
0.0
 40
0.259786
 50
182.1331439999999
 51
267.90635900000001
  0
LINE
  5
4D6
  8
0
 62
     7
 10
94.241200000000006
 20
217.75700000000001
 30
0.0
 11
98.893100000000004
 21
217.75700000000001
 31
0.0
  0
LINE
  5
4D7
  8
0
 62
     7
 10
85.643199999999993
 20
217.75700000000001
 30
0.0
 11
90.295500000000004
 21
217.75700000000001
 31
0.0
  0
ARC
  5
4D8
  8
0
 62
     7
 10
85.652850999999998
 20
231.24745899999991
 30
0.0
 40
0.259949
 50
92.126972999999978
 51
177.83352400000001
  0
LINE
  5
4D9
  8
0
 62
     7
 10
85.393100000000004
 20
222.65899999999999
 30
0.0
 11
85.393100000000004
 21
218.00700000000001
 31
0.0
  0
LINE
  5
4DA
  8
0
 62
     7
 10
85.393100000000004
 20
231.25700000000001
 30
0.0
 11
85.393100000000004
 21
226.6049999999999
 31
0.0
  0
LINE
  5
4DB
  8
0
 62
     7
 10
60.643000000000001
 20
231.25700000000001
 30
0.0
 11
64.157700000000006
 21
227.74299999999991
 31
0.0
  0
LINE
  5
4DC
  8
0
 62
     7
 10
64.157700000000006
 20
221.52199999999999
 30
0.0
 11
60.643000000000001
 21
218.00700000000001
 31
0.0
  0
LINE
  5
4DD
  8
0
 62
     7
 10
73.893299999999996
 20
231.25700000000001
 30
0.0
 11
70.378600000000006
 21
227.74299999999991
 31
0.0
  0
LINE
  5
4DE
  8
0
 62
     7
 10
70.378600000000006
 20
221.52199999999999
 30
0.0
 11
73.893299999999996
 21
218.00700000000001
 31
0.0
  0
ARC
  5
4DF
  8
0
 62
     7
 10
70.008728000000005
 20
227.37272100000001
 30
0.0
 40
0.259786
 50
2.133124
 51
87.906339000000017
  0
LINE
  5
4E0
  8
0
 62
     7
 10
70.268299999999996
 20
221.88200000000001
 30
0.0
 11
70.268299999999996
 21
227.38200000000001
 31
0.0
  0
ARC
  5
4E1
  8
0
 62
     7
 10
64.527745999999993
 20
227.3729129999999
 30
0.0
 40
0.259601
 50
92.131783999999982
 51
177.90768700000001
  0
LINE
  5
4E2
  8
0
 62
     7
 10
64.518100000000004
 20
227.63200000000001
 30
0.0
 11
70.018199999999993
 21
227.63200000000001
 31
0.0
  0
LINE
  5
4E3
  8
0
 62
     7
 10
64.268299999999996
 20
221.88200000000001
 30
0.0
 11
64.268299999999996
 21
227.38200000000001
 31
0.0
  0
ARC
  5
4E4
  8
0
 62
     7
 10
73.883461999999994
 20
231.24764099999999
 30
0.0
 40
0.259774
 50
2.1278509999999988
 51
87.832638000000003
  0
ARC
  5
4E5
  8
0
 62
     7
 10
73.883619999999993
 20
218.01668100000001
 30
0.0
 40
0.259612
 50
272.13400799999999
 51
357.9055029999999
  0
LINE
  5
4E6
  8
0
 62
     7
 10
74.143100000000004
 20
231.25700000000001
 30
0.0
 11
74.143100000000004
 21
218.00700000000001
 31
0.0
  0
LINE
  5
4E7
  8
0
 62
     7
 10
60.643000000000001
 20
231.50699999999989
 30
0.0
 11
73.893299999999996
 21
231.50699999999989
 31
0.0
  0
ARC
  5
4E8
  8
0
 62
     7
 10
60.652844999999992
 20
218.01683800000001
 30
0.0
 40
0.259774
 50
182.12787099999991
 51
267.83265799999992
  0
LINE
  5
4E9
  8
0
 62
     7
 10
60.643000000000001
 20
217.75700000000001
 30
0.0
 11
64.206699999999998
 21
217.75700000000001
 31
0.0
  0
ARC
  5
4EA
  8
0
 62
     7
 10
60.652678000000002
 20
231.24780799999999
 30
0.0
 40
0.259601
 50
92.131783999999982
 51
177.90768700000001
  0
LINE
  5
4EB
  8
0
 62
     7
 10
60.393300000000004
 20
231.25700000000001
 30
0.0
 11
60.393300000000004
 21
218.00700000000001
 31
0.0
  0
LINE
  5
4EC
  8
0
  6
AIGENLINE001
 62
     7
 10
31.0181
 20
224.63200000000001
 30
0.0
 11
102.6729999999999
 21
224.63200000000001
 31
0.0
  0
LINE
  5
4ED
  8
0
  6
AIGENLINE001
 62
     7
 10
42.267800000000001
 20
235.88200000000001
 30
0.0
 11
42.267800000000001
 21
213.38200000000001
 31
0.0
  0
LINE
  5
4EE
  8
0
 62
     7
 10
44.2408
 20
217.75700000000001
 30
0.0
 11
48.893099999999997
 21
217.75700000000001
 31
0.0
  0
LINE
  5
4EF
  8
0
 62
     7
 10
49.142899999999997
 20
222.65899999999999
 30
0.0
 11
49.142899999999997
 21
218.00700000000001
 31
0.0
  0
LINE
  5
4F0
  8
0
 62
     7
 10
35.392699999999998
 20
222.65899999999999
 30
0.0
 11
35.392699999999998
 21
218.00700000000001
 31
0.0
  0
LINE
  5
4F1
  8
0
 62
     7
 10
44.2408
 20
231.50699999999989
 30
0.0
 11
48.893099999999997
 21
231.50699999999989
 31
0.0
  0
LINE
  5
4F2
  8
0
 62
     7
 10
35.642800000000001
 20
231.25700000000001
 30
0.0
 11
39.157499999999999
 21
227.74299999999991
 31
0.0
  0
LINE
  5
4F3
  8
0
 62
     7
 10
39.157499999999999
 20
221.52199999999999
 30
0.0
 11
35.642800000000001
 21
218.00700000000001
 31
0.0
  0
LINE
  5
4F4
  8
0
 62
     7
 10
48.893099999999997
 20
231.25700000000001
 30
0.0
 11
45.378399999999999
 21
227.74299999999991
 31
0.0
  0
LINE
  5
4F5
  8
0
 62
     7
 10
45.378399999999999
 20
221.52199999999999
 30
0.0
 11
48.893099999999997
 21
218.00700000000001
 31
0.0
  0
LINE
  5
4F6
  8
0
 62
     7
 10
45.267800000000001
 20
226.4369999999999
 30
0.0
 11
45.267800000000001
 21
227.38200000000001
 31
0.0
  0
LINE
  5
4F7
  8
0
 62
     7
 10
44.072400000000002
 20
221.63200000000001
 30
0.0
 11
45.018000000000001
 21
221.63200000000001
 31
0.0
  0
LINE
  5
4F8
  8
0
 62
     7
 10
39.267800000000001
 20
226.4369999999999
 30
0.0
 11
39.267800000000001
 21
227.38200000000001
 31
0.0
  0
LINE
  5
4F9
  8
0
 62
     7
 10
44.072400000000002
 20
227.63200000000001
 30
0.0
 11
45.018000000000001
 21
227.63200000000001
 31
0.0
  0
ARC
  5
4FA
  8
0
 62
     7
 10
45.008211999999993
 20
227.3727449999999
 30
0.0
 40
0.259774
 50
2.1278509999999988
 51
87.832638000000003
  0
ARC
  5
4FB
  8
0
 62
     7
 10
39.527560000000001
 20
227.372558
 30
0.0
 40
0.259955
 50
92.128064999999992
 51
177.83243200000001
  0
ARC
  5
4FC
  8
0
 62
     7
 10
39.527397000000001
 20
221.89192999999989
 30
0.0
 40
0.259786
 50
182.1331439999999
 51
267.90635900000001
  0
ARC
  5
4FD
  8
0
 62
     7
 10
45.008379999999988
 20
221.891739
 30
0.0
 40
0.259601
 50
272.131821
 51
357.90769
  0
ARC
  5
4FE
  8
0
 62
     7
 10
48.883446999999997
 20
218.01667099999989
 30
0.0
 40
0.259601
 50
272.131821
 51
357.90769
  0
ARC
  5
4FF
  8
0
 62
     7
 10
35.652328999999988
 20
218.01686199999989
 30
0.0
 40
0.259786
 50
182.1331439999999
 51
267.90635900000001
  0
ARC
  5
500
  8
0
 62
     7
 10
48.883279999999999
 20
231.24764099999999
 30
0.0
 40
0.259774
 50
2.1278509999999988
 51
87.832638000000003
  0
ARC
  5
501
  8
0
 62
     7
 10
35.65249699999999
 20
231.24744899999999
 30
0.0
 40
0.25996
 50
92.129159000000001
 51
177.8313379999999
  0
ARC
  5
502
  8
0
 62
     7
 10
44.833173999999993
 20
227.19500699999989
 30
0.0
 40
0.7797850000000001
 50
179.64783600000001
 51
265.37761999999998
  0
LINE
  5
503
  8
0
 62
     7
 10
44.770299999999999
 20
226.41800000000001
 30
0.0
 11
44.8354
 21
226.41800000000001
 31
0.0
  0
ARC
  5
504
  8
0
 62
     7
 10
44.829879999999989
 20
222.06777899999989
 30
0.0
 40
0.7789620000000002
 50
89.590633999999994
 51
175.421087
  0
ARC
  5
505
  8
0
 62
     7
 10
44.758406000000001
 20
222.09740799999989
 30
0.0
 40
0.705753
 50
177.3559919999999
 51
182.64400800000001
  0
ARC
  5
506
  8
0
 62
     7
 10
39.703350999999991
 20
222.07000699999989
 30
0.0
 40
0.7792050000000002
 50
359.62091299999992
 51
85.417117999999988
  0
ARC
  5
507
  8
0
 62
     7
 10
39.733053999999989
 20
221.966962
 30
0.0
 40
0.880361
 50
87.880669999999995
 51
92.119309999999984
  0
ARC
  5
508
  8
0
 62
     7
 10
39.706051000000002
 20
227.1967129999999
 30
0.0
 40
0.778975
 50
269.59152199999988
 51
355.42023799999993
  0
ARC
  5
509
  8
0
 62
     7
 10
39.442929999999997
 20
227.16715699999989
 30
0.0
 40
1.0401219999999991
 50
358.201573
 51
1.798427
  0
ARC
  5
50A
  8
0
 62
     7
 10
49.509714000000002
 20
222.9024959999999
 30
0.0
 40
0.258875
 50
269.48100099999988
 51
355.581073
  0
LINE
  5
50B
  8
0
 62
     7
 10
49.767800000000001
 20
222.8829999999999
 30
0.0
 11
49.767800000000001
 21
222.893
 31
0.0
  0
LINE
  5
50C
  8
0
 62
     7
 10
49.50739999999999
 20
222.64400000000001
 30
0.0
 11
44.8354
 21
222.84700000000001
 31
0.0
  0
ARC
  5
50D
  8
0
 62
     7
 10
49.508223999999991
 20
226.36160299999989
 30
0.0
 40
0.259774
 50
2.1278509999999988
 51
87.832638000000003
  0
LINE
  5
50E
  8
0
 62
     7
 10
49.518000000000001
 20
226.62100000000001
 30
0.0
 11
49.50739999999999
 21
226.62100000000001
 31
0.0
  0
LINE
  5
50F
  8
0
 62
     7
 10
49.50739999999999
 20
226.62100000000001
 30
0.0
 11
44.8354
 21
226.41800000000001
 31
0.0
  0
LINE
  5
510
  8
0
 62
     7
 10
49.767800000000001
 20
226.3709999999999
 30
0.0
 11
49.767800000000001
 21
222.893
 31
0.0
  0
ARC
  5
511
  8
0
 62
     7
 10
43.997246999999987
 20
217.39207500000001
 30
0.0
 40
0.259949
 50
272.12699300000003
 51
357.83354300000002
  0
ARC
  5
512
  8
0
 62
     7
 10
44.12786599999999
 20
217.38357999999991
 30
0.0
 40
0.129151
 50
359.40919700000001
 51
4.2274089999999989
  0
LINE
  5
513
  8
0
 62
     7
 10
44.256700000000002
 20
217.39299999999989
 30
0.0
 11
44.053400000000003
 21
222.065
 31
0.0
  0
ARC
  5
514
  8
0
 62
     7
 10
40.539551000000003
 20
217.39189099999999
 30
0.0
 40
0.260277
 50
179.733634
 51
265.33181999999999
  0
LINE
  5
515
  8
0
 62
     7
 10
40.5184
 20
217.13200000000001
 30
0.0
 11
40.529000000000003
 21
217.13200000000001
 31
0.0
  0
LINE
  5
516
  8
0
 62
     7
 10
40.482500000000002
 20
222.065
 30
0.0
 11
40.279299999999999
 21
217.39299999999989
 31
0.0
  0
LINE
  5
517
  8
0
 62
     7
 10
40.529000000000003
 20
217.13200000000001
 30
0.0
 11
44.006899999999987
 21
217.13200000000001
 31
0.0
  0
ARC
  5
518
  8
0
 62
     7
 10
35.017893999999991
 20
222.89340300000001
 30
0.0
 40
0.250115
 50
179.99996999999991
 51
270.00002000000001
  0
LINE
  5
519
  8
0
 62
     7
 10
35.01789999999999
 20
222.643
 30
0.0
 11
35.0289
 21
222.64400000000001
 31
0.0
  0
ARC
  5
51A
  8
0
 62
     7
 10
35.028072999999999
 20
226.3601459999999
 30
0.0
 40
0.260875
 50
89.814168999999993
 51
175.17241200000001
  0
LINE
  5
51B
  8
0
 62
     7
 10
34.76809999999999
 20
226.38199999999989
 30
0.0
 11
34.767800000000001
 21
226.3709999999999
 31
0.0
  0
ARC
  5
51C
  8
0
 62
     7
 10
40.538710000000002
 20
231.87291999999999
 30
0.0
 40
0.259606
 50
92.132875999999996
 51
177.9065949999999
  0
LINE
  5
51D
  8
0
 62
     7
 10
40.279299999999999
 20
231.88200000000001
 30
0.0
 11
40.279299999999999
 21
231.8709999999999
 31
0.0
  0
ARC
  5
51E
  8
0
 62
     7
 10
43.996623
 20
231.87299999999991
 30
0.0
 40
0.260047
 50
359.642696
 51
85.302740999999983
  0
LINE
  5
51F
  8
0
 62
     7
 10
44.017899999999997
 20
232.13200000000001
 30
0.0
 11
44.006899999999987
 21
232.13200000000001
 31
0.0
  0
LINE
  5
520
  8
0
 62
     7
 10
44.256700000000002
 20
231.8709999999999
 30
0.0
 11
44.053400000000003
 21
227.1999999999999
 31
0.0
  0
LINE
  5
521
  8
0
 62
     7
 10
40.482500000000002
 20
227.1999999999999
 30
0.0
 11
40.279299999999999
 21
231.8709999999999
 31
0.0
  0
LINE
  5
522
  8
0
 62
     7
 10
35.0289
 20
222.64400000000001
 30
0.0
 11
39.700499999999998
 21
222.84700000000001
 31
0.0
  0
LINE
  5
523
  8
0
 62
     7
 10
35.0289
 20
226.62100000000001
 30
0.0
 11
39.700499999999998
 21
226.41800000000001
 31
0.0
  0
LINE
  5
524
  8
0
 62
     7
 10
34.767800000000001
 20
226.3709999999999
 30
0.0
 11
34.767800000000001
 21
222.893
 31
0.0
  0
LINE
  5
525
  8
0
 62
     7
 10
40.529000000000003
 20
232.13200000000001
 30
0.0
 11
44.006899999999987
 21
232.13200000000001
 31
0.0
  0
LINE
  5
526
  8
0
 62
     7
 10
45.267800000000001
 20
221.88200000000001
 30
0.0
 11
45.267800000000001
 21
222.828
 31
0.0
  0
LINE
  5
527
  8
0
 62
     7
 10
39.51789999999999
 20
221.63200000000001
 30
0.0
 11
40.463599999999992
 21
221.63200000000001
 31
0.0
  0
LINE
  5
528
  8
0
 62
     7
 10
39.51789999999999
 20
227.63200000000001
 30
0.0
 11
40.463599999999992
 21
227.63200000000001
 31
0.0
  0
LINE
  5
529
  8
0
 62
     7
 10
39.267800000000001
 20
221.88200000000001
 30
0.0
 11
39.267800000000001
 21
222.828
 31
0.0
  0
LINE
  5
52A
  8
0
 62
     7
 10
49.142899999999997
 20
231.25700000000001
 30
0.0
 11
49.142899999999997
 21
226.6049999999999
 31
0.0
  0
LINE
  5
52B
  8
0
 62
     7
 10
35.642800000000001
 20
231.50699999999989
 30
0.0
 11
40.295099999999998
 21
231.50699999999989
 31
0.0
  0
LINE
  5
52C
  8
0
 62
     7
 10
35.642800000000001
 20
217.75700000000001
 30
0.0
 11
40.295099999999998
 21
217.75700000000001
 31
0.0
  0
LINE
  5
52D
  8
0
 62
     7
 10
35.392699999999998
 20
231.25700000000001
 30
0.0
 11
35.392699999999998
 21
226.6049999999999
 31
0.0
  0
LINE
  5
52E
  8
_________2
 62
     7
 10
205.30099999999999
 20
127.411
 30
0.0
 11
183.55000000000001
 21
127.411
 31
0.0
  0
LINE
  5
52F
  8
_________2
 62
     7
 10
100.2999999999999
 20
-4.0910799999999998
 30
0.0
 11
100.2999999999999
 21
-21.070999999999991
 31
0.0
  0
LINE
  5
530
  8
_________2
 62
     7
 10
100.2999999999999
 20
275.93099999999993
 30
0.0
 11
100.2999999999999
 21
258.911
 31
0.0
  0
LINE
  5
531
  8
_________2
 62
     7
 10
17.049399999999991
 20
127.411
 30
0.0
 11
-4.7006899999999989
 21
127.411
 31
0.0
  0
LINE
  5
532
  8
_________2
 62
     7
 10
76.740799999999993
 20
29.8047
 30
0.0
 11
74.554599999999994
 21
29.8047
 31
0.0
  0
LINE
  5
533
  8
_________2
 62
     7
 10
77.233500000000006
 20
29.8047
 30
0.0
 11
76.981300000000005
 21
29.8047
 31
0.0
  0
LINE
  5
534
  8
_________2
 62
     7
 10
77.726200000000006
 20
29.8047
 30
0.0
 11
80.6511
 21
29.8047
 31
0.0
  0
LINE
  5
535
  8
_________2
 62
     7
 10
77.233500000000006
 20
29.8047
 30
0.0
 11
77.485299999999995
 21
29.8047
 31
0.0
  0
LINE
  5
536
  8
_________2
 62
     7
 10
70.837000000000003
 20
29.8047
 30
0.0
 11
68.650300000000001
 21
29.8047
 31
0.0
  0
LINE
  5
537
  8
_________2
 62
     7
 10
71.329300000000003
 20
29.8047
 30
0.0
 11
71.077399999999983
 21
29.8047
 31
0.0
  0
LINE
  5
538
  8
_________2
 62
     7
 10
71.329300000000003
 20
30.2974
 30
0.0
 11
71.329300000000003
 21
32.484400000000001
 31
0.0
  0
LINE
  5
539
  8
_________2
 62
     7
 10
71.329300000000003
 20
29.8047
 30
0.0
 11
71.329300000000003
 21
30.057300000000001
 31
0.0
  0
LINE
  5
53A
  8
_________2
 62
     7
 10
71.821899999999999
 20
29.8047
 30
0.0
 11
74.008899999999997
 21
29.8047
 31
0.0
  0
LINE
  5
53B
  8
_________2
 62
     7
 10
71.329300000000003
 20
29.8047
 30
0.0
 11
71.581400000000002
 21
29.8047
 31
0.0
  0
LINE
  5
53C
  8
_________2
 62
     7
 10
71.329300000000003
 20
29.312799999999999
 30
0.0
 11
71.329300000000003
 21
27.126200000000001
 31
0.0
  0
LINE
  5
53D
  8
_________2
 62
     7
 10
71.329300000000003
 20
29.8047
 30
0.0
 11
71.329300000000003
 21
29.5532
 31
0.0
  0
LINE
  5
53E
  8
_________2
 62
     7
 10
75.040300000000002
 20
28.5852
 30
0.0
 11
80.218299999999985
 21
27.720400000000001
 31
0.0
  0
LINE
  5
53F
  8
_________2
 62
     7
 10
75.040300000000002
 20
31.024699999999999
 30
0.0
 11
80.218299999999985
 21
31.8901
 31
0.0
  0
LINE
  5
540
  8
_________2
 62
     7
 10
80.218299999999985
 20
27.720400000000001
 30
0.0
 11
80.218299999999985
 21
31.8901
 31
0.0
  0
LINE
  5
541
  8
_________2
 62
     7
 10
75.040300000000002
 20
28.5852
 30
0.0
 11
75.040300000000002
 21
31.024699999999999
 31
0.0
  0
ARC
  5
542
  8
_________2
 62
     7
 10
71.282340000000005
 20
29.757825
 30
0.0
 40
1.2677020000000001
 50
2.1210029999999991
 51
87.878986999999995
  0
ARC
  5
543
  8
_________2
 62
     7
 10
71.375812999999994
 20
29.758545999999999
 30
0.0
 40
1.2669680000000001
 50
92.105782999999988
 51
177.91037
  0
ARC
  5
544
  8
_________2
 62
     7
 10
71.376186000000004
 20
29.851671
 30
0.0
 40
1.2673680000000001
 50
182.12203600000001
 51
267.877993
  0
ARC
  5
545
  8
_________2
 62
     7
 10
71.282359999999997
 20
29.851998999999989
 30
0.0
 40
1.267695999999999
 50
272.12015300000002
 51
357.863674
  0
ARC
  5
546
  8
_________2
 62
     7
 10
71.248890000000003
 20
29.724731999999989
 30
0.0
 40
2.1668310000000002
 50
2.1161439999999989
 51
87.874379000000005
  0
ARC
  5
547
  8
_________2
 62
     7
 10
71.408918999999983
 20
29.725798000000001
 30
0.0
 40
2.1657399999999991
 50
92.107930000000025
 51
177.91097500000001
  0
ARC
  5
548
  8
_________2
 62
     7
 10
71.408934000000002
 20
29.884775999999999
 30
0.0
 40
2.1657950000000001
 50
182.11776599999999
 51
267.89173399999999
  0
ARC
  5
549
  8
_________2
 62
     7
 10
71.249286999999995
 20
29.885429999999989
 30
0.0
 40
2.1664590000000001
 50
272.11546800000002
 51
357.86560400000002
  0
TEXT
  5
54A
  8
_________2
 62
     7
 10
104.604
 20
1.6794899999999999
 30
0.0
 40
3.0923400000000001
  1
図番
 41
0.5
  0
LINE
  5
54B
  8
_________2
 62
     7
 10
103.55
 20
5.9087199999999989
 30
0.0
 11
183.55099999999999
 21
5.9087199999999989
 31
0.0
  0
TEXT
  5
54C
  8
_________2
 62
     7
 10
104.604
 20
11.679299999999991
 30
0.0
 40
3.0923400000000001
  1
品番
 41
0.5
  0
TEXT
  5
54D
  8
_________2
 62
     7
 10
104.604
 20
31.8184
 30
0.0
 40
3.0923400000000001
  1
名称
 41
0.5
  0
TEXT
  5
54E
  8
_________2
 62
     7
 10
91.844958333333338
 20
26.822299999999998
 30
0.0
 40
3.6545800000000002
  1
mm
 41
0.5
 72
     1
 11
93.367699999999985
 21
26.822299999999998
 31
0.0
  0
TEXT
  5
54F
  8
_________2
 62
     7
 10
85.642999999999986
 20
31.8184
 30
0.0
 40
3.0923400000000001
  1
単位
 41
0.5
  0
TEXT
  5
550
  8
_________2
 62
     7
 10
85.642999999999986
 20
19.410799999999991
 30
0.0
 40
3.0923400000000001
  1
尺度
 41
0.5
  0
TEXT
  5
551
  8
_________2
 62
     7
 10
90.548558666666679
 20
13.218199999999991
 30
0.0
 40
3.6545800000000002
  1
1 ： 4
 41
0.5
 72
     1
 11
93.959500000000006
 21
13.218199999999991
 31
0.0
  0
TEXT
  5
552
  8
_________2
 62
     7
 10
138.30240000000001
 20
9.1082000000000001
 30
0.0
 40
3.9357000000000002
  1
ZU1425
 41
0.5
 72
     1
 11
143.55000000000001
 21
9.1082000000000001
 31
0.0
  0
TEXT
  5
553
  8
_________2
 62
     7
 10
138.30240000000001
 20
-0.8926299999999999
 30
0.0
 40
3.9357000000000002
  1
ZU1425
 41
0.5
 72
     1
 11
143.55000000000001
 21
-0.8926299999999999
 31
0.0
  0
TEXT
  5
554
  8
_________2
 62
     7
 10
24.586600000000001
 20
0.707627
 30
0.0
 40
3.9357000000000002
  1
（社）日本水道協会認証品
 41
0.5
  0
TEXT
  5
555
  8
_________2
 62
     7
 10
20.600100000000001
 20
39.947899999999997
 30
0.0
 40
4.2168199999999993
  1
・国産洗面器とのセットの場合は、国産の排水ヘッド部を別途準備してください。
 41
0.5
  0
TEXT
  5
556
  8
_________2
 62
     7
 10
109.179
 20
24.226099999999999
 30
0.0
 40
3.9357000000000002
  1
ベラッジオ 湯水混合水栓
 41
0.5
  0
TEXT
  5
557
  8
_________2
 62
     7
 10
39.425100333333333
 20
13.603400000000001
 30
0.0
 40
3.6545800000000002
  1
早川
 41
0.5
 72
     1
 11
41.313299999999998
 21
13.603400000000001
 31
0.0
  0
TEXT
  5
558
  8
_________2
 62
     7
 10
20.789890666666661
 20
13.603400000000001
 30
0.0
 40
3.6545800000000002
  1
石原
 41
0.5
 72
     1
 11
22.739000000000001
 21
13.603400000000001
 31
0.0
  0
TEXT
  5
559
  8
_________2
 62
     7
 10
67.785300000000007
 20
13.218199999999991
 30
0.0
 40
3.6545800000000002
  1
14.01.14
 41
0.5
  0
TEXT
  5
55A
  8
_________2
 62
     7
 10
66.5929
 20
19.410799999999991
 30
0.0
 40
3.0923400000000001
  1
日付
 41
0.5
  0
TEXT
  5
55B
  8
_________2
 62
     7
 10
29.639199999999992
 20
19.410799999999991
 30
0.0
 40
3.0923400000000001
  1
検図
 41
0.5
  0
TEXT
  5
55C
  8
_________2
 62
     7
 10
18.020900000000001
 20
5.21143
 30
0.0
 40
3.0923400000000001
  1
備考
 41
0.5
  0
TEXT
  5
55D
  8
_________2
 62
     7
 10
18.020900000000001
 20
19.410799999999991
 30
0.0
 40
3.0923400000000001
  1
製図
 41
0.5
  0
TEXT
  5
55E
  8
_________2
 62
     7
 10
23.788265333333339
 20
27.936800000000002
 30
0.0
 40
4.4979399999999989
  1
セラトレーディング株式会社
 41
0.5
 72
     1
 11
41.180300000000003
 21
27.936800000000002
 31
0.0
  0
LINE
  5
55F
  8
_________2
 62
     7
 10
183.55099999999999
 20
-4.0910799999999998
 30
0.0
 11
17.049399999999991
 21
-4.0910799999999998
 31
0.0
  0
LINE
  5
560
  8
_________2
 62
     7
 10
17.049399999999991
 20
-4.0910799999999998
 30
0.0
 11
17.049399999999991
 21
258.911
 31
0.0
  0
LINE
  5
561
  8
_________2
 62
     7
 10
17.049399999999991
 20
258.911
 30
0.0
 11
183.55099999999999
 21
258.911
 31
0.0
  0
LINE
  5
562
  8
_________2
 62
     7
 10
183.55099999999999
 20
258.911
 30
0.0
 11
183.55099999999999
 21
-4.0910799999999998
 31
0.0
  0
LINE
  5
563
  8
_________2
 62
     7
 10
65.549400000000006
 20
9.4092999999999982
 30
0.0
 11
65.549400000000006
 21
35.909100000000002
 31
0.0
  0
LINE
  5
564
  8
_________2
 62
     7
 10
84.549599999999984
 20
9.4092999999999982
 30
0.0
 11
84.549599999999984
 21
35.909100000000002
 31
0.0
  0
LINE
  5
565
  8
_________2
 62
     7
 10
103.55
 20
-4.0910799999999998
 30
0.0
 11
103.55
 21
35.909100000000002
 31
0.0
  0
LINE
  5
566
  8
_________2
 62
     7
 10
28.549199999999988
 20
9.4092999999999982
 30
0.0
 11
28.549199999999988
 21
23.409199999999998
 31
0.0
  0
LINE
  5
567
  8
_________2
 62
     7
 10
17.049399999999991
 20
9.4092999999999982
 30
0.0
 11
103.55
 21
9.4092999999999982
 31
0.0
  0
LINE
  5
568
  8
_________2
 62
     7
 10
17.049399999999991
 20
23.409199999999998
 30
0.0
 11
103.55
 21
23.409199999999998
 31
0.0
  0
LINE
  5
569
  8
_________2
 62
     7
 10
103.55
 20
15.9085
 30
0.0
 11
183.55099999999999
 21
15.9085
 31
0.0
  0
LINE
  5
56A
  8
_________2
 62
     7
 10
17.049399999999991
 20
35.909100000000002
 30
0.0
 11
183.55099999999999
 21
35.909100000000002
 31
0.0
  0
ENDSEC
  0
EOF
