  0
SECTION
  2
HEADER
  9
$ACADVER
  1
AC1009
  9
$INSBASE
 10
0.0
 20
0.0
 30
0.0
  9
$EXTMIN
 10
-4.7012099999999988
 20
-21.070999999999991
 30
0.0
  9
$EXTMAX
 10
205.30099999999999
 20
275.93099999999993
 30
0.0
  9
$LIMMIN
 10
0.0
 20
0.0
  9
$LIMMAX
 10
12.0
 20
9.0
  9
$ORTHOMODE
 70
     0
  9
$REGENMODE
 70
     1
  9
$FILLMODE
 70
     1
  9
$QTEXTMODE
 70
     0
  9
$MIRRTEXT
 70
     1
  9
$DRAGMODE
 70
     2
  9
$LTSCALE
 40
1.0
  9
$OSMODE
 70
    37
  9
$ATTMODE
 70
     1
  9
$TEXTSIZE
 40
0.0
  9
$TRACEWID
 40
0.05
  9
$TEXTSTYLE
  7
STANDARD
  9
$CLAYER
  8
0
  9
$CELTYPE
  6
CONTINUOUS
  9
$CECOLOR
 62
   256
  9
$DIMSCALE
 40
1.0
  9
$DIMASZ
 40
0.18
  9
$DIMEXO
 40
0.0625
  9
$DIMDLI
 40
0.38
  9
$DIMRND
 40
0.0
  9
$DIMDLE
 40
0.0
  9
$DIMEXE
 40
0.18
  9
$DIMTP
 40
0.0
  9
$DIMTM
 40
0.0
  9
$DIMTXT
 40
0.18
  9
$DIMCEN
 40
0.09
  9
$DIMTSZ
 40
0.0
  9
$DIMTOL
 70
     0
  9
$DIMLIM
 70
     0
  9
$DIMTIH
 70
     1
  9
$DIMTOH
 70
     1
  9
$DIMSE1
 70
     0
  9
$DIMSE2
 70
     0
  9
$DIMTAD
 70
     0
  9
$DIMZIN
 70
     0
  9
$DIMBLK
  1

  9
$DIMASO
 70
     1
  9
$DIMSHO
 70
     1
  9
$DIMPOST
  1

  9
$DIMAPOST
  1

  9
$DIMALT
 70
     0
  9
$DIMALTD
 70
     2
  9
$DIMALTF
 40
25.399999999999999
  9
$DIMLFAC
 40
1.0
  9
$DIMTOFL
 70
     0
  9
$DIMTVP
 40
0.0
  9
$DIMTIX
 70
     0
  9
$DIMSOXD
 70
     0
  9
$DIMSAH
 70
     0
  9
$DIMBLK1
  1

  9
$DIMBLK2
  1

  9
$DIMSTYLE
  2
STANDARD
  9
$DIMCLRD
 70
     0
  9
$DIMCLRE
 70
     0
  9
$DIMCLRT
 70
     0
  9
$DIMTFAC
 40
1.0
  9
$DIMGAP
 40
0.09
  9
$LUNITS
 70
     2
  9
$LUPREC
 70
     4
  9
$SKETCHINC
 40
0.1
  9
$FILLETRAD
 40
0.0
  9
$AUNITS
 70
     0
  9
$AUPREC
 70
     0
  9
$MENU
  1
.
  9
$ELEVATION
 40
0.0
  9
$PELEVATION
 40
0.0
  9
$THICKNESS
 40
0.0
  9
$LIMCHECK
 70
     0
  9
$BLIPMODE
 70
     0
  9
$CHAMFERA
 40
0.0
  9
$CHAMFERB
 40
0.0
  9
$SKPOLY
 70
     0
  9
$TDCREATE
 40
2444972.375
  9
$TDUPDATE
 40
2456676.2511377772
  9
$TDINDWG
 40
0.0000086111
  9
$TDUSRTIMER
 40
0.0000086111
  9
$USRTIMER
 70
     1
  9
$ANGBASE
 50
0.0
  9
$ANGDIR
 70
     0
  9
$PDMODE
 70
     0
  9
$PDSIZE
 40
0.0
  9
$PLINEWID
 40
0.0
  9
$COORDS
 70
     1
  9
$SPLFRAME
 70
     0
  9
$SPLINETYPE
 70
     6
  9
$SPLINESEGS
 70
     8
  9
$ATTDIA
 70
     0
  9
$ATTREQ
 70
     1
  9
$HANDLING
 70
     1
  9
$HANDSEED
  5
3F9
  9
$SURFTAB1
 70
     6
  9
$SURFTAB2
 70
     6
  9
$SURFTYPE
 70
     6
  9
$SURFU
 70
     6
  9
$SURFV
 70
     6
  9
$UCSNAME
  2

  9
$UCSORG
 10
0.0
 20
0.0
 30
0.0
  9
$UCSXDIR
 10
1.0
 20
0.0
 30
0.0
  9
$UCSYDIR
 10
0.0
 20
1.0
 30
0.0
  9
$PUCSNAME
  2

  9
$PUCSORG
 10
0.0
 20
0.0
 30
0.0
  9
$PUCSXDIR
 10
1.0
 20
0.0
 30
0.0
  9
$PUCSYDIR
 10
0.0
 20
1.0
 30
0.0
  9
$USERI1
 70
     0
  9
$USERI2
 70
     0
  9
$USERI3
 70
     0
  9
$USERI4
 70
     0
  9
$USERI5
 70
     0
  9
$USERR1
 40
0.0
  9
$USERR2
 40
0.0
  9
$USERR3
 40
0.0
  9
$USERR4
 40
0.0
  9
$USERR5
 40
0.0
  9
$WORLDVIEW
 70
     1
  9
$SHADEDGE
 70
     3
  9
$SHADEDIF
 70
    70
  9
$TILEMODE
 70
     1
  9
$MAXACTVP
 70
    48
  9
$PLIMCHECK
 70
     0
  9
$PEXTMIN
 10
1.0000000000000000E+020
 20
1.0000000000000000E+020
 30
1.0000000000000000E+020
  9
$PEXTMAX
 10
-1.0000000000000000E+020
 20
-1.0000000000000000E+020
 30
-1.0000000000000000E+020
  9
$PLIMMIN
 10
0.0
 20
0.0
  9
$PLIMMAX
 10
12.0
 20
9.0
  9
$UNITMODE
 70
     0
  9
$VISRETAIN
 70
     1
  9
$PLINEGEN
 70
     0
  9
$PSLTSCALE
 70
     1
  0
ENDSEC
  0
SECTION
  2
TABLES
  0
TABLE
  2
VPORT
 70
     2
  0
VPORT
  2
*ACTIVE
 70
     0
 10
0.0
 20
0.0
 11
1.0
 21
1.0
 12
202.006301769564
 22
127.42999999999989
 13
0.0
 23
0.0
 14
1.0
 24
1.0
 15
0.0
 25
0.0
 16
0.0
 26
0.0
 36
1.0
 17
0.0
 27
0.0
 37
0.0
 40
299.45318569463541
 41
2.2894736842105261
 42
50.0
 43
0.0
 44
0.0
 50
0.0
 51
0.0
 71
     0
 72
   100
 73
     1
 74
     1
 75
     0
 76
     0
 77
     0
 78
     0
  0
ENDTAB
  0
TABLE
  2
LTYPE
 70
     3
  0
LTYPE
  2
CONTINUOUS
 70
     0
  3
Solid line
 72
    65
 73
     0
 40
0.0
  0
LTYPE
  2
AIGENLINE001
 70
     0
  3
generate AI->DXF Converter
 72
    65
 73
     4
 40
5.8561449999999988
 49
3.5278
 49
-0.776115
 49
0.776115
 49
-0.776115
  0
LTYPE
  2
AIGENLINE002
 70
     0
  3
generate AI->DXF Converter
 72
    65
 73
     6
 40
7.4083750000000004
 49
3.5278
 49
-0.776115
 49
0.776115
 49
-0.776115
 49
0.776115
 49
-0.776115
  0
ENDTAB
  0
TABLE
  2
LAYER
 70
     2
  0
LAYER
  2
0
 70
     0
 62
     7
  6
CONTINUOUS
  0
LAYER
  2
_________2
 70
     0
 62
     7
  6
CONTINUOUS
  0
ENDTAB
  0
TABLE
  2
STYLE
 70
     1
  0
STYLE
  2
STANDARD
 70
     0
 40
0.0
 41
0.0
 50
0.0
 71
     0
 42
0.0
  3
TXT
  4
EXTFONT.SHX
  0
ENDTAB
  0
TABLE
  2
VIEW
 70
     0
  0
ENDTAB
  0
TABLE
  2
UCS
 70
     0
  0
ENDTAB
  0
TABLE
  2
APPID
 70
     1
  0
APPID
  2
ACAD
 70
     0
  0
ENDTAB
  0
TABLE
  2
DIMSTYLE
 70
     1
  0
DIMSTYLE
  2
STANDARD
 70
     0
  3

  4

  5

  6

  7

 40
1.0
 41
0.18
 42
0.0625
 43
0.38
 44
0.18
 45
0.0
 46
0.0
 47
0.0
 48
0.0
140
0.18
141
0.09
142
0.0
143
25.399999999999999
144
1.0
145
0.0
146
1.0
147
0.09
 71
     0
 72
     0
 73
     1
 74
     1
 75
     0
 76
     0
 77
     0
 78
     0
170
     0
171
     2
172
     0
173
     0
174
     0
175
     0
176
     0
177
     0
178
     0
  0
ENDTAB
  0
ENDSEC
  0
SECTION
  2
BLOCKS
  0
BLOCK
  8
0
  2
$MODEL_SPACE
 70
     0
 10
0.0
 20
0.0
 30
0.0
  3
$MODEL_SPACE
  1

  0
ENDBLK
  5
1A
  8
0
  0
BLOCK
 67
     1
  8
0
  2
$PAPER_SPACE
 70
     0
 10
0.0
 20
0.0
 30
0.0
  3
$PAPER_SPACE
  1

  0
ENDBLK
  5
17
 67
     1
  8
0
  0
ENDSEC
  0
SECTION
  2
ENTITIES
  0
TEXT
  5
23
  8
0
 62
     7
 10
156.21688
 20
245.42599999999999
 30
0.0
 40
3.0923400000000001
  1
%%c35
 41
0.5
 72
     2
 11
160.34
 21
245.42599999999999
 31
0.0
  0
TEXT
  5
24
  8
0
 62
     7
 10
86.530699999999996
 20
220.14099999999999
 30
0.0
 40
3.0923400000000001
  1
水
 41
0.5
  0
TEXT
  5
25
  8
0
 62
     7
 10
75.838934999999992
 20
209.154
 30
0.0
 40
3.0923400000000001
  1
45%%d
 41
0.5
 72
     1
 11
77.642799999999994
 21
209.154
 31
0.0
  0
TEXT
  5
26
  8
0
 62
     7
 10
56.087734999999988
 20
209.154
 30
0.0
 40
3.0923400000000001
  1
45%%d
 41
0.5
 72
     1
 11
57.89159999999999
 21
209.154
 31
0.0
  0
TEXT
  5
27
  8
0
 62
     7
 10
48.177607999999999
 20
220.14099999999999
 30
0.0
 40
3.0923400000000001
  1
湯
 41
0.5
 72
     2
 11
49.620699999999999
 21
220.14099999999999
 31
0.0
  0
TEXT
  5
28
  8
0
 62
     7
 10
128.83998600000001
 20
195.71000000000001
 30
0.0
 40
3.0923400000000001
  1
開
 41
0.5
 72
     2
 11
130.18000000000001
 21
195.71000000000001
 31
0.0
  0
TEXT
  5
29
  8
0
 62
     7
 10
122.705986
 20
183.08199999999991
 30
0.0
 40
3.0923400000000001
  1
閉
 41
0.5
 72
     2
 11
124.04600000000001
 21
183.08199999999991
 31
0.0
  0
TEXT
  5
2A
  8
0
 62
     7
 10
141.26824199999999
 20
223.10699999999991
 30
0.0
 40
3.0923400000000001
  1
水栓金具取付穴
 41
0.5
 72
     1
 11
147.55600000000001
 21
223.10699999999991
 31
0.0
  0
TEXT
  5
2B
  8
0
 62
     7
 10
20.139500000000002
 20
39.087299999999999
 30
0.0
 40
3.6545800000000002
  1
・国産洗面器とのセットの場合は国産の排水ヘッド部を別途準備してください。
 41
0.5
  0
TEXT
  5
2C
  8
0
 62
     7
 10
52.769582499999991
 20
52.6524
 30
0.0
 40
3.0923400000000001
  1
180
 41
0.5
 72
     1
 11
54.444600000000001
 21
52.6524
 31
0.0
  0
TEXT
  5
2D
  8
0
 62
     7
 10
52.150100000000002
 20
72.284025
 30
0.0
 40
3.0923400000000001
  1
%%c5
 50
90.0
 41
0.5
 72
     1
 11
52.150100000000002
 21
73.572500000000005
 31
0.0
  0
TEXT
  5
2E
  8
0
 62
     7
 10
42.67851799999999
 20
59.986699999999999
 30
0.0
 40
3.0923400000000001
  1
G1 1/4
 41
0.5
 72
     2
 11
49.790900000000001
 21
59.986699999999999
 31
0.0
  0
TEXT
  5
2F
  8
0
 62
     7
 10
26.3062
 20
68.521672499999994
 30
0.0
 40
3.0923400000000001
  1
50
 50
90.0
 41
0.5
 72
     1
 11
26.3062
 21
69.681299999999993
 31
0.0
  0
TEXT
  5
30
  8
0
 62
     7
 10
25.965800000000002
 20
75.761922500000011
 30
0.0
 40
3.0923400000000001
  1
max.50
 50
90.0
 41
0.5
 72
     1
 11
25.965800000000002
 21
79.498500000000007
 31
0.0
  0
TEXT
  5
31
  8
0
 62
     7
 10
35.428240000000002
 20
88.614999999999995
 30
0.0
 40
3.0923400000000001
  1
%%c63
 41
0.5
 72
     1
 11
37.489800000000002
 21
88.614999999999995
 31
0.0
  0
TEXT
  5
32
  8
0
 62
     7
 10
113.4309999999999
 20
91.927800000000005
 30
0.0
 40
3.865419999999999
  1
G 3/8
 41
0.5
  0
TEXT
  5
33
  8
0
 62
     7
 10
134.93600000000001
 20
141.6721499999999
 30
0.0
 40
3.0923400000000001
  1
max.35
 50
90.0
 41
0.5
 72
     2
 11
134.93600000000001
 21
149.40299999999991
 31
0.0
  0
TEXT
  5
34
  8
0
 62
     7
 10
114.423965
 20
151.8539999999999
 30
0.0
 40
3.0923400000000001
  1
30%%d
 41
0.5
 72
     2
 11
117.774
 21
151.8539999999999
 31
0.0
  0
TEXT
  5
35
  8
0
 62
     7
 10
152.54005000000001
 20
90.602800000000002
 30
0.0
 40
3.0923400000000001
  1
%%c5
 41
0.5
 72
     2
 11
155.11699999999999
 21
90.602800000000002
 31
0.0
  0
TEXT
  5
36
  8
0
 62
     7
 10
145.49444
 20
161.6399999999999
 30
0.0
 40
3.0923400000000001
  1
%%c54
 41
0.5
 72
     1
 11
147.55600000000001
 21
161.6399999999999
 31
0.0
  0
TEXT
  5
37
  8
0
 62
     7
 10
145.49444
 20
195.02299999999991
 30
0.0
 40
3.0923400000000001
  1
%%c44
 41
0.5
 72
     1
 11
147.55600000000001
 21
195.02299999999991
 31
0.0
  0
TEXT
  5
38
  8
0
 62
     7
 10
153.56999999999999
 20
166.0329999999999
 30
0.0
 40
3.0923400000000001
  1
max.40
 41
0.5
  0
TEXT
  5
39
  8
0
 62
     7
 10
131.90683000000001
 20
156.364
 30
0.0
 40
3.0923400000000001
  1
115
 41
0.5
 72
     1
 11
133.45299999999989
 21
156.364
 31
0.0
  0
TEXT
  5
3A
  8
0
 62
     7
 10
101.9649999999999
 20
169.61813499999991
 30
0.0
 40
3.0923400000000001
  1
177
 50
90.0
 41
0.5
 72
     1
 11
101.9649999999999
 21
171.422
 31
0.0
  0
TEXT
  5
3B
  8
0
 62
     7
 10
126.38
 20
158.31352499999991
 30
0.0
 40
3.0923400000000001
  1
55
 50
90.0
 41
0.5
 72
     1
 11
126.38
 21
159.602
 31
0.0
  0
TEXT
  5
3C
  8
0
 62
     7
 10
108.289
 20
156.32837249999989
 30
0.0
 40
3.0923400000000001
  1
60
 50
90.0
 41
0.5
 72
     1
 11
108.289
 21
157.488
 31
0.0
  0
TEXT
  5
3D
  8
0
 62
     7
 10
108.289
 20
124.5662875
 30
0.0
 40
3.0923400000000001
  1
370
 50
90.0
 41
0.5
 72
     1
 11
108.289
 21
126.499
 31
0.0
  0
TEXT
  5
3E
  8
0
 62
     7
 10
168.83000000000001
 20
111.95413499999989
 30
0.0
 40
3.0923400000000001
  1
300
 50
90.0
 41
0.5
 72
     1
 11
168.83000000000001
 21
113.758
 31
0.0
  0
TEXT
  5
3F
  8
0
 62
     7
 10
168.83000000000001
 20
167.02813499999991
 30
0.0
 40
3.0923400000000001
  1
152
 50
90.0
 41
0.5
 72
     1
 11
168.83000000000001
 21
168.83199999999999
 31
0.0
  0
ARC
  5
40
  8
0
 62
     7
 10
68.232104000000007
 20
237.76025199999989
 30
0.0
 40
25.771304999999991
 50
225.280765
 51
269.71660099999991
  0
ARC
  5
41
  8
0
 62
     7
 10
67.979918000000012
 20
237.75401600000001
 30
0.0
 40
25.765056000000001
 50
270.27733899999998
 51
314.72220699999991
  0
LINE
  5
42
  8
0
  6
AIGENLINE001
 62
     7
 10
65.854799999999997
 20
111.47
 30
0.0
 11
53.972900000000003
 21
128.73699999999991
 31
0.0
  0
LINE
  5
43
  8
0
 62
     7
 10
52.660299999999999
 20
106.672
 30
0.0
 11
52.660299999999999
 21
124.729
 31
0.0
  0
LINE
  5
44
  8
0
 62
     7
 10
55.285499999999999
 20
124.729
 30
0.0
 11
55.285499999999999
 21
106.672
 31
0.0
  0
LINE
  5
45
  8
0
  6
AIGENLINE001
 62
     7
 10
53.972900000000003
 20
128.73699999999991
 30
0.0
 11
53.972900000000003
 21
97.708299999999994
 31
0.0
  0
LINE
  5
46
  8
0
 62
     7
 10
64.542500000000004
 20
116.04600000000001
 30
0.0
 11
64.542500000000004
 21
139.36299999999989
 31
0.0
  0
LINE
  5
47
  8
0
 62
     7
 10
67.167400000000001
 20
116.04600000000001
 30
0.0
 11
67.167400000000001
 21
132.738
 31
0.0
  0
LINE
  5
48
  8
0
  6
AIGENLINE001
 62
     7
 10
65.854799999999997
 20
111.47
 30
0.0
 11
65.854799999999997
 21
152.523
 31
0.0
  0
LINE
  5
49
  8
0
 62
     7
 10
51.2196
 20
101.79599999999991
 30
0.0
 11
51.2196
 21
99.170100000000005
 31
0.0
  0
LINE
  5
4A
  8
0
 62
     7
 10
52.595199999999998
 20
101.79599999999991
 30
0.0
 11
52.595199999999998
 21
99.170100000000005
 31
0.0
  0
ARC
  5
4B
  8
0
 62
     7
 10
54.807533999999997
 20
107.526099
 30
0.0
 40
9.0937260000000002
 50
246.76201699999999
 51
248.304193
  0
ARC
  5
4C
  8
0
 62
     7
 10
52.132989000000002
 20
100.84209299999991
 30
0.0
 40
1.894547
 50
248.73187899999991
 51
258.21704999999992
  0
ARC
  5
4D
  8
0
 62
     7
 10
51.927479999999989
 20
99.934877999999998
 30
0.0
 40
0.9646139999999999
 50
259.16278199999988
 51
269.53432299999992
  0
ARC
  5
4E
  8
0
 62
     7
 10
51.91856099999999
 20
99.884878000000015
 30
0.0
 40
0.914583
 50
270.06759299999999
 51
282.410505
  0
ARC
  5
4F
  8
0
 62
     7
 10
51.796588999999997
 20
100.501463
 30
0.0
 40
1.543032
 50
281.91324900000001
 51
292.81865800000003
  0
ARC
  5
50
  8
0
 62
     7
 10
51.338951000000002
 20
101.670813
 30
0.0
 40
2.798524
 50
292.17024500000002
 51
296.67357099999998
  0
ARC
  5
51
  8
0
 62
     7
 10
51.840321000000003
 20
100.6807229999999
 30
0.0
 40
1.346730999999999
 50
55.906326
 51
82.633775
  0
ARC
  5
52
  8
0
 62
     7
 10
51.918754
 20
101.122381
 30
0.0
 40
0.89891
 50
83.982656000000006
 51
89.943540999999996
  0
ARC
  5
53
  8
0
 62
     7
 10
51.920434
 20
101.102267
 30
0.0
 40
0.919024
 50
90.049479000000005
 51
102.187819
  0
ARC
  5
54
  8
0
 62
     7
 10
52.011867000000002
 20
100.631632
 30
0.0
 40
1.39839
 50
101.778644
 51
113.390214
  0
ARC
  5
55
  8
0
 62
     7
 10
52.241053000000001
 20
100.0582749999999
 30
0.0
 40
2.0156900000000002
 50
112.899422
 51
120.44792
  0
LINE
  5
56
  8
0
 62
     7
 10
56.720100000000002
 20
101.79599999999991
 30
0.0
 11
56.720100000000002
 21
99.170100000000005
 31
0.0
  0
LINE
  5
57
  8
0
 62
     7
 10
55.345500000000001
 20
101.79599999999991
 30
0.0
 11
55.345500000000001
 21
99.170100000000005
 31
0.0
  0
ARC
  5
58
  8
0
 62
     7
 10
58.457293000000007
 20
106.38472
 30
0.0
 40
7.8571009999999992
 50
246.66834600000001
 51
248.45265599999999
  0
ARC
  5
59
  8
0
 62
     7
 10
56.299328000000003
 20
100.946003
 30
0.0
 40
2.0059399999999998
 50
248.72905600000001
 51
257.77933399999989
  0
ARC
  5
5A
  8
0
 62
     7
 10
56.030896999999989
 20
99.775436999999997
 30
0.0
 40
0.805211
 50
258.81581
 51
269.25042200000001
  0
ARC
  5
5B
  8
0
 62
     7
 10
56.019554999999997
 20
99.875848000000005
 30
0.0
 40
0.9055530000000001
 50
270.05111199999988
 51
282.20139799999993
  0
ARC
  5
5C
  8
0
 62
     7
 10
55.920032999999997
 20
100.41104899999991
 30
0.0
 40
1.449784
 50
281.57539500000001
 51
287.06493299999988
  0
ARC
  5
5D
  8
0
 62
     7
 10
55.674106999999992
 20
101.209793
 30
0.0
 40
2.2855310000000002
 50
287.08253999999999
 51
291.46978200000001
  0
ARC
  5
5E
  8
0
 62
     7
 10
54.210959000000003
 20
104.89732099999991
 30
0.0
 40
6.2527229999999996
 50
291.579274
 51
293.65837999999991
  0
ARC
  5
5F
  8
0
 62
     7
 10
55.711378000000003
 20
100.068006
 30
0.0
 40
2.0008369999999989
 50
59.726160000000007
 51
72.065153000000009
  0
ARC
  5
60
  8
0
 62
     7
 10
55.995838999999997
 20
100.8952639999999
 30
0.0
 40
1.126295
 50
72.873847999999995
 51
88.752319000000014
  0
ARC
  5
61
  8
0
 62
     7
 10
56.021089000000011
 20
101.2531139999999
 30
0.0
 40
0.7681770000000001
 50
90.054118000000003
 51
103.848376
  0
ARC
  5
62
  8
0
 62
     7
 10
56.163516999999999
 20
100.5792129999999
 30
0.0
 40
1.4567619999999999
 50
102.943254
 51
114.174971
  0
ARC
  5
63
  8
0
 62
     7
 10
56.407631000000002
 20
99.974654000000015
 30
0.0
 40
2.108417999999999
 50
113.49893299999999
 51
120.250004
  0
ARC
  5
64
  8
0
 62
     7
 10
51.32962599999999
 20
92.815978999999984
 30
0.0
 40
6.4789459999999988
 50
76.762437000000006
 51
78.735369999999975
  0
ARC
  5
65
  8
0
 62
     7
 10
54.300626999999999
 20
104.7761949999999
 30
0.0
 40
5.8458110000000003
 50
255.25974999999991
 51
261.37602799999991
  0
ARC
  5
66
  8
0
 62
     7
 10
53.770232999999998
 20
101.260293
 30
0.0
 40
2.2901310000000001
 50
261.30573799999991
 51
269.38250499999998
  0
LINE
  5
67
  8
0
 62
     7
 10
53.745600000000003
 20
98.970299999999995
 30
0.0
 11
54.194800000000001
 21
98.970299999999995
 31
0.0
  0
ARC
  5
68
  8
0
 62
     7
 10
54.194474
 20
100.93112099999991
 30
0.0
 40
1.9608259999999991
 50
270.00938500000001
 51
278.46042699999992
  0
ARC
  5
69
  8
0
 62
     7
 10
53.981188000000003
 20
102.58177999999999
 30
0.0
 40
3.6250429999999998
 50
277.95638199999991
 51
281.44926499999991
  0
ARC
  5
6A
  8
0
 62
     7
 10
52.577041000000001
 20
109.4084789999999
 30
0.0
 40
10.594639999999989
 50
281.56340499999988
 51
283.46608099999997
  0
ARC
  5
6B
  8
0
 62
     7
 10
56.481906999999993
 20
93.172921000000017
 30
0.0
 40
6.103917
 50
100.7300749999999
 51
103.623254
  0
ARC
  5
6C
  8
0
 62
     7
 10
54.093839000000003
 20
98.100421999999995
 30
0.0
 40
3.9017589999999989
 50
71.289594999999991
 51
77.158928000000003
  0
ARC
  5
6D
  8
0
 62
     7
 10
53.864404
 20
97.274798000000004
 30
0.0
 40
4.7578949999999987
 50
76.67477199999999
 51
85.667164
  0
ARC
  5
6E
  8
0
 62
     7
 10
54.077275
 20
99.739621000000014
 30
0.0
 40
2.2841830000000001
 50
86.320479000000006
 51
92.687475000000006
  0
ARC
  5
6F
  8
0
 62
     7
 10
53.886806
 20
100.603488
 30
0.0
 40
1.4202520000000001
 50
86.634834999999995
 51
91.033677999999995
  0
ARC
  5
70
  8
0
 62
     7
 10
53.901308999999991
 20
99.437046999999993
 30
0.0
 40
2.5867729999999991
 50
90.888774999999995
 51
94.809208000000012
  0
ARC
  5
71
  8
0
 62
     7
 10
54.097335000000001
 20
97.137321999999998
 30
0.0
 40
4.894836999999999
 50
94.838840000000005
 51
107.871055
  0
LINE
  5
72
  8
0
 62
     7
 10
52.719900000000003
 20
102.197
 30
0.0
 11
53.970199999999998
 21
102.197
 31
0.0
  0
LINE
  5
73
  8
0
 62
     7
 10
55.220100000000002
 20
102.197
 30
0.0
 11
53.970199999999998
 21
102.197
 31
0.0
  0
LINE
  5
74
  8
0
 62
     7
 10
56.270800000000001
 20
98.920699999999997
 30
0.0
 11
53.970199999999998
 21
98.920699999999997
 31
0.0
  0
LINE
  5
75
  8
0
 62
     7
 10
53.970199999999998
 20
98.920699999999997
 30
0.0
 11
51.669499999999992
 21
98.920699999999997
 31
0.0
  0
LINE
  5
76
  8
0
 62
     7
 10
51.369500000000002
 20
99.120500000000007
 30
0.0
 11
51.669499999999992
 21
98.945499999999996
 31
0.0
  0
LINE
  5
77
  8
0
 62
     7
 10
51.669499999999992
 20
98.945499999999996
 30
0.0
 11
51.669499999999992
 21
98.920699999999997
 31
0.0
  0
LINE
  5
78
  8
0
 62
     7
 10
51.2196
 20
99.170100000000005
 30
0.0
 11
51.669499999999992
 21
98.945499999999996
 31
0.0
  0
LINE
  5
79
  8
0
 62
     7
 10
56.720100000000002
 20
99.170100000000005
 30
0.0
 11
56.270800000000001
 21
98.920699999999997
 31
0.0
  0
LINE
  5
7A
  8
0
 62
     7
 10
56.270800000000001
 20
102.04600000000001
 30
0.0
 11
51.669499999999992
 21
102.04600000000001
 31
0.0
  0
LINE
  5
7B
  8
0
 62
     7
 10
55.520499999999998
 20
102.17100000000001
 30
0.0
 11
52.419899999999998
 21
102.17100000000001
 31
0.0
  0
ARC
  5
7C
  8
0
 62
     7
 10
52.973215000000003
 20
102.869702
 30
0.0
 40
0.7188100000000001
 50
213.53475299999991
 51
249.36870799999991
  0
ARC
  5
7D
  8
0
 62
     7
 10
52.802391
 20
102.730056
 30
0.0
 40
0.4997580000000001
 50
198.542215
 51
211.00810100000001
  0
LINE
  5
7E
  8
0
 62
     7
 10
52.328600000000002
 20
102.5709999999999
 30
0.0
 11
52.295200000000001
 21
102.67100000000001
 31
0.0
  0
LINE
  5
7F
  8
0
 62
     7
 10
52.295200000000001
 20
102.67100000000001
 30
0.0
 11
52.295200000000001
 21
102.821
 31
0.0
  0
LINE
  5
80
  8
0
 62
     7
 10
52.295200000000001
 20
102.821
 30
0.0
 11
52.344799999999999
 21
102.996
 31
0.0
  0
LINE
  5
81
  8
0
 62
     7
 10
55.620399999999989
 20
102.996
 30
0.0
 11
55.595599999999997
 21
102.996
 31
0.0
  0
ARC
  5
82
  8
0
 62
     7
 10
-51.567952000000012
 20
87.714947999999993
 30
0.0
 40
108.272147
 50
8.0201609999999999
 51
8.1136999999999997
  0
LINE
  5
83
  8
0
 62
     7
 10
55.645200000000003
 20
102.821
 30
0.0
 11
55.645200000000003
 21
102.67100000000001
 31
0.0
  0
LINE
  5
84
  8
0
 62
     7
 10
55.645200000000003
 20
102.67100000000001
 30
0.0
 11
55.6128
 21
102.5709999999999
 31
0.0
  0
ARC
  5
85
  8
0
 62
     7
 10
54.552387000000003
 20
102.925755
 30
0.0
 40
1.118144
 50
336.69200499999999
 51
341.50912399999999
  0
ARC
  5
86
  8
0
 62
     7
 10
55.141550999999993
 20
102.670638
 30
0.0
 40
0.476119
 50
317.68233300000003
 51
336.83411899999987
  0
ARC
  5
87
  8
0
 62
     7
 10
55.210900000000002
 20
102.62609499999991
 30
0.0
 40
0.395092
 50
305.28519899999998
 51
315.687634
  0
ARC
  5
88
  8
0
 62
     7
 10
55.018497000000004
 20
102.90330899999989
 30
0.0
 40
0.732526
 50
297.606561
 51
305.04457000000002
  0
ARC
  5
89
  8
0
 62
     7
 10
53.254322999999999
 20
106.2733179999999
 30
0.0
 40
4.5363749999999987
 50
296.02710400000001
 51
297.62765899999988
  0
LINE
  5
8A
  8
0
 62
     7
 10
55.244900000000001
 20
102.197
 30
0.0
 11
55.220100000000002
 21
102.197
 31
0.0
  0
LINE
  5
8B
  8
0
 62
     7
 10
55.420200000000001
 20
103.42100000000001
 30
0.0
 11
52.544600000000003
 21
103.42100000000001
 31
0.0
  0
LINE
  5
8C
  8
0
 62
     7
 10
55.420200000000001
 20
105.422
 30
0.0
 11
53.970199999999998
 21
105.422
 31
0.0
  0
LINE
  5
8D
  8
0
 62
     7
 10
53.970199999999998
 20
105.422
 30
0.0
 11
52.544600000000003
 21
105.422
 31
0.0
  0
LINE
  5
8E
  8
0
 62
     7
 10
52.295200000000001
 20
105.971
 30
0.0
 11
52.295200000000001
 21
105.84699999999999
 31
0.0
  0
LINE
  5
8F
  8
0
 62
     7
 10
52.295200000000001
 20
105.84699999999999
 30
0.0
 11
52.369900000000001
 21
105.7209999999999
 31
0.0
  0
LINE
  5
90
  8
0
 62
     7
 10
55.67029999999999
 20
105.971
 30
0.0
 11
55.645200000000003
 21
105.84699999999999
 31
0.0
  0
LINE
  5
91
  8
0
 62
     7
 10
55.645200000000003
 20
105.84699999999999
 30
0.0
 11
55.595599999999997
 21
105.7209999999999
 31
0.0
  0
LINE
  5
92
  8
0
 62
     7
 10
55.67029999999999
 20
106.672
 30
0.0
 11
52.295200000000001
 21
106.672
 31
0.0
  0
LINE
  5
93
  8
0
 62
     7
 10
55.67029999999999
 20
106.672
 30
0.0
 11
55.67029999999999
 21
105.971
 31
0.0
  0
LINE
  5
94
  8
0
 62
     7
 10
52.295200000000001
 20
106.672
 30
0.0
 11
52.295200000000001
 21
105.971
 31
0.0
  0
LINE
  5
95
  8
0
 62
     7
 10
51.669499999999992
 20
102.04600000000001
 30
0.0
 11
51.2196
 21
101.79599999999991
 31
0.0
  0
LINE
  5
96
  8
0
 62
     7
 10
56.270800000000001
 20
102.04600000000001
 30
0.0
 11
56.720100000000002
 21
101.79599999999991
 31
0.0
  0
LINE
  5
97
  8
0
 62
     7
 10
55.595599999999997
 20
105.7209999999999
 30
0.0
 11
55.420200000000001
 21
105.422
 31
0.0
  0
LINE
  5
98
  8
0
 62
     7
 10
55.420200000000001
 20
103.42100000000001
 30
0.0
 11
55.595599999999997
 21
102.996
 31
0.0
  0
LINE
  5
99
  8
0
 62
     7
 10
52.369900000000001
 20
105.7209999999999
 30
0.0
 11
52.544600000000003
 21
105.422
 31
0.0
  0
LINE
  5
9A
  8
0
 62
     7
 10
52.544600000000003
 20
103.42100000000001
 30
0.0
 11
52.344799999999999
 21
102.996
 31
0.0
  0
LINE
  5
9B
  8
0
 62
     7
 10
55.420200000000001
 20
105.422
 30
0.0
 11
55.420200000000001
 21
103.42100000000001
 31
0.0
  0
LINE
  5
9C
  8
0
 62
     7
 10
52.544600000000003
 20
105.422
 30
0.0
 11
52.544600000000003
 21
103.42100000000001
 31
0.0
  0
LINE
  5
9D
  8
0
 62
     7
 10
55.520499999999998
 20
102.17100000000001
 30
0.0
 11
55.520499999999998
 21
102.04600000000001
 31
0.0
  0
LINE
  5
9E
  8
0
 62
     7
 10
52.419899999999998
 20
102.17100000000001
 30
0.0
 11
52.419899999999998
 21
102.04600000000001
 31
0.0
  0
LINE
  5
9F
  8
0
 62
     7
 10
56.720100000000002
 20
99.170100000000005
 30
0.0
 11
56.270800000000001
 21
98.920699999999997
 31
0.0
  0
LINE
  5
A0
  8
0
 62
     7
 10
51.2196
 20
99.170100000000005
 30
0.0
 11
51.669499999999992
 21
98.920699999999997
 31
0.0
  0
LINE
  5
A1
  8
0
  6
AIGENLINE001
 62
     7
 10
70.354799999999983
 20
111.47
 30
0.0
 11
82.236699999999999
 21
128.73699999999991
 31
0.0
  0
LINE
  5
A2
  8
0
  6
AIGENLINE001
 62
     7
 10
125.852
 20
128.73699999999991
 30
0.0
 11
147.55600000000001
 21
111.081
 31
0.0
  0
LINE
  5
A3
  8
0
 62
     7
 10
145.80600000000001
 20
138.98799999999989
 30
0.0
 11
146.30699999999999
 21
139.625
 31
0.0
  0
LINE
  5
A4
  8
0
 62
     7
 10
141.80600000000001
 20
141.23799999999989
 30
0.0
 11
141.80600000000001
 21
139.36299999999989
 31
0.0
  0
LINE
  5
A5
  8
0
 62
     7
 10
141.80600000000001
 20
139.36299999999989
 30
0.0
 11
152.55600000000001
 21
139.988
 31
0.0
  0
LINE
  5
A6
  8
0
 62
     7
 10
144.05600000000001
 20
133.238
 30
0.0
 11
144.55600000000001
 21
133.238
 31
0.0
  0
LINE
  5
A7
  8
0
 62
     7
 10
143.55600000000001
 20
132.738
 30
0.0
 11
143.55600000000001
 21
135.488
 31
0.0
  0
LINE
  5
A8
  8
0
 62
     7
 10
145.05600000000001
 20
132.738
 30
0.0
 11
145.05600000000001
 21
135.488
 31
0.0
  0
LINE
  5
A9
  8
0
 62
     7
 10
144.05600000000001
 20
132.738
 30
0.0
 11
144.05600000000001
 21
133.238
 31
0.0
  0
LINE
  5
AA
  8
0
 62
     7
 10
144.55600000000001
 20
132.738
 30
0.0
 11
144.55600000000001
 21
133.238
 31
0.0
  0
LINE
  5
AB
  8
0
 62
     7
 10
145.93100000000001
 20
132.738
 30
0.0
 11
145.93100000000001
 21
135.488
 31
0.0
  0
LINE
  5
AC
  8
0
 62
     7
 10
142.68100000000001
 20
132.738
 30
0.0
 11
142.68100000000001
 21
135.488
 31
0.0
  0
LINE
  5
AD
  8
0
 62
     7
 10
144.55600000000001
 20
132.738
 30
0.0
 11
145.93100000000001
 21
132.738
 31
0.0
  0
LINE
  5
AE
  8
0
 62
     7
 10
142.68100000000001
 20
132.738
 30
0.0
 11
144.05600000000001
 21
132.738
 31
0.0
  0
LINE
  5
AF
  8
0
 62
     7
 10
142.68100000000001
 20
135.488
 30
0.0
 11
145.93100000000001
 21
135.488
 31
0.0
  0
LINE
  5
B0
  8
0
 62
     7
 10
142.05600000000001
 20
138.98799999999989
 30
0.0
 11
141.80600000000001
 21
139.36299999999989
 31
0.0
  0
LINE
  5
B1
  8
0
 62
     7
 10
145.80600000000001
 20
138.98799999999989
 30
0.0
 11
145.80600000000001
 21
135.488
 31
0.0
  0
LINE
  5
B2
  8
0
 62
     7
 10
142.80600000000001
 20
138.98799999999989
 30
0.0
 11
142.80600000000001
 21
135.488
 31
0.0
  0
LINE
  5
B3
  8
0
 62
     7
 10
145.80600000000001
 20
138.98799999999989
 30
0.0
 11
142.05600000000001
 21
138.98799999999989
 31
0.0
  0
LINE
  5
B4
  8
0
 62
     7
 10
145.18100000000001
 20
149.988
 30
0.0
 11
145.18100000000001
 21
141.23799999999989
 31
0.0
  0
LINE
  5
B5
  8
0
 62
     7
 10
143.43100000000001
 20
149.988
 30
0.0
 11
143.43100000000001
 21
141.23799999999989
 31
0.0
  0
LINE
  5
B6
  8
0
 62
     7
 10
141.80600000000001
 20
140.739
 30
0.0
 11
152.55600000000001
 21
140.739
 31
0.0
  0
LINE
  5
B7
  8
0
 62
     7
 10
141.80600000000001
 20
141.23799999999989
 30
0.0
 11
152.55600000000001
 21
141.23799999999989
 31
0.0
  0
LINE
  5
B8
  8
0
  6
AIGENLINE001
 62
     7
 10
144.30600000000001
 20
152.97900000000001
 30
0.0
 11
144.30600000000001
 21
131.16
 31
0.0
  0
LINE
  5
B9
  8
0
 62
     7
 10
152.55600000000001
 20
141.23799999999989
 30
0.0
 11
152.55600000000001
 21
139.988
 31
0.0
  0
LINE
  5
BA
  8
0
 62
     7
 10
83.549300000000017
 20
106.672
 30
0.0
 11
83.549300000000017
 21
124.729
 31
0.0
  0
LINE
  5
BB
  8
0
 62
     7
 10
80.924099999999996
 20
124.729
 30
0.0
 11
80.924099999999996
 21
106.672
 31
0.0
  0
LINE
  5
BC
  8
0
  6
AIGENLINE001
 62
     7
 10
82.236699999999999
 20
128.73699999999991
 30
0.0
 11
82.236699999999999
 21
97.708299999999994
 31
0.0
  0
LINE
  5
BD
  8
0
 62
     7
 10
127.16500000000001
 20
106.672
 30
0.0
 11
127.16500000000001
 21
124.729
 31
0.0
  0
LINE
  5
BE
  8
0
 62
     7
 10
124.54000000000001
 20
124.729
 30
0.0
 11
124.54000000000001
 21
106.672
 31
0.0
  0
LINE
  5
BF
  8
0
 62
     7
 10
148.869
 20
116.04600000000001
 30
0.0
 11
148.869
 21
139.785
 31
0.0
  0
LINE
  5
C0
  8
0
 62
     7
 10
148.869
 20
141.23799999999989
 30
0.0
 11
148.869
 21
149.988
 31
0.0
  0
LINE
  5
C1
  8
0
 62
     7
 10
146.24399999999989
 20
149.988
 30
0.0
 11
146.24399999999989
 21
141.23799999999989
 31
0.0
  0
LINE
  5
C2
  8
0
 62
     7
 10
146.24399999999989
 20
139.5449999999999
 30
0.0
 11
146.24399999999989
 21
116.04600000000001
 31
0.0
  0
LINE
  5
C3
  8
0
 62
     7
 10
68.729699999999994
 20
248.703
 30
0.0
 11
68.729699999999994
 21
242.917
 31
0.0
  0
LINE
  5
C4
  8
0
 62
     7
 10
67.479900000000001
 20
248.703
 30
0.0
 11
67.479900000000001
 21
242.917
 31
0.0
  0
LINE
  5
C5
  8
0
 62
     7
 10
68.729699999999994
 20
248.703
 30
0.0
 11
67.479900000000001
 21
248.703
 31
0.0
  0
LINE
  5
C6
  8
0
  6
AIGENLINE001
 62
     7
 10
76.902600000000007
 20
237.453
 30
0.0
 11
59.594999999999999
 21
237.453
 31
0.0
  0
LINE
  5
C7
  8
0
  6
AIGENLINE001
 62
     7
 10
49.686700000000002
 20
219.035
 30
0.0
 11
51.430100000000003
 21
220.77799999999999
 31
0.0
  0
LINE
  5
C8
  8
0
  6
AIGENLINE001
 62
     7
 10
51.8645
 20
221.21299999999999
 30
0.0
 11
68.104600000000005
 21
237.453
 31
0.0
  0
LINE
  5
C9
  8
0
  6
AIGENLINE002
 62
     7
 10
60.107799999999997
 20
231.75399999999999
 30
0.0
 11
51.3996
 21
223.04599999999991
 31
0.0
  0
LINE
  5
CA
  8
0
  6
AIGENLINE002
 62
     7
 10
62.405700000000003
 20
229.45599999999999
 30
0.0
 11
53.697800000000001
 21
220.74799999999991
 31
0.0
  0
LINE
  5
CB
  8
0
  6
AIGENLINE002
 62
     7
 10
51.3996
 20
223.04599999999991
 30
0.0
 11
53.697800000000001
 21
220.74799999999991
 31
0.0
  0
LINE
  5
CC
  8
0
 62
     7
 10
65.907700000000006
 20
212.63499999999991
 30
0.0
 11
68.104600000000005
 21
211.989
 31
0.0
  0
LINE
  5
CD
  8
0
 62
     7
 10
68.104600000000005
 20
211.989
 30
0.0
 11
65.879400000000004
 21
211.44999999999999
 31
0.0
  0
LINE
  5
CE
  8
0
 62
     7
 10
65.879400000000004
 20
211.44999999999999
 30
0.0
 11
65.907700000000006
 21
212.63499999999991
 31
0.0
  0
LINE
  5
CF
  8
0
 62
     7
 10
51.367400000000004
 20
217.54099999999991
 30
0.0
 11
50.09920000000001
 21
219.44699999999989
 31
0.0
  0
LINE
  5
D0
  8
0
 62
     7
 10
50.09920000000001
 20
219.44699999999989
 30
0.0
 11
52.150500000000001
 21
218.42999999999989
 31
0.0
  0
LINE
  5
D1
  8
0
 62
     7
 10
52.150500000000001
 20
218.42999999999989
 30
0.0
 11
51.367400000000004
 21
217.54099999999991
 31
0.0
  0
LINE
  5
D2
  8
0
  6
AIGENLINE001
 62
     7
 10
86.522599999999997
 20
219.035
 30
0.0
 11
84.779200000000003
 21
220.77799999999999
 31
0.0
  0
LINE
  5
D3
  8
0
  6
AIGENLINE001
 62
     7
 10
84.344700000000003
 20
221.21299999999999
 30
0.0
 11
68.104600000000005
 21
237.453
 31
0.0
  0
LINE
  5
D4
  8
0
  6
AIGENLINE002
 62
     7
 10
76.101399999999998
 20
231.75399999999999
 30
0.0
 11
84.809700000000007
 21
223.04599999999991
 31
0.0
  0
LINE
  5
D5
  8
0
  6
AIGENLINE002
 62
     7
 10
73.803499999999985
 20
229.45599999999999
 30
0.0
 11
82.511399999999995
 21
220.74799999999991
 31
0.0
  0
LINE
  5
D6
  8
0
  6
AIGENLINE002
 62
     7
 10
84.809700000000007
 20
223.04599999999991
 30
0.0
 11
82.511399999999995
 21
220.74799999999991
 31
0.0
  0
LINE
  5
D7
  8
0
  6
AIGENLINE001
 62
     7
 10
68.104799999999997
 20
204.78200000000001
 30
0.0
 11
68.104799999999997
 21
250.54699999999991
 31
0.0
  0
LINE
  5
D8
  8
0
 62
     7
 10
69.729500000000002
 20
228.703
 30
0.0
 11
70.604900000000001
 21
228.703
 31
0.0
  0
LINE
  5
D9
  8
0
 62
     7
 10
65.604299999999995
 20
228.703
 30
0.0
 11
66.479699999999994
 21
228.703
 31
0.0
  0
LINE
  5
DA
  8
0
 62
     7
 10
70.604600000000005
 20
231.708
 30
0.0
 11
70.604600000000005
 21
208.70199999999991
 31
0.0
  0
ARC
  5
DB
  8
0
 62
     7
 10
72.131772999999995
 20
231.6940109999999
 30
0.0
 40
1.5272619999999999
 50
125.382615
 51
179.46570399999999
  0
LINE
  5
DC
  8
0
 62
     7
 10
65.604699999999994
 20
231.708
 30
0.0
 11
65.604699999999994
 21
208.70199999999991
 31
0.0
  0
ARC
  5
DD
  8
0
 62
     7
 10
64.078306999999995
 20
231.6946879999999
 30
0.0
 40
1.5264319999999989
 50
0.509144
 51
54.617295999999989
  0
ARC
  5
DE
  8
0
 62
     7
 10
67.566206000000008
 20
208.71045699999999
 30
0.0
 40
1.9615439999999991
 50
180.233971
 51
221.68746899999999
  0
ARC
  5
DF
  8
0
 62
     7
 10
67.947799000000003
 20
209.00930600000001
 30
0.0
 40
2.4454569999999989
 50
220.9702969999999
 51
253.30226499999989
  0
ARC
  5
E0
  8
0
 62
     7
 10
68.096055000000007
 20
209.35392799999991
 30
0.0
 40
2.818473
 50
252.42836800000001
 51
270.17780299999993
  0
ARC
  5
E1
  8
0
 62
     7
 10
68.098650000000006
 20
209.34765300000001
 30
0.0
 40
2.812190999999999
 50
270.1253220000001
 51
306.29297800000001
  0
ARC
  5
E2
  8
0
 62
     7
 10
68.383009000000001
 20
208.87545800000001
 30
0.0
 40
2.2638439999999989
 50
307.566259
 51
336.76352200000002
  0
ARC
  5
E3
  8
0
 62
     7
 10
68.681578999999985
 20
208.70597599999991
 30
0.0
 40
1.9230020000000001
 50
337.89405599999998
 51
359.89488799999998
  0
LINE
  5
E4
  8
0
 62
     7
 10
66.480099999999993
 20
230.453
 30
0.0
 11
69.729500000000002
 21
230.453
 31
0.0
  0
LINE
  5
E5
  8
0
 62
     7
 10
69.729500000000002
 20
231.672
 30
0.0
 11
69.729500000000002
 21
215.453
 31
0.0
  0
ARC
  5
E6
  8
0
 62
     7
 10
70.498062000000004
 20
231.65902199999999
 30
0.0
 40
0.768649
 50
113.2527
 51
179.05242999999999
  0
LINE
  5
E7
  8
0
 62
     7
 10
66.479699999999994
 20
231.672
 30
0.0
 11
66.479699999999994
 21
215.453
 31
0.0
  0
ARC
  5
E8
  8
0
 62
     7
 10
65.711677000000009
 20
231.65934599999991
 30
0.0
 40
0.7681620000000001
 50
0.9240389999999997
 51
66.770792
  0
ARC
  5
E9
  8
0
 62
     7
 10
68.104799999999997
 20
237.45298399999999
 30
0.0
 40
5.4997860000000003
 50
0.00001
 51
89.999980000000008
  0
ARC
  5
EA
  8
0
 62
     7
 10
68.104629000000003
 20
237.45281199999999
 30
0.0
 40
5.4999580000000003
 50
89.998206000000025
 51
179.998176
  0
ARC
  5
EB
  8
0
 62
     7
 10
68.104799999999997
 20
237.45298399999999
 30
0.0
 40
5.5001290000000003
 50
179.99996999999991
 51
270.00002000000001
  0
ARC
  5
EC
  8
0
 62
     7
 10
68.104627000000008
 20
237.45281399999999
 30
0.0
 40
5.4999580000000003
 50
270.00181400000002
 51
0.001785
  0
LINE
  5
ED
  8
0
 62
     7
 10
69.729500000000002
 20
215.453
 30
0.0
 11
66.479699999999994
 21
215.453
 31
0.0
  0
ARC
  5
EE
  8
0
 62
     7
 10
67.934325000000001
 20
237.56850600000001
 30
0.0
 40
6.9214580000000003
 50
292.69301000000002
 51
359.04367200000002
  0
ARC
  5
EF
  8
0
 62
     7
 10
68.104831000000004
 20
237.45295999999999
 30
0.0
 40
6.7500989999999996
 50
95.312468000000024
 51
185.31202699999989
  0
ARC
  5
F0
  8
0
 62
     7
 10
68.243692999999993
 20
237.5568669999999
 30
0.0
 40
6.8985789999999989
 50
186.0645659999999
 51
247.51172399999999
  0
ARC
  5
F1
  8
0
 62
     7
 10
67.866740000000007
 20
237.23604399999999
 30
0.0
 40
6.9914459999999998
 50
1.7781459999999989
 51
82.912316000000004
  0
LINE
  5
F2
  8
0
 62
     7
 10
71.667100000000005
 20
116.04600000000001
 30
0.0
 11
71.667100000000005
 21
139.36299999999989
 31
0.0
  0
LINE
  5
F3
  8
0
 62
     7
 10
69.042199999999994
 20
116.04600000000001
 30
0.0
 11
69.042199999999994
 21
132.738
 31
0.0
  0
LINE
  5
F4
  8
0
 62
     7
 10
71.667100000000005
 20
141.23799999999989
 30
0.0
 11
71.667100000000005
 21
149.989
 31
0.0
  0
LINE
  5
F5
  8
0
 62
     7
 10
69.042199999999994
 20
141.23799999999989
 30
0.0
 11
69.042199999999994
 21
149.989
 31
0.0
  0
LINE
  5
F6
  8
0
  6
AIGENLINE001
 62
     7
 10
70.354799999999983
 20
111.47
 30
0.0
 11
70.354799999999983
 21
152.523
 31
0.0
  0
LINE
  5
F7
  8
0
 62
     7
 10
84.989999999999995
 20
101.79599999999991
 30
0.0
 11
84.989999999999995
 21
99.170100000000005
 31
0.0
  0
LINE
  5
F8
  8
0
 62
     7
 10
83.614399999999989
 20
101.79599999999991
 30
0.0
 11
83.614399999999989
 21
99.170100000000005
 31
0.0
  0
ARC
  5
F9
  8
0
 62
     7
 10
81.402067999999986
 20
107.526099
 30
0.0
 40
9.0937260000000002
 50
291.69582700000001
 51
293.23800299999999
  0
ARC
  5
FA
  8
0
 62
     7
 10
84.076611999999983
 20
100.84209299999991
 30
0.0
 40
1.894547
 50
281.78296999999998
 51
291.26814100000001
  0
ARC
  5
FB
  8
0
 62
     7
 10
84.282120999999989
 20
99.934877999999998
 30
0.0
 40
0.9646139999999999
 50
270.46569699999998
 51
280.83723800000001
  0
ARC
  5
FC
  8
0
 62
     7
 10
84.291039999999995
 20
99.884878000000015
 30
0.0
 40
0.914583
 50
257.58951500000001
 51
269.93242700000002
  0
ARC
  5
FD
  8
0
 62
     7
 10
84.413011999999995
 20
100.501463
 30
0.0
 40
1.543032
 50
247.18136200000001
 51
258.086771
  0
ARC
  5
FE
  8
0
 62
     7
 10
84.870649999999983
 20
101.670813
 30
0.0
 40
2.798524
 50
243.326449
 51
247.82977500000001
  0
ARC
  5
FF
  8
0
 62
     7
 10
84.369279999999989
 20
100.6807229999999
 30
0.0
 40
1.346730999999999
 50
97.366204999999994
 51
124.0936549999999
  0
ARC
  5
100
  8
0
 62
     7
 10
84.290846999999999
 20
101.122381
 30
0.0
 40
0.89891
 50
90.056438999999997
 51
96.017324000000016
  0
ARC
  5
101
  8
0
 62
     7
 10
84.289168000000004
 20
101.102267
 30
0.0
 40
0.919024
 50
77.812161000000003
 51
89.950501000000003
  0
ARC
  5
102
  8
0
 62
     7
 10
84.197733999999997
 20
100.631632
 30
0.0
 40
1.39839
 50
66.609766000000008
 51
78.221337000000005
  0
ARC
  5
103
  8
0
 62
     7
 10
83.968547999999984
 20
100.0582749999999
 30
0.0
 40
2.0156900000000002
 50
59.552059999999997
 51
67.100557999999992
  0
LINE
  5
104
  8
0
 62
     7
 10
79.489500000000007
 20
101.79599999999991
 30
0.0
 11
79.489500000000007
 21
99.170100000000005
 31
0.0
  0
LINE
  5
105
  8
0
 62
     7
 10
80.864099999999979
 20
101.79599999999991
 30
0.0
 11
80.864099999999979
 21
99.170100000000005
 31
0.0
  0
ARC
  5
106
  8
0
 62
     7
 10
77.752307999999999
 20
106.38472
 30
0.0
 40
7.8571009999999992
 50
291.54736400000002
 51
293.33167400000002
  0
ARC
  5
107
  8
0
 62
     7
 10
79.910274000000001
 20
100.946003
 30
0.0
 40
2.0059399999999998
 50
282.220686
 51
291.27096399999999
  0
ARC
  5
108
  8
0
 62
     7
 10
80.17870400000001
 20
99.775436999999997
 30
0.0
 40
0.805211
 50
270.74959799999999
 51
281.18421000000001
  0
ARC
  5
109
  8
0
 62
     7
 10
80.190045999999995
 20
99.875848000000005
 30
0.0
 40
0.9055530000000001
 50
257.79862099999991
 51
269.94890800000002
  0
ARC
  5
10A
  8
0
 62
     7
 10
80.289568000000017
 20
100.41104899999991
 30
0.0
 40
1.449784
 50
252.93508600000001
 51
258.42462499999999
  0
ARC
  5
10B
  8
0
 62
     7
 10
80.535493999999986
 20
101.209793
 30
0.0
 40
2.2855310000000002
 50
248.53023799999991
 51
252.91747899999999
  0
ARC
  5
10C
  8
0
 62
     7
 10
81.998642999999987
 20
104.89732099999991
 30
0.0
 40
6.2527229999999996
 50
246.3416399999999
 51
248.42074599999989
  0
ARC
  5
10D
  8
0
 62
     7
 10
80.498223999999993
 20
100.068006
 30
0.0
 40
2.0008369999999989
 50
107.934827
 51
120.27382
  0
ARC
  5
10E
  8
0
 62
     7
 10
80.213763
 20
100.8952639999999
 30
0.0
 40
1.126295
 50
91.247660999999979
 51
107.126132
  0
ARC
  5
10F
  8
0
 62
     7
 10
80.188512999999986
 20
101.2531139999999
 30
0.0
 40
0.7681770000000001
 50
76.151604000000006
 51
89.945862000000005
  0
ARC
  5
110
  8
0
 62
     7
 10
80.046083999999993
 20
100.5792129999999
 30
0.0
 40
1.4567619999999999
 50
65.825008999999994
 51
77.056725999999983
  0
ARC
  5
111
  8
0
 62
     7
 10
79.801969999999997
 20
99.974654000000015
 30
0.0
 40
2.108417999999999
 50
59.749975999999997
 51
66.501046999999986
  0
ARC
  5
112
  8
0
 62
     7
 10
84.879975000000002
 20
92.815978999999984
 30
0.0
 40
6.4789459999999988
 50
101.26460999999991
 51
103.237543
  0
ARC
  5
113
  8
0
 62
     7
 10
81.908974000000001
 20
104.7761949999999
 30
0.0
 40
5.8458110000000003
 50
278.62399199999987
 51
284.7402699999999
  0
ARC
  5
114
  8
0
 62
     7
 10
82.439368000000002
 20
101.260293
 30
0.0
 40
2.2901310000000001
 50
270.61751499999991
 51
278.69428199999987
  0
LINE
  5
115
  8
0
 62
     7
 10
82.463999999999984
 20
98.970299999999995
 30
0.0
 11
82.014799999999994
 21
98.970299999999995
 31
0.0
  0
ARC
  5
116
  8
0
 62
     7
 10
82.015127000000007
 20
100.93112099999991
 30
0.0
 40
1.9608259999999991
 50
261.53959300000002
 51
269.990634
  0
ARC
  5
117
  8
0
 62
     7
 10
82.228413000000003
 20
102.58177999999999
 30
0.0
 40
3.6250429999999998
 50
258.55075499999992
 51
262.04363799999999
  0
ARC
  5
118
  8
0
 62
     7
 10
83.632559999999984
 20
109.4084789999999
 30
0.0
 40
10.594639999999989
 50
256.53393899999998
 51
258.43661400000002
  0
ARC
  5
119
  8
0
 62
     7
 10
79.727694
 20
93.172921000000017
 30
0.0
 40
6.103917
 50
76.376726000000005
 51
79.269905000000008
  0
ARC
  5
11A
  8
0
 62
     7
 10
82.115762000000004
 20
98.100421999999995
 30
0.0
 40
3.9017589999999989
 50
102.8410529999999
 51
108.710385
  0
ARC
  5
11B
  8
0
 62
     7
 10
82.345196999999985
 20
97.274798000000004
 30
0.0
 40
4.7578949999999987
 50
94.332815999999994
 51
103.325208
  0
ARC
  5
11C
  8
0
 62
     7
 10
82.132326000000006
 20
99.739621000000014
 30
0.0
 40
2.2841830000000001
 50
87.312504999999987
 51
93.679501000000016
  0
ARC
  5
11D
  8
0
 62
     7
 10
82.322795999999997
 20
100.603488
 30
0.0
 40
1.4202520000000001
 50
88.966301999999999
 51
93.365144999999984
  0
ARC
  5
11E
  8
0
 62
     7
 10
82.308291999999994
 20
99.437046999999993
 30
0.0
 40
2.5867729999999991
 50
85.190771999999996
 51
89.111204999999998
  0
ARC
  5
11F
  8
0
 62
     7
 10
82.112266000000005
 20
97.137321999999998
 30
0.0
 40
4.894836999999999
 50
72.128924999999995
 51
85.161139999999989
  0
LINE
  5
120
  8
0
 62
     7
 10
83.489699999999985
 20
102.197
 30
0.0
 11
82.239400000000003
 21
102.197
 31
0.0
  0
LINE
  5
121
  8
0
 62
     7
 10
80.989500000000007
 20
102.197
 30
0.0
 11
82.239400000000003
 21
102.197
 31
0.0
  0
LINE
  5
122
  8
0
 62
     7
 10
79.938800000000001
 20
98.920699999999997
 30
0.0
 11
82.239400000000003
 21
98.920699999999997
 31
0.0
  0
LINE
  5
123
  8
0
 62
     7
 10
82.239400000000003
 20
98.920699999999997
 30
0.0
 11
84.540099999999995
 21
98.920699999999997
 31
0.0
  0
LINE
  5
124
  8
0
 62
     7
 10
84.840100000000007
 20
99.120500000000007
 30
0.0
 11
84.540099999999995
 21
98.945499999999996
 31
0.0
  0
LINE
  5
125
  8
0
 62
     7
 10
84.540099999999995
 20
98.945499999999996
 30
0.0
 11
84.540099999999995
 21
98.920699999999997
 31
0.0
  0
LINE
  5
126
  8
0
 62
     7
 10
84.989999999999995
 20
99.170100000000005
 30
0.0
 11
84.540099999999995
 21
98.945499999999996
 31
0.0
  0
LINE
  5
127
  8
0
 62
     7
 10
79.489500000000007
 20
99.170100000000005
 30
0.0
 11
79.938800000000001
 21
98.920699999999997
 31
0.0
  0
LINE
  5
128
  8
0
 62
     7
 10
79.938800000000001
 20
102.04600000000001
 30
0.0
 11
84.540099999999995
 21
102.04600000000001
 31
0.0
  0
LINE
  5
129
  8
0
 62
     7
 10
80.689099999999996
 20
102.17100000000001
 30
0.0
 11
83.789699999999996
 21
102.17100000000001
 31
0.0
  0
ARC
  5
12A
  8
0
 62
     7
 10
83.236385999999996
 20
102.869702
 30
0.0
 40
0.7188100000000001
 50
290.63131199999998
 51
326.46526699999993
  0
ARC
  5
12B
  8
0
 62
     7
 10
83.407210000000006
 20
102.730056
 30
0.0
 40
0.4997580000000001
 50
328.991919
 51
341.45780500000001
  0
LINE
  5
12C
  8
0
 62
     7
 10
83.880999999999986
 20
102.5709999999999
 30
0.0
 11
83.914400000000015
 21
102.67100000000001
 31
0.0
  0
LINE
  5
12D
  8
0
 62
     7
 10
83.914400000000015
 20
102.67100000000001
 30
0.0
 11
83.914400000000015
 21
102.821
 31
0.0
  0
LINE
  5
12E
  8
0
 62
     7
 10
83.914400000000015
 20
102.821
 30
0.0
 11
83.864800000000002
 21
102.996
 31
0.0
  0
LINE
  5
12F
  8
0
 62
     7
 10
80.589200000000005
 20
102.996
 30
0.0
 11
80.61399999999999
 21
102.996
 31
0.0
  0
ARC
  5
130
  8
0
 62
     7
 10
187.77755300000001
 20
87.714947999999993
 30
0.0
 40
108.272147
 50
171.88628
 51
171.97981899999991
  0
LINE
  5
131
  8
0
 62
     7
 10
80.564400000000006
 20
102.821
 30
0.0
 11
80.564400000000006
 21
102.67100000000001
 31
0.0
  0
LINE
  5
132
  8
0
 62
     7
 10
80.564400000000006
 20
102.67100000000001
 30
0.0
 11
80.596800000000002
 21
102.5709999999999
 31
0.0
  0
ARC
  5
133
  8
0
 62
     7
 10
81.657213999999996
 20
102.925755
 30
0.0
 40
1.118144
 50
198.49089599999991
 51
203.3080149999999
  0
ARC
  5
134
  8
0
 62
     7
 10
81.068049999999985
 20
102.670638
 30
0.0
 40
0.476119
 50
203.16589999999991
 51
222.31768700000001
  0
ARC
  5
135
  8
0
 62
     7
 10
80.998702000000009
 20
102.62609499999991
 30
0.0
 40
0.395092
 50
224.31238599999989
 51
234.71482099999989
  0
ARC
  5
136
  8
0
 62
     7
 10
81.191104000000024
 20
102.90330899999989
 30
0.0
 40
0.732526
 50
234.9554499999999
 51
242.39345900000001
  0
ARC
  5
137
  8
0
 62
     7
 10
82.955278000000007
 20
106.2733179999999
 30
0.0
 40
4.5363749999999987
 50
242.37235999999999
 51
243.972916
  0
LINE
  5
138
  8
0
 62
     7
 10
80.964699999999993
 20
102.197
 30
0.0
 11
80.989500000000007
 21
102.197
 31
0.0
  0
LINE
  5
139
  8
0
 62
     7
 10
80.789400000000015
 20
103.42100000000001
 30
0.0
 11
83.665000000000006
 21
103.42100000000001
 31
0.0
  0
LINE
  5
13A
  8
0
 62
     7
 10
80.789400000000015
 20
105.422
 30
0.0
 11
82.239400000000003
 21
105.422
 31
0.0
  0
LINE
  5
13B
  8
0
 62
     7
 10
82.239400000000003
 20
105.422
 30
0.0
 11
83.665000000000006
 21
105.422
 31
0.0
  0
LINE
  5
13C
  8
0
 62
     7
 10
83.914400000000015
 20
105.971
 30
0.0
 11
83.914400000000015
 21
105.84699999999999
 31
0.0
  0
LINE
  5
13D
  8
0
 62
     7
 10
83.914400000000015
 20
105.84699999999999
 30
0.0
 11
83.839699999999993
 21
105.7209999999999
 31
0.0
  0
LINE
  5
13E
  8
0
 62
     7
 10
80.539299999999983
 20
105.971
 30
0.0
 11
80.564400000000006
 21
105.84699999999999
 31
0.0
  0
LINE
  5
13F
  8
0
 62
     7
 10
80.564400000000006
 20
105.84699999999999
 30
0.0
 11
80.61399999999999
 21
105.7209999999999
 31
0.0
  0
LINE
  5
140
  8
0
 62
     7
 10
80.539299999999983
 20
106.672
 30
0.0
 11
83.914400000000015
 21
106.672
 31
0.0
  0
LINE
  5
141
  8
0
 62
     7
 10
80.539299999999983
 20
106.672
 30
0.0
 11
80.539299999999983
 21
105.971
 31
0.0
  0
LINE
  5
142
  8
0
 62
     7
 10
83.914400000000015
 20
106.672
 30
0.0
 11
83.914400000000015
 21
105.971
 31
0.0
  0
LINE
  5
143
  8
0
 62
     7
 10
84.540099999999995
 20
102.04600000000001
 30
0.0
 11
84.989999999999995
 21
101.79599999999991
 31
0.0
  0
LINE
  5
144
  8
0
 62
     7
 10
79.938800000000001
 20
102.04600000000001
 30
0.0
 11
79.489500000000007
 21
101.79599999999991
 31
0.0
  0
LINE
  5
145
  8
0
 62
     7
 10
80.61399999999999
 20
105.7209999999999
 30
0.0
 11
80.789400000000015
 21
105.422
 31
0.0
  0
LINE
  5
146
  8
0
 62
     7
 10
80.789400000000015
 20
103.42100000000001
 30
0.0
 11
80.61399999999999
 21
102.996
 31
0.0
  0
LINE
  5
147
  8
0
 62
     7
 10
83.839699999999993
 20
105.7209999999999
 30
0.0
 11
83.665000000000006
 21
105.422
 31
0.0
  0
LINE
  5
148
  8
0
 62
     7
 10
83.665000000000006
 20
103.42100000000001
 30
0.0
 11
83.864800000000002
 21
102.996
 31
0.0
  0
LINE
  5
149
  8
0
 62
     7
 10
80.789400000000015
 20
105.422
 30
0.0
 11
80.789400000000015
 21
103.42100000000001
 31
0.0
  0
LINE
  5
14A
  8
0
 62
     7
 10
83.665000000000006
 20
105.422
 30
0.0
 11
83.665000000000006
 21
103.42100000000001
 31
0.0
  0
LINE
  5
14B
  8
0
 62
     7
 10
80.689099999999996
 20
102.17100000000001
 30
0.0
 11
80.689099999999996
 21
102.04600000000001
 31
0.0
  0
LINE
  5
14C
  8
0
 62
     7
 10
83.789699999999996
 20
102.17100000000001
 30
0.0
 11
83.789699999999996
 21
102.04600000000001
 31
0.0
  0
LINE
  5
14D
  8
0
 62
     7
 10
79.489500000000007
 20
99.170100000000005
 30
0.0
 11
79.938800000000001
 21
98.920699999999997
 31
0.0
  0
LINE
  5
14E
  8
0
 62
     7
 10
84.989999999999995
 20
99.170100000000005
 30
0.0
 11
84.540099999999995
 21
98.920699999999997
 31
0.0
  0
LINE
  5
14F
  8
0
 62
     7
 10
67.167000000000002
 20
141.23799999999989
 30
0.0
 11
67.167000000000002
 21
149.989
 31
0.0
  0
LINE
  5
150
  8
0
 62
     7
 10
64.542199999999994
 20
141.23799999999989
 30
0.0
 11
64.542199999999994
 21
149.989
 31
0.0
  0
ARC
  5
151
  8
0
 62
     7
 10
68.104799999999997
 20
184.36338299999991
 30
0.0
 40
1.6250619999999989
 50
0.00001
 51
89.999980000000008
  0
ARC
  5
152
  8
0
 62
     7
 10
68.104800999999995
 20
184.36338299999991
 30
0.0
 40
1.6250619999999989
 50
90.0
 51
179.99996999999991
  0
ARC
  5
153
  8
0
 62
     7
 10
68.104799999999997
 20
184.36338299999991
 30
0.0
 40
1.6250619999999989
 50
179.99996999999991
 51
270.00002000000001
  0
ARC
  5
154
  8
0
 62
     7
 10
68.104799999999997
 20
184.363384
 30
0.0
 40
1.6250619999999989
 50
270.00002000000001
 51
359.99998999999991
  0
LINE
  5
155
  8
0
 62
     7
 10
70.604600000000005
 20
164.988
 30
0.0
 11
70.604600000000005
 21
172.48799999999989
 31
0.0
  0
LINE
  5
156
  8
0
 62
     7
 10
65.604699999999994
 20
164.988
 30
0.0
 11
65.604699999999994
 21
172.48799999999989
 31
0.0
  0
ARC
  5
157
  8
0
 62
     7
 10
68.104799999999997
 20
172.48840799999999
 30
0.0
 40
2.4997780000000001
 50
0.00001
 51
89.999980000000008
  0
ARC
  5
158
  8
0
 62
     7
 10
68.104629000000003
 20
172.488236
 30
0.0
 40
2.4999500000000001
 50
89.996052000000006
 51
179.99602200000001
  0
ARC
  5
159
  8
0
 62
     7
 10
69.650278999999983
 20
164.98707899999999
 30
0.0
 40
0.579472
 50
0.129457
 51
31.978764999999999
  0
ARC
  5
15A
  8
0
 62
     7
 10
69.402329000000009
 20
164.852565
 30
0.0
 40
0.8612049999999998
 50
30.833397000000001
 51
45.229658000000001
  0
ARC
  5
15B
  8
0
 62
     7
 10
69.099890000000002
 20
164.55988199999999
 30
0.0
 40
1.2820180000000001
 50
44.845952000000011
 51
57.319092999999988
  0
ARC
  5
15C
  8
0
 62
     7
 10
68.684951999999996
 20
163.9392169999999
 30
0.0
 40
2.0285250000000001
 50
56.92041600000001
 51
70.695104000000001
  0
ARC
  5
15D
  8
0
 62
     7
 10
68.244646000000003
 20
162.80644099999989
 30
0.0
 40
3.24343
 50
69.969770999999994
 51
84.899399000000017
  0
ARC
  5
15E
  8
0
 62
     7
 10
68.108124000000004
 20
161.89978199999999
 30
0.0
 40
4.1590049999999996
 50
84.136506000000026
 51
90.045768999999993
  0
ARC
  5
15F
  8
0
 62
     7
 10
68.104443000000003
 20
162.05761299999989
 30
0.0
 40
4.0011729999999996
 50
89.994866999999999
 51
105.65344
  0
ARC
  5
160
  8
0
 62
     7
 10
67.765911000000003
 20
163.40373600000001
 30
0.0
 40
2.6138989999999991
 50
106.46959099999989
 51
118.172556
  0
ARC
  5
161
  8
0
 62
     7
 10
67.271546999999984
 20
164.35993099999999
 30
0.0
 40
1.5376620000000001
 50
118.75572699999999
 51
134.73144599999989
  0
ARC
  5
162
  8
0
 62
     7
 10
66.793494999999993
 20
164.86768599999999
 30
0.0
 40
0.8406870000000001
 50
135.9402979999999
 51
156.417351
  0
ARC
  5
163
  8
0
 62
     7
 10
66.560885999999996
 20
164.98421099999999
 30
0.0
 40
0.581049
 50
157.771692
 51
179.588052
  0
ARC
  5
164
  8
0
 62
     7
 10
66.559907999999993
 20
164.9896929999999
 30
0.0
 40
0.580057
 50
180.12888000000001
 51
211.95719299999999
  0
ARC
  5
165
  8
0
 62
     7
 10
66.807462999999998
 20
165.12404099999989
 30
0.0
 40
0.8613709999999999
 50
210.82361199999991
 51
225.21667899999991
  0
ARC
  5
166
  8
0
 62
     7
 10
67.109662
 20
165.41665800000001
 30
0.0
 40
1.2819679999999991
 50
224.84278999999989
 51
237.3146109999999
  0
ARC
  5
167
  8
0
 62
     7
 10
67.522755000000004
 20
166.03395699999999
 30
0.0
 40
2.024648
 50
236.909325
 51
250.70914500000001
  0
ARC
  5
168
  8
0
 62
     7
 10
67.926783999999984
 20
167.06128100000001
 30
0.0
 40
3.1280489999999999
 50
249.940662
 51
261.19472000000002
  0
ARC
  5
169
  8
0
 62
     7
 10
68.093461000000005
 20
167.941114
 30
0.0
 40
4.0231399999999988
 50
260.767042
 51
270.16150699999992
  0
ARC
  5
16A
  8
0
 62
     7
 10
68.105145999999991
 20
167.92011599999989
 30
0.0
 40
4.0021250000000004
 50
269.99506700000001
 51
285.64758699999999
  0
ARC
  5
16B
  8
0
 62
     7
 10
68.444909999999993
 20
166.57055899999989
 30
0.0
 40
2.6112039999999999
 50
286.45574799999991
 51
298.17095399999999
  0
ARC
  5
16C
  8
0
 62
     7
 10
68.938695999999993
 20
165.61598499999999
 30
0.0
 40
1.536664
 50
298.74384700000002
 51
314.73155400000002
  0
ARC
  5
16D
  8
0
 62
     7
 10
69.415816000000007
 20
165.109173
 30
0.0
 40
0.8410149999999999
 50
315.93989900000003
 51
336.41384699999998
  0
ARC
  5
16E
  8
0
 62
     7
 10
69.64795500000001
 20
164.99264600000001
 30
0.0
 40
0.581809
 50
337.78348
 51
359.58071099999989
  0
ARC
  5
16F
  8
0
 62
     7
 10
69.925743000000011
 20
164.98695699999999
 30
0.0
 40
0.678836
 50
0.120802
 51
30.65066599999999
  0
ARC
  5
170
  8
0
 62
     7
 10
69.627557999999993
 20
164.83010399999989
 30
0.0
 40
1.0154700000000001
 50
29.687158
 51
48.318156000000002
  0
ARC
  5
171
  8
0
 62
     7
 10
69.214044000000001
 20
164.4060179999999
 30
0.0
 40
1.607405999999999
 50
47.36215399999999
 51
57.76720199999999
  0
ARC
  5
172
  8
0
 62
     7
 10
68.765186999999997
 20
163.7115169999999
 30
0.0
 40
2.4342959999999989
 50
57.549193000000002
 51
71.146318999999991
  0
ARC
  5
173
  8
0
 62
     7
 10
68.271828999999997
 20
162.41637399999999
 30
0.0
 40
3.819685999999999
 50
70.420895000000002
 51
84.026993999999988
  0
ARC
  5
174
  8
0
 62
     7
 10
68.110844
 20
161.39742899999999
 30
0.0
 40
4.850153999999999
 50
83.388122999999979
 51
90.071380000000005
  0
ARC
  5
175
  8
0
 62
     7
 10
68.105222999999995
 20
161.474366
 30
0.0
 40
4.7732130000000002
 50
90.005054999999999
 51
103.8005779999999
  0
ARC
  5
176
  8
0
 62
     7
 10
67.79995799999999
 20
162.85638299999999
 30
0.0
 40
3.3584369999999999
 50
104.367306
 51
115.0143579999999
  0
ARC
  5
177
  8
0
 62
     7
 10
67.287875
 20
163.992265
 30
0.0
 40
2.1126290000000001
 50
115.45513800000001
 51
129.2529669999999
  0
ARC
  5
178
  8
0
 62
     7
 10
66.734151999999995
 20
164.70190500000001
 30
0.0
 40
1.212915999999999
 50
130.20917299999991
 51
146.98605800000001
  0
ARC
  5
179
  8
0
 62
     7
 10
66.350201999999996
 20
164.96861299999989
 30
0.0
 40
0.745786
 50
148.096431
 51
178.480557
  0
ARC
  5
17A
  8
0
 62
     7
 10
66.284012000000004
 20
164.98981499999999
 30
0.0
 40
0.679334
 50
180.12030699999991
 51
210.64004899999989
  0
ARC
  5
17B
  8
0
 62
     7
 10
66.581645999999992
 20
165.146252
 30
0.0
 40
1.0152849999999991
 50
209.67553100000001
 51
228.31329299999999
  0
ARC
  5
17C
  8
0
 62
     7
 10
66.995306999999997
 20
165.57033899999999
 30
0.0
 40
1.607324
 50
227.35518799999991
 51
237.76255199999991
  0
ARC
  5
17D
  8
0
 62
     7
 10
67.443838999999997
 20
166.264216
 30
0.0
 40
2.4335139999999988
 50
237.54467799999989
 51
251.14778899999999
  0
ARC
  5
17E
  8
0
 62
     7
 10
67.937071000000003
 20
167.55801899999989
 30
0.0
 40
3.8175989999999991
 50
250.41674
 51
264.03244899999999
  0
ARC
  5
17F
  8
0
 62
     7
 10
68.098731999999998
 20
168.58070699999999
 30
0.0
 40
4.851856999999999
 50
263.38930199999987
 51
270.07167199999998
  0
ARC
  5
180
  8
0
 62
     7
 10
68.104381000000004
 20
168.499821
 30
0.0
 40
4.7709669999999988
 50
270.00505399999997
 51
283.80440299999992
  0
ARC
  5
181
  8
0
 62
     7
 10
68.410105999999999
 20
167.11719500000001
 30
0.0
 40
3.355491999999999
 50
284.36807499999992
 51
295.02355699999993
  0
ARC
  5
182
  8
0
 62
     7
 10
68.922000999999995
 20
165.9828259999999
 30
0.0
 40
2.111133999999999
 50
295.457313
 51
309.26500099999993
  0
ARC
  5
183
  8
0
 62
     7
 10
69.473365999999984
 20
165.27589399999999
 30
0.0
 40
1.2150190000000001
 50
310.23371200000003
 51
326.98392200000001
  0
ARC
  5
184
  8
0
 62
     7
 10
69.858478000000005
 20
165.0081669999999
 30
0.0
 40
0.746362
 50
328.10912500000001
 51
358.48151100000001
  0
LINE
  5
185
  8
0
 62
     7
 10
62.604700000000001
 20
179.73799999999989
 30
0.0
 11
62.604700000000001
 21
150.988
 31
0.0
  0
LINE
  5
186
  8
0
 62
     7
 10
73.604600000000005
 20
179.73799999999989
 30
0.0
 11
73.604600000000005
 21
150.988
 31
0.0
  0
LINE
  5
187
  8
0
 62
     7
 10
74.854799999999983
 20
149.988
 30
0.0
 11
74.854799999999983
 21
150.988
 31
0.0
  0
LINE
  5
188
  8
0
 62
     7
 10
61.354799999999997
 20
150.988
 30
0.0
 11
61.354799999999997
 21
149.988
 31
0.0
  0
LINE
  5
189
  8
0
 62
     7
 10
61.354799999999997
 20
150.988
 30
0.0
 11
74.854799999999983
 21
150.988
 31
0.0
  0
LINE
  5
18A
  8
0
 62
     7
 10
61.354799999999997
 20
149.988
 30
0.0
 11
74.854799999999983
 21
149.988
 31
0.0
  0
ARC
  5
18B
  8
0
 62
     7
 10
67.956422000000003
 20
178.908233
 30
0.0
 40
4.848126999999999
 50
164.07390000000001
 51
170.13314700000001
  0
ARC
  5
18C
  8
0
 62
     7
 10
68.126858999999996
 20
178.87938899999989
 30
0.0
 40
4.9771869999999998
 50
9.9454630000000002
 51
15.847451
  0
LINE
  5
18D
  8
0
 62
     7
 10
73.604600000000005
 20
180.238
 30
0.0
 11
73.604600000000005
 21
187.98799999999989
 31
0.0
  0
LINE
  5
18E
  8
0
 62
     7
 10
62.604700000000001
 20
179.73799999999989
 30
0.0
 11
73.604600000000005
 21
179.73799999999989
 31
0.0
  0
LINE
  5
18F
  8
0
 62
     7
 10
62.604700000000001
 20
180.238
 30
0.0
 11
62.604700000000001
 21
187.98799999999989
 31
0.0
  0
LINE
  5
190
  8
0
 62
     7
 10
62.604700000000001
 20
180.238
 30
0.0
 11
73.604600000000005
 21
180.238
 31
0.0
  0
LINE
  5
191
  8
0
 62
     7
 10
62.604700000000001
 20
187.98799999999989
 30
0.0
 11
73.604600000000005
 21
187.98799999999989
 31
0.0
  0
LINE
  5
192
  8
0
 62
     7
 10
109.633
 20
147.77699999999999
 30
0.0
 11
109.041
 21
149.988
 31
0.0
  0
LINE
  5
193
  8
0
 62
     7
 10
109.041
 20
149.988
 30
0.0
 11
108.44799999999989
 21
147.77699999999999
 31
0.0
  0
LINE
  5
194
  8
0
 62
     7
 10
108.44799999999989
 20
147.77699999999999
 30
0.0
 11
109.633
 21
147.77699999999999
 31
0.0
  0
LINE
  5
195
  8
0
 62
     7
 10
108.46299999999989
 20
102.13200000000001
 30
0.0
 11
109.05500000000001
 21
99.920100000000005
 31
0.0
  0
LINE
  5
196
  8
0
 62
     7
 10
109.05500000000001
 20
99.920100000000005
 30
0.0
 11
109.6479999999999
 21
102.13200000000001
 31
0.0
  0
LINE
  5
197
  8
0
 62
     7
 10
109.6479999999999
 20
102.13200000000001
 30
0.0
 11
108.46299999999989
 21
102.13200000000001
 31
0.0
  0
LINE
  5
198
  8
0
 62
     7
 10
109.041
 20
149.988
 30
0.0
 11
109.041
 21
99.920100000000005
 31
0.0
  0
LINE
  5
199
  8
0
 62
     7
 10
102.13799999999991
 20
152.1989999999999
 30
0.0
 11
102.73099999999999
 21
149.988
 31
0.0
  0
LINE
  5
19A
  8
0
 62
     7
 10
102.73099999999999
 20
149.988
 30
0.0
 11
103.32299999999989
 21
152.1989999999999
 31
0.0
  0
LINE
  5
19B
  8
0
 62
     7
 10
103.32299999999989
 20
152.1989999999999
 30
0.0
 11
102.13799999999991
 21
152.1989999999999
 31
0.0
  0
LINE
  5
19C
  8
0
 62
     7
 10
70.301599999999993
 20
212.63499999999991
 30
0.0
 11
68.104600000000005
 21
211.989
 31
0.0
  0
LINE
  5
19D
  8
0
 62
     7
 10
68.104600000000005
 20
211.989
 30
0.0
 11
70.329800000000006
 21
211.44999999999999
 31
0.0
  0
LINE
  5
19E
  8
0
 62
     7
 10
70.329800000000006
 20
211.44999999999999
 30
0.0
 11
70.301599999999993
 21
212.63499999999991
 31
0.0
  0
LINE
  5
19F
  8
0
 62
     7
 10
84.841899999999995
 20
217.54099999999991
 30
0.0
 11
86.109999999999999
 21
219.44699999999989
 31
0.0
  0
LINE
  5
1A0
  8
0
 62
     7
 10
86.109999999999999
 20
219.44699999999989
 30
0.0
 11
84.058800000000005
 21
218.42999999999989
 31
0.0
  0
LINE
  5
1A1
  8
0
 62
     7
 10
84.058800000000005
 20
218.42999999999989
 30
0.0
 11
84.841899999999995
 21
217.54099999999991
 31
0.0
  0
LINE
  5
1A2
  8
0
 62
     7
 10
103.309
 20
192.02699999999999
 30
0.0
 11
102.717
 21
194.23799999999989
 31
0.0
  0
LINE
  5
1A3
  8
0
 62
     7
 10
102.717
 20
194.23799999999989
 30
0.0
 11
102.1239999999999
 21
192.02699999999999
 31
0.0
  0
LINE
  5
1A4
  8
0
 62
     7
 10
102.1239999999999
 20
192.02699999999999
 30
0.0
 11
103.309
 21
192.02699999999999
 31
0.0
  0
LINE
  5
1A5
  8
0
 62
     7
 10
102.717
 20
149.988
 30
0.0
 11
102.717
 21
194.23799999999989
 31
0.0
  0
LINE
  5
1A6
  8
0
 62
     7
 10
126.553
 20
152.1989999999999
 30
0.0
 11
127.1449999999999
 21
149.988
 31
0.0
  0
LINE
  5
1A7
  8
0
 62
     7
 10
127.1449999999999
 20
149.988
 30
0.0
 11
127.7379999999999
 21
152.1989999999999
 31
0.0
  0
LINE
  5
1A8
  8
0
 62
     7
 10
127.7379999999999
 20
152.1989999999999
 30
0.0
 11
126.553
 21
152.1989999999999
 31
0.0
  0
LINE
  5
1A9
  8
0
 62
     7
 10
127.7239999999999
 20
161.52699999999999
 30
0.0
 11
127.1309999999999
 21
163.738
 31
0.0
  0
LINE
  5
1AA
  8
0
 62
     7
 10
127.1309999999999
 20
163.738
 30
0.0
 11
126.5379999999999
 21
161.52699999999999
 31
0.0
  0
LINE
  5
1AB
  8
0
 62
     7
 10
126.5379999999999
 20
161.52699999999999
 30
0.0
 11
127.7239999999999
 21
161.52699999999999
 31
0.0
  0
LINE
  5
1AC
  8
0
 62
     7
 10
127.1309999999999
 20
149.988
 30
0.0
 11
127.1309999999999
 21
163.738
 31
0.0
  0
LINE
  5
1AD
  8
0
 62
     7
 10
108.46299999999989
 20
152.1989999999999
 30
0.0
 11
109.05500000000001
 21
149.988
 31
0.0
  0
LINE
  5
1AE
  8
0
 62
     7
 10
109.05500000000001
 20
149.988
 30
0.0
 11
109.6479999999999
 21
152.1989999999999
 31
0.0
  0
LINE
  5
1AF
  8
0
 62
     7
 10
109.6479999999999
 20
152.1989999999999
 30
0.0
 11
108.46299999999989
 21
152.1989999999999
 31
0.0
  0
LINE
  5
1B0
  8
0
 62
     7
 10
109.633
 20
162.77600000000001
 30
0.0
 11
109.041
 21
164.988
 31
0.0
  0
LINE
  5
1B1
  8
0
 62
     7
 10
109.041
 20
164.988
 30
0.0
 11
108.44799999999989
 21
162.77600000000001
 31
0.0
  0
LINE
  5
1B2
  8
0
 62
     7
 10
108.44799999999989
 20
162.77600000000001
 30
0.0
 11
109.633
 21
162.77600000000001
 31
0.0
  0
LINE
  5
1B3
  8
0
 62
     7
 10
109.041
 20
149.988
 30
0.0
 11
109.041
 21
164.988
 31
0.0
  0
LINE
  5
1B4
  8
0
 62
     7
 10
122.4079999999999
 20
99.920100000000005
 30
0.0
 11
108.34099999999999
 21
99.920100000000005
 31
0.0
  0
LINE
  5
1B5
  8
0
 62
     7
 10
125.241
 20
194.23799999999989
 30
0.0
 11
102.03100000000001
 21
194.23799999999989
 31
0.0
  0
LINE
  5
1B6
  8
0
 62
     7
 10
140.10599999999999
 20
149.988
 30
0.0
 11
102.03100000000001
 21
149.988
 31
0.0
  0
LINE
  5
1B7
  8
0
 62
     7
 10
127.831
 20
163.738
 30
0.0
 11
121.672
 21
163.738
 31
0.0
  0
LINE
  5
1B8
  8
0
 62
     7
 10
118.10599999999999
 20
164.988
 30
0.0
 11
108.34099999999999
 21
164.988
 31
0.0
  0
LINE
  5
1B9
  8
0
 62
     7
 10
148.88200000000001
 20
74.987799999999993
 30
0.0
 11
170.49299999999999
 21
74.987799999999993
 31
0.0
  0
LINE
  5
1BA
  8
0
 62
     7
 10
170.38599999999991
 20
147.77699999999999
 30
0.0
 11
169.79300000000001
 21
149.988
 31
0.0
  0
LINE
  5
1BB
  8
0
 62
     7
 10
169.79300000000001
 20
149.988
 30
0.0
 11
169.1999999999999
 21
147.77699999999999
 31
0.0
  0
LINE
  5
1BC
  8
0
 62
     7
 10
169.1999999999999
 20
147.77699999999999
 30
0.0
 11
170.38599999999991
 21
147.77699999999999
 31
0.0
  0
LINE
  5
1BD
  8
0
 62
     7
 10
169.21499999999989
 20
77.199200000000005
 30
0.0
 11
169.80699999999999
 21
74.987799999999993
 31
0.0
  0
LINE
  5
1BE
  8
0
 62
     7
 10
169.80699999999999
 20
74.987799999999993
 30
0.0
 11
170.40000000000001
 21
77.199200000000005
 31
0.0
  0
LINE
  5
1BF
  8
0
 62
     7
 10
170.40000000000001
 20
77.199200000000005
 30
0.0
 11
169.21499999999989
 21
77.199200000000005
 31
0.0
  0
LINE
  5
1C0
  8
0
 62
     7
 10
169.79300000000001
 20
149.988
 30
0.0
 11
169.79300000000001
 21
74.987799999999993
 31
0.0
  0
LINE
  5
1C1
  8
0
 62
     7
 10
156.59499999999991
 20
164.35400000000001
 30
0.0
 11
158.80699999999999
 21
164.94599999999991
 31
0.0
  0
LINE
  5
1C2
  8
0
 62
     7
 10
158.80699999999999
 20
164.94599999999991
 30
0.0
 11
156.59499999999991
 21
165.53899999999999
 31
0.0
  0
LINE
  5
1C3
  8
0
 62
     7
 10
156.59499999999991
 20
165.53899999999999
 30
0.0
 11
156.59499999999991
 21
164.35400000000001
 31
0.0
  0
LINE
  5
1C4
  8
0
 62
     7
 10
155.268
 20
165.524
 30
0.0
 11
153.05699999999999
 21
164.93199999999999
 31
0.0
  0
LINE
  5
1C5
  8
0
 62
     7
 10
153.05699999999999
 20
164.93199999999999
 30
0.0
 11
155.268
 21
164.339
 31
0.0
  0
LINE
  5
1C6
  8
0
 62
     7
 10
155.268
 20
164.339
 30
0.0
 11
155.268
 21
165.524
 31
0.0
  0
LINE
  5
1C7
  8
0
 62
     7
 10
158.80699999999999
 20
164.93199999999999
 30
0.0
 11
153.05699999999999
 21
164.93199999999999
 31
0.0
  0
LINE
  5
1C8
  8
0
 62
     7
 10
158.80699999999999
 20
165.63200000000001
 30
0.0
 11
158.80699999999999
 21
160.0629999999999
 31
0.0
  0
LINE
  5
1C9
  8
0
 62
     7
 10
153.05699999999999
 20
194.428
 30
0.0
 11
153.05699999999999
 21
188.6879999999999
 31
0.0
  0
LINE
  5
1CA
  8
0
 62
     7
 10
142.05699999999999
 20
194.428
 30
0.0
 11
142.05699999999999
 21
188.6879999999999
 31
0.0
  0
LINE
  5
1CB
  8
0
 62
     7
 10
144.268
 20
194.31999999999999
 30
0.0
 11
142.05699999999999
 21
193.72799999999989
 31
0.0
  0
LINE
  5
1CC
  8
0
 62
     7
 10
142.05699999999999
 20
193.72799999999989
 30
0.0
 11
144.268
 21
193.13499999999991
 31
0.0
  0
LINE
  5
1CD
  8
0
 62
     7
 10
144.268
 20
193.13499999999991
 30
0.0
 11
144.268
 21
194.31999999999999
 31
0.0
  0
LINE
  5
1CE
  8
0
 62
     7
 10
150.845
 20
193.14999999999989
 30
0.0
 11
153.05699999999999
 21
193.74199999999999
 31
0.0
  0
LINE
  5
1CF
  8
0
 62
     7
 10
153.05699999999999
 20
193.74199999999999
 30
0.0
 11
150.845
 21
194.33500000000001
 31
0.0
  0
LINE
  5
1D0
  8
0
 62
     7
 10
150.845
 20
194.33500000000001
 30
0.0
 11
150.845
 21
193.14999999999989
 31
0.0
  0
LINE
  5
1D1
  8
0
 62
     7
 10
142.05699999999999
 20
193.72799999999989
 30
0.0
 11
153.05699999999999
 21
193.72799999999989
 31
0.0
  0
LINE
  5
1D2
  8
0
 62
     7
 10
170.38599999999991
 20
185.77699999999999
 30
0.0
 11
169.79300000000001
 21
187.98799999999989
 31
0.0
  0
LINE
  5
1D3
  8
0
 62
     7
 10
169.79300000000001
 20
187.98799999999989
 30
0.0
 11
169.1999999999999
 21
185.77699999999999
 31
0.0
  0
LINE
  5
1D4
  8
0
 62
     7
 10
169.1999999999999
 20
185.77699999999999
 30
0.0
 11
170.38599999999991
 21
185.77699999999999
 31
0.0
  0
LINE
  5
1D5
  8
0
 62
     7
 10
169.21499999999989
 20
152.1989999999999
 30
0.0
 11
169.80699999999999
 21
149.988
 31
0.0
  0
LINE
  5
1D6
  8
0
 62
     7
 10
169.80699999999999
 20
149.988
 30
0.0
 11
170.40000000000001
 21
152.1989999999999
 31
0.0
  0
LINE
  5
1D7
  8
0
 62
     7
 10
170.40000000000001
 20
152.1989999999999
 30
0.0
 11
169.21499999999989
 21
152.1989999999999
 31
0.0
  0
LINE
  5
1D8
  8
0
 62
     7
 10
169.79300000000001
 20
187.98799999999989
 30
0.0
 11
169.79300000000001
 21
149.988
 31
0.0
  0
LINE
  5
1D9
  8
0
 62
     7
 10
170.49299999999999
 20
187.98799999999989
 30
0.0
 11
153.75700000000001
 21
187.98799999999989
 31
0.0
  0
LINE
  5
1DA
  8
0
 62
     7
 10
170.49299999999999
 20
149.988
 30
0.0
 11
155.00700000000001
 21
149.988
 31
0.0
  0
LINE
  5
1DB
  8
0
 62
     7
 10
154.30600000000001
 20
160.88499999999991
 30
0.0
 11
154.30600000000001
 21
151.68799999999999
 31
0.0
  0
LINE
  5
1DC
  8
0
 62
     7
 10
140.80600000000001
 20
160.88499999999991
 30
0.0
 11
140.80600000000001
 21
151.68799999999999
 31
0.0
  0
LINE
  5
1DD
  8
0
 62
     7
 10
143.018
 20
160.77699999999999
 30
0.0
 11
140.80600000000001
 21
160.18499999999989
 31
0.0
  0
LINE
  5
1DE
  8
0
 62
     7
 10
140.80600000000001
 20
160.18499999999989
 30
0.0
 11
143.018
 21
159.59200000000001
 31
0.0
  0
LINE
  5
1DF
  8
0
 62
     7
 10
143.018
 20
159.59200000000001
 30
0.0
 11
143.018
 21
160.77699999999999
 31
0.0
  0
LINE
  5
1E0
  8
0
 62
     7
 10
152.095
 20
159.60599999999999
 30
0.0
 11
154.30600000000001
 21
160.1989999999999
 31
0.0
  0
LINE
  5
1E1
  8
0
 62
     7
 10
154.30600000000001
 20
160.1989999999999
 30
0.0
 11
152.095
 21
160.792
 31
0.0
  0
LINE
  5
1E2
  8
0
 62
     7
 10
152.095
 20
160.792
 30
0.0
 11
152.095
 21
159.60599999999999
 31
0.0
  0
LINE
  5
1E3
  8
0
 62
     7
 10
140.80600000000001
 20
160.18499999999989
 30
0.0
 11
154.30600000000001
 21
160.18499999999989
 31
0.0
  0
LINE
  5
1E4
  8
0
 62
     7
 10
136.49100000000001
 20
147.77699999999999
 30
0.0
 11
135.898
 21
149.988
 31
0.0
  0
LINE
  5
1E5
  8
0
 62
     7
 10
135.898
 20
149.988
 30
0.0
 11
135.30600000000001
 21
147.77699999999999
 31
0.0
  0
LINE
  5
1E6
  8
0
 62
     7
 10
135.30600000000001
 20
147.77699999999999
 30
0.0
 11
136.49100000000001
 21
147.77699999999999
 31
0.0
  0
LINE
  5
1E7
  8
0
 62
     7
 10
135.31999999999991
 20
143.4499999999999
 30
0.0
 11
135.9129999999999
 21
141.23799999999989
 31
0.0
  0
LINE
  5
1E8
  8
0
 62
     7
 10
135.9129999999999
 20
141.23799999999989
 30
0.0
 11
136.50499999999991
 21
143.4499999999999
 31
0.0
  0
LINE
  5
1E9
  8
0
 62
     7
 10
136.50499999999991
 20
143.4499999999999
 30
0.0
 11
135.31999999999991
 21
143.4499999999999
 31
0.0
  0
LINE
  5
1EA
  8
0
 62
     7
 10
135.898
 20
149.988
 30
0.0
 11
135.898
 21
141.23799999999989
 31
0.0
  0
LINE
  5
1EB
  8
0
 62
     7
 10
141.0
 20
141.23799999999989
 30
0.0
 11
135.19799999999989
 21
141.23799999999989
 31
0.0
  0
LINE
  5
1EC
  8
0
 62
     7
 10
144.72
 20
88.636700000000005
 30
0.0
 11
146.93100000000001
 21
89.229200000000006
 31
0.0
  0
LINE
  5
1ED
  8
0
 62
     7
 10
146.93100000000001
 20
89.229200000000006
 30
0.0
 11
144.72
 21
89.821799999999996
 31
0.0
  0
LINE
  5
1EE
  8
0
 62
     7
 10
144.72
 20
89.821799999999996
 30
0.0
 11
144.72
 21
88.636700000000005
 31
0.0
  0
LINE
  5
1EF
  8
0
 62
     7
 10
150.39299999999989
 20
89.807299999999984
 30
0.0
 11
148.18199999999999
 21
89.214799999999997
 31
0.0
  0
LINE
  5
1F0
  8
0
 62
     7
 10
148.18199999999999
 20
89.214799999999997
 30
0.0
 11
150.39299999999989
 21
88.622200000000007
 31
0.0
  0
LINE
  5
1F1
  8
0
 62
     7
 10
150.39299999999989
 20
88.622200000000007
 30
0.0
 11
150.39299999999989
 21
89.807299999999984
 31
0.0
  0
LINE
  5
1F2
  8
0
 62
     7
 10
155.20199999999991
 20
89.214799999999997
 30
0.0
 11
142.33299999999991
 21
89.214799999999997
 31
0.0
  0
LINE
  5
1F3
  8
0
 62
     7
 10
145.34499999999991
 20
154.88800000000001
 30
0.0
 11
147.55600000000001
 21
155.47999999999999
 31
0.0
  0
LINE
  5
1F4
  8
0
 62
     7
 10
147.55600000000001
 20
155.47999999999999
 30
0.0
 11
145.34499999999991
 21
156.07299999999989
 31
0.0
  0
LINE
  5
1F5
  8
0
 62
     7
 10
145.34499999999991
 20
156.07299999999989
 30
0.0
 11
145.34499999999991
 21
154.88800000000001
 31
0.0
  0
LINE
  5
1F6
  8
0
 62
     7
 10
111.925
 20
157.60599999999999
 30
0.0
 11
114.0439999999999
 21
156.74000000000001
 31
0.0
  0
LINE
  5
1F7
  8
0
 62
     7
 10
114.0439999999999
 20
156.74000000000001
 30
0.0
 11
112.642
 21
158.55000000000001
 31
0.0
  0
LINE
  5
1F8
  8
0
 62
     7
 10
112.642
 20
158.55000000000001
 30
0.0
 11
111.925
 21
157.60599999999999
 31
0.0
  0
LINE
  5
1F9
  8
0
 62
     7
 10
121.0179999999999
 20
156.05799999999991
 30
0.0
 11
118.8059999999999
 21
155.46600000000001
 31
0.0
  0
LINE
  5
1FA
  8
0
 62
     7
 10
118.8059999999999
 20
155.46600000000001
 30
0.0
 11
121.0179999999999
 21
154.87299999999991
 31
0.0
  0
LINE
  5
1FB
  8
0
 62
     7
 10
121.0179999999999
 20
154.87299999999991
 30
0.0
 11
121.0179999999999
 21
156.05799999999991
 31
0.0
  0
LINE
  5
1FC
  8
0
 62
     7
 10
147.55600000000001
 20
155.46600000000001
 30
0.0
 11
118.8059999999999
 21
155.46600000000001
 31
0.0
  0
LINE
  5
1FD
  8
0
 62
     7
 10
118.8059999999999
 20
164.2879999999999
 30
0.0
 11
118.8059999999999
 21
154.76599999999999
 31
0.0
  0
ARC
  5
1FE
  8
0
 62
     7
 10
118.88086199999999
 20
165.1451689999999
 30
0.0
 40
9.6797160000000009
 50
219.53106
 51
269.55834499999997
  0
LINE
  5
1FF
  8
0
 62
     7
 10
113.664
 20
156.08099999999999
 30
0.0
 11
117.7429999999999
 21
163.14699999999999
 31
0.0
  0
LINE
  5
200
  8
0
 62
     7
 10
146.93100000000001
 20
109.3539999999999
 30
0.0
 11
146.93100000000001
 21
74.987799999999993
 31
0.0
  0
LINE
  5
201
  8
0
 62
     7
 10
148.18199999999999
 20
109.3539999999999
 30
0.0
 11
148.18199999999999
 21
74.987799999999993
 31
0.0
  0
LINE
  5
202
  8
0
 62
     7
 10
146.93100000000001
 20
74.987799999999993
 30
0.0
 11
148.18199999999999
 21
74.987799999999993
 31
0.0
  0
LINE
  5
203
  8
0
 62
     7
 10
158.80699999999999
 20
158.11299999999989
 30
0.0
 11
154.458
 21
158.11299999999989
 31
0.0
  0
LINE
  5
204
  8
0
 62
     7
 10
150.53
 20
149.988
 30
0.0
 11
148.869
 21
144.45400000000001
 31
0.0
  0
LINE
  5
205
  8
0
 62
     7
 10
151.834
 20
149.988
 30
0.0
 11
149.208
 21
141.23799999999989
 31
0.0
  0
LINE
  5
206
  8
0
 62
     7
 10
154.2179999999999
 20
157.93499999999989
 30
0.0
 11
153.05699999999999
 21
154.0629999999999
 31
0.0
  0
ARC
  5
207
  8
0
 62
     7
 10
154.46273299999999
 20
157.85655199999991
 30
0.0
 40
0.256809
 50
91.123264999999989
 51
162.16671099999999
  0
LINE
  5
208
  8
0
  6
AIGENLINE001
 62
     7
 10
154.458
 20
158.738
 30
0.0
 11
160.482
 21
158.738
 31
0.0
  0
LINE
  5
209
  8
0
  6
AIGENLINE001
 62
     7
 10
147.55600000000001
 20
137.90999999999991
 30
0.0
 11
153.62
 21
158.11500000000001
 31
0.0
  0
ARC
  5
20A
  8
0
  6
AIGENLINE001
 62
     7
 10
154.47585100000001
 20
157.83872099999991
 30
0.0
 40
0.8997189999999999
 50
91.156058999999999
 51
162.13779999999991
  0
LINE
  5
20B
  8
0
 62
     7
 10
158.80699999999999
 20
159.363
 30
0.0
 11
154.458
 21
159.363
 31
0.0
  0
ARC
  5
20C
  8
0
 62
     7
 10
154.48479499999991
 20
157.823545
 30
0.0
 40
1.5398940000000001
 50
91.008254000000008
 51
158.04582600000001
  0
LINE
  5
20D
  8
0
 62
     7
 10
158.80699999999999
 20
158.11299999999989
 30
0.0
 11
158.80699999999999
 21
159.363
 31
0.0
  0
LINE
  5
20E
  8
0
 62
     7
 10
138.80699999999999
 20
169.988
 30
0.0
 11
138.80699999999999
 21
174.989
 31
0.0
  0
LINE
  5
20F
  8
0
 62
     7
 10
142.05699999999999
 20
168.48799999999989
 30
0.0
 11
142.05699999999999
 21
150.988
 31
0.0
  0
LINE
  5
210
  8
0
 62
     7
 10
127.467
 20
169.988
 30
0.0
 11
140.55699999999999
 21
169.988
 31
0.0
  0
ARC
  5
211
  8
0
 62
     7
 10
140.49948499999999
 20
168.43111699999989
 30
0.0
 40
1.558219
 50
2.1024579999999999
 51
87.897531999999984
  0
LINE
  5
212
  8
0
 62
     7
 10
142.05699999999999
 20
179.73799999999989
 30
0.0
 11
142.05699999999999
 21
176.48799999999989
 31
0.0
  0
LINE
  5
213
  8
0
 62
     7
 10
127.467
 20
174.988
 30
0.0
 11
140.55699999999999
 21
174.988
 31
0.0
  0
ARC
  5
214
  8
0
 62
     7
 10
140.49947499999999
 20
176.54536499999989
 30
0.0
 40
1.5582290000000001
 50
272.10281700000002
 51
357.89719300000002
  0
LINE
  5
215
  8
0
 62
     7
 10
123.136
 20
167.48799999999989
 30
0.0
 11
120.97199999999999
 21
163.738
 31
0.0
  0
ARC
  5
216
  8
0
 62
     7
 10
127.524899
 20
164.887336
 30
0.0
 40
5.101284999999999
 50
90.654988000000003
 51
149.34693100000001
  0
LINE
  5
217
  8
0
  6
AIGENLINE001
 62
     7
 10
127.467
 20
172.48799999999989
 30
0.0
 11
147.55600000000001
 21
172.48799999999989
 31
0.0
  0
LINE
  5
218
  8
0
  6
AIGENLINE001
 62
     7
 10
120.97199999999999
 20
168.738
 30
0.0
 11
118.20099999999999
 21
163.93899999999999
 31
0.0
  0
ARC
  5
219
  8
0
  6
AIGENLINE001
 62
     7
 10
127.554052
 20
164.8368659999999
 30
0.0
 40
7.652042999999999
 50
90.654945999999995
 51
149.347936
  0
LINE
  5
21A
  8
0
 62
     7
 10
118.8059999999999
 20
169.988
 30
0.0
 11
116.64100000000001
 21
166.23799999999989
 31
0.0
  0
ARC
  5
21B
  8
0
 62
     7
 10
127.58320399999999
 20
164.78630100000001
 30
0.0
 40
10.202550999999991
 50
90.654930000000007
 51
149.3469879999999
  0
LINE
  5
21C
  8
0
 62
     7
 10
116.64100000000001
 20
166.23799999999989
 30
0.0
 11
120.97199999999999
 21
163.738
 31
0.0
  0
LINE
  5
21D
  8
0
 62
     7
 10
153.05699999999999
 20
179.73799999999989
 30
0.0
 11
153.05699999999999
 21
150.988
 31
0.0
  0
LINE
  5
21E
  8
0
 62
     7
 10
154.30600000000001
 20
149.988
 30
0.0
 11
154.30600000000001
 21
150.988
 31
0.0
  0
LINE
  5
21F
  8
0
 62
     7
 10
140.80600000000001
 20
150.988
 30
0.0
 11
140.80600000000001
 21
149.988
 31
0.0
  0
LINE
  5
220
  8
0
 62
     7
 10
140.80600000000001
 20
150.988
 30
0.0
 11
154.30600000000001
 21
150.988
 31
0.0
  0
LINE
  5
221
  8
0
 62
     7
 10
140.80600000000001
 20
149.988
 30
0.0
 11
154.30600000000001
 21
149.988
 31
0.0
  0
LINE
  5
222
  8
0
  6
AIGENLINE002
 62
     7
 10
153.697
 20
180.06599999999989
 30
0.0
 11
147.75599999999989
 21
180.197
 31
0.0
  0
LINE
  5
223
  8
0
  6
AIGENLINE002
 62
     7
 10
153.697
 20
180.06599999999989
 30
0.0
 11
155.89099999999999
 21
185.11000000000001
 31
0.0
  0
LINE
  5
224
  8
0
  6
AIGENLINE002
 62
     7
 10
142.71199999999999
 20
182.3899999999999
 30
0.0
 11
143.40999999999991
 21
183.99499999999989
 31
0.0
  0
LINE
  5
225
  8
0
  6
AIGENLINE002
 62
     7
 10
128.57900000000001
 20
191.26400000000001
 30
0.0
 11
143.02199999999999
 21
184.982
 31
0.0
  0
ARC
  5
226
  8
0
  6
AIGENLINE002
 62
     7
 10
142.68367299999991
 20
184.27905200000001
 30
0.0
 40
0.780083
 50
338.65384999999992
 51
64.326978999999994
  0
LINE
  5
227
  8
0
  6
AIGENLINE002
 62
     7
 10
145.30500000000001
 20
188.351
 30
0.0
 11
145.804
 21
189.49700000000001
 31
0.0
  0
LINE
  5
228
  8
0
  6
AIGENLINE002
 62
     7
 10
129.875
 20
194.245
 30
0.0
 11
144.3179999999999
 21
187.96199999999999
 31
0.0
  0
ARC
  5
229
  8
0
  6
AIGENLINE002
 62
     7
 10
144.601529
 20
188.68956799999989
 30
0.0
 40
0.780708
 50
248.7073529999999
 51
334.30811999999997
  0
LINE
  5
22A
  8
0
  6
AIGENLINE002
 62
     7
 10
128.57900000000001
 20
191.26400000000001
 30
0.0
 11
129.875
 21
194.245
 31
0.0
  0
LINE
  5
22B
  8
0
  6
AIGENLINE002
 62
     7
 10
142.71199999999999
 20
182.3899999999999
 30
0.0
 11
147.75599999999989
 21
180.197
 31
0.0
  0
LINE
  5
22C
  8
0
  6
AIGENLINE002
 62
     7
 10
145.804
 20
189.49700000000001
 30
0.0
 11
155.89099999999999
 21
185.11000000000001
 31
0.0
  0
ARC
  5
22D
  8
0
 62
     7
 10
147.58870400000001
 20
178.8702909999999
 30
0.0
 40
5.0322639999999987
 50
164.22284500000001
 51
170.05930499999991
  0
ARC
  5
22E
  8
0
 62
     7
 10
147.53637599999999
 20
178.866004
 30
0.0
 40
5.021329999999999
 50
10.012202
 51
36.810415999999989
  0
LINE
  5
22F
  8
0
 62
     7
 10
153.05699999999999
 20
182.488
 30
0.0
 11
147.55600000000001
 21
180.238
 31
0.0
  0
LINE
  5
230
  8
0
 62
     7
 10
153.05699999999999
 20
182.488
 30
0.0
 11
153.05699999999999
 21
187.98799999999989
 31
0.0
  0
LINE
  5
231
  8
0
 62
     7
 10
142.05699999999999
 20
179.73799999999989
 30
0.0
 11
153.05699999999999
 21
179.73799999999989
 31
0.0
  0
LINE
  5
232
  8
0
 62
     7
 10
142.05699999999999
 20
180.238
 30
0.0
 11
142.05699999999999
 21
181.98799999999989
 31
0.0
  0
LINE
  5
233
  8
0
 62
     7
 10
125.557
 20
182.73799999999989
 30
0.0
 11
141.30699999999999
 21
182.73799999999989
 31
0.0
  0
ARC
  5
234
  8
0
 62
     7
 10
141.27767199999991
 20
181.95933899999989
 30
0.0
 40
0.779521
 50
2.130561999999999
 51
87.869427999999999
  0
LINE
  5
235
  8
0
 62
     7
 10
142.05699999999999
 20
186.73799999999989
 30
0.0
 11
142.05699999999999
 21
187.98799999999989
 31
0.0
  0
LINE
  5
236
  8
0
 62
     7
 10
125.557
 20
185.988
 30
0.0
 11
141.30699999999999
 21
185.988
 31
0.0
  0
ARC
  5
237
  8
0
 62
     7
 10
141.27767199999991
 20
186.767427
 30
0.0
 40
0.779521
 50
272.13057199999997
 51
357.86943799999989
  0
LINE
  5
238
  8
0
 62
     7
 10
140.55699999999999
 20
182.73799999999989
 30
0.0
 11
140.55699999999999
 21
185.988
 31
0.0
  0
LINE
  5
239
  8
0
 62
     7
 10
125.557
 20
182.73799999999989
 30
0.0
 11
125.557
 21
185.988
 31
0.0
  0
LINE
  5
23A
  8
0
  6
AIGENLINE001
 62
     7
 10
147.55600000000001
 20
72.869399999999999
 30
0.0
 11
147.55600000000001
 21
159.20400000000001
 31
0.0
  0
LINE
  5
23B
  8
0
  6
AIGENLINE001
 62
     7
 10
147.55600000000001
 20
165.089
 30
0.0
 11
147.55600000000001
 21
190.5209999999999
 31
0.0
  0
LINE
  5
23C
  8
0
 62
     7
 10
142.05699999999999
 20
180.238
 30
0.0
 11
147.55600000000001
 21
180.238
 31
0.0
  0
LINE
  5
23D
  8
0
 62
     7
 10
142.05699999999999
 20
187.98799999999989
 30
0.0
 11
153.05699999999999
 21
187.98799999999989
 31
0.0
  0
LINE
  5
23E
  8
0
  6
AIGENLINE001
 62
     7
 10
68.104799999999997
 20
72.869399999999999
 30
0.0
 11
68.104799999999997
 21
190.5209999999999
 31
0.0
  0
LINE
  5
23F
  8
0
 62
     7
 10
154.6689999999999
 20
244.565
 30
0.0
 11
160.45599999999999
 21
244.565
 31
0.0
  0
LINE
  5
240
  8
0
 62
     7
 10
143.3179999999999
 20
232.37700000000001
 30
0.0
 11
144.46299999999991
 21
234.35900000000001
 31
0.0
  0
LINE
  5
241
  8
0
 62
     7
 10
144.46299999999991
 20
234.35900000000001
 30
0.0
 11
142.4799999999999
 21
233.214
 31
0.0
  0
LINE
  5
242
  8
0
 62
     7
 10
142.4799999999999
 20
233.214
 30
0.0
 11
143.3179999999999
 21
232.37700000000001
 31
0.0
  0
LINE
  5
243
  8
0
 62
     7
 10
151.7949999999999
 20
242.529
 30
0.0
 11
150.65000000000001
 21
240.547
 31
0.0
  0
LINE
  5
244
  8
0
 62
     7
 10
150.65000000000001
 20
240.547
 30
0.0
 11
152.6329999999999
 21
241.69099999999989
 31
0.0
  0
LINE
  5
245
  8
0
 62
     7
 10
152.6329999999999
 20
241.69099999999989
 30
0.0
 11
151.7949999999999
 21
242.529
 31
0.0
  0
LINE
  5
246
  8
0
 62
     7
 10
154.6689999999999
 20
244.565
 30
0.0
 11
140.48400000000001
 21
230.37999999999991
 31
0.0
  0
LINE
  5
247
  8
0
  6
AIGENLINE001
 62
     7
 10
147.55600000000001
 20
243.774
 30
0.0
 11
147.55600000000001
 21
230.62200000000001
 31
0.0
  0
ARC
  5
248
  8
0
 62
     7
 10
147.556611
 20
237.45281199999999
 30
0.0
 40
4.3751269999999991
 50
0.002266
 51
90.002235999999996
  0
ARC
  5
249
  8
0
 62
     7
 10
147.55661299999991
 20
237.45315600000001
 30
0.0
 40
4.374782999999999
 50
90.002256000000017
 51
180.00226599999991
  0
ARC
  5
24A
  8
0
 62
     7
 10
147.556611
 20
237.45281199999999
 30
0.0
 40
4.3747809999999987
 50
179.997714
 51
269.99776400000002
  0
ARC
  5
24B
  8
0
 62
     7
 10
147.556611
 20
237.453158
 30
0.0
 40
4.3751269999999991
 50
269.99776400000002
 51
359.99773399999992
  0
LINE
  5
24C
  8
0
  6
AIGENLINE001
 62
     7
 10
140.61799999999991
 20
237.453
 30
0.0
 11
154.334
 21
237.453
 31
0.0
  0
LINE
  5
24D
  8
0
 62
     7
 10
68.104799999999997
 20
135.488
 30
0.0
 11
68.104799999999997
 21
132.738
 31
0.0
  0
LINE
  5
24E
  8
0
 62
     7
 10
68.729699999999994
 20
132.738
 30
0.0
 11
68.729699999999994
 21
125.988
 31
0.0
  0
LINE
  5
24F
  8
0
 62
     7
 10
67.354799999999983
 20
125.988
 30
0.0
 11
67.354799999999983
 21
122.489
 31
0.0
  0
LINE
  5
250
  8
0
 62
     7
 10
68.854799999999997
 20
125.988
 30
0.0
 11
68.854799999999997
 21
122.489
 31
0.0
  0
LINE
  5
251
  8
0
 62
     7
 10
68.854799999999997
 20
125.988
 30
0.0
 11
67.354799999999983
 21
125.988
 31
0.0
  0
LINE
  5
252
  8
0
 62
     7
 10
68.854799999999997
 20
122.489
 30
0.0
 11
67.354799999999983
 21
122.489
 31
0.0
  0
LINE
  5
253
  8
0
 62
     7
 10
68.729699999999994
 20
122.489
 30
0.0
 11
68.729699999999994
 21
74.987799999999993
 31
0.0
  0
LINE
  5
254
  8
0
 62
     7
 10
68.729699999999994
 20
74.987799999999993
 30
0.0
 11
67.479900000000001
 21
74.987799999999993
 31
0.0
  0
LINE
  5
255
  8
0
 62
     7
 10
67.479900000000001
 20
122.489
 30
0.0
 11
67.479900000000001
 21
74.987799999999993
 31
0.0
  0
LINE
  5
256
  8
0
 62
     7
 10
67.479900000000001
 20
132.738
 30
0.0
 11
67.479900000000001
 21
125.9889999999999
 31
0.0
  0
LINE
  5
257
  8
0
 62
     7
 10
66.604799999999983
 20
138.98799999999989
 30
0.0
 11
66.604799999999983
 21
132.738
 31
0.0
  0
LINE
  5
258
  8
0
 62
     7
 10
69.604799999999997
 20
138.98799999999989
 30
0.0
 11
69.604799999999997
 21
132.738
 31
0.0
  0
LINE
  5
259
  8
0
 62
     7
 10
66.604799999999983
 20
132.738
 30
0.0
 11
69.604799999999997
 21
132.738
 31
0.0
  0
LINE
  5
25A
  8
0
 62
     7
 10
66.604799999999983
 20
135.488
 30
0.0
 11
69.604799999999997
 21
135.488
 31
0.0
  0
LINE
  5
25B
  8
0
 62
     7
 10
69.604799999999997
 20
138.98799999999989
 30
0.0
 11
70.604600000000005
 21
139.36299999999989
 31
0.0
  0
LINE
  5
25C
  8
0
 62
     7
 10
65.604699999999994
 20
139.36299999999989
 30
0.0
 11
66.604799999999983
 21
138.98799999999989
 31
0.0
  0
LINE
  5
25D
  8
0
 62
     7
 10
66.604799999999983
 20
138.98799999999989
 30
0.0
 11
69.604799999999997
 21
138.98799999999989
 31
0.0
  0
LINE
  5
25E
  8
0
 62
     7
 10
61.604599999999998
 20
141.23799999999989
 30
0.0
 11
61.604599999999998
 21
139.36299999999989
 31
0.0
  0
LINE
  5
25F
  8
0
 62
     7
 10
74.604699999999994
 20
141.23799999999989
 30
0.0
 11
74.604699999999994
 21
139.36299999999989
 31
0.0
  0
LINE
  5
260
  8
0
 62
     7
 10
61.604599999999998
 20
139.36299999999989
 30
0.0
 11
74.604699999999994
 21
139.36299999999989
 31
0.0
  0
LINE
  5
261
  8
0
 62
     7
 10
61.604599999999998
 20
140.739
 30
0.0
 11
74.604699999999994
 21
140.739
 31
0.0
  0
LINE
  5
262
  8
0
 62
     7
 10
61.604599999999998
 20
141.23799999999989
 30
0.0
 11
74.604699999999994
 21
141.23799999999989
 31
0.0
  0
LINE
  5
263
  8
0
  6
AIGENLINE001
 62
     7
 10
125.852
 20
128.73699999999991
 30
0.0
 11
125.852
 21
97.708299999999994
 31
0.0
  0
LINE
  5
264
  8
0
 62
     7
 10
130.126
 20
91.494399999999999
 30
0.0
 11
127.91500000000001
 21
90.901799999999994
 31
0.0
  0
LINE
  5
265
  8
0
 62
     7
 10
127.91500000000001
 20
90.901799999999994
 30
0.0
 11
130.126
 21
90.310000000000002
 31
0.0
  0
LINE
  5
266
  8
0
 62
     7
 10
130.126
 20
90.310000000000002
 30
0.0
 11
130.126
 21
91.494399999999999
 31
0.0
  0
LINE
  5
267
  8
0
 62
     7
 10
121.57899999999989
 20
90.323700000000002
 30
0.0
 11
123.79000000000001
 21
90.916300000000007
 31
0.0
  0
LINE
  5
268
  8
0
 62
     7
 10
123.79000000000001
 20
90.916300000000007
 30
0.0
 11
121.57899999999989
 21
91.508899999999997
 31
0.0
  0
LINE
  5
269
  8
0
 62
     7
 10
121.57899999999989
 20
91.508899999999997
 30
0.0
 11
121.57899999999989
 21
90.323700000000002
 31
0.0
  0
LINE
  5
26A
  8
0
 62
     7
 10
113.28
 20
90.909400000000005
 30
0.0
 11
131.631
 21
90.909400000000005
 31
0.0
  0
LINE
  5
26B
  8
0
 62
     7
 10
125.852
 20
99.170100000000005
 30
0.0
 11
125.852
 21
101.795
 31
0.0
  0
LINE
  5
26C
  8
0
 62
     7
 10
123.477
 20
99.170100000000005
 30
0.0
 11
123.477
 21
101.795
 31
0.0
  0
ARC
  5
26D
  8
0
 62
     7
 10
129.09214399999991
 20
121.58572700000001
 30
0.0
 40
23.10826599999999
 50
255.9362319999999
 51
256.951503
  0
ARC
  5
26E
  8
0
 62
     7
 10
124.97072799999999
 20
103.91973899999989
 30
0.0
 40
4.9679809999999991
 50
257.25647300000003
 51
263.09825199999989
  0
ARC
  5
26F
  8
0
 62
     7
 10
124.687546
 20
101.79569600000001
 30
0.0
 40
2.8254189999999988
 50
263.62327399999998
 51
269.79458499999993
  0
ARC
  5
270
  8
0
 62
     7
 10
124.6760949999999
 20
101.49127
 30
0.0
 40
2.5209749999999991
 50
270.03002299999991
 51
277.20703900000001
  0
ARC
  5
271
  8
0
 62
     7
 10
124.4642199999999
 20
103.28620699999991
 30
0.0
 40
4.3283379999999987
 50
277.008714
 51
283.59966600000001
  0
ARC
  5
272
  8
0
 62
     7
 10
121.68209899999989
 20
115.357752
 30
0.0
 40
16.716142999999992
 50
283.13919599999991
 51
284.445897
  0
ARC
  5
273
  8
0
 62
     7
 10
124.24417
 20
97.101539000000017
 30
0.0
 40
4.9615599999999986
 50
71.089064000000008
 51
78.901968999999994
  0
ARC
  5
274
  8
0
 62
     7
 10
124.64631299999991
 20
99.006918999999996
 30
0.0
 40
3.0145319999999991
 50
79.431502000000009
 51
89.408833000000016
  0
ARC
  5
275
  8
0
 62
     7
 10
124.67943099999999
 20
99.120556000000022
 30
0.0
 40
2.9007360000000002
 50
90.039796999999993
 51
100.818844
  0
ARC
  5
276
  8
0
 62
     7
 10
124.9231709999999
 20
97.667001000000013
 30
0.0
 40
4.374333
 50
100.380957
 51
109.3082999999999
  0
ARC
  5
277
  8
0
 62
     7
 10
131.42178200000001
 20
121.402861
 30
0.0
 40
22.919758999999999
 50
255.93613500000001
 51
256.96007200000003
  0
ARC
  5
278
  8
0
 62
     7
 10
127.34821699999991
 20
103.930114
 30
0.0
 40
4.9785309999999994
 50
257.26090699999992
 51
263.08882899999992
  0
ARC
  5
279
  8
0
 62
     7
 10
127.0624889999999
 20
101.7872169999999
 30
0.0
 40
2.8169400000000002
 50
263.61351500000001
 51
269.78940799999992
  0
ARC
  5
27A
  8
0
 62
     7
 10
127.050821
 20
101.49373199999999
 30
0.0
 40
2.523436999999999
 50
270.02984600000002
 51
277.20351699999992
  0
ARC
  5
27B
  8
0
 62
     7
 10
126.8388419999999
 20
103.289106
 30
0.0
 40
4.3312460000000002
 50
277.00742700000001
 51
283.59563300000002
  0
ARC
  5
27C
  8
0
 62
     7
 10
123.9933959999999
 20
115.6358449999999
 30
0.0
 40
17.001439000000001
 50
283.13524999999993
 51
284.42132700000002
  0
LINE
  5
27D
  8
0
 62
     7
 10
128.22799999999989
 20
99.170100000000005
 30
0.0
 11
128.22799999999989
 21
101.795
 31
0.0
  0
ARC
  5
27E
  8
0
 62
     7
 10
126.6138879999999
 20
97.079067000000023
 30
0.0
 40
4.9846629999999994
 50
71.110900000000001
 51
78.890051999999983
  0
ARC
  5
27F
  8
0
 62
     7
 10
127.021264
 20
99.004260000000016
 30
0.0
 40
3.0171890000000001
 50
79.436428000000006
 51
89.413736
  0
ARC
  5
280
  8
0
 62
     7
 10
127.054151
 20
99.126235999999992
 30
0.0
 40
2.8950559999999999
 50
90.039878000000002
 51
100.82948399999999
  0
ARC
  5
281
  8
0
 62
     7
 10
127.30046900000001
 20
97.660555000000002
 30
0.0
 40
4.3810409999999997
 50
100.3920109999999
 51
109.303746
  0
LINE
  5
282
  8
0
 62
     7
 10
128.22799999999989
 20
98.970299999999995
 30
0.0
 11
128.22799999999989
 21
99.170100000000005
 31
0.0
  0
LINE
  5
283
  8
0
 62
     7
 10
128.22799999999989
 20
101.795
 30
0.0
 11
128.22799999999989
 21
102.021
 31
0.0
  0
LINE
  5
284
  8
0
 62
     7
 10
123.477
 20
98.970299999999995
 30
0.0
 11
123.477
 21
99.170100000000005
 31
0.0
  0
LINE
  5
285
  8
0
 62
     7
 10
123.477
 20
101.795
 30
0.0
 11
123.477
 21
102.021
 31
0.0
  0
LINE
  5
286
  8
0
 62
     7
 10
127.10299999999989
 20
102.1959999999999
 30
0.0
 11
125.852
 21
102.1959999999999
 31
0.0
  0
LINE
  5
287
  8
0
 62
     7
 10
125.852
 20
102.1959999999999
 30
0.0
 11
124.60299999999989
 21
102.1959999999999
 31
0.0
  0
LINE
  5
288
  8
0
 62
     7
 10
128.22799999999989
 20
98.970299999999995
 30
0.0
 11
128.15299999999991
 21
98.920699999999997
 31
0.0
  0
LINE
  5
289
  8
0
 62
     7
 10
128.15299999999991
 20
98.920699999999997
 30
0.0
 11
123.55200000000001
 21
98.920699999999997
 31
0.0
  0
LINE
  5
28A
  8
0
 62
     7
 10
123.55200000000001
 20
98.920699999999997
 30
0.0
 11
123.477
 21
98.970299999999995
 31
0.0
  0
ARC
  5
28B
  8
0
 62
     7
 10
128.20911299999989
 20
101.9875489999999
 30
0.0
 40
0.038479
 50
61.269488000000003
 51
90.14337900000001
  0
ARC
  5
28C
  8
0
 62
     7
 10
128.047729
 20
100.67049299999999
 30
0.0
 40
1.365095999999999
 50
83.214589000000004
 51
88.388773
  0
ARC
  5
28D
  8
0
 62
     7
 10
127.5059029999999
 20
87.332936000000004
 30
0.0
 40
14.71355799999999
 50
87.740026000000015
 51
89.360946999999996
  0
ARC
  5
28E
  8
0
 62
     7
 10
126.56792900000001
 20
19.996945
 30
0.0
 40
82.056034999999994
 50
89.230439000000004
 51
89.925376
  0
ARC
  5
28F
  8
0
 62
     7
 10
125.9864749999999
 20
-298.06077499999992
 30
0.0
 40
400.1142779999999
 50
89.901425000000003
 51
90.348620000000025
  0
LINE
  5
290
  8
0
 62
     7
 10
123.55200000000001
 20
102.04600000000001
 30
0.0
 11
123.477
 21
102.021
 31
0.0
  0
LINE
  5
291
  8
0
 62
     7
 10
127.40299999999991
 20
102.04600000000001
 30
0.0
 11
127.40299999999991
 21
102.17100000000001
 31
0.0
  0
LINE
  5
292
  8
0
 62
     7
 10
127.40299999999991
 20
102.17100000000001
 30
0.0
 11
124.30200000000001
 21
102.17100000000001
 31
0.0
  0
LINE
  5
293
  8
0
 62
     7
 10
124.30200000000001
 20
102.04600000000001
 30
0.0
 11
124.30200000000001
 21
102.17100000000001
 31
0.0
  0
LINE
  5
294
  8
0
 62
     7
 10
124.60299999999989
 20
102.1959999999999
 30
0.0
 11
124.2269999999999
 21
102.497
 31
0.0
  0
LINE
  5
295
  8
0
 62
     7
 10
124.2269999999999
 20
102.497
 30
0.0
 11
124.202
 21
102.996
 31
0.0
  0
LINE
  5
296
  8
0
 62
     7
 10
127.5029999999999
 20
102.996
 30
0.0
 11
127.4769999999999
 21
102.497
 31
0.0
  0
LINE
  5
297
  8
0
 62
     7
 10
127.4769999999999
 20
102.497
 30
0.0
 11
127.10299999999989
 21
102.1959999999999
 31
0.0
  0
LINE
  5
298
  8
0
 62
     7
 10
127.303
 20
103.42100000000001
 30
0.0
 11
124.40299999999991
 21
103.42100000000001
 31
0.0
  0
LINE
  5
299
  8
0
 62
     7
 10
124.40299999999991
 20
103.42100000000001
 30
0.0
 11
124.202
 21
102.996
 31
0.0
  0
LINE
  5
29A
  8
0
 62
     7
 10
127.5029999999999
 20
102.996
 30
0.0
 11
127.303
 21
103.42100000000001
 31
0.0
  0
LINE
  5
29B
  8
0
 62
     7
 10
127.303
 20
105.422
 30
0.0
 11
124.40299999999991
 21
105.422
 31
0.0
  0
LINE
  5
29C
  8
0
 62
     7
 10
123.79000000000001
 20
90.520099999999999
 30
0.0
 11
123.79000000000001
 21
98.480400000000003
 31
0.0
  0
LINE
  5
29D
  8
0
 62
     7
 10
127.91500000000001
 20
90.520099999999999
 30
0.0
 11
127.91500000000001
 21
98.480400000000003
 31
0.0
  0
LINE
  5
29E
  8
0
 62
     7
 10
124.40299999999991
 20
103.42100000000001
 30
0.0
 11
124.40299999999991
 21
105.422
 31
0.0
  0
LINE
  5
29F
  8
0
 62
     7
 10
127.303
 20
103.42100000000001
 30
0.0
 11
127.303
 21
105.422
 31
0.0
  0
LINE
  5
2A0
  8
0
 62
     7
 10
124.40299999999991
 20
105.422
 30
0.0
 11
124.2269999999999
 21
105.72199999999999
 31
0.0
  0
LINE
  5
2A1
  8
0
 62
     7
 10
127.4769999999999
 20
105.72199999999999
 30
0.0
 11
127.303
 21
105.422
 31
0.0
  0
LINE
  5
2A2
  8
0
 62
     7
 10
124.2269999999999
 20
105.72199999999999
 30
0.0
 11
124.17700000000001
 21
105.84699999999999
 31
0.0
  0
LINE
  5
2A3
  8
0
 62
     7
 10
124.17700000000001
 20
105.84699999999999
 30
0.0
 11
124.17700000000001
 21
105.971
 31
0.0
  0
ARC
  5
2A4
  8
0
 62
     7
 10
126.9346529999999
 20
106.03028500000001
 30
0.0
 40
0.620508
 50
339.65783999999991
 51
354.56034599999992
  0
ARC
  5
2A5
  8
0
 62
     7
 10
126.85837600000001
 20
106.03875099999991
 30
0.0
 40
0.6952180000000001
 50
332.89890400000002
 51
341.18907200000001
  0
LINE
  5
2A6
  8
0
 62
     7
 10
127.55199999999989
 20
105.971
 30
0.0
 11
127.55199999999989
 21
106.672
 31
0.0
  0
LINE
  5
2A7
  8
0
 62
     7
 10
127.55199999999989
 20
106.672
 30
0.0
 11
124.17700000000001
 21
106.672
 31
0.0
  0
LINE
  5
2A8
  8
0
 62
     7
 10
124.17700000000001
 20
105.971
 30
0.0
 11
124.17700000000001
 21
106.672
 31
0.0
  0
ARC
  5
2A9
  8
0
 62
     7
 10
38.22016099999999
 20
77.142347000000001
 30
0.0
 40
0.519149
 50
272.08835599999998
 51
357.911654
  0
ARC
  5
2AA
  8
0
 62
     7
 10
36.258488999999997
 20
77.143086999999994
 30
0.0
 40
0.519904
 50
182.167022
 51
267.87248099999988
  0
ARC
  5
2AB
  8
0
 62
     7
 10
38.219763999999998
 20
78.504209000000003
 30
0.0
 40
0.5195610000000001
 50
2.130487
 51
87.869502999999995
  0
ARC
  5
2AC
  8
0
 62
     7
 10
36.258164999999998
 20
78.504190000000008
 30
0.0
 40
0.519567
 50
92.093094999999977
 51
177.86740199999991
  0
LINE
  5
2AD
  8
0
 62
     7
 10
39.007699999999993
 20
52.412599999999998
 30
0.0
 11
37.238999999999997
 21
51.93889999999999
 31
0.0
  0
LINE
  5
2AE
  8
0
 62
     7
 10
37.238999999999997
 20
51.93889999999999
 30
0.0
 11
39.007699999999993
 21
51.465200000000003
 31
0.0
  0
LINE
  5
2AF
  8
0
 62
     7
 10
39.007699999999993
 20
51.465200000000003
 30
0.0
 11
39.007699999999993
 21
52.412599999999998
 31
0.0
  0
LINE
  5
2B0
  8
0
 62
     7
 10
71.471000000000004
 20
51.476900000000001
 30
0.0
 11
73.239400000000003
 21
51.950299999999999
 31
0.0
  0
LINE
  5
2B1
  8
0
 62
     7
 10
73.239400000000003
 20
51.950299999999999
 30
0.0
 11
71.471000000000004
 21
52.424300000000002
 31
0.0
  0
LINE
  5
2B2
  8
0
 62
     7
 10
71.471000000000004
 20
52.424300000000002
 30
0.0
 11
71.471000000000004
 21
51.476900000000001
 31
0.0
  0
LINE
  5
2B3
  8
0
 62
     7
 10
37.260300000000001
 20
51.944800000000001
 30
0.0
 11
73.218000000000004
 21
51.944800000000001
 31
0.0
  0
LINE
  5
2B4
  8
0
 62
     7
 10
73.239400000000003
 20
67.986999999999995
 30
0.0
 11
73.239400000000003
 21
51.249899999999997
 31
0.0
  0
LINE
  5
2B5
  8
0
 62
     7
 10
41.000300000000003
 20
59.150300000000001
 30
0.0
 11
50.049599999999998
 21
59.150300000000001
 31
0.0
  0
LINE
  5
2B6
  8
0
 62
     7
 10
35.247
 20
59.618099999999991
 30
0.0
 11
33.478999999999999
 21
59.1447
 31
0.0
  0
LINE
  5
2B7
  8
0
 62
     7
 10
33.478999999999999
 20
59.1447
 30
0.0
 11
35.247
 21
58.670699999999997
 31
0.0
  0
LINE
  5
2B8
  8
0
 62
     7
 10
35.247
 20
58.670699999999997
 30
0.0
 11
35.247
 21
59.618099999999991
 31
0.0
  0
LINE
  5
2B9
  8
0
 62
     7
 10
39.2316
 20
58.682400000000001
 30
0.0
 11
41.000300000000003
 21
59.156100000000002
 31
0.0
  0
LINE
  5
2BA
  8
0
 62
     7
 10
41.000300000000003
 20
59.156100000000002
 30
0.0
 11
39.2316
 21
59.630200000000002
 31
0.0
  0
LINE
  5
2BB
  8
0
 62
     7
 10
39.2316
 20
59.630200000000002
 30
0.0
 11
39.2316
 21
58.682400000000001
 31
0.0
  0
LINE
  5
2BC
  8
0
 62
     7
 10
33.500300000000003
 20
59.150300000000001
 30
0.0
 11
40.978299999999997
 21
59.150300000000001
 31
0.0
  0
LINE
  5
2BD
  8
0
 62
     7
 10
33.478999999999999
 20
64.912899999999993
 30
0.0
 11
33.478999999999999
 21
58.629399999999997
 31
0.0
  0
LINE
  5
2BE
  8
0
 62
     7
 10
41.000300000000003
 20
64.912899999999993
 30
0.0
 11
41.000300000000003
 21
58.686199999999992
 31
0.0
  0
LINE
  5
2BF
  8
0
 62
     7
 10
27.651199999999999
 20
81.536299999999983
 30
0.0
 11
27.177199999999988
 21
83.304699999999997
 31
0.0
  0
LINE
  5
2C0
  8
0
 62
     7
 10
27.177199999999988
 20
83.304699999999997
 30
0.0
 11
26.703099999999999
 21
81.536299999999983
 31
0.0
  0
LINE
  5
2C1
  8
0
 62
     7
 10
26.703099999999999
 20
81.536299999999983
 30
0.0
 11
27.651199999999999
 21
81.536299999999983
 31
0.0
  0
LINE
  5
2C2
  8
0
 62
     7
 10
26.7148
 20
77.063100000000006
 30
0.0
 11
27.1889
 21
75.294799999999995
 31
0.0
  0
LINE
  5
2C3
  8
0
 62
     7
 10
27.1889
 20
75.294799999999995
 30
0.0
 11
27.6629
 21
77.063100000000006
 31
0.0
  0
LINE
  5
2C4
  8
0
 62
     7
 10
27.6629
 20
77.063100000000006
 30
0.0
 11
26.7148
 21
77.063100000000006
 31
0.0
  0
LINE
  5
2C5
  8
0
 62
     7
 10
27.182700000000001
 20
83.304699999999997
 30
0.0
 11
27.182700000000001
 21
75.294799999999995
 31
0.0
  0
LINE
  5
2C6
  8
0
 62
     7
 10
27.651199999999999
 20
73.52600000000001
 30
0.0
 11
27.177199999999988
 21
75.294799999999995
 31
0.0
  0
LINE
  5
2C7
  8
0
 62
     7
 10
27.177199999999988
 20
75.294799999999995
 30
0.0
 11
26.703099999999999
 21
73.52600000000001
 31
0.0
  0
LINE
  5
2C8
  8
0
 62
     7
 10
26.703099999999999
 20
73.52600000000001
 30
0.0
 11
27.651199999999999
 21
73.52600000000001
 31
0.0
  0
LINE
  5
2C9
  8
0
 62
     7
 10
26.7148
 20
66.996200000000002
 30
0.0
 11
27.1889
 21
65.228099999999984
 31
0.0
  0
LINE
  5
2CA
  8
0
 62
     7
 10
27.1889
 20
65.228099999999984
 30
0.0
 11
27.6629
 21
66.996200000000002
 31
0.0
  0
LINE
  5
2CB
  8
0
 62
     7
 10
27.6629
 20
66.996200000000002
 30
0.0
 11
26.7148
 21
66.996200000000002
 31
0.0
  0
LINE
  5
2CC
  8
0
 62
     7
 10
27.182700000000001
 20
75.316100000000006
 30
0.0
 11
27.182700000000001
 21
65.228099999999984
 31
0.0
  0
LINE
  5
2CD
  8
0
 62
     7
 10
32.875399999999992
 20
65.228099999999984
 30
0.0
 11
26.840199999999999
 21
65.228099999999984
 31
0.0
  0
LINE
  5
2CE
  8
0
 62
     7
 10
30.728400000000001
 20
75.294799999999995
 30
0.0
 11
26.840199999999999
 21
75.294799999999995
 31
0.0
  0
LINE
  5
2CF
  8
0
 62
     7
 10
30.651199999999999
 20
83.304699999999997
 30
0.0
 11
26.837499999999991
 21
83.304699999999997
 31
0.0
  0
LINE
  5
2D0
  8
0
 62
     7
 10
43.5291
 20
83.057999999999993
 30
0.0
 11
43.5291
 21
82.957400000000007
 31
0.0
  0
ARC
  5
2D1
  8
0
 62
     7
 10
45.864348
 20
70.080549000000005
 30
0.0
 40
5.1192349999999989
 50
197.7938509999999
 51
205.456209
  0
ARC
  5
2D2
  8
0
 62
     7
 10
42.990118000000002
 20
68.736257999999992
 30
0.0
 40
1.9463680000000001
 50
206.09278499999999
 51
211.00056599999999
  0
ARC
  5
2D3
  8
0
 62
     7
 10
41.925074000000002
 20
68.086046999999994
 30
0.0
 40
0.698619
 50
210.27972099999991
 51
225.387215
  0
ARC
  5
2D4
  8
0
 62
     7
 10
43.331766999999999
 20
69.148256000000003
 30
0.0
 40
2.302220999999999
 50
149.52437900000001
 51
157.20595499999999
  0
ARC
  5
2D5
  8
0
 62
     7
 10
44.96857399999999
 20
68.427250000000001
 30
0.0
 40
4.0906459999999987
 50
156.7778129999999
 51
168.87007099999991
  0
LINE
  5
2D6
  8
0
 62
     7
 10
46.936300000000003
 20
70.865700000000004
 30
0.0
 11
46.471899999999998
 21
70.865700000000004
 31
0.0
  0
LINE
  5
2D7
  8
0
 62
     7
 10
45.38669999999999
 20
66.902799999999999
 30
0.0
 11
44.6783
 21
66.902799999999999
 31
0.0
  0
LINE
  5
2D8
  8
0
 62
     7
 10
46.943899999999999
 20
66.902799999999999
 30
0.0
 11
46.524900000000002
 21
66.902799999999999
 31
0.0
  0
ARC
  5
2D9
  8
0
 62
     7
 10
45.936968
 20
66.834012000000001
 30
0.0
 40
0.856685
 50
71.079227000000003
 51
90.030982999999992
  0
ARC
  5
2DA
  8
0
 62
     7
 10
46.019861999999989
 20
67.133616000000004
 30
0.0
 40
0.546712
 50
15.048963000000001
 51
69.115506000000011
  0
ARC
  5
2DB
  8
0
 62
     7
 10
45.683178999999988
 20
67.028905000000009
 30
0.0
 40
0.8991399999999998
 50
358.79156799999998
 51
15.922105
  0
ARC
  5
2DC
  8
0
 62
     7
 10
46.505226999999998
 20
67.010370999999992
 30
0.0
 40
0.076894
 50
340.23881299999988
 51
359.68055299999992
  0
ARC
  5
2DD
  8
0
 62
     7
 10
46.414172999999991
 20
67.040506000000008
 30
0.0
 40
0.172791
 50
326.44246900000002
 51
341.04307299999999
  0
ARC
  5
2DE
  8
0
 62
     7
 10
46.248676000000003
 20
67.147611999999995
 30
0.0
 40
0.369918
 50
315.87787099999991
 51
326.78745299999991
  0
ARC
  5
2DF
  8
0
 62
     7
 10
46.003557999999991
 20
67.384454000000005
 30
0.0
 40
0.7107640000000001
 50
299.99903499999999
 51
315.92864899999989
  0
ARC
  5
2E0
  8
0
 62
     7
 10
45.894362999999998
 20
67.543807999999984
 30
0.0
 40
0.903489
 50
271.49285400000002
 51
300.94344699999999
  0
ARC
  5
2E1
  8
0
 62
     7
 10
45.919459000000003
 20
67.276686999999995
 30
0.0
 40
0.6360630000000001
 50
238.0169599999999
 51
269.859666
  0
ARC
  5
2E2
  8
0
 62
     7
 10
45.979399000000001
 20
67.403421999999992
 30
0.0
 40
0.7754800000000001
 50
216.71406300000001
 51
239.2203439999999
  0
ARC
  5
2E3
  8
0
 62
     7
 10
45.64567199999999
 20
67.150331000000008
 30
0.0
 40
0.356667
 50
203.97207299999991
 51
216.171798
  0
ARC
  5
2E4
  8
0
 62
     7
 10
45.418354000000001
 20
67.051959999999994
 30
0.0
 40
0.109018
 50
183.07270700000001
 51
205.27071000000001
  0
ARC
  5
2E5
  8
0
 62
     7
 10
46.427405999999991
 20
67.047169999999994
 30
0.0
 40
1.117912999999999
 50
169.31603299999989
 51
180.05405699999989
  0
ARC
  5
2E6
  8
0
 62
     7
 10
45.927822999999989
 20
67.135046000000003
 30
0.0
 40
0.610731
 50
143.50345200000001
 51
168.72816599999999
  0
ARC
  5
2E7
  8
0
 62
     7
 10
45.808351999999999
 20
67.197849000000005
 30
0.0
 40
0.4777790000000001
 50
101.71068199999991
 51
141.035741
  0
ARC
  5
2E8
  8
0
 62
     7
 10
45.920603999999997
 20
66.808242000000007
 30
0.0
 40
0.8825979999999999
 50
88.967709999999997
 51
103.712953
  0
ARC
  5
2E9
  8
0
 62
     7
 10
45.881816999999991
 20
69.226641999999984
 30
0.0
 40
1.7637890000000001
 50
76.622818999999993
 51
90.014088999999984
  0
ARC
  5
2EA
  8
0
 62
     7
 10
46.120409000000002
 20
70.272910999999993
 30
0.0
 40
0.690778
 50
59.890551000000002
 51
75.797769999999986
  0
ARC
  5
2EB
  8
0
 62
     7
 10
46.366500000000002
 20
70.707103000000004
 30
0.0
 40
0.191783
 50
29.411314999999998
 51
58.418089999999999
  0
ARC
  5
2EC
  8
0
 62
     7
 10
46.455761999999993
 20
70.765333999999996
 30
0.0
 40
0.085707
 50
0.317384
 51
24.799139
  0
ARC
  5
2ED
  8
0
 62
     7
 10
45.303077999999999
 20
70.765381999999988
 30
0.0
 40
1.2383889999999991
 50
344.521458
 51
0.019753
  0
ARC
  5
2EE
  8
0
 62
     7
 10
45.806994000000003
 20
70.641153000000003
 30
0.0
 40
0.719747
 50
319.05866800000001
 51
343.34634499999999
  0
ARC
  5
2EF
  8
0
 62
     7
 10
45.949641
 20
70.541906999999995
 30
0.0
 40
0.5472730000000001
 50
268.62459499999989
 51
317.12087300000002
  0
ARC
  5
2F0
  8
0
 62
     7
 10
45.942815000000003
 20
70.614766000000003
 30
0.0
 40
0.6200070000000001
 50
212.58928399999991
 51
269.41688399999992
  0
ARC
  5
2F1
  8
0
 62
     7
 10
46.090436999999987
 20
70.717252000000002
 30
0.0
 40
0.799616
 50
190.5786479999999
 51
213.079275
  0
ARC
  5
2F2
  8
0
 62
     7
 10
46.356090000000002
 20
70.782275999999996
 30
0.0
 40
1.072797999999999
 50
179.6650689999999
 51
191.38775000000001
  0
ARC
  5
2F3
  8
0
 62
     7
 10
45.340755000000001
 20
70.788494999999998
 30
0.0
 40
0.057444
 50
159.6352169999999
 51
179.948408
  0
ARC
  5
2F4
  8
0
 62
     7
 10
45.375355999999996
 20
70.775107999999975
 30
0.0
 40
0.094543
 50
138.68355500000001
 51
159.326448
  0
ARC
  5
2F5
  8
0
 62
     7
 10
45.451450999999999
 20
70.70915699999999
 30
0.0
 40
0.195239
 50
124.2858139999999
 51
138.89040800000001
  0
ARC
  5
2F6
  8
0
 62
     7
 10
45.56606
 20
70.544826999999998
 30
0.0
 40
0.395583
 50
114.19512399999989
 51
124.59347099999999
  0
ARC
  5
2F7
  8
0
 62
     7
 10
45.737253000000003
 20
70.162233999999998
 30
0.0
 40
0.8147300000000001
 50
99.289972999999975
 51
114.149432
  0
ARC
  5
2F8
  8
0
 62
     7
 10
45.871259999999999
 20
69.520933999999997
 30
0.0
 40
1.469530999999999
 50
89.605311999999998
 51
100.409947
  0
ARC
  5
2F9
  8
0
 62
     7
 10
45.935111999999997
 20
69.294094000000001
 30
0.0
 40
0.4791790000000001
 50
54.511673999999999
 51
89.833435999999992
  0
ARC
  5
2FA
  8
0
 62
     7
 10
45.822687000000002
 20
69.118005000000011
 30
0.0
 40
0.6879070000000001
 50
30.722599999999989
 51
55.401756000000013
  0
ARC
  5
2FB
  8
0
 62
     7
 10
45.519933999999992
 20
68.916041000000007
 30
0.0
 40
1.0515190000000001
 50
4.3951299999999991
 51
31.755082999999999
  0
ARC
  5
2FC
  8
0
 62
     7
 10
45.287533000000003
 20
68.870653000000004
 30
0.0
 40
1.287007
 50
359.98454800000002
 51
5.6170159999999996
  0
ARC
  5
2FD
  8
0
 62
     7
 10
45.36396899999999
 20
68.871553000000006
 30
0.0
 40
1.2105719999999991
 50
331.61258500000002
 51
359.94094899999999
  0
ARC
  5
2FE
  8
0
 62
     7
 10
45.753400999999997
 20
68.686233000000001
 30
0.0
 40
0.780175
 50
307.38971800000002
 51
329.988471
  0
ARC
  5
2FF
  8
0
 62
     7
 10
45.923569000000001
 20
68.483140000000006
 30
0.0
 40
0.515617
 50
271.43757499999992
 51
306.06975999999997
  0
ARC
  5
300
  8
0
 62
     7
 10
45.937910999999993
 20
68.446665999999993
 30
0.0
 40
0.4789830000000001
 50
234.517503
 51
269.83175099999988
  0
ARC
  5
301
  8
0
 62
     7
 10
46.051098000000003
 20
68.62451999999999
 30
0.0
 40
0.6895970000000001
 50
210.80902
 51
235.437174
  0
ARC
  5
302
  8
0
 62
     7
 10
46.350621999999987
 20
68.825130000000001
 30
0.0
 40
1.0497700000000001
 50
184.43253000000001
 51
211.840114
  0
ARC
  5
303
  8
0
 62
     7
 10
46.576616999999999
 20
68.869895
 30
0.0
 40
1.278837
 50
179.981582
 51
185.6496909999999
  0
ARC
  5
304
  8
0
 62
     7
 10
46.505234999999999
 20
68.869062999999997
 30
0.0
 40
1.207455999999999
 50
151.52532500000001
 51
179.94099800000001
  0
ARC
  5
305
  8
0
 62
     7
 10
46.121271
 20
69.052526999999998
 30
0.0
 40
0.782774
 50
127.383118
 51
149.93007299999991
  0
ARC
  5
306
  8
0
 62
     7
 10
45.949882000000002
 20
69.257315000000006
 30
0.0
 40
0.516129
 50
91.485153999999994
 51
126.0675379999999
  0
LINE
  5
307
  8
0
 62
     7
 10
54.075200000000002
 20
66.578999999999994
 30
0.0
 11
53.601900000000001
 21
68.347300000000004
 31
0.0
  0
LINE
  5
308
  8
0
 62
     7
 10
53.601900000000001
 20
68.347300000000004
 30
0.0
 11
53.127800000000001
 21
66.578999999999994
 31
0.0
  0
LINE
  5
309
  8
0
 62
     7
 10
53.127800000000001
 20
66.578999999999994
 30
0.0
 11
54.075200000000002
 21
66.578999999999994
 31
0.0
  0
LINE
  5
30A
  8
0
 62
     7
 10
53.139600000000002
 20
71.114500000000007
 30
0.0
 11
53.613599999999998
 21
69.346400000000003
 31
0.0
  0
LINE
  5
30B
  8
0
 62
     7
 10
53.613599999999998
 20
69.346400000000003
 30
0.0
 11
54.086999999999989
 21
71.114500000000007
 31
0.0
  0
LINE
  5
30C
  8
0
 62
     7
 10
54.086999999999989
 20
71.114500000000007
 30
0.0
 11
53.139600000000002
 21
71.114500000000007
 31
0.0
  0
LINE
  5
30D
  8
0
 62
     7
 10
53.607399999999991
 20
75.269300000000001
 30
0.0
 11
53.607399999999991
 21
65.312899999999999
 31
0.0
  0
LINE
  5
30E
  8
0
 62
     7
 10
71.312200000000004
 20
68.487899999999996
 30
0.0
 11
70.779200000000003
 21
68.487899999999996
 31
0.0
  0
LINE
  5
30F
  8
0
 62
     7
 10
71.312200000000004
 20
69.1935
 30
0.0
 11
70.779200000000003
 21
69.1935
 31
0.0
  0
LINE
  5
310
  8
0
 62
     7
 10
71.400700000000001
 20
68.376999999999995
 30
0.0
 11
71.405199999999994
 21
68.376999999999995
 31
0.0
  0
LINE
  5
311
  8
0
 62
     7
 10
70.779200000000003
 20
68.3673
 30
0.0
 11
71.312200000000004
 21
68.3673
 31
0.0
  0
LINE
  5
312
  8
0
 62
     7
 10
70.779200000000003
 20
69.312700000000007
 30
0.0
 11
71.312200000000004
 21
69.312700000000007
 31
0.0
  0
ARC
  5
313
  8
0
 62
     7
 10
71.565384999999992
 20
68.203941999999984
 30
0.0
 40
0.251803
 50
157.07963499999991
 51
179.82537600000001
  0
ARC
  5
314
  8
0
 62
     7
 10
71.503033000000002
 20
68.220543999999975
 30
0.0
 40
0.188123
 50
106.65652
 51
154.34015299999999
  0
ARC
  5
315
  8
0
 62
     7
 10
71.579892999999998
 20
68.021062000000001
 30
0.0
 40
0.4016030000000001
 50
88.083088000000004
 51
109.004983
  0
ARC
  5
316
  8
0
 62
     7
 10
71.599564000000001
 20
68.015917999999999
 30
0.0
 40
0.40657
 50
73.498393000000007
 51
90.878998999999993
  0
ARC
  5
317
  8
0
 62
     7
 10
71.644525999999999
 20
68.187318999999988
 30
0.0
 40
0.229525
 50
25.086769
 51
72.1066
  0
ARC
  5
318
  8
0
 62
     7
 10
71.551717000000011
 20
69.461524999999995
 30
0.0
 40
0.2391469999999999
 50
182.98169799999999
 51
206.04978800000001
  0
ARC
  5
319
  8
0
 62
     7
 10
71.501137999999983
 20
69.447018
 30
0.0
 40
0.18756
 50
208.85470299999989
 51
256.2593
  0
ARC
  5
31A
  8
0
 62
     7
 10
71.580611000000005
 20
69.679368999999994
 30
0.0
 40
0.432698
 50
253.343772
 51
271.68390499999992
  0
ARC
  5
31B
  8
0
 62
     7
 10
71.593753000000007
 20
69.683506999999992
 30
0.0
 40
0.4366500000000001
 50
269.94408499999997
 51
286.72148899999991
  0
ARC
  5
31C
  8
0
 62
     7
 10
71.650867000000005
 20
69.476918999999995
 30
0.0
 40
0.222415
 50
287.94270699999993
 51
335.3959319999999
  0
ARC
  5
31D
  8
0
 62
     7
 10
71.610585
 20
68.950136000000001
 30
0.0
 40
0.297223
 50
93.328722000000013
 51
177.7891789999999
  0
ARC
  5
31E
  8
0
 62
     7
 10
71.593356999999983
 20
68.986221
 30
0.0
 40
0.260636
 50
26.768953
 51
90.006713000000005
  0
ARC
  5
31F
  8
0
 62
     7
 10
71.524388000000002
 20
68.933329999999998
 30
0.0
 40
0.346413
 50
8.6404649999999972
 51
29.442734999999999
  0
ARC
  5
320
  8
0
 62
     7
 10
71.608765000000005
 20
68.718969000000001
 30
0.0
 40
0.29693
 50
184.84000999999989
 51
267.01964500000003
  0
ARC
  5
321
  8
0
 62
     7
 10
71.593341000000009
 20
68.854268000000005
 30
0.0
 40
0.431827
 50
269.99801599999989
 51
286.71117900000002
  0
ARC
  5
322
  8
0
 62
     7
 10
71.647712999999996
 20
68.653176000000002
 30
0.0
 40
0.223668
 50
288.183787
 51
348.47206699999992
  0
LINE
  5
323
  8
0
 62
     7
 10
71.669499999999985
 20
68.163399999999996
 30
0.0
 11
71.312200000000004
 21
68.163399999999996
 31
0.0
  0
LINE
  5
324
  8
0
 62
     7
 10
71.866900000000001
 20
69.312700000000007
 30
0.0
 11
71.866900000000001
 21
68.361099999999993
 31
0.0
  0
ARC
  5
325
  8
0
 62
     7
 10
71.661559999999994
 20
68.368662999999998
 30
0.0
 40
0.205447
 50
272.20466099999999
 51
357.89525400000002
  0
LINE
  5
326
  8
0
 62
     7
 10
71.669499999999985
 20
69.509699999999995
 30
0.0
 11
71.312200000000004
 21
69.509699999999995
 31
0.0
  0
ARC
  5
327
  8
0
 62
     7
 10
71.661928000000003
 20
69.304766000000001
 30
0.0
 40
0.205092
 50
2.205592999999999
 51
87.894476999999995
  0
LINE
  5
328
  8
0
 62
     7
 10
71.312200000000004
 20
69.509699999999995
 30
0.0
 11
71.312200000000004
 21
68.163399999999996
 31
0.0
  0
LINE
  5
329
  8
0
 62
     7
 10
70.692099999999996
 20
68.394900000000007
 30
0.0
 11
70.692800000000005
 21
68.394900000000007
 31
0.0
  0
LINE
  5
32A
  8
0
 62
     7
 10
70.779200000000003
 20
69.525199999999984
 30
0.0
 11
70.577699999999993
 21
69.698499999999996
 31
0.0
  0
LINE
  5
32B
  8
0
 62
     7
 10
70.779200000000003
 20
68.178499999999985
 30
0.0
 11
70.577699999999993
 21
68.007000000000005
 31
0.0
  0
LINE
  5
32C
  8
0
 62
     7
 10
68.043800000000005
 20
68.007000000000005
 30
0.0
 11
67.842299999999994
 21
68.178499999999985
 31
0.0
  0
LINE
  5
32D
  8
0
 62
     7
 10
68.043800000000005
 20
69.697100000000006
 30
0.0
 11
67.842299999999994
 21
69.524900000000002
 31
0.0
  0
LINE
  5
32E
  8
0
 62
     7
 10
67.842299999999994
 20
69.524900000000002
 30
0.0
 11
67.842299999999994
 21
68.178499999999985
 31
0.0
  0
ARC
  5
32F
  8
0
 62
     7
 10
68.447211999999993
 20
68.359554000000003
 30
0.0
 40
0.352595
 50
239.6336849999999
 51
269.89342999999991
  0
ARC
  5
330
  8
0
 62
     7
 10
68.521638999999993
 20
68.501932999999994
 30
0.0
 40
0.5131250000000001
 50
222.37933100000001
 51
240.50017800000001
  0
ARC
  5
331
  8
0
 62
     7
 10
68.743370999999996
 20
68.713052000000005
 30
0.0
 40
0.8192459999999998
 50
200.65539699999999
 51
222.833798
  0
ARC
  5
332
  8
0
 62
     7
 10
69.049953000000002
 20
68.855611999999994
 30
0.0
 40
1.156682999999999
 50
179.954724
 51
201.906251
  0
ARC
  5
333
  8
0
 62
     7
 10
69.080077000000003
 20
68.854623000000004
 30
0.0
 40
1.1868080000000001
 50
151.7001479999999
 51
179.908151
  0
ARC
  5
334
  8
0
 62
     7
 10
68.667361
 20
69.066231000000002
 30
0.0
 40
0.7231600000000001
 50
128.06763100000001
 51
150.959598
  0
ARC
  5
335
  8
0
 62
     7
 10
68.455483000000001
 20
69.312414000000004
 30
0.0
 40
0.398985
 50
105.3674479999999
 51
125.91109899999989
  0
ARC
  5
336
  8
0
 62
     7
 10
70.214202
 20
69.331893999999991
 30
0.0
 40
0.36975
 50
50.165275000000001
 51
81.041458000000006
  0
ARC
  5
337
  8
0
 62
     7
 10
70.073756000000003
 20
69.137815000000003
 30
0.0
 40
0.6089720000000001
 50
34.479073
 51
51.715510000000002
  0
ARC
  5
338
  8
0
 62
     7
 10
69.775897999999998
 20
68.922150000000002
 30
0.0
 40
0.9766379999999998
 50
14.17384
 51
35.016478999999997
  0
ARC
  5
339
  8
0
 62
     7
 10
69.559021000000001
 20
68.844566999999998
 30
0.0
 40
1.2061129999999991
 50
0.273504
 51
15.224515999999991
  0
ARC
  5
33A
  8
0
 62
     7
 10
69.590170000000001
 20
68.851947999999993
 30
0.0
 40
1.1749519999999991
 50
331.658569
 51
359.920817
  0
ARC
  5
33B
  8
0
 62
     7
 10
69.984234000000001
 20
68.649292000000003
 30
0.0
 40
0.7319680000000001
 50
308.38011699999998
 51
330.97693199999998
  0
ARC
  5
33C
  8
0
 62
     7
 10
70.200220000000002
 20
68.399056999999999
 30
0.0
 40
0.4019480000000001
 50
282.71072400000003
 51
306.39137099999999
  0
LINE
  5
33D
  8
0
 62
     7
 10
68.032799999999995
 20
68.937799999999996
 30
0.0
 11
69.229299999999995
 21
68.937799999999996
 31
0.0
  0
LINE
  5
33E
  8
0
 62
     7
 10
68.032799999999995
 20
68.765600000000006
 30
0.0
 11
69.229299999999995
 21
68.765600000000006
 31
0.0
  0
ARC
  5
33F
  8
0
 62
     7
 10
68.740417000000008
 20
68.837997000000001
 30
0.0
 40
0.713583
 50
112.6549969999999
 51
179.01017699999991
  0
ARC
  5
340
  8
0
 62
     7
 10
68.632463000000001
 20
69.019567000000009
 30
0.0
 40
0.5053130000000001
 50
90.180612999999994
 51
109.28695
  0
ARC
  5
341
  8
0
 62
     7
 10
68.629218000000009
 20
69.006600000000006
 30
0.0
 40
0.51828
 50
54.270740000000011
 51
89.817377000000008
  0
ARC
  5
342
  8
0
 62
     7
 10
68.516591000000005
 20
68.840001999999998
 30
0.0
 40
0.719315
 50
0.822211
 51
54.737286000000012
  0
ARC
  5
343
  8
0
 62
     7
 10
68.526735000000002
 20
68.862763000000001
 30
0.0
 40
0.709207
 50
292.34706199999988
 51
358.99499900000001
  0
ARC
  5
344
  8
0
 62
     7
 10
68.629234999999994
 20
68.686376999999993
 30
0.0
 40
0.507853
 50
270.18441999999999
 51
289.21613400000001
  0
ARC
  5
345
  8
0
 62
     7
 10
68.632520999999997
 20
68.696559999999991
 30
0.0
 40
0.518037
 50
234.30796799999999
 51
269.81742200000002
  0
ARC
  5
346
  8
0
 62
     7
 10
68.743746000000002
 20
68.861477000000008
 30
0.0
 40
0.716892
 50
180.8913979999999
 51
234.7781939999999
  0
LINE
  5
347
  8
0
 62
     7
 10
68.040000000000006
 20
68.007000000000005
 30
0.0
 11
70.581199999999995
 21
68.007000000000005
 31
0.0
  0
LINE
  5
348
  8
0
 62
     7
 10
68.043800000000005
 20
69.697100000000006
 30
0.0
 11
70.579400000000007
 21
69.697100000000006
 31
0.0
  0
LINE
  5
349
  8
0
 62
     7
 10
70.779200000000003
 20
69.525199999999984
 30
0.0
 11
70.779200000000003
 21
68.178499999999985
 31
0.0
  0
LINE
  5
34A
  8
0
 62
     7
 10
30.950199999999992
 20
83.683599999999998
 30
0.0
 11
30.950199999999992
 21
87.795699999999997
 31
0.0
  0
LINE
  5
34B
  8
0
 62
     7
 10
31.196899999999999
 20
83.304699999999997
 30
0.0
 11
43.281700000000001
 21
83.304699999999997
 31
0.0
  0
ARC
  5
34C
  8
0
 62
     7
 10
43.272182999999998
 20
83.047756999999976
 30
0.0
 40
0.257077
 50
2.280692999999999
 51
87.879118000000005
  0
ARC
  5
34D
  8
0
 62
     7
 10
31.205749999999998
 20
83.048438000000004
 30
0.0
 40
0.255684
 50
91.980152000000004
 51
177.85955000000001
  0
LINE
  5
34E
  8
0
 62
     7
 10
30.950199999999992
 20
82.957400000000007
 30
0.0
 11
30.950199999999992
 21
83.057999999999993
 31
0.0
  0
LINE
  5
34F
  8
0
 62
     7
 10
41.160899999999991
 20
76.623500000000007
 30
0.0
 11
41.233899999999991
 21
76.623500000000007
 31
0.0
  0
LINE
  5
350
  8
0
 62
     7
 10
40.83979999999999
 20
76.945999999999998
 30
0.0
 11
40.83979999999999
 21
78.702299999999994
 31
0.0
  0
ARC
  5
351
  8
0
 62
     7
 10
41.173321000000001
 20
76.957014999999998
 30
0.0
 40
0.333705
 50
181.89070599999991
 51
267.86394599999988
  0
LINE
  5
352
  8
0
 62
     7
 10
33.648499999999999
 20
76.945999999999998
 30
0.0
 11
33.648499999999999
 21
78.702299999999994
 31
0.0
  0
LINE
  5
353
  8
0
 62
     7
 10
33.244700000000002
 20
76.623500000000007
 30
0.0
 11
33.32739999999999
 21
76.623500000000007
 31
0.0
  0
ARC
  5
354
  8
0
 62
     7
 10
33.313626999999997
 20
76.958320000000001
 30
0.0
 40
0.33506
 50
272.35174199999989
 51
357.89364599999988
  0
LINE
  5
355
  8
0
 62
     7
 10
41.160899999999991
 20
79.023399999999995
 30
0.0
 11
41.233899999999991
 21
79.023399999999995
 31
0.0
  0
ARC
  5
356
  8
0
 62
     7
 10
41.17322399999999
 20
78.689984999999993
 30
0.0
 40
0.333654
 50
92.119619999999983
 51
177.88035099999991
  0
LINE
  5
357
  8
0
 62
     7
 10
33.244700000000002
 20
79.023399999999995
 30
0.0
 11
33.32739999999999
 21
79.023399999999995
 31
0.0
  0
ARC
  5
358
  8
0
 62
     7
 10
33.315034999999988
 20
78.689984999999993
 30
0.0
 40
0.333654
 50
2.1196470000000001
 51
87.880343000000011
  0
LINE
  5
359
  8
0
 62
     7
 10
33.244700000000002
 20
79.023399999999995
 30
0.0
 11
33.244700000000002
 21
81.093599999999995
 31
0.0
  0
LINE
  5
35A
  8
0
 62
     7
 10
33.244700000000002
 20
76.223600000000005
 30
0.0
 11
33.244700000000002
 21
76.623500000000007
 31
0.0
  0
LINE
  5
35B
  8
0
 62
     7
 10
33.244700000000002
 20
81.093599999999995
 30
0.0
 11
33.0959
 21
81.249300000000005
 31
0.0
  0
LINE
  5
35C
  8
0
 62
     7
 10
41.346200000000003
 20
81.249300000000005
 30
0.0
 11
41.233899999999991
 21
81.093599999999995
 31
0.0
  0
LINE
  5
35D
  8
0
 62
     7
 10
41.233899999999991
 20
76.623500000000007
 30
0.0
 11
41.233899999999991
 21
76.223600000000005
 31
0.0
  0
LINE
  5
35E
  8
0
 62
     7
 10
41.233899999999991
 20
81.093599999999995
 30
0.0
 11
41.233899999999991
 21
79.023399999999995
 31
0.0
  0
LINE
  5
35F
  8
0
 62
     7
 10
30.950199999999992
 20
82.957400000000007
 30
0.0
 11
43.549700000000001
 21
82.957400000000007
 31
0.0
  0
LINE
  5
360
  8
0
 62
     7
 10
47.182899999999989
 20
67.149799999999999
 30
0.0
 11
47.182899999999989
 21
70.620800000000003
 31
0.0
  0
ARC
  5
361
  8
0
 62
     7
 10
46.933960999999996
 20
67.159351999999998
 30
0.0
 40
0.256744
 50
272.209045
 51
357.87093099999993
  0
ARC
  5
362
  8
0
 62
     7
 10
46.926851999999997
 20
70.609549000000001
 30
0.0
 40
0.256342
 50
2.508769
 51
87.892731999999995
  0
LINE
  5
363
  8
0
 62
     7
 10
41.4069
 20
67.0334
 30
0.0
 11
33.0717
 21
67.0334
 31
0.0
  0
LINE
  5
364
  8
0
 62
     7
 10
43.263800000000003
 20
75.3048
 30
0.0
 11
31.2148
 21
75.3048
 31
0.0
  0
LINE
  5
365
  8
0
 62
     7
 10
43.823300000000003
 20
70.488100000000003
 30
0.0
 11
43.823300000000003
 21
67.205600000000004
 31
0.0
  0
LINE
  5
366
  8
0
 62
     7
 10
43.5291
 20
83.4876
 30
0.0
 11
43.5291
 21
87.795699999999997
 31
0.0
  0
LINE
  5
367
  8
0
 62
     7
 10
41.761000000000003
 20
86.982699999999994
 30
0.0
 11
43.5291
 21
87.456399999999988
 31
0.0
  0
LINE
  5
368
  8
0
 62
     7
 10
43.5291
 20
87.456399999999988
 30
0.0
 11
41.761000000000003
 21
87.930400000000006
 31
0.0
  0
LINE
  5
369
  8
0
 62
     7
 10
41.761000000000003
 20
87.930400000000006
 30
0.0
 11
41.761000000000003
 21
86.982699999999994
 31
0.0
  0
LINE
  5
36A
  8
0
 62
     7
 10
32.718299999999999
 20
87.918999999999997
 30
0.0
 11
30.950199999999992
 21
87.444999999999993
 31
0.0
  0
LINE
  5
36B
  8
0
 62
     7
 10
30.950199999999992
 20
87.444999999999993
 30
0.0
 11
32.718299999999999
 21
86.971000000000004
 31
0.0
  0
LINE
  5
36C
  8
0
 62
     7
 10
32.718299999999999
 20
86.971000000000004
 30
0.0
 11
32.718299999999999
 21
87.918999999999997
 31
0.0
  0
LINE
  5
36D
  8
0
 62
     7
 10
43.507699999999993
 20
87.450900000000004
 30
0.0
 11
31.030200000000001
 21
87.450900000000004
 31
0.0
  0
LINE
  5
36E
  8
0
 62
     7
 10
37.238999999999997
 20
62.785499999999999
 30
0.0
 11
37.238999999999997
 21
51.131700000000002
 31
0.0
  0
LINE
  5
36F
  8
0
 62
     7
 10
71.868899999999996
 20
68.332899999999995
 30
0.0
 11
73.026499999999984
 21
68.332899999999995
 31
0.0
  0
LINE
  5
370
  8
0
 62
     7
 10
47.183599999999991
 20
68.347300000000004
 30
0.0
 11
68.993600000000001
 21
68.347300000000004
 31
0.0
  0
LINE
  5
371
  8
0
  6
AIGENLINE001
 62
     7
 10
39.736699999999999
 20
68.846900000000005
 30
0.0
 11
74.928200000000004
 21
68.846900000000005
 31
0.0
  0
LINE
  5
372
  8
0
 62
     7
 10
71.868899999999996
 20
69.332300000000004
 30
0.0
 11
73.026499999999984
 21
69.332300000000004
 31
0.0
  0
LINE
  5
373
  8
0
 62
     7
 10
47.183599999999991
 20
69.346400000000003
 30
0.0
 11
68.993600000000001
 21
69.346400000000003
 31
0.0
  0
ARC
  5
374
  8
0
 62
     7
 10
41.710765000000002
 20
66.851488000000003
 30
0.0
 40
0.35417
 50
90.787019999999984
 51
149.10000999999991
  0
LINE
  5
375
  8
0
 62
     7
 10
44.592199999999998
 20
66.989599999999996
 30
0.0
 11
44.592199999999998
 21
70.703800000000001
 31
0.0
  0
ARC
  5
376
  8
0
 62
     7
 10
41.765146999999999
 20
70.84644200000001
 30
0.0
 40
0.358548
 50
182.2054709999999
 51
267.90903500000002
  0
LINE
  5
377
  8
0
 62
     7
 10
44.592199999999998
 20
66.989599999999996
 30
0.0
 11
44.6783
 21
66.902799999999999
 31
0.0
  0
LINE
  5
378
  8
0
 62
     7
 10
44.6783
 20
70.788499999999999
 30
0.0
 11
44.592199999999998
 21
70.703800000000001
 31
0.0
  0
LINE
  5
379
  8
0
 62
     7
 10
41.752099999999992
 20
70.488100000000003
 30
0.0
 11
44.592199999999998
 21
70.488100000000003
 31
0.0
  0
LINE
  5
37A
  8
0
 62
     7
 10
44.592199999999998
 20
67.205600000000004
 30
0.0
 11
41.705899999999993
 21
67.205600000000004
 31
0.0
  0
LINE
  5
37B
  8
0
 62
     7
 10
44.171199999999992
 20
70.285899999999998
 30
0.0
 11
44.592199999999998
 21
70.285899999999998
 31
0.0
  0
LINE
  5
37C
  8
0
 62
     7
 10
44.592199999999998
 20
67.4054
 30
0.0
 11
44.171199999999992
 21
67.4054
 31
0.0
  0
LINE
  5
37D
  8
0
 62
     7
 10
73.026499999999984
 20
69.332300000000004
 30
0.0
 11
73.026499999999984
 21
68.332899999999995
 31
0.0
  0
ARC
  5
37E
  8
0
 62
     7
 10
42.609430000000003
 20
81.247163000000015
 30
0.0
 40
1.263201
 50
152.342443
 51
179.90299899999999
  0
ARC
  5
37F
  8
0
 62
     7
 10
43.060008999999987
 20
81.037662999999995
 30
0.0
 40
1.7597020000000001
 50
131.92082600000001
 51
153.11056899999991
  0
ARC
  5
380
  8
0
 62
     7
 10
43.526018000000001
 20
80.571828999999994
 30
0.0
 40
2.4179169999999992
 50
98.762539000000004
 51
132.7624889999999
  0
ARC
  5
381
  8
0
 62
     7
 10
31.00328
 20
80.829177999999999
 30
0.0
 40
2.1507099999999988
 50
60.905686999999993
 51
82.507292000000007
  0
ARC
  5
382
  8
0
 62
     7
 10
30.922737999999999
 20
80.604322999999994
 30
0.0
 40
2.3866740000000002
 50
41.048794000000001
 51
61.840944
  0
ARC
  5
383
  8
0
 62
     7
 10
31.415682
 20
81.061537000000001
 30
0.0
 40
1.7147969999999999
 50
19.772131999999988
 51
40.344059999999992
  0
ARC
  5
384
  8
0
 62
     7
 10
31.825098999999991
 20
81.235755999999995
 30
0.0
 40
1.2708369999999991
 50
0.610684
 51
18.624625000000002
  0
LINE
  5
385
  8
0
 62
     7
 10
38.738999999999997
 20
77.123400000000004
 30
0.0
 11
38.738999999999997
 21
78.523499999999999
 31
0.0
  0
LINE
  5
386
  8
0
 62
     7
 10
35.738999999999997
 20
77.123400000000004
 30
0.0
 11
35.738999999999997
 21
78.523499999999999
 31
0.0
  0
LINE
  5
387
  8
0
  6
AIGENLINE001
 62
     7
 10
37.238999999999997
 20
63.607900000000001
 30
0.0
 11
37.238999999999997
 21
84.430199999999999
 31
0.0
  0
ARC
  5
388
  8
0
 62
     7
 10
32.042947999999988
 20
75.709778999999983
 30
0.0
 40
0.526354
 50
180.58722700000001
 51
230.30881600000001
  0
ARC
  5
389
  8
0
 62
     7
 10
32.055720000000001
 20
75.68447900000001
 30
0.0
 40
0.539466
 50
92.152704999999997
 51
177.88529700000001
  0
ARC
  5
38A
  8
0
 62
     7
 10
42.42449899999999
 20
75.686848999999995
 30
0.0
 40
0.537088
 50
1.8709919999999991
 51
87.862240999999997
  0
ARC
  5
38B
  8
0
 62
     7
 10
42.438186999999999
 20
75.707676000000006
 30
0.0
 40
0.523125
 50
309.62571400000002
 51
359.63948299999993
  0
LINE
  5
38C
  8
0
 62
     7
 10
41.4069
 20
73.560100000000006
 30
0.0
 11
41.4069
 21
70.832599999999999
 31
0.0
  0
ARC
  5
38D
  8
0
 62
     7
 10
32.190515999999988
 20
73.550567999999984
 30
0.0
 40
0.8812829999999999
 50
0.6226010000000001
 51
59.354366000000013
  0
ARC
  5
38E
  8
0
 62
     7
 10
42.289045999999992
 20
73.550018999999992
 30
0.0
 40
0.8822399999999998
 50
120.6805539999999
 51
179.3424399999999
  0
LINE
  5
38F
  8
0
 62
     7
 10
33.0717
 20
67.0334
 30
0.0
 11
33.0717
 21
73.560100000000006
 31
0.0
  0
LINE
  5
390
  8
0
 62
     7
 10
44.171199999999992
 20
67.4054
 30
0.0
 11
43.823300000000003
 21
67.205600000000004
 31
0.0
  0
LINE
  5
391
  8
0
 62
     7
 10
41.000300000000003
 20
65.304599999999994
 30
0.0
 11
41.000300000000003
 21
66.514499999999998
 31
0.0
  0
LINE
  5
392
  8
0
 62
     7
 10
33.244700000000002
 20
65.538899999999984
 30
0.0
 11
41.233899999999991
 21
65.538899999999984
 31
0.0
  0
LINE
  5
393
  8
0
 62
     7
 10
43.263800000000003
 20
75.131100000000004
 30
0.0
 11
41.838900000000002
 21
74.308800000000005
 31
0.0
  0
LINE
  5
394
  8
0
 62
     7
 10
43.263800000000003
 20
75.131100000000004
 30
0.0
 11
43.263800000000003
 21
75.3048
 31
0.0
  0
LINE
  5
395
  8
0
 62
     7
 10
41.233899999999991
 20
66.514499999999998
 30
0.0
 11
33.287399999999991
 21
66.514499999999998
 31
0.0
  0
LINE
  5
396
  8
0
 62
     7
 10
41.1905
 20
66.514499999999998
 30
0.0
 11
41.1905
 21
67.0334
 31
0.0
  0
LINE
  5
397
  8
0
 62
     7
 10
33.287399999999991
 20
66.514499999999998
 30
0.0
 11
33.287399999999991
 21
67.0334
 31
0.0
  0
LINE
  5
398
  8
0
 62
     7
 10
33.244700000000002
 20
65.538899999999984
 30
0.0
 11
33.478999999999999
 21
65.304599999999994
 31
0.0
  0
LINE
  5
399
  8
0
 62
     7
 10
41.233899999999991
 20
65.538899999999984
 30
0.0
 11
41.000300000000003
 21
65.304599999999994
 31
0.0
  0
LINE
  5
39A
  8
0
 62
     7
 10
41.233899999999991
 20
66.514499999999998
 30
0.0
 11
41.233899999999991
 21
65.538899999999984
 31
0.0
  0
LINE
  5
39B
  8
0
 62
     7
 10
33.244700000000002
 20
65.538899999999984
 30
0.0
 11
33.244700000000002
 21
66.514499999999998
 31
0.0
  0
LINE
  5
39C
  8
0
 62
     7
 10
41.000300000000003
 20
65.304599999999994
 30
0.0
 11
33.478999999999999
 21
65.304599999999994
 31
0.0
  0
LINE
  5
39D
  8
0
 62
     7
 10
31.2148
 20
75.131100000000004
 30
0.0
 11
32.639699999999998
 21
74.308800000000005
 31
0.0
  0
LINE
  5
39E
  8
0
 62
     7
 10
31.2148
 20
75.131100000000004
 30
0.0
 11
31.2148
 21
75.3048
 31
0.0
  0
LINE
  5
39F
  8
0
 62
     7
 10
73.198099999999997
 20
68.504400000000004
 30
0.0
 11
73.026499999999984
 21
68.332899999999995
 31
0.0
  0
LINE
  5
3A0
  8
0
 62
     7
 10
73.026499999999984
 20
69.332300000000004
 30
0.0
 11
73.198099999999997
 21
69.158299999999997
 31
0.0
  0
LINE
  5
3A1
  8
0
 62
     7
 10
73.198099999999997
 20
68.504400000000004
 30
0.0
 11
73.198099999999997
 21
69.158299999999997
 31
0.0
  0
LINE
  5
3A2
  8
0
 62
     7
 10
33.478999999999999
 20
65.304599999999994
 30
0.0
 11
33.478999999999999
 21
66.514499999999998
 31
0.0
  0
LINE
  5
3A3
  8
0
 62
     7
 10
36.239199999999997
 20
79.023399999999995
 30
0.0
 11
38.239100000000001
 21
79.023399999999995
 31
0.0
  0
LINE
  5
3A4
  8
0
 62
     7
 10
36.239199999999997
 20
76.623500000000007
 30
0.0
 11
38.239100000000001
 21
76.623500000000007
 31
0.0
  0
LINE
  5
3A5
  8
0
 62
     7
 10
32.035499999999992
 20
76.223600000000005
 30
0.0
 11
42.444499999999991
 21
76.223600000000005
 31
0.0
  0
LINE
  5
3A6
  8
0
 62
     7
 10
44.171199999999992
 20
67.205600000000004
 30
0.0
 11
44.171199999999992
 21
70.488100000000003
 31
0.0
  0
LINE
  5
3A7
  8
0
 62
     7
 10
43.823300000000003
 20
70.488100000000003
 30
0.0
 11
44.171199999999992
 21
70.285899999999998
 31
0.0
  0
LINE
  5
3A8
  8
0
 62
     7
 10
45.28329999999999
 20
70.788499999999999
 30
0.0
 11
44.6783
 21
70.788499999999999
 31
0.0
  0
TEXT
  5
3A9
  8
_________2
 62
     7
 10
24.586400000000001
 20
0.707627
 30
0.0
 40
3.9357000000000002
  1
（社）日本水道協会認証品
 41
0.5
  0
TEXT
  5
3AA
  8
_________2
 62
     7
 10
109.179
 20
24.226099999999999
 30
0.0
 40
3.9357000000000002
  1
パン 湯水混合水栓
 41
0.5
  0
LINE
  5
3AB
  8
_________2
 62
     7
 10
205.30099999999999
 20
127.411
 30
0.0
 11
183.55099999999999
 21
127.411
 31
0.0
  0
LINE
  5
3AC
  8
_________2
 62
     7
 10
100.2999999999999
 20
-4.0910799999999998
 30
0.0
 11
100.2999999999999
 21
-21.070999999999991
 31
0.0
  0
LINE
  5
3AD
  8
_________2
 62
     7
 10
100.2999999999999
 20
275.93099999999993
 30
0.0
 11
100.2999999999999
 21
258.911
 31
0.0
  0
LINE
  5
3AE
  8
_________2
 62
     7
 10
17.049199999999988
 20
127.411
 30
0.0
 11
-4.7012099999999988
 21
127.411
 31
0.0
  0
LINE
  5
3AF
  8
_________2
 62
     7
 10
76.740700000000004
 20
29.8047
 30
0.0
 11
74.554400000000001
 21
29.8047
 31
0.0
  0
LINE
  5
3B0
  8
_________2
 62
     7
 10
77.2333
 20
29.8047
 30
0.0
 11
76.981099999999984
 21
29.8047
 31
0.0
  0
LINE
  5
3B1
  8
_________2
 62
     7
 10
77.725999999999999
 20
29.8047
 30
0.0
 11
80.650899999999993
 21
29.8047
 31
0.0
  0
LINE
  5
3B2
  8
_________2
 62
     7
 10
77.2333
 20
29.8047
 30
0.0
 11
77.485500000000002
 21
29.8047
 31
0.0
  0
LINE
  5
3B3
  8
_________2
 62
     7
 10
70.837100000000007
 20
29.8047
 30
0.0
 11
68.650199999999998
 21
29.8047
 31
0.0
  0
LINE
  5
3B4
  8
_________2
 62
     7
 10
71.329099999999997
 20
29.8047
 30
0.0
 11
71.077600000000004
 21
29.8047
 31
0.0
  0
LINE
  5
3B5
  8
_________2
 62
     7
 10
71.329099999999997
 20
30.2974
 30
0.0
 11
71.329099999999997
 21
32.484400000000001
 31
0.0
  0
LINE
  5
3B6
  8
_________2
 62
     7
 10
71.329099999999997
 20
29.8047
 30
0.0
 11
71.329099999999997
 21
30.057300000000001
 31
0.0
  0
LINE
  5
3B7
  8
_________2
 62
     7
 10
71.821700000000007
 20
29.8047
 30
0.0
 11
74.008700000000005
 21
29.8047
 31
0.0
  0
LINE
  5
3B8
  8
_________2
 62
     7
 10
71.329099999999997
 20
29.8047
 30
0.0
 11
71.581299999999985
 21
29.8047
 31
0.0
  0
LINE
  5
3B9
  8
_________2
 62
     7
 10
71.329099999999997
 20
29.312799999999999
 30
0.0
 11
71.329099999999997
 21
27.126200000000001
 31
0.0
  0
LINE
  5
3BA
  8
_________2
 62
     7
 10
71.329099999999997
 20
29.8047
 30
0.0
 11
71.329099999999997
 21
29.5532
 31
0.0
  0
LINE
  5
3BB
  8
_________2
 62
     7
 10
75.040199999999999
 20
28.5852
 30
0.0
 11
80.218199999999996
 21
27.720400000000001
 31
0.0
  0
LINE
  5
3BC
  8
_________2
 62
     7
 10
75.040199999999999
 20
31.024699999999999
 30
0.0
 11
80.218199999999996
 21
31.8901
 31
0.0
  0
LINE
  5
3BD
  8
_________2
 62
     7
 10
80.218199999999996
 20
27.720400000000001
 30
0.0
 11
80.218199999999996
 21
31.8901
 31
0.0
  0
LINE
  5
3BE
  8
_________2
 62
     7
 10
75.040199999999999
 20
28.5852
 30
0.0
 11
75.040199999999999
 21
31.024699999999999
 31
0.0
  0
ARC
  5
3BF
  8
_________2
 62
     7
 10
71.282501999999994
 20
29.757801000000001
 30
0.0
 40
1.267714
 50
2.1220840000000001
 51
87.894083999999992
  0
ARC
  5
3C0
  8
_________2
 62
     7
 10
71.375640000000004
 20
29.758545999999999
 30
0.0
 40
1.2669680000000001
 50
92.105782999999988
 51
177.91037
  0
ARC
  5
3C1
  8
_________2
 62
     7
 10
71.376013999999998
 20
29.851671
 30
0.0
 40
1.2673680000000001
 50
182.12203600000001
 51
267.877993
  0
ARC
  5
3C2
  8
_________2
 62
     7
 10
71.282195999999999
 20
29.852347999999999
 30
0.0
 40
1.2680439999999991
 50
272.11916400000001
 51
357.84848499999993
  0
ARC
  5
3C3
  8
_________2
 62
     7
 10
71.248716999999985
 20
29.724731999999989
 30
0.0
 40
2.1668310000000002
 50
2.1161439999999989
 51
87.874379000000005
  0
ARC
  5
3C4
  8
_________2
 62
     7
 10
71.408756000000011
 20
29.726146
 30
0.0
 40
2.165392999999999
 50
92.108508999999998
 51
177.91986499999999
  0
ARC
  5
3C5
  8
_________2
 62
     7
 10
71.409094999999994
 20
29.884751999999999
 30
0.0
 40
2.1657829999999998
 50
182.117133
 51
267.88289700000001
  0
ARC
  5
3C6
  8
_________2
 62
     7
 10
71.249115000000003
 20
29.885429999999989
 30
0.0
 40
2.1664590000000001
 50
272.11546800000002
 51
357.86560400000002
  0
TEXT
  5
3C7
  8
_________2
 62
     7
 10
104.605
 20
1.6794899999999999
 30
0.0
 40
3.0923400000000001
  1
図番
 41
0.5
  0
LINE
  5
3C8
  8
_________2
 62
     7
 10
103.55
 20
5.9087199999999989
 30
0.0
 11
183.55099999999999
 21
5.9087199999999989
 31
0.0
  0
TEXT
  5
3C9
  8
_________2
 62
     7
 10
104.605
 20
11.679299999999991
 30
0.0
 40
3.0923400000000001
  1
品番
 41
0.5
  0
TEXT
  5
3CA
  8
_________2
 62
     7
 10
104.605
 20
31.8184
 30
0.0
 40
3.0923400000000001
  1
名称
 41
0.5
  0
TEXT
  5
3CB
  8
_________2
 62
     7
 10
91.844758333333345
 20
26.822299999999998
 30
0.0
 40
3.6545800000000002
  1
mm
 41
0.5
 72
     1
 11
93.367500000000007
 21
26.822299999999998
 31
0.0
  0
TEXT
  5
3CC
  8
_________2
 62
     7
 10
85.642899999999983
 20
31.8184
 30
0.0
 40
3.0923400000000001
  1
単位
 41
0.5
  0
TEXT
  5
3CD
  8
_________2
 62
     7
 10
85.642899999999983
 20
19.410799999999991
 30
0.0
 40
3.0923400000000001
  1
尺度
 41
0.5
  0
TEXT
  5
3CE
  8
_________2
 62
     7
 10
90.548458666666676
 20
13.218199999999991
 30
0.0
 40
3.6545800000000002
  1
1 ： 4
 41
0.5
 72
     1
 11
93.959400000000016
 21
13.218199999999991
 31
0.0
  0
TEXT
  5
3CF
  8
_________2
 62
     7
 10
138.63037499999999
 20
9.1082000000000001
 30
0.0
 40
3.9357000000000002
  1
ZU6211
 41
0.5
 72
     1
 11
143.55000000000001
 21
9.1082000000000001
 31
0.0
  0
TEXT
  5
3D0
  8
_________2
 62
     7
 10
138.63037499999999
 20
-0.8926299999999999
 30
0.0
 40
3.9357000000000002
  1
ZU6211
 41
0.5
 72
     1
 11
143.55000000000001
 21
-0.8926299999999999
 31
0.0
  0
TEXT
  5
3D1
  8
_________2
 62
     7
 10
39.42500033333333
 20
13.603400000000001
 30
0.0
 40
3.6545800000000002
  1
早川
 41
0.5
 72
     1
 11
41.313200000000002
 21
13.603400000000001
 31
0.0
  0
TEXT
  5
3D2
  8
_________2
 62
     7
 10
20.790090666666661
 20
13.603400000000001
 30
0.0
 40
3.6545800000000002
  1
菅原
 41
0.5
 72
     1
 11
22.73919999999999
 21
13.603400000000001
 31
0.0
  0
TEXT
  5
3D3
  8
_________2
 62
     7
 10
67.785399999999996
 20
13.218199999999991
 30
0.0
 40
3.6545800000000002
  1
14.01.14
 41
0.5
  0
TEXT
  5
3D4
  8
_________2
 62
     7
 10
66.592699999999994
 20
19.410799999999991
 30
0.0
 40
3.0923400000000001
  1
日付
 41
0.5
  0
TEXT
  5
3D5
  8
_________2
 62
     7
 10
29.638999999999999
 20
19.410799999999991
 30
0.0
 40
3.0923400000000001
  1
検図
 41
0.5
  0
TEXT
  5
3D6
  8
_________2
 62
     7
 10
18.020700000000001
 20
5.21143
 30
0.0
 40
3.0923400000000001
  1
備考
 41
0.5
  0
TEXT
  5
3D7
  8
_________2
 62
     7
 10
18.020700000000001
 20
19.410799999999991
 30
0.0
 40
3.0923400000000001
  1
製図
 41
0.5
  0
TEXT
  5
3D8
  8
_________2
 62
     7
 10
23.788165333333328
 20
27.936800000000002
 30
0.0
 40
4.4979399999999989
  1
セラトレーディング株式会社
 41
0.5
 72
     1
 11
41.180199999999999
 21
27.936800000000002
 31
0.0
  0
LINE
  5
3D9
  8
_________2
 62
     7
 10
183.55099999999999
 20
-4.0910799999999998
 30
0.0
 11
17.049199999999988
 21
-4.0910799999999998
 31
0.0
  0
LINE
  5
3DA
  8
_________2
 62
     7
 10
17.049199999999988
 20
-4.0910799999999998
 30
0.0
 11
17.049199999999988
 21
258.911
 31
0.0
  0
LINE
  5
3DB
  8
_________2
 62
     7
 10
17.049199999999988
 20
258.911
 30
0.0
 11
183.55099999999999
 21
258.911
 31
0.0
  0
LINE
  5
3DC
  8
_________2
 62
     7
 10
183.55099999999999
 20
258.911
 30
0.0
 11
183.55099999999999
 21
-4.0910799999999998
 31
0.0
  0
LINE
  5
3DD
  8
_________2
 62
     7
 10
65.549599999999998
 20
9.4092999999999982
 30
0.0
 11
65.549599999999998
 21
35.909100000000002
 31
0.0
  0
LINE
  5
3DE
  8
_________2
 62
     7
 10
84.549400000000006
 20
9.4092999999999982
 30
0.0
 11
84.549400000000006
 21
35.909100000000002
 31
0.0
  0
LINE
  5
3DF
  8
_________2
 62
     7
 10
103.55
 20
-4.0910799999999998
 30
0.0
 11
103.55
 21
35.909100000000002
 31
0.0
  0
LINE
  5
3E0
  8
_________2
 62
     7
 10
28.548999999999999
 20
9.4092999999999982
 30
0.0
 11
28.548999999999999
 21
23.409199999999998
 31
0.0
  0
LINE
  5
3E1
  8
_________2
 62
     7
 10
17.049199999999988
 20
9.4092999999999982
 30
0.0
 11
103.55
 21
9.4092999999999982
 31
0.0
  0
LINE
  5
3E2
  8
_________2
 62
     7
 10
17.049199999999988
 20
23.409199999999998
 30
0.0
 11
103.55
 21
23.409199999999998
 31
0.0
  0
LINE
  5
3E3
  8
_________2
 62
     7
 10
103.55
 20
15.9085
 30
0.0
 11
183.55099999999999
 21
15.9085
 31
0.0
  0
LINE
  5
3E4
  8
_________2
 62
     7
 10
17.049199999999988
 20
35.909100000000002
 30
0.0
 11
183.55099999999999
 21
35.909100000000002
 31
0.0
  0
ENDSEC
  0
EOF
