  0
SECTION
  2
HEADER
  9
$ACADVER
  1
AC1009
  9
$INSBASE
 10
0.0
 20
0.0
 30
0.0
  9
$EXTMIN
 10
-4.7012099999999988
 20
-21.070999999999991
 30
0.0
  9
$EXTMAX
 10
205.30099999999999
 20
275.93099999999993
 30
0.0
  9
$LIMMIN
 10
0.0
 20
0.0
  9
$LIMMAX
 10
12.0
 20
9.0
  9
$ORTHOMODE
 70
     0
  9
$REGENMODE
 70
     1
  9
$FILLMODE
 70
     1
  9
$QTEXTMODE
 70
     0
  9
$MIRRTEXT
 70
     1
  9
$DRAGMODE
 70
     2
  9
$LTSCALE
 40
1.0
  9
$OSMODE
 70
    37
  9
$ATTMODE
 70
     1
  9
$TEXTSIZE
 40
0.0
  9
$TRACEWID
 40
0.05
  9
$TEXTSTYLE
  7
STANDARD
  9
$CLAYER
  8
0
  9
$CELTYPE
  6
CONTINUOUS
  9
$CECOLOR
 62
   256
  9
$DIMSCALE
 40
1.0
  9
$DIMASZ
 40
0.18
  9
$DIMEXO
 40
0.0625
  9
$DIMDLI
 40
0.38
  9
$DIMRND
 40
0.0
  9
$DIMDLE
 40
0.0
  9
$DIMEXE
 40
0.18
  9
$DIMTP
 40
0.0
  9
$DIMTM
 40
0.0
  9
$DIMTXT
 40
0.18
  9
$DIMCEN
 40
0.09
  9
$DIMTSZ
 40
0.0
  9
$DIMTOL
 70
     0
  9
$DIMLIM
 70
     0
  9
$DIMTIH
 70
     1
  9
$DIMTOH
 70
     1
  9
$DIMSE1
 70
     0
  9
$DIMSE2
 70
     0
  9
$DIMTAD
 70
     0
  9
$DIMZIN
 70
     0
  9
$DIMBLK
  1

  9
$DIMASO
 70
     1
  9
$DIMSHO
 70
     1
  9
$DIMPOST
  1

  9
$DIMAPOST
  1

  9
$DIMALT
 70
     0
  9
$DIMALTD
 70
     2
  9
$DIMALTF
 40
25.399999999999999
  9
$DIMLFAC
 40
1.0
  9
$DIMTOFL
 70
     0
  9
$DIMTVP
 40
0.0
  9
$DIMTIX
 70
     0
  9
$DIMSOXD
 70
     0
  9
$DIMSAH
 70
     0
  9
$DIMBLK1
  1

  9
$DIMBLK2
  1

  9
$DIMSTYLE
  2
STANDARD
  9
$DIMCLRD
 70
     0
  9
$DIMCLRE
 70
     0
  9
$DIMCLRT
 70
     0
  9
$DIMTFAC
 40
1.0
  9
$DIMGAP
 40
0.09
  9
$LUNITS
 70
     2
  9
$LUPREC
 70
     4
  9
$SKETCHINC
 40
0.1
  9
$FILLETRAD
 40
0.0
  9
$AUNITS
 70
     0
  9
$AUPREC
 70
     0
  9
$MENU
  1
.
  9
$ELEVATION
 40
0.0
  9
$PELEVATION
 40
0.0
  9
$THICKNESS
 40
0.0
  9
$LIMCHECK
 70
     0
  9
$BLIPMODE
 70
     0
  9
$CHAMFERA
 40
0.0
  9
$CHAMFERB
 40
0.0
  9
$SKPOLY
 70
     0
  9
$TDCREATE
 40
2444972.375
  9
$TDUPDATE
 40
2456676.2512177662
  9
$TDINDWG
 40
0.0000076736
  9
$TDUSRTIMER
 40
0.0000076736
  9
$USRTIMER
 70
     1
  9
$ANGBASE
 50
0.0
  9
$ANGDIR
 70
     0
  9
$PDMODE
 70
     0
  9
$PDSIZE
 40
0.0
  9
$PLINEWID
 40
0.0
  9
$COORDS
 70
     1
  9
$SPLFRAME
 70
     0
  9
$SPLINETYPE
 70
     6
  9
$SPLINESEGS
 70
     8
  9
$ATTDIA
 70
     0
  9
$ATTREQ
 70
     1
  9
$HANDLING
 70
     1
  9
$HANDSEED
  5
40E
  9
$SURFTAB1
 70
     6
  9
$SURFTAB2
 70
     6
  9
$SURFTYPE
 70
     6
  9
$SURFU
 70
     6
  9
$SURFV
 70
     6
  9
$UCSNAME
  2

  9
$UCSORG
 10
0.0
 20
0.0
 30
0.0
  9
$UCSXDIR
 10
1.0
 20
0.0
 30
0.0
  9
$UCSYDIR
 10
0.0
 20
1.0
 30
0.0
  9
$PUCSNAME
  2

  9
$PUCSORG
 10
0.0
 20
0.0
 30
0.0
  9
$PUCSXDIR
 10
1.0
 20
0.0
 30
0.0
  9
$PUCSYDIR
 10
0.0
 20
1.0
 30
0.0
  9
$USERI1
 70
     0
  9
$USERI2
 70
     0
  9
$USERI3
 70
     0
  9
$USERI4
 70
     0
  9
$USERI5
 70
     0
  9
$USERR1
 40
0.0
  9
$USERR2
 40
0.0
  9
$USERR3
 40
0.0
  9
$USERR4
 40
0.0
  9
$USERR5
 40
0.0
  9
$WORLDVIEW
 70
     1
  9
$SHADEDGE
 70
     3
  9
$SHADEDIF
 70
    70
  9
$TILEMODE
 70
     1
  9
$MAXACTVP
 70
    48
  9
$PLIMCHECK
 70
     0
  9
$PEXTMIN
 10
1.0000000000000000E+020
 20
1.0000000000000000E+020
 30
1.0000000000000000E+020
  9
$PEXTMAX
 10
-1.0000000000000000E+020
 20
-1.0000000000000000E+020
 30
-1.0000000000000000E+020
  9
$PLIMMIN
 10
0.0
 20
0.0
  9
$PLIMMAX
 10
12.0
 20
9.0
  9
$UNITMODE
 70
     0
  9
$VISRETAIN
 70
     1
  9
$PLINEGEN
 70
     0
  9
$PSLTSCALE
 70
     1
  0
ENDSEC
  0
SECTION
  2
TABLES
  0
TABLE
  2
VPORT
 70
     2
  0
VPORT
  2
*ACTIVE
 70
     0
 10
0.0
 20
0.0
 11
1.0
 21
1.0
 12
202.006301769564
 22
127.42999999999989
 13
0.0
 23
0.0
 14
1.0
 24
1.0
 15
0.0
 25
0.0
 16
0.0
 26
0.0
 36
1.0
 17
0.0
 27
0.0
 37
0.0
 40
299.45318569463541
 41
2.2894736842105261
 42
50.0
 43
0.0
 44
0.0
 50
0.0
 51
0.0
 71
     0
 72
   100
 73
     1
 74
     1
 75
     0
 76
     0
 77
     0
 78
     0
  0
ENDTAB
  0
TABLE
  2
LTYPE
 70
     3
  0
LTYPE
  2
CONTINUOUS
 70
     0
  3
Solid line
 72
    65
 73
     0
 40
0.0
  0
LTYPE
  2
AIGENLINE001
 70
     0
  3
generate AI->DXF Converter
 72
    65
 73
     4
 40
5.8561449999999988
 49
3.5278
 49
-0.776115
 49
0.776115
 49
-0.776115
  0
LTYPE
  2
AIGENLINE002
 70
     0
  3
generate AI->DXF Converter
 72
    65
 73
     6
 40
7.4083750000000004
 49
3.5278
 49
-0.776115
 49
0.776115
 49
-0.776115
 49
0.776115
 49
-0.776115
  0
ENDTAB
  0
TABLE
  2
LAYER
 70
     2
  0
LAYER
  2
0
 70
     0
 62
     7
  6
CONTINUOUS
  0
LAYER
  2
_________2
 70
     0
 62
     7
  6
CONTINUOUS
  0
ENDTAB
  0
TABLE
  2
STYLE
 70
     1
  0
STYLE
  2
STANDARD
 70
     0
 40
0.0
 41
0.0
 50
0.0
 71
     0
 42
0.0
  3
TXT
  4
EXTFONT.SHX
  0
ENDTAB
  0
TABLE
  2
VIEW
 70
     0
  0
ENDTAB
  0
TABLE
  2
UCS
 70
     0
  0
ENDTAB
  0
TABLE
  2
APPID
 70
     1
  0
APPID
  2
ACAD
 70
     0
  0
ENDTAB
  0
TABLE
  2
DIMSTYLE
 70
     1
  0
DIMSTYLE
  2
STANDARD
 70
     0
  3

  4

  5

  6

  7

 40
1.0
 41
0.18
 42
0.0625
 43
0.38
 44
0.18
 45
0.0
 46
0.0
 47
0.0
 48
0.0
140
0.18
141
0.09
142
0.0
143
25.399999999999999
144
1.0
145
0.0
146
1.0
147
0.09
 71
     0
 72
     0
 73
     1
 74
     1
 75
     0
 76
     0
 77
     0
 78
     0
170
     0
171
     2
172
     0
173
     0
174
     0
175
     0
176
     0
177
     0
178
     0
  0
ENDTAB
  0
ENDSEC
  0
SECTION
  2
BLOCKS
  0
BLOCK
  8
0
  2
$MODEL_SPACE
 70
     0
 10
0.0
 20
0.0
 30
0.0
  3
$MODEL_SPACE
  1

  0
ENDBLK
  5
1A
  8
0
  0
BLOCK
 67
     1
  8
0
  2
$PAPER_SPACE
 70
     0
 10
0.0
 20
0.0
 30
0.0
  3
$PAPER_SPACE
  1

  0
ENDBLK
  5
17
 67
     1
  8
0
  0
ENDSEC
  0
SECTION
  2
ENTITIES
  0
TEXT
  5
23
  8
0
 62
     7
 10
164.56888000000001
 20
252.41900000000001
 30
0.0
 40
3.0923400000000001
  1
%%c35
 41
0.5
 72
     2
 11
168.69200000000001
 21
252.41900000000001
 31
0.0
  0
TEXT
  5
24
  8
0
 62
     7
 10
63.902799999999999
 20
227.13399999999999
 30
0.0
 40
3.0923400000000001
  1
水
 41
0.5
  0
TEXT
  5
25
  8
0
 62
     7
 10
53.211034999999988
 20
216.148
 30
0.0
 40
3.0923400000000001
  1
45%%d
 41
0.5
 72
     1
 11
55.014899999999997
 21
216.148
 31
0.0
  0
TEXT
  5
26
  8
0
 62
     7
 10
33.459834999999991
 20
216.148
 30
0.0
 40
3.0923400000000001
  1
45%%d
 41
0.5
 72
     1
 11
35.2637
 21
216.148
 31
0.0
  0
TEXT
  5
27
  8
0
 62
     7
 10
25.549707999999988
 20
227.13399999999999
 30
0.0
 40
3.0923400000000001
  1
湯
 41
0.5
 72
     2
 11
26.992799999999988
 21
227.13399999999999
 31
0.0
  0
TEXT
  5
28
  8
0
 62
     7
 10
137.19198600000001
 20
194.59099999999989
 30
0.0
 40
3.0923400000000001
  1
開
 41
0.5
 72
     2
 11
138.53200000000001
 21
194.59099999999989
 31
0.0
  0
TEXT
  5
29
  8
0
 62
     7
 10
131.057986
 20
181.96299999999999
 30
0.0
 40
3.0923400000000001
  1
閉
 41
0.5
 72
     2
 11
132.39799999999991
 21
181.96299999999999
 31
0.0
  0
TEXT
  5
2A
  8
0
 62
     7
 10
149.62024199999991
 20
230.09999999999999
 30
0.0
 40
3.0923400000000001
  1
水栓金具取付穴
 41
0.5
 72
     1
 11
155.9079999999999
 21
230.09999999999999
 31
0.0
  0
TEXT
  5
2B
  8
0
 62
     7
 10
20.139500000000002
 20
39.087299999999999
 30
0.0
 40
3.6545800000000002
  1
・国産洗面器とのセットの場合は国産の排水ヘッド部を別途準備してください。
 41
0.5
  0
TEXT
  5
2C
  8
0
 62
     7
 10
94.947382500000003
 20
50.627699999999997
 30
0.0
 40
3.0923400000000001
  1
180
 41
0.5
 72
     1
 11
96.622399999999999
 21
50.627699999999997
 31
0.0
  0
TEXT
  5
2D
  8
0
 62
     7
 10
94.327999999999975
 20
68.671824999999998
 30
0.0
 40
3.0923400000000001
  1
%%c5
 50
90.0
 41
0.5
 72
     1
 11
94.327999999999975
 21
69.960300000000004
 31
0.0
  0
TEXT
  5
2E
  8
0
 62
     7
 10
84.856418000000005
 20
56.374499999999998
 30
0.0
 40
3.0923400000000001
  1
G1 1/4
 41
0.5
 72
     2
 11
91.968800000000002
 21
56.374499999999998
 31
0.0
  0
TEXT
  5
2F
  8
0
 62
     7
 10
68.484099999999998
 20
64.909472500000007
 30
0.0
 40
3.0923400000000001
  1
50
 50
90.0
 41
0.5
 72
     1
 11
68.484099999999998
 21
66.069100000000006
 31
0.0
  0
TEXT
  5
30
  8
0
 62
     7
 10
68.143699999999995
 20
72.14972250000001
 30
0.0
 40
3.0923400000000001
  1
max.50
 50
90.0
 41
0.5
 72
     1
 11
68.143699999999995
 21
75.886300000000006
 31
0.0
  0
TEXT
  5
31
  8
0
 62
     7
 10
77.606039999999993
 20
85.002799999999993
 30
0.0
 40
3.0923400000000001
  1
%%c63
 41
0.5
 72
     1
 11
79.667599999999993
 21
85.002799999999993
 31
0.0
  0
TEXT
  5
32
  8
0
 62
     7
 10
121.7829999999999
 20
51.490699999999997
 30
0.0
 40
3.865419999999999
  1
G 3/8
 41
0.5
  0
TEXT
  5
33
  8
0
 62
     7
 10
143.28700000000001
 20
95.303149999999988
 30
0.0
 40
3.0923400000000001
  1
max.45
 50
90.0
 41
0.5
 72
     2
 11
143.28700000000001
 21
103.03400000000001
 31
0.0
  0
TEXT
  5
34
  8
0
 62
     7
 10
102.77496499999999
 20
150.48500000000001
 30
0.0
 40
3.0923400000000001
  1
30%%d
 41
0.5
 72
     2
 11
106.125
 21
150.48500000000001
 31
0.0
  0
TEXT
  5
35
  8
0
 62
     7
 10
160.8920499999999
 20
53.394799999999996
 30
0.0
 40
3.0923400000000001
  1
%%c5
 41
0.5
 72
     2
 11
163.46899999999991
 21
53.394799999999996
 31
0.0
  0
TEXT
  5
36
  8
0
 62
     7
 10
153.84643999999989
 20
115.271
 30
0.0
 40
3.0923400000000001
  1
%%c54
 41
0.5
 72
     1
 11
155.9079999999999
 21
115.271
 31
0.0
  0
TEXT
  5
37
  8
0
 62
     7
 10
153.84643999999989
 20
193.904
 30
0.0
 40
3.0923400000000001
  1
%%c44
 41
0.5
 72
     1
 11
155.9079999999999
 21
193.904
 31
0.0
  0
TEXT
  5
38
  8
0
 62
     7
 10
161.922
 20
164.66399999999999
 30
0.0
 40
3.0923400000000001
  1
max.40
 41
0.5
  0
TEXT
  5
39
  8
0
 62
     7
 10
128.51313500000001
 20
154.995
 30
0.0
 40
3.0923400000000001
  1
195
 41
0.5
 72
     1
 11
130.31700000000001
 21
154.995
 31
0.0
  0
TEXT
  5
3A
  8
0
 62
     7
 10
89.649199999999993
 20
146.13344000000001
 30
0.0
 40
3.0923400000000001
  1
358
 50
90.0
 41
0.5
 72
     1
 11
89.649199999999993
 21
148.19499999999991
 31
0.0
  0
TEXT
  5
3B
  8
0
 62
     7
 10
119.532
 20
130.9324399999999
 30
0.0
 40
3.0923400000000001
  1
235
 50
90.0
 41
0.5
 72
     1
 11
119.532
 21
132.994
 31
0.0
  0
TEXT
  5
3C
  8
0
 62
     7
 10
96.681700000000006
 20
131.00828749999991
 30
0.0
 40
3.0923400000000001
  1
240
 50
90.0
 41
0.5
 72
     1
 11
96.681700000000006
 21
132.94099999999989
 31
0.0
  0
TEXT
  5
3D
  8
0
 62
     7
 10
119.496
 20
79.931187499999993
 30
0.0
 40
3.0923400000000001
  1
470
 50
90.0
 41
0.5
 72
     1
 11
119.496
 21
81.863900000000015
 31
0.0
  0
TEXT
  5
3E
  8
0
 62
     7
 10
174.07900000000001
 20
72.248287500000004
 30
0.0
 40
3.0923400000000001
  1
330
 50
90.0
 41
0.5
 72
     1
 11
174.07900000000001
 21
74.180999999999983
 31
0.0
  0
TEXT
  5
3F
  8
0
 62
     7
 10
174.07900000000001
 20
143.32043999999999
 30
0.0
 40
3.0923400000000001
  1
333
 50
90.0
 41
0.5
 72
     1
 11
174.07900000000001
 21
145.38200000000001
 31
0.0
  0
ARC
  5
40
  8
0
 62
     7
 10
44.585886000000002
 20
76.047717000000006
 30
0.0
 40
0.833304
 50
121.24769999999999
 51
148.89902499999999
  0
ARC
  5
41
  8
0
 62
     7
 10
44.788309000000012
 20
75.757873000000004
 30
0.0
 40
1.186323
 50
88.804916000000006
 51
122.344331
  0
ARC
  5
42
  8
0
 62
     7
 10
44.811633
 20
75.651736
 30
0.0
 40
1.2922029999999991
 50
62.430914999999999
 51
89.937066999999999
  0
ARC
  5
43
  8
0
 62
     7
 10
44.913338999999993
 20
75.889337999999995
 30
0.0
 40
1.034697999999999
 50
53.335500000000003
 51
61.33399
  0
ARC
  5
44
  8
0
 62
     7
 10
45.960667000000001
 20
77.297443000000001
 30
0.0
 40
0.720197
 50
233.3919939999999
 51
239.41772
  0
ARC
  5
45
  8
0
 62
     7
 10
46.482911999999999
 20
78.176730000000006
 30
0.0
 40
1.7428819999999989
 50
239.344054
 51
273.69873899999988
  0
ARC
  5
46
  8
0
 62
     7
 10
46.487777000000001
 20
77.645502000000008
 30
0.0
 40
1.2128030000000001
 50
275.0884779999999
 51
301.93937699999992
  0
ARC
  5
47
  8
0
 62
     7
 10
44.586649999999992
 20
77.067354000000009
 30
0.0
 40
0.8341969999999999
 50
121.271861
 51
148.898922
  0
ARC
  5
48
  8
0
 62
     7
 10
44.788496000000002
 20
76.778877000000008
 30
0.0
 40
1.185759
 50
88.81339100000001
 51
122.3723089999999
  0
ARC
  5
49
  8
0
 62
     7
 10
44.810281999999987
 20
76.696844999999996
 30
0.0
 40
1.2675389999999991
 50
55.337350000000001
 51
89.874783999999977
  0
ARC
  5
4A
  8
0
 62
     7
 10
45.960128999999988
 20
78.316811999999999
 30
0.0
 40
0.71929
 50
233.39170200000001
 51
239.42479900000001
  0
ARC
  5
4B
  8
0
 62
     7
 10
46.482416999999991
 20
79.196797000000004
 30
0.0
 40
1.742597
 50
239.35743599999989
 51
273.7156589999999
  0
ARC
  5
4C
  8
0
 62
     7
 10
46.487676
 20
78.665847999999997
 30
0.0
 40
1.212772999999999
 50
275.09339399999988
 51
301.94588599999992
  0
LINE
  5
4D
  8
0
 62
     7
 10
46.227299999999993
 20
75.276200000000003
 30
0.0
 11
46.227299999999993
 21
71.5261
 31
0.0
  0
LINE
  5
4E
  8
0
 62
     7
 10
44.7273
 20
75.276200000000003
 30
0.0
 11
44.7273
 21
71.5261
 31
0.0
  0
LINE
  5
4F
  8
0
 62
     7
 10
44.85199999999999
 20
86.369100000000003
 30
0.0
 11
44.85199999999999
 21
77.964399999999998
 31
0.0
  0
LINE
  5
50
  8
0
 62
     7
 10
44.85199999999999
 20
76.943899999999999
 30
0.0
 11
44.85199999999999
 21
75.276200000000003
 31
0.0
  0
LINE
  5
51
  8
0
 62
     7
 10
44.85199999999999
 20
71.5261
 30
0.0
 11
44.85199999999999
 21
45.996099999999998
 31
0.0
  0
LINE
  5
52
  8
0
 62
     7
 10
46.102200000000003
 20
86.369100000000003
 30
0.0
 11
46.102200000000003
 21
77.497600000000006
 31
0.0
  0
LINE
  5
53
  8
0
 62
     7
 10
46.102200000000003
 20
76.477500000000006
 30
0.0
 11
46.102200000000003
 21
75.276200000000003
 31
0.0
  0
LINE
  5
54
  8
0
 62
     7
 10
46.102200000000003
 20
71.5261
 30
0.0
 11
46.102200000000003
 21
45.996099999999998
 31
0.0
  0
LINE
  5
55
  8
0
 62
     7
 10
44.7273
 20
75.276200000000003
 30
0.0
 11
46.227299999999993
 21
75.276200000000003
 31
0.0
  0
LINE
  5
56
  8
0
 62
     7
 10
44.7273
 20
71.5261
 30
0.0
 11
46.227299999999993
 21
71.5261
 31
0.0
  0
LINE
  5
57
  8
0
 62
     7
 10
44.85199999999999
 20
45.996099999999998
 30
0.0
 11
46.102200000000003
 21
45.996099999999998
 31
0.0
  0
LINE
  5
58
  8
0
 62
     7
 10
156.6579999999999
 20
75.276200000000003
 30
0.0
 11
156.6579999999999
 21
71.5261
 31
0.0
  0
LINE
  5
59
  8
0
 62
     7
 10
155.1579999999999
 20
75.276200000000003
 30
0.0
 11
155.1579999999999
 21
71.5261
 31
0.0
  0
ARC
  5
5A
  8
0
 62
     7
 10
45.604228999999989
 20
244.75332299999991
 30
0.0
 40
25.771304999999991
 50
225.280765
 51
269.71660099999991
  0
ARC
  5
5B
  8
0
 62
     7
 10
45.352043000000002
 20
244.74708699999999
 30
0.0
 40
25.765056000000001
 50
270.27733899999998
 51
314.72220699999991
  0
LINE
  5
5C
  8
0
  6
AIGENLINE001
 62
     7
 10
43.226900000000001
 20
79.023099999999985
 30
0.0
 11
31.345099999999999
 21
97.513400000000004
 31
0.0
  0
LINE
  5
5D
  8
0
 62
     7
 10
30.032499999999992
 20
66.235100000000003
 30
0.0
 11
30.032499999999992
 21
91.744200000000006
 31
0.0
  0
LINE
  5
5E
  8
0
 62
     7
 10
32.657600000000002
 20
91.744200000000006
 30
0.0
 11
32.657600000000002
 21
66.235100000000003
 31
0.0
  0
LINE
  5
5F
  8
0
  6
AIGENLINE001
 62
     7
 10
31.345099999999999
 20
97.513400000000004
 30
0.0
 11
31.345099999999999
 21
57.271299999999989
 31
0.0
  0
LINE
  5
60
  8
0
 62
     7
 10
41.914700000000003
 20
82.395499999999984
 30
0.0
 11
41.914700000000003
 21
92.994099999999989
 31
0.0
  0
LINE
  5
61
  8
0
 62
     7
 10
44.53949999999999
 20
82.395499999999984
 30
0.0
 11
44.53949999999999
 21
86.369100000000003
 31
0.0
  0
LINE
  5
62
  8
0
  6
AIGENLINE001
 62
     7
 10
43.226900000000001
 20
79.023099999999985
 30
0.0
 11
43.226900000000001
 21
106.15299999999991
 31
0.0
  0
LINE
  5
63
  8
0
 62
     7
 10
28.591699999999999
 20
61.358899999999991
 30
0.0
 11
28.591699999999999
 21
58.732999999999997
 31
0.0
  0
LINE
  5
64
  8
0
 62
     7
 10
29.967400000000001
 20
61.358899999999991
 30
0.0
 11
29.967400000000001
 21
58.732999999999997
 31
0.0
  0
ARC
  5
65
  8
0
 62
     7
 10
31.956896
 20
66.550358000000003
 30
0.0
 40
8.5108619999999995
 50
246.70920499999991
 51
248.35700399999999
  0
ARC
  5
66
  8
0
 62
     7
 10
29.505663999999999
 20
60.406879000000004
 30
0.0
 40
1.896471
 50
248.73670000000001
 51
258.21222899999998
  0
ARC
  5
67
  8
0
 62
     7
 10
29.299604999999989
 20
59.497813999999991
 30
0.0
 40
0.9646139999999999
 50
259.16278199999988
 51
269.53432299999992
  0
ARC
  5
68
  8
0
 62
     7
 10
29.291627999999999
 20
59.439202000000002
 30
0.0
 40
0.9059709999999999
 50
270.00869599999987
 51
282.46940199999989
  0
ARC
  5
69
  8
0
 62
     7
 10
29.168845000000001
 20
60.063980000000001
 30
0.0
 40
1.542595999999999
 50
281.9117
 51
292.82020699999993
  0
ARC
  5
6A
  8
0
 62
     7
 10
28.708344
 20
61.239767000000001
 30
0.0
 40
2.805127999999999
 50
292.17554799999988
 51
296.66826700000001
  0
ARC
  5
6B
  8
0
 62
     7
 10
29.213588999999999
 20
60.246679
 30
0.0
 40
1.343588999999999
 50
55.874502
 51
82.665598000000017
  0
ARC
  5
6C
  8
0
 62
     7
 10
29.290661
 20
60.681194999999988
 30
0.0
 40
0.9030329999999999
 50
83.996275999999995
 51
89.929920999999993
  0
ARC
  5
6D
  8
0
 62
     7
 10
29.292563999999999
 20
60.665385999999998
 30
0.0
 40
0.9188410000000001
 50
90.049824999999998
 51
102.190629
  0
ARC
  5
6E
  8
0
 62
     7
 10
29.382677000000001
 20
60.199694999999998
 30
0.0
 40
1.3930979999999991
 50
101.768773
 51
113.1807519999999
  0
ARC
  5
6F
  8
0
 62
     7
 10
29.609466999999999
 20
59.628380000000007
 30
0.0
 40
2.0076290000000001
 50
112.712487
 51
120.4603
  0
LINE
  5
70
  8
0
 62
     7
 10
34.092199999999991
 20
61.358899999999991
 30
0.0
 11
34.092199999999991
 21
58.732999999999997
 31
0.0
  0
LINE
  5
71
  8
0
 62
     7
 10
32.717599999999997
 20
61.358899999999991
 30
0.0
 11
32.717599999999997
 21
58.732999999999997
 31
0.0
  0
ARC
  5
72
  8
0
 62
     7
 10
36.107284999999997
 20
66.614203000000003
 30
0.0
 40
8.5791979999999999
 50
246.72740999999999
 51
248.32287899999989
  0
ARC
  5
73
  8
0
 62
     7
 10
33.674196000000002
 20
60.518937000000001
 30
0.0
 40
2.0162869999999988
 50
248.59500800000001
 51
257.763261
  0
ARC
  5
74
  8
0
 62
     7
 10
33.402970000000003
 20
59.337591000000003
 30
0.0
 40
0.8044279999999998
 50
258.808606
 51
269.25343700000002
  0
ARC
  5
75
  8
0
 62
     7
 10
33.391680000000001
 20
59.438783999999998
 30
0.0
 40
0.9055530000000001
 50
270.05111199999988
 51
282.20139799999993
  0
ARC
  5
76
  8
0
 62
     7
 10
33.292442000000001
 20
59.972871999999988
 30
0.0
 40
1.448637
 50
281.57321899999988
 51
287.0671089999999
  0
ARC
  5
77
  8
0
 62
     7
 10
33.043531000000002
 20
60.780531999999987
 30
0.0
 40
2.2937829999999999
 50
287.08979099999999
 51
291.46136799999999
  0
ARC
  5
78
  8
0
 62
     7
 10
31.569061999999992
 20
64.493769
 30
0.0
 40
6.2890449999999989
 50
291.585824
 51
293.65287499999988
  0
ARC
  5
79
  8
0
 62
     7
 10
33.089789000000003
 20
59.645049999999991
 30
0.0
 40
1.9854839999999989
 50
59.677581000000011
 51
72.112421999999995
  0
ARC
  5
7A
  8
0
 62
     7
 10
33.367917999999989
 20
60.457797999999997
 30
0.0
 40
1.1266969999999989
 50
72.877702999999997
 51
88.750419999999977
  0
ARC
  5
7B
  8
0
 62
     7
 10
33.393214999999998
 20
60.815863999999998
 30
0.0
 40
0.768363
 50
90.054157999999987
 51
103.845017
  0
ARC
  5
7C
  8
0
 62
     7
 10
33.536141000000001
 20
60.140668000000012
 30
0.0
 40
1.458323
 50
102.94928400000001
 51
114.1689409999999
  0
ARC
  5
7D
  8
0
 62
     7
 10
33.782114999999997
 20
59.533029999999997
 30
0.0
 40
2.113545999999999
 50
113.508207
 51
120.242947
  0
ARC
  5
7E
  8
0
 62
     7
 10
28.660167999999999
 20
52.187412999999999
 30
0.0
 40
6.6748830000000003
 50
76.791397000000003
 51
78.706411000000003
  0
ARC
  5
7F
  8
0
 62
     7
 10
31.668862000000001
 20
64.320559000000003
 30
0.0
 40
5.826859999999999
 50
255.25028399999991
 51
261.38646199999999
  0
ARC
  5
80
  8
0
 62
     7
 10
31.14248499999999
 20
60.824317000000001
 30
0.0
 40
2.29122
 50
261.30670099999992
 51
269.37963499999989
  0
LINE
  5
81
  8
0
 62
     7
 10
31.117699999999989
 20
58.533200000000001
 30
0.0
 11
31.5669
 21
58.533200000000001
 31
0.0
  0
ARC
  5
82
  8
0
 62
     7
 10
31.566600000000001
 20
60.494057999999988
 30
0.0
 40
1.9608259999999991
 50
270.00938500000001
 51
278.46042699999992
  0
ARC
  5
83
  8
0
 62
     7
 10
31.352354999999999
 20
62.150939000000001
 30
0.0
 40
3.6313379999999991
 50
277.95776499999988
 51
281.44466
  0
ARC
  5
84
  8
0
 62
     7
 10
29.938589
 20
69.019087999999996
 30
0.0
 40
10.643471999999999
 50
281.56777
 51
283.46171600000002
  0
ARC
  5
85
  8
0
 62
     7
 10
33.835115000000002
 20
52.824128000000002
 30
0.0
 40
6.013668
 50
100.7095699999999
 51
103.64613799999989
  0
ARC
  5
86
  8
0
 62
     7
 10
31.477634999999989
 20
57.704479999999997
 30
0.0
 40
3.8590659999999999
 50
71.257854000000009
 51
77.192154000000002
  0
ARC
  5
87
  8
0
 62
     7
 10
31.236882000000001
 20
56.840218999999998
 30
0.0
 40
4.7553910000000004
 50
76.671986000000004
 51
85.669133000000016
  0
ARC
  5
88
  8
0
 62
     7
 10
31.449367999999989
 20
59.298838000000003
 30
0.0
 40
2.287895999999999
 50
86.325652000000005
 51
92.682303000000019
  0
ARC
  5
89
  8
0
 62
     7
 10
31.259067999999999
 20
60.169733999999998
 30
0.0
 40
1.416939999999999
 50
86.632521999999994
 51
91.041648999999978
  0
ARC
  5
8A
  8
0
 62
     7
 10
31.272703
 20
59.011531999999988
 30
0.0
 40
2.5752090000000001
 50
90.876494999999991
 51
94.814526000000001
  0
ARC
  5
8B
  8
0
 62
     7
 10
31.47047199999999
 20
56.695343000000008
 30
0.0
 40
4.899824999999999
 50
94.845768999999976
 51
107.864671
  0
LINE
  5
8C
  8
0
 62
     7
 10
30.092099999999991
 20
61.759900000000002
 30
0.0
 11
31.342300000000002
 21
61.759900000000002
 31
0.0
  0
LINE
  5
8D
  8
0
 62
     7
 10
32.592199999999998
 20
61.759900000000002
 30
0.0
 11
31.342300000000002
 21
61.759900000000002
 31
0.0
  0
LINE
  5
8E
  8
0
 62
     7
 10
33.642899999999997
 20
58.483600000000003
 30
0.0
 11
31.342300000000002
 21
58.483600000000003
 31
0.0
  0
LINE
  5
8F
  8
0
 62
     7
 10
31.342300000000002
 20
58.483600000000003
 30
0.0
 11
29.041599999999999
 21
58.483600000000003
 31
0.0
  0
LINE
  5
90
  8
0
 62
     7
 10
28.741599999999991
 20
58.683399999999992
 30
0.0
 11
29.041599999999999
 21
58.508400000000002
 31
0.0
  0
LINE
  5
91
  8
0
 62
     7
 10
29.041599999999999
 20
58.508400000000002
 30
0.0
 11
29.041599999999999
 21
58.483600000000003
 31
0.0
  0
LINE
  5
92
  8
0
 62
     7
 10
28.591699999999999
 20
58.732999999999997
 30
0.0
 11
29.041599999999999
 21
58.508400000000002
 31
0.0
  0
LINE
  5
93
  8
0
 62
     7
 10
34.092199999999991
 20
58.732999999999997
 30
0.0
 11
33.642899999999997
 21
58.483600000000003
 31
0.0
  0
LINE
  5
94
  8
0
 62
     7
 10
33.642899999999997
 20
61.608999999999988
 30
0.0
 11
29.041599999999999
 21
61.608999999999988
 31
0.0
  0
LINE
  5
95
  8
0
 62
     7
 10
32.892600000000002
 20
61.733699999999999
 30
0.0
 11
29.792000000000002
 21
61.733699999999999
 31
0.0
  0
ARC
  5
96
  8
0
 62
     7
 10
30.343664
 20
62.430526999999998
 30
0.0
 40
0.7162430000000001
 50
213.46767299999991
 51
249.434697
  0
ARC
  5
97
  8
0
 62
     7
 10
30.17501699999999
 20
62.293238000000002
 30
0.0
 40
0.500312
 50
198.5506069999999
 51
211.0020899999999
  0
LINE
  5
98
  8
0
 62
     7
 10
29.700700000000001
 20
62.134099999999989
 30
0.0
 11
29.667300000000001
 21
62.233999999999988
 31
0.0
  0
LINE
  5
99
  8
0
 62
     7
 10
29.667300000000001
 20
62.233999999999988
 30
0.0
 11
29.667300000000001
 21
62.3842
 31
0.0
  0
LINE
  5
9A
  8
0
 62
     7
 10
29.667300000000001
 20
62.3842
 30
0.0
 11
29.716899999999999
 21
62.55919999999999
 31
0.0
  0
LINE
  5
9B
  8
0
 62
     7
 10
32.9925
 20
62.55919999999999
 30
0.0
 11
32.967700000000001
 21
62.55919999999999
 31
0.0
  0
ARC
  5
9C
  8
0
 62
     7
 10
3.1551130000000001
 20
58.241008999999998
 30
0.0
 40
30.148250000000001
 50
7.8989659999999997
 51
8.2348949999999999
  0
LINE
  5
9D
  8
0
 62
     7
 10
33.017299999999999
 20
62.3842
 30
0.0
 11
33.017299999999999
 21
62.233999999999988
 31
0.0
  0
LINE
  5
9E
  8
0
 62
     7
 10
33.017299999999999
 20
62.233999999999988
 30
0.0
 11
32.984900000000003
 21
62.134099999999989
 31
0.0
  0
ARC
  5
9F
  8
0
 62
     7
 10
31.914425000000001
 20
62.492452
 30
0.0
 40
1.1289029999999991
 50
336.71913099999989
 51
341.49047100000001
  0
ARC
  5
A0
  8
0
 62
     7
 10
32.513269999999991
 20
62.23386
 30
0.0
 40
0.476612
 50
317.68974700000001
 51
336.82132300000001
  0
ARC
  5
A1
  8
0
 62
     7
 10
32.582378999999989
 20
62.189787000000003
 30
0.0
 40
0.396082
 50
305.29823599999992
 51
315.67459700000001
  0
ARC
  5
A2
  8
0
 62
     7
 10
32.390740999999991
 20
62.466119999999989
 30
0.0
 40
0.732355
 50
297.60302999999999
 51
305.04255599999988
  0
ARC
  5
A3
  8
0
 62
     7
 10
30.646819000000001
 20
65.795601000000005
 30
0.0
 40
4.490905999999999
 50
296.0211569999999
 51
297.63794999999988
  0
LINE
  5
A4
  8
0
 62
     7
 10
32.61699999999999
 20
61.759900000000002
 30
0.0
 11
32.592199999999998
 21
61.759900000000002
 31
0.0
  0
LINE
  5
A5
  8
0
 62
     7
 10
32.792299999999997
 20
62.98429999999999
 30
0.0
 11
29.916699999999999
 21
62.98429999999999
 31
0.0
  0
LINE
  5
A6
  8
0
 62
     7
 10
32.792299999999997
 20
64.9846
 30
0.0
 11
31.342300000000002
 21
64.9846
 31
0.0
  0
LINE
  5
A7
  8
0
 62
     7
 10
31.342300000000002
 20
64.9846
 30
0.0
 11
29.916699999999999
 21
64.9846
 31
0.0
  0
LINE
  5
A8
  8
0
 62
     7
 10
29.667300000000001
 20
65.534400000000005
 30
0.0
 11
29.667300000000001
 21
65.409700000000001
 31
0.0
  0
LINE
  5
A9
  8
0
 62
     7
 10
29.667300000000001
 20
65.409700000000001
 30
0.0
 11
29.74199999999999
 21
65.284300000000002
 31
0.0
  0
LINE
  5
AA
  8
0
 62
     7
 10
33.04249999999999
 20
65.534400000000005
 30
0.0
 11
33.017299999999999
 21
65.409700000000001
 31
0.0
  0
LINE
  5
AB
  8
0
 62
     7
 10
33.017299999999999
 20
65.409700000000001
 30
0.0
 11
32.967700000000001
 21
65.284300000000002
 31
0.0
  0
LINE
  5
AC
  8
0
 62
     7
 10
33.04249999999999
 20
66.235100000000003
 30
0.0
 11
29.667300000000001
 21
66.235100000000003
 31
0.0
  0
LINE
  5
AD
  8
0
 62
     7
 10
33.04249999999999
 20
66.235100000000003
 30
0.0
 11
33.04249999999999
 21
65.534400000000005
 31
0.0
  0
LINE
  5
AE
  8
0
 62
     7
 10
29.667300000000001
 20
66.235100000000003
 30
0.0
 11
29.667300000000001
 21
65.534400000000005
 31
0.0
  0
LINE
  5
AF
  8
0
 62
     7
 10
29.041599999999999
 20
61.608999999999988
 30
0.0
 11
28.591699999999999
 21
61.358899999999991
 31
0.0
  0
LINE
  5
B0
  8
0
 62
     7
 10
33.642899999999997
 20
61.608999999999988
 30
0.0
 11
34.092199999999991
 21
61.358899999999991
 31
0.0
  0
LINE
  5
B1
  8
0
 62
     7
 10
32.967700000000001
 20
65.284300000000002
 30
0.0
 11
32.792299999999997
 21
64.9846
 31
0.0
  0
LINE
  5
B2
  8
0
 62
     7
 10
32.792299999999997
 20
62.98429999999999
 30
0.0
 11
32.967700000000001
 21
62.55919999999999
 31
0.0
  0
LINE
  5
B3
  8
0
 62
     7
 10
29.74199999999999
 20
65.284300000000002
 30
0.0
 11
29.916699999999999
 21
64.9846
 31
0.0
  0
LINE
  5
B4
  8
0
 62
     7
 10
29.916699999999999
 20
62.98429999999999
 30
0.0
 11
29.716899999999999
 21
62.55919999999999
 31
0.0
  0
LINE
  5
B5
  8
0
 62
     7
 10
32.792299999999997
 20
64.9846
 30
0.0
 11
32.792299999999997
 21
62.98429999999999
 31
0.0
  0
LINE
  5
B6
  8
0
 62
     7
 10
29.916699999999999
 20
64.9846
 30
0.0
 11
29.916699999999999
 21
62.98429999999999
 31
0.0
  0
LINE
  5
B7
  8
0
 62
     7
 10
32.892600000000002
 20
61.733699999999999
 30
0.0
 11
32.892600000000002
 21
61.608999999999988
 31
0.0
  0
LINE
  5
B8
  8
0
 62
     7
 10
29.792000000000002
 20
61.733699999999999
 30
0.0
 11
29.792000000000002
 21
61.608999999999988
 31
0.0
  0
LINE
  5
B9
  8
0
 62
     7
 10
34.092199999999991
 20
58.732999999999997
 30
0.0
 11
33.642899999999997
 21
58.483600000000003
 31
0.0
  0
LINE
  5
BA
  8
0
 62
     7
 10
28.591699999999999
 20
58.732999999999997
 30
0.0
 11
29.041599999999999
 21
58.483600000000003
 31
0.0
  0
LINE
  5
BB
  8
0
  6
AIGENLINE001
 62
     7
 10
47.726899999999993
 20
79.023099999999985
 30
0.0
 11
59.608800000000002
 21
97.513400000000004
 31
0.0
  0
LINE
  5
BC
  8
0
  6
AIGENLINE001
 62
     7
 10
134.20400000000001
 20
97.513400000000004
 30
0.0
 11
155.9079999999999
 21
79.023099999999985
 31
0.0
  0
LINE
  5
BD
  8
0
 62
     7
 10
154.1579999999999
 20
92.618499999999997
 30
0.0
 11
154.6579999999999
 21
93.255899999999997
 31
0.0
  0
LINE
  5
BE
  8
0
 62
     7
 10
150.1579999999999
 20
94.868899999999996
 30
0.0
 11
150.1579999999999
 21
92.994099999999989
 31
0.0
  0
LINE
  5
BF
  8
0
 62
     7
 10
150.1579999999999
 20
92.994099999999989
 30
0.0
 11
160.9079999999999
 21
93.619
 31
0.0
  0
LINE
  5
C0
  8
0
 62
     7
 10
152.4079999999999
 20
86.868600000000015
 30
0.0
 11
152.9079999999999
 21
86.868600000000015
 31
0.0
  0
LINE
  5
C1
  8
0
 62
     7
 10
151.9079999999999
 20
86.368399999999994
 30
0.0
 11
151.9079999999999
 21
89.119000000000014
 31
0.0
  0
LINE
  5
C2
  8
0
 62
     7
 10
153.4079999999999
 20
86.368399999999994
 30
0.0
 11
153.4079999999999
 21
89.119000000000014
 31
0.0
  0
LINE
  5
C3
  8
0
 62
     7
 10
152.4079999999999
 20
86.368399999999994
 30
0.0
 11
152.4079999999999
 21
86.868600000000015
 31
0.0
  0
LINE
  5
C4
  8
0
 62
     7
 10
152.9079999999999
 20
86.368399999999994
 30
0.0
 11
152.9079999999999
 21
86.868600000000015
 31
0.0
  0
LINE
  5
C5
  8
0
 62
     7
 10
154.2829999999999
 20
86.368399999999994
 30
0.0
 11
154.2829999999999
 21
89.119000000000014
 31
0.0
  0
LINE
  5
C6
  8
0
 62
     7
 10
151.0329999999999
 20
86.368399999999994
 30
0.0
 11
151.0329999999999
 21
89.119000000000014
 31
0.0
  0
LINE
  5
C7
  8
0
 62
     7
 10
152.9079999999999
 20
86.368399999999994
 30
0.0
 11
154.2829999999999
 21
86.368399999999994
 31
0.0
  0
LINE
  5
C8
  8
0
 62
     7
 10
151.0329999999999
 20
86.368399999999994
 30
0.0
 11
152.4079999999999
 21
86.368399999999994
 31
0.0
  0
LINE
  5
C9
  8
0
 62
     7
 10
151.0329999999999
 20
89.119000000000014
 30
0.0
 11
154.2829999999999
 21
89.119000000000014
 31
0.0
  0
LINE
  5
CA
  8
0
 62
     7
 10
150.4079999999999
 20
92.619200000000006
 30
0.0
 11
150.1579999999999
 21
92.994099999999989
 31
0.0
  0
LINE
  5
CB
  8
0
 62
     7
 10
154.1579999999999
 20
92.618499999999997
 30
0.0
 11
154.1579999999999
 21
89.119000000000014
 31
0.0
  0
LINE
  5
CC
  8
0
 62
     7
 10
151.1579999999999
 20
92.618499999999997
 30
0.0
 11
151.1579999999999
 21
89.119000000000014
 31
0.0
  0
LINE
  5
CD
  8
0
 62
     7
 10
154.1579999999999
 20
92.619200000000006
 30
0.0
 11
150.4079999999999
 21
92.619200000000006
 31
0.0
  0
LINE
  5
CE
  8
0
 62
     7
 10
153.5329999999999
 20
103.6189999999999
 30
0.0
 11
153.5329999999999
 21
94.868899999999996
 31
0.0
  0
LINE
  5
CF
  8
0
 62
     7
 10
151.78299999999999
 20
103.6189999999999
 30
0.0
 11
151.78299999999999
 21
94.868899999999996
 31
0.0
  0
LINE
  5
D0
  8
0
 62
     7
 10
150.1579999999999
 20
94.369299999999996
 30
0.0
 11
160.9079999999999
 21
94.369299999999996
 31
0.0
  0
LINE
  5
D1
  8
0
 62
     7
 10
150.1579999999999
 20
94.868899999999996
 30
0.0
 11
160.9079999999999
 21
94.868899999999996
 31
0.0
  0
LINE
  5
D2
  8
0
  6
AIGENLINE001
 62
     7
 10
152.6579999999999
 20
106.61
 30
0.0
 11
152.6579999999999
 21
84.790899999999993
 31
0.0
  0
LINE
  5
D3
  8
0
 62
     7
 10
160.9079999999999
 20
94.868899999999996
 30
0.0
 11
160.9079999999999
 21
93.619
 31
0.0
  0
LINE
  5
D4
  8
0
 62
     7
 10
60.921399999999998
 20
66.235100000000003
 30
0.0
 11
60.921399999999998
 21
91.744200000000006
 31
0.0
  0
LINE
  5
D5
  8
0
 62
     7
 10
58.296199999999999
 20
91.744200000000006
 30
0.0
 11
58.296199999999999
 21
66.235100000000003
 31
0.0
  0
LINE
  5
D6
  8
0
  6
AIGENLINE001
 62
     7
 10
59.608800000000002
 20
97.513400000000004
 30
0.0
 11
59.608800000000002
 21
57.271299999999989
 31
0.0
  0
LINE
  5
D7
  8
0
 62
     7
 10
135.51599999999991
 20
66.235100000000003
 30
0.0
 11
135.51599999999991
 21
91.744200000000006
 31
0.0
  0
LINE
  5
D8
  8
0
 62
     7
 10
132.89099999999999
 20
91.744200000000006
 30
0.0
 11
132.89099999999999
 21
66.235100000000003
 31
0.0
  0
LINE
  5
D9
  8
0
 62
     7
 10
157.221
 20
82.395499999999984
 30
0.0
 11
157.221
 21
93.415700000000001
 31
0.0
  0
LINE
  5
DA
  8
0
 62
     7
 10
157.221
 20
94.868899999999996
 30
0.0
 11
157.221
 21
103.6189999999999
 31
0.0
  0
LINE
  5
DB
  8
0
 62
     7
 10
154.596
 20
103.6189999999999
 30
0.0
 11
154.596
 21
94.868899999999996
 31
0.0
  0
LINE
  5
DC
  8
0
 62
     7
 10
154.596
 20
93.176000000000002
 30
0.0
 11
154.596
 21
82.395499999999984
 31
0.0
  0
LINE
  5
DD
  8
0
 62
     7
 10
46.101900000000001
 20
255.696
 30
0.0
 11
46.101900000000001
 21
249.90999999999991
 31
0.0
  0
LINE
  5
DE
  8
0
 62
     7
 10
44.85199999999999
 20
255.696
 30
0.0
 11
44.85199999999999
 21
249.90999999999991
 31
0.0
  0
LINE
  5
DF
  8
0
 62
     7
 10
46.101900000000001
 20
255.696
 30
0.0
 11
44.85199999999999
 21
255.696
 31
0.0
  0
LINE
  5
E0
  8
0
  6
AIGENLINE001
 62
     7
 10
54.274700000000003
 20
244.44599999999991
 30
0.0
 11
36.967100000000002
 21
244.44599999999991
 31
0.0
  0
LINE
  5
E1
  8
0
  6
AIGENLINE001
 62
     7
 10
27.058800000000002
 20
226.02799999999991
 30
0.0
 11
28.802199999999988
 21
227.77199999999999
 31
0.0
  0
LINE
  5
E2
  8
0
  6
AIGENLINE001
 62
     7
 10
29.236599999999989
 20
228.2059999999999
 30
0.0
 11
45.47679999999999
 21
244.44599999999991
 31
0.0
  0
LINE
  5
E3
  8
0
  6
AIGENLINE002
 62
     7
 10
37.479900000000001
 20
238.7469999999999
 30
0.0
 11
28.771699999999989
 21
230.03899999999999
 31
0.0
  0
LINE
  5
E4
  8
0
  6
AIGENLINE002
 62
     7
 10
39.777799999999999
 20
236.4489999999999
 30
0.0
 11
31.07
 21
227.7409999999999
 31
0.0
  0
LINE
  5
E5
  8
0
  6
AIGENLINE002
 62
     7
 10
28.771699999999989
 20
230.03899999999999
 30
0.0
 11
31.07
 21
227.7409999999999
 31
0.0
  0
LINE
  5
E6
  8
0
 62
     7
 10
43.279800000000002
 20
219.6279999999999
 30
0.0
 11
45.47679999999999
 21
218.982
 31
0.0
  0
LINE
  5
E7
  8
0
 62
     7
 10
45.47679999999999
 20
218.982
 30
0.0
 11
43.251600000000003
 21
218.4429999999999
 31
0.0
  0
LINE
  5
E8
  8
0
 62
     7
 10
43.251600000000003
 20
218.4429999999999
 30
0.0
 11
43.279800000000002
 21
219.6279999999999
 31
0.0
  0
LINE
  5
E9
  8
0
 62
     7
 10
28.7395
 20
224.53399999999999
 30
0.0
 11
27.471399999999988
 21
226.44
 31
0.0
  0
LINE
  5
EA
  8
0
 62
     7
 10
27.471399999999988
 20
226.44
 30
0.0
 11
29.522600000000001
 21
225.423
 31
0.0
  0
LINE
  5
EB
  8
0
 62
     7
 10
29.522600000000001
 20
225.423
 30
0.0
 11
28.7395
 21
224.53399999999999
 31
0.0
  0
LINE
  5
EC
  8
0
  6
AIGENLINE001
 62
     7
 10
63.8947
 20
226.02799999999991
 30
0.0
 11
62.151299999999999
 21
227.77199999999999
 31
0.0
  0
LINE
  5
ED
  8
0
  6
AIGENLINE001
 62
     7
 10
61.716900000000003
 20
228.2059999999999
 30
0.0
 11
45.47679999999999
 21
244.44599999999991
 31
0.0
  0
LINE
  5
EE
  8
0
  6
AIGENLINE002
 62
     7
 10
53.473599999999998
 20
238.7469999999999
 30
0.0
 11
62.181800000000003
 21
230.03899999999999
 31
0.0
  0
LINE
  5
EF
  8
0
  6
AIGENLINE002
 62
     7
 10
51.175699999999999
 20
236.4489999999999
 30
0.0
 11
59.883499999999998
 21
227.7409999999999
 31
0.0
  0
LINE
  5
F0
  8
0
  6
AIGENLINE002
 62
     7
 10
62.181800000000003
 20
230.03899999999999
 30
0.0
 11
59.883499999999998
 21
227.7409999999999
 31
0.0
  0
LINE
  5
F1
  8
0
  6
AIGENLINE001
 62
     7
 10
45.476900000000001
 20
191.77699999999999
 30
0.0
 11
45.476900000000001
 21
257.54000000000002
 31
0.0
  0
LINE
  5
F2
  8
0
 62
     7
 10
47.101599999999998
 20
235.69599999999991
 30
0.0
 11
47.97699999999999
 21
235.69599999999991
 31
0.0
  0
LINE
  5
F3
  8
0
 62
     7
 10
42.976499999999987
 20
235.69599999999991
 30
0.0
 11
43.851900000000001
 21
235.69599999999991
 31
0.0
  0
LINE
  5
F4
  8
0
 62
     7
 10
47.976700000000001
 20
238.70099999999999
 30
0.0
 11
47.976700000000001
 21
195.69799999999989
 31
0.0
  0
ARC
  5
F5
  8
0
 62
     7
 10
49.503897999999992
 20
238.68708199999989
 30
0.0
 40
1.5272619999999999
 50
125.382615
 51
179.46570399999999
  0
LINE
  5
F6
  8
0
 62
     7
 10
42.97679999999999
 20
238.70099999999999
 30
0.0
 11
42.97679999999999
 21
195.69799999999989
 31
0.0
  0
ARC
  5
F7
  8
0
 62
     7
 10
41.450431999999992
 20
238.68775899999989
 30
0.0
 40
1.5264319999999989
 50
0.509144
 51
54.617295999999989
  0
ARC
  5
F8
  8
0
 62
     7
 10
44.938332000000003
 20
195.705656
 30
0.0
 40
1.9615439999999991
 50
180.233971
 51
221.68746899999999
  0
ARC
  5
F9
  8
0
 62
     7
 10
45.319915999999999
 20
196.00449800000001
 30
0.0
 40
2.445446
 50
220.97029499999999
 51
253.30251200000001
  0
ARC
  5
FA
  8
0
 62
     7
 10
45.468184999999991
 20
196.34912700000001
 30
0.0
 40
2.8184719999999999
 50
252.42836699999989
 51
270.17769599999991
  0
ARC
  5
FB
  8
0
 62
     7
 10
45.470775000000003
 20
196.34285299999999
 30
0.0
 40
2.812190999999999
 50
270.1253220000001
 51
306.29297800000001
  0
ARC
  5
FC
  8
0
 62
     7
 10
45.755134999999989
 20
195.87065699999999
 30
0.0
 40
2.2638439999999989
 50
307.566259
 51
336.76352200000002
  0
ARC
  5
FD
  8
0
 62
     7
 10
46.053703999999989
 20
195.70117500000001
 30
0.0
 40
1.9230020000000001
 50
337.89405599999998
 51
359.89488799999998
  0
LINE
  5
FE
  8
0
 62
     7
 10
43.852200000000003
 20
237.446
 30
0.0
 11
47.101599999999998
 21
237.446
 31
0.0
  0
LINE
  5
FF
  8
0
 62
     7
 10
47.101599999999998
 20
238.66499999999991
 30
0.0
 11
47.101599999999998
 21
222.446
 31
0.0
  0
ARC
  5
100
  8
0
 62
     7
 10
47.870186999999987
 20
238.65209400000001
 30
0.0
 40
0.768649
 50
113.2527
 51
179.05242999999999
  0
LINE
  5
101
  8
0
 62
     7
 10
43.851900000000001
 20
238.66499999999991
 30
0.0
 11
43.851900000000001
 21
222.446
 31
0.0
  0
ARC
  5
102
  8
0
 62
     7
 10
43.083801999999999
 20
238.6524169999999
 30
0.0
 40
0.7681620000000001
 50
0.9240389999999997
 51
66.770792
  0
ARC
  5
103
  8
0
 62
     7
 10
45.476925000000001
 20
244.44605499999989
 30
0.0
 40
5.4997860000000003
 50
0.00001
 51
89.999980000000008
  0
ARC
  5
104
  8
0
 62
     7
 10
45.47675499999999
 20
244.44588300000001
 30
0.0
 40
5.4999580000000003
 50
89.998206000000025
 51
179.998176
  0
ARC
  5
105
  8
0
 62
     7
 10
45.476925000000001
 20
244.44605499999989
 30
0.0
 40
5.5001290000000003
 50
179.99996999999991
 51
270.00002000000001
  0
ARC
  5
106
  8
0
 62
     7
 10
45.476753000000002
 20
244.445885
 30
0.0
 40
5.4999580000000003
 50
270.00181400000002
 51
0.001785
  0
LINE
  5
107
  8
0
 62
     7
 10
47.101599999999998
 20
222.446
 30
0.0
 11
43.851900000000001
 21
222.446
 31
0.0
  0
ARC
  5
108
  8
0
 62
     7
 10
45.306449999999991
 20
244.56157699999989
 30
0.0
 40
6.9214580000000003
 50
292.69301000000002
 51
359.04367200000002
  0
ARC
  5
109
  8
0
 62
     7
 10
45.476955999999987
 20
244.446031
 30
0.0
 40
6.7500989999999996
 50
95.312468000000024
 51
185.31202699999989
  0
ARC
  5
10A
  8
0
 62
     7
 10
45.61581799999999
 20
244.549938
 30
0.0
 40
6.8985789999999989
 50
186.0645659999999
 51
247.51172399999999
  0
ARC
  5
10B
  8
0
 62
     7
 10
45.238864999999997
 20
244.22911499999989
 30
0.0
 40
6.9914459999999998
 50
1.7781459999999989
 51
82.912316000000004
  0
LINE
  5
10C
  8
0
 62
     7
 10
49.039200000000001
 20
82.395499999999984
 30
0.0
 11
49.039200000000001
 21
92.994099999999989
 31
0.0
  0
LINE
  5
10D
  8
0
 62
     7
 10
46.41429999999999
 20
82.395499999999984
 30
0.0
 11
46.41429999999999
 21
86.369100000000003
 31
0.0
  0
LINE
  5
10E
  8
0
 62
     7
 10
49.039200000000001
 20
94.868499999999997
 30
0.0
 11
49.039200000000001
 21
103.6189999999999
 31
0.0
  0
LINE
  5
10F
  8
0
 62
     7
 10
46.41429999999999
 20
94.868499999999997
 30
0.0
 11
46.41429999999999
 21
103.6189999999999
 31
0.0
  0
LINE
  5
110
  8
0
  6
AIGENLINE001
 62
     7
 10
47.726899999999993
 20
79.023099999999985
 30
0.0
 11
47.726899999999993
 21
106.15299999999991
 31
0.0
  0
LINE
  5
111
  8
0
 62
     7
 10
62.362099999999991
 20
61.358899999999991
 30
0.0
 11
62.362099999999991
 21
58.732999999999997
 31
0.0
  0
LINE
  5
112
  8
0
 62
     7
 10
60.986499999999999
 20
61.358899999999991
 30
0.0
 11
60.986499999999999
 21
58.732999999999997
 31
0.0
  0
ARC
  5
113
  8
0
 62
     7
 10
58.996956000000011
 20
66.550358000000003
 30
0.0
 40
8.5108619999999995
 50
291.64301499999999
 51
293.29081500000001
  0
ARC
  5
114
  8
0
 62
     7
 10
61.448188000000002
 20
60.406879000000004
 30
0.0
 40
1.896471
 50
281.78779100000003
 51
291.26332000000002
  0
ARC
  5
115
  8
0
 62
     7
 10
61.654246999999991
 20
59.497813999999991
 30
0.0
 40
0.9646139999999999
 50
270.46569699999998
 51
280.83723800000001
  0
ARC
  5
116
  8
0
 62
     7
 10
61.662224000000002
 20
59.439202000000002
 30
0.0
 40
0.9059709999999999
 50
257.530618
 51
269.99132400000002
  0
ARC
  5
117
  8
0
 62
     7
 10
61.785136999999992
 20
60.064399000000002
 30
0.0
 40
1.543032
 50
247.18136200000001
 51
258.086771
  0
ARC
  5
118
  8
0
 62
     7
 10
62.245507999999987
 20
61.239767000000001
 30
0.0
 40
2.805127999999999
 50
243.33175299999999
 51
247.8244709999999
  0
ARC
  5
119
  8
0
 62
     7
 10
61.741406000000012
 20
60.243658999999987
 30
0.0
 40
1.346730999999999
 50
97.366204999999994
 51
124.0936549999999
  0
ARC
  5
11A
  8
0
 62
     7
 10
61.663190999999998
 20
60.681194999999988
 30
0.0
 40
0.9030329999999999
 50
90.070059000000015
 51
96.003703999999999
  0
ARC
  5
11B
  8
0
 62
     7
 10
61.661293999999991
 20
60.665444999999998
 30
0.0
 40
0.9187829999999999
 50
77.808963000000006
 51
89.95054300000001
  0
ARC
  5
11C
  8
0
 62
     7
 10
61.571142999999999
 20
60.199558999999986
 30
0.0
 40
1.3932370000000001
 50
66.820028000000008
 51
78.231076000000002
  0
ARC
  5
11D
  8
0
 62
     7
 10
61.344009999999997
 20
59.627667000000002
 30
0.0
 40
2.0084330000000001
 50
59.540793999999998
 51
67.285362000000006
  0
LINE
  5
11E
  8
0
 62
     7
 10
56.861699999999999
 20
61.358899999999991
 30
0.0
 11
56.861699999999999
 21
58.732999999999997
 31
0.0
  0
LINE
  5
11F
  8
0
 62
     7
 10
58.2363
 20
61.358899999999991
 30
0.0
 11
58.2363
 21
58.732999999999997
 31
0.0
  0
ARC
  5
120
  8
0
 62
     7
 10
54.846567000000007
 20
66.614203000000003
 30
0.0
 40
8.5791979999999999
 50
291.67714099999989
 51
293.27260999999999
  0
ARC
  5
121
  8
0
 62
     7
 10
57.279656000000003
 20
60.518937000000001
 30
0.0
 40
2.0162869999999988
 50
282.23675900000001
 51
291.405012
  0
ARC
  5
122
  8
0
 62
     7
 10
57.550881999999987
 20
59.337591000000003
 30
0.0
 40
0.8044279999999998
 50
270.74658299999987
 51
281.19141400000001
  0
ARC
  5
123
  8
0
 62
     7
 10
57.562170999999999
 20
59.438783999999998
 30
0.0
 40
0.9055530000000001
 50
257.79862099999991
 51
269.94890800000002
  0
ARC
  5
124
  8
0
 62
     7
 10
57.66169399999999
 20
59.973984999999999
 30
0.0
 40
1.449784
 50
252.93508600000001
 51
258.42462499999999
  0
ARC
  5
125
  8
0
 62
     7
 10
57.909925999999999
 20
60.779325999999998
 30
0.0
 40
2.2925149999999999
 50
248.536924
 51
252.91079300000001
  0
ARC
  5
126
  8
0
 62
     7
 10
59.382435999999991
 20
64.488260999999994
 30
0.0
 40
6.2830550000000001
 50
246.3466589999999
 51
248.415727
  0
ARC
  5
127
  8
0
 62
     7
 10
57.864063000000002
 20
59.645049999999991
 30
0.0
 40
1.9854839999999989
 50
107.887558
 51
120.322399
  0
ARC
  5
128
  8
0
 62
     7
 10
57.585963999999997
 20
60.457613000000002
 30
0.0
 40
1.1268819999999991
 50
91.250872000000015
 51
107.1209639999999
  0
ARC
  5
129
  8
0
 62
     7
 10
57.560637
 20
60.815863999999998
 30
0.0
 40
0.768363
 50
76.154964000000007
 51
89.945821999999993
  0
ARC
  5
12A
  8
0
 62
     7
 10
57.417709999999992
 20
60.140668000000012
 30
0.0
 40
1.458323
 50
65.831039000000004
 51
77.050696000000002
  0
ARC
  5
12B
  8
0
 62
     7
 10
57.171737
 20
59.533029999999997
 30
0.0
 40
2.113545999999999
 50
59.757032999999993
 51
66.491772999999995
  0
ARC
  5
12C
  8
0
 62
     7
 10
62.304545999999988
 20
52.137388999999999
 30
0.0
 40
6.7260660000000003
 50
101.300856
 51
103.2012969999999
  0
ARC
  5
12D
  8
0
 62
     7
 10
59.298080000000013
 20
64.257246999999992
 30
0.0
 40
5.7623030000000002
 50
278.57915099999991
 51
284.78414299999997
  0
ARC
  5
12E
  8
0
 62
     7
 10
59.811385999999999
 20
60.82408499999999
 30
0.0
 40
2.290988
 50
270.61997599999989
 51
278.69372799999991
  0
LINE
  5
12F
  8
0
 62
     7
 10
59.836199999999998
 20
58.533200000000001
 30
0.0
 11
59.386899999999997
 21
58.533200000000001
 31
0.0
  0
ARC
  5
130
  8
0
 62
     7
 10
59.387251999999997
 20
60.494057999999988
 30
0.0
 40
1.9608259999999991
 50
261.53959300000002
 51
269.990634
  0
ARC
  5
131
  8
0
 62
     7
 10
59.601334999999999
 20
62.149889999999999
 30
0.0
 40
3.6302759999999998
 50
258.55465699999991
 51
262.04248799999988
  0
ARC
  5
132
  8
0
 62
     7
 10
61.013364000000003
 20
69.010510999999994
 30
0.0
 40
10.634688000000001
 50
256.53752200000002
 51
258.43303199999991
  0
ARC
  5
133
  8
0
 62
     7
 10
57.118551000000011
 20
52.823149999999998
 30
0.0
 40
6.0146639999999989
 50
76.354271999999995
 51
79.290402999999998
  0
ARC
  5
134
  8
0
 62
     7
 10
59.476216999999998
 20
57.704479999999997
 30
0.0
 40
3.8590659999999999
 50
102.80782600000001
 51
108.7421259999999
  0
ARC
  5
135
  8
0
 62
     7
 10
59.716969999999989
 20
56.840218999999998
 30
0.0
 40
4.7553910000000004
 50
94.330847000000006
 51
103.3279939999999
  0
ARC
  5
136
  8
0
 62
     7
 10
59.504483999999991
 20
59.298838000000003
 30
0.0
 40
2.287895999999999
 50
87.317677000000003
 51
93.674328000000017
  0
ARC
  5
137
  8
0
 62
     7
 10
59.694811000000001
 20
60.168399000000001
 30
0.0
 40
1.418274
 50
88.960406000000006
 51
93.365382999999994
  0
ARC
  5
138
  8
0
 62
     7
 10
59.681148999999991
 20
59.011531999999988
 30
0.0
 40
2.5752090000000001
 50
85.185453999999993
 51
89.123485000000002
  0
ARC
  5
139
  8
0
 62
     7
 10
59.483432000000001
 20
56.695601000000003
 30
0.0
 40
4.8995639999999989
 50
72.134959999999992
 51
85.154560000000004
  0
LINE
  5
13A
  8
0
 62
     7
 10
60.861800000000002
 20
61.759900000000002
 30
0.0
 11
59.611600000000003
 21
61.759900000000002
 31
0.0
  0
LINE
  5
13B
  8
0
 62
     7
 10
58.361699999999999
 20
61.759900000000002
 30
0.0
 11
59.611600000000003
 21
61.759900000000002
 31
0.0
  0
LINE
  5
13C
  8
0
 62
     7
 10
57.310899999999997
 20
58.483600000000003
 30
0.0
 11
59.611600000000003
 21
58.483600000000003
 31
0.0
  0
LINE
  5
13D
  8
0
 62
     7
 10
59.611600000000003
 20
58.483600000000003
 30
0.0
 11
61.912199999999999
 21
58.483600000000003
 31
0.0
  0
LINE
  5
13E
  8
0
 62
     7
 10
62.212299999999999
 20
58.683399999999992
 30
0.0
 11
61.912199999999999
 21
58.508400000000002
 31
0.0
  0
LINE
  5
13F
  8
0
 62
     7
 10
61.912199999999999
 20
58.508400000000002
 30
0.0
 11
61.912199999999999
 21
58.483600000000003
 31
0.0
  0
LINE
  5
140
  8
0
 62
     7
 10
62.362099999999991
 20
58.732999999999997
 30
0.0
 11
61.912199999999999
 21
58.508400000000002
 31
0.0
  0
LINE
  5
141
  8
0
 62
     7
 10
56.861699999999999
 20
58.732999999999997
 30
0.0
 11
57.310899999999997
 21
58.483600000000003
 31
0.0
  0
LINE
  5
142
  8
0
 62
     7
 10
57.310899999999997
 20
61.608999999999988
 30
0.0
 11
61.912199999999999
 21
61.608999999999988
 31
0.0
  0
LINE
  5
143
  8
0
 62
     7
 10
58.061300000000003
 20
61.733699999999999
 30
0.0
 11
61.161900000000003
 21
61.733699999999999
 31
0.0
  0
ARC
  5
144
  8
0
 62
     7
 10
60.610188000000001
 20
62.430526999999998
 30
0.0
 40
0.7162430000000001
 50
290.56532299999998
 51
326.53234700000002
  0
ARC
  5
145
  8
0
 62
     7
 10
60.779606999999992
 20
62.292881000000008
 30
0.0
 40
0.499466
 50
328.98734400000001
 51
341.45999799999993
  0
LINE
  5
146
  8
0
 62
     7
 10
61.2532
 20
62.134099999999989
 30
0.0
 11
61.286599999999993
 21
62.233999999999988
 31
0.0
  0
LINE
  5
147
  8
0
 62
     7
 10
61.286599999999993
 20
62.233999999999988
 30
0.0
 11
61.286599999999993
 21
62.3842
 31
0.0
  0
LINE
  5
148
  8
0
 62
     7
 10
61.286599999999993
 20
62.3842
 30
0.0
 11
61.236999999999988
 21
62.55919999999999
 31
0.0
  0
LINE
  5
149
  8
0
 62
     7
 10
57.961300000000001
 20
62.55919999999999
 30
0.0
 11
57.9861
 21
62.55919999999999
 31
0.0
  0
ARC
  5
14A
  8
0
 62
     7
 10
165.14967799999991
 20
47.277884
 30
0.0
 40
108.272147
 50
171.88628
 51
171.97981899999991
  0
LINE
  5
14B
  8
0
 62
     7
 10
57.936500000000002
 20
62.3842
 30
0.0
 11
57.936500000000002
 21
62.233999999999988
 31
0.0
  0
LINE
  5
14C
  8
0
 62
     7
 10
57.936500000000002
 20
62.233999999999988
 30
0.0
 11
57.968899999999998
 21
62.134099999999989
 31
0.0
  0
ARC
  5
14D
  8
0
 62
     7
 10
59.037989000000003
 20
62.491967000000002
 30
0.0
 40
1.1273859999999989
 50
198.509354
 51
203.287215
  0
ARC
  5
14E
  8
0
 62
     7
 10
58.440297000000001
 20
62.233659000000003
 30
0.0
 40
0.476266
 50
203.1702249999999
 51
222.3154679999999
  0
ARC
  5
14F
  8
0
 62
     7
 10
58.371472999999988
 20
62.189787000000003
 30
0.0
 40
0.396082
 50
224.325423
 51
234.70178399999989
  0
ARC
  5
150
  8
0
 62
     7
 10
58.563821999999988
 20
62.467289000000001
 30
0.0
 40
0.73372
 50
234.964393
 51
242.390061
  0
ARC
  5
151
  8
0
 62
     7
 10
60.318779999999997
 20
65.818826000000001
 30
0.0
 40
4.5169300000000003
 50
242.36672799999991
 51
243.9742049999999
  0
LINE
  5
152
  8
0
 62
     7
 10
58.3369
 20
61.759900000000002
 30
0.0
 11
58.361699999999999
 21
61.759900000000002
 31
0.0
  0
LINE
  5
153
  8
0
 62
     7
 10
58.161499999999997
 20
62.98429999999999
 30
0.0
 11
61.037100000000002
 21
62.98429999999999
 31
0.0
  0
LINE
  5
154
  8
0
 62
     7
 10
58.161499999999997
 20
64.9846
 30
0.0
 11
59.611600000000003
 21
64.9846
 31
0.0
  0
LINE
  5
155
  8
0
 62
     7
 10
59.611600000000003
 20
64.9846
 30
0.0
 11
61.037100000000002
 21
64.9846
 31
0.0
  0
LINE
  5
156
  8
0
 62
     7
 10
61.286599999999993
 20
65.534400000000005
 30
0.0
 11
61.286599999999993
 21
65.409700000000001
 31
0.0
  0
LINE
  5
157
  8
0
 62
     7
 10
61.286599999999993
 20
65.409700000000001
 30
0.0
 11
61.21179999999999
 21
65.284300000000002
 31
0.0
  0
LINE
  5
158
  8
0
 62
     7
 10
57.9114
 20
65.534400000000005
 30
0.0
 11
57.936500000000002
 21
65.409700000000001
 31
0.0
  0
LINE
  5
159
  8
0
 62
     7
 10
57.936500000000002
 20
65.409700000000001
 30
0.0
 11
57.9861
 21
65.284300000000002
 31
0.0
  0
LINE
  5
15A
  8
0
 62
     7
 10
57.9114
 20
66.235100000000003
 30
0.0
 11
61.286599999999993
 21
66.235100000000003
 31
0.0
  0
LINE
  5
15B
  8
0
 62
     7
 10
57.9114
 20
66.235100000000003
 30
0.0
 11
57.9114
 21
65.534400000000005
 31
0.0
  0
LINE
  5
15C
  8
0
 62
     7
 10
61.286599999999993
 20
66.235100000000003
 30
0.0
 11
61.286599999999993
 21
65.534400000000005
 31
0.0
  0
LINE
  5
15D
  8
0
 62
     7
 10
61.912199999999999
 20
61.608999999999988
 30
0.0
 11
62.362099999999991
 21
61.358899999999991
 31
0.0
  0
LINE
  5
15E
  8
0
 62
     7
 10
57.310899999999997
 20
61.608999999999988
 30
0.0
 11
56.861699999999999
 21
61.358899999999991
 31
0.0
  0
LINE
  5
15F
  8
0
 62
     7
 10
57.9861
 20
65.284300000000002
 30
0.0
 11
58.161499999999997
 21
64.9846
 31
0.0
  0
LINE
  5
160
  8
0
 62
     7
 10
58.161499999999997
 20
62.98429999999999
 30
0.0
 11
57.9861
 21
62.55919999999999
 31
0.0
  0
LINE
  5
161
  8
0
 62
     7
 10
61.21179999999999
 20
65.284300000000002
 30
0.0
 11
61.037100000000002
 21
64.9846
 31
0.0
  0
LINE
  5
162
  8
0
 62
     7
 10
61.037100000000002
 20
62.98429999999999
 30
0.0
 11
61.236999999999988
 21
62.55919999999999
 31
0.0
  0
LINE
  5
163
  8
0
 62
     7
 10
58.161499999999997
 20
64.9846
 30
0.0
 11
58.161499999999997
 21
62.98429999999999
 31
0.0
  0
LINE
  5
164
  8
0
 62
     7
 10
61.037100000000002
 20
64.9846
 30
0.0
 11
61.037100000000002
 21
62.98429999999999
 31
0.0
  0
LINE
  5
165
  8
0
 62
     7
 10
58.061300000000003
 20
61.733699999999999
 30
0.0
 11
58.061300000000003
 21
61.608999999999988
 31
0.0
  0
LINE
  5
166
  8
0
 62
     7
 10
61.161900000000003
 20
61.733699999999999
 30
0.0
 11
61.161900000000003
 21
61.608999999999988
 31
0.0
  0
LINE
  5
167
  8
0
 62
     7
 10
56.861699999999999
 20
58.732999999999997
 30
0.0
 11
57.310899999999997
 21
58.483600000000003
 31
0.0
  0
LINE
  5
168
  8
0
 62
     7
 10
62.362099999999991
 20
58.732999999999997
 30
0.0
 11
61.912199999999999
 21
58.483600000000003
 31
0.0
  0
LINE
  5
169
  8
0
 62
     7
 10
44.539200000000001
 20
94.868499999999997
 30
0.0
 11
44.539200000000001
 21
103.6189999999999
 31
0.0
  0
LINE
  5
16A
  8
0
 62
     7
 10
41.91429999999999
 20
94.868499999999997
 30
0.0
 11
41.91429999999999
 21
103.6189999999999
 31
0.0
  0
ARC
  5
16B
  8
0
 62
     7
 10
45.476925999999999
 20
183.24440899999999
 30
0.0
 40
1.6250619999999989
 50
0.00001
 51
89.999980000000008
  0
ARC
  5
16C
  8
0
 62
     7
 10
45.476925999999999
 20
183.24440899999999
 30
0.0
 40
1.6250619999999989
 50
90.0
 51
179.99996999999991
  0
ARC
  5
16D
  8
0
 62
     7
 10
45.476925999999999
 20
183.24440899999999
 30
0.0
 40
1.6250619999999989
 50
179.99996999999991
 51
270.00002000000001
  0
ARC
  5
16E
  8
0
 62
     7
 10
45.476925999999999
 20
183.24440999999999
 30
0.0
 40
1.6250619999999989
 50
270.00002000000001
 51
359.99998999999991
  0
LINE
  5
16F
  8
0
 62
     7
 10
47.976700000000001
 20
163.619
 30
0.0
 11
47.976700000000001
 21
171.119
 31
0.0
  0
LINE
  5
170
  8
0
 62
     7
 10
42.97679999999999
 20
163.619
 30
0.0
 11
42.97679999999999
 21
171.119
 31
0.0
  0
ARC
  5
171
  8
0
 62
     7
 10
45.476925999999999
 20
171.1194909999999
 30
0.0
 40
2.4997780000000001
 50
0.00001
 51
89.999980000000008
  0
ARC
  5
172
  8
0
 62
     7
 10
45.476754
 20
171.1193189999999
 30
0.0
 40
2.4999500000000001
 50
89.996052000000006
 51
179.99602200000001
  0
ARC
  5
173
  8
0
 62
     7
 10
47.022403999999987
 20
163.61816200000001
 30
0.0
 40
0.579472
 50
0.129457
 51
31.978764999999999
  0
ARC
  5
174
  8
0
 62
     7
 10
46.774453999999992
 20
163.4836479999999
 30
0.0
 40
0.8612049999999998
 50
30.833397000000001
 51
45.229658000000001
  0
ARC
  5
175
  8
0
 62
     7
 10
46.472014999999999
 20
163.19096499999989
 30
0.0
 40
1.2820180000000001
 50
44.845952000000011
 51
57.319092999999988
  0
ARC
  5
176
  8
0
 62
     7
 10
46.057076999999992
 20
162.5703
 30
0.0
 40
2.0285250000000001
 50
56.92041600000001
 51
70.695104000000001
  0
ARC
  5
177
  8
0
 62
     7
 10
45.616770999999993
 20
161.437524
 30
0.0
 40
3.24343
 50
69.969770999999994
 51
84.899399000000017
  0
ARC
  5
178
  8
0
 62
     7
 10
45.480249000000001
 20
160.53086499999989
 30
0.0
 40
4.1590049999999996
 50
84.136506000000026
 51
90.045768999999993
  0
ARC
  5
179
  8
0
 62
     7
 10
45.476568
 20
160.68869599999991
 30
0.0
 40
4.0011729999999996
 50
89.994866999999999
 51
105.65344
  0
ARC
  5
17A
  8
0
 62
     7
 10
45.138036
 20
162.034819
 30
0.0
 40
2.6138989999999991
 50
106.46959099999989
 51
118.172556
  0
ARC
  5
17B
  8
0
 62
     7
 10
44.643613000000002
 20
162.99111599999989
 30
0.0
 40
1.5375430000000001
 50
118.755618
 51
134.73241899999991
  0
ARC
  5
17C
  8
0
 62
     7
 10
44.165377999999997
 20
163.49891799999989
 30
0.0
 40
0.8404049999999999
 50
135.935866
 51
156.4200679999999
  0
ARC
  5
17D
  8
0
 62
     7
 10
43.933458999999992
 20
163.61520399999989
 30
0.0
 40
0.5814970000000002
 50
157.78020900000001
 51
179.57953499999999
  0
ARC
  5
17E
  8
0
 62
     7
 10
43.932844000000003
 20
163.62100899999999
 30
0.0
 40
0.5808680000000001
 50
180.15169499999999
 51
211.9343779999999
  0
ARC
  5
17F
  8
0
 62
     7
 10
44.179448999999998
 20
163.75503399999991
 30
0.0
 40
0.8612049999999998
 50
210.82323500000001
 51
225.2193069999999
  0
ARC
  5
180
  8
0
 62
     7
 10
44.481264999999993
 20
164.047087
 30
0.0
 40
1.2811330000000001
 50
224.83870899999999
 51
237.31869099999989
  0
ARC
  5
181
  8
0
 62
     7
 10
44.894602999999996
 20
164.66444799999991
 30
0.0
 40
2.0239979999999989
 50
236.9068869999999
 51
250.71102300000001
  0
ARC
  5
182
  8
0
 62
     7
 10
45.298892999999993
 20
165.69231600000001
 30
0.0
 40
3.1280000000000001
 50
249.94064900000001
 51
261.19498299999992
  0
ARC
  5
183
  8
0
 62
     7
 10
45.465590999999989
 20
166.57219499999999
 30
0.0
 40
4.0231379999999994
 50
260.767042
 51
270.16143399999987
  0
ARC
  5
184
  8
0
 62
     7
 10
45.477271000000002
 20
166.55119799999991
 30
0.0
 40
4.0021250000000004
 50
269.99506700000001
 51
285.64758699999999
  0
ARC
  5
185
  8
0
 62
     7
 10
45.81703499999999
 20
165.20164199999991
 30
0.0
 40
2.6112039999999999
 50
286.45574799999991
 51
298.17095399999999
  0
ARC
  5
186
  8
0
 62
     7
 10
46.310820999999997
 20
164.2470669999999
 30
0.0
 40
1.536664
 50
298.74384700000002
 51
314.73155400000002
  0
ARC
  5
187
  8
0
 62
     7
 10
46.787940999999996
 20
163.74025499999999
 30
0.0
 40
0.8410149999999999
 50
315.93989900000003
 51
336.41384699999998
  0
ARC
  5
188
  8
0
 62
     7
 10
47.02008099999999
 20
163.62372899999991
 30
0.0
 40
0.581809
 50
337.78348
 51
359.58071099999989
  0
ARC
  5
189
  8
0
 62
     7
 10
47.297868999999992
 20
163.61803999999989
 30
0.0
 40
0.678836
 50
0.120802
 51
30.65066599999999
  0
ARC
  5
18A
  8
0
 62
     7
 10
46.999684000000002
 20
163.46118599999991
 30
0.0
 40
1.0154700000000001
 50
29.687158
 51
48.318156000000002
  0
ARC
  5
18B
  8
0
 62
     7
 10
46.586168999999998
 20
163.03710100000001
 30
0.0
 40
1.607405999999999
 50
47.36215399999999
 51
57.76720199999999
  0
ARC
  5
18C
  8
0
 62
     7
 10
46.137312999999999
 20
162.34259900000001
 30
0.0
 40
2.4342959999999989
 50
57.549193000000002
 51
71.146318999999991
  0
ARC
  5
18D
  8
0
 62
     7
 10
45.643954000000001
 20
161.04745700000001
 30
0.0
 40
3.819685999999999
 50
70.420895000000002
 51
84.026993999999988
  0
ARC
  5
18E
  8
0
 62
     7
 10
45.48296899999999
 20
160.02851200000001
 30
0.0
 40
4.850153999999999
 50
83.388122999999979
 51
90.071380000000005
  0
ARC
  5
18F
  8
0
 62
     7
 10
45.477347999999992
 20
160.10549399999999
 30
0.0
 40
4.773166999999999
 50
90.005053000000004
 51
103.80064399999991
  0
ARC
  5
190
  8
0
 62
     7
 10
45.171928999999999
 20
161.487876
 30
0.0
 40
3.3580009999999998
 50
104.36640199999999
 51
115.0149279999999
  0
ARC
  5
191
  8
0
 62
     7
 10
44.659999999999997
 20
162.62334799999991
 30
0.0
 40
2.1126290000000001
 50
115.45513800000001
 51
129.2529669999999
  0
ARC
  5
192
  8
0
 62
     7
 10
44.106651999999997
 20
163.33267900000001
 30
0.0
 40
1.2133929999999991
 50
130.21323499999991
 51
146.98330300000001
  0
ARC
  5
193
  8
0
 62
     7
 10
43.722088999999997
 20
163.59975900000001
 30
0.0
 40
0.745545
 50
148.09058999999991
 51
178.48488699999999
  0
ARC
  5
194
  8
0
 62
     7
 10
43.656136999999987
 20
163.62089700000001
 30
0.0
 40
0.679334
 50
180.12030699999991
 51
210.64004899999989
  0
ARC
  5
195
  8
0
 62
     7
 10
43.953702
 20
163.7772929999999
 30
0.0
 40
1.015204999999999
 50
209.67542
 51
228.31486200000001
  0
ARC
  5
196
  8
0
 62
     7
 10
44.366959000000001
 20
164.20077000000001
 30
0.0
 40
1.6065199999999999
 50
227.35201099999989
 51
237.764443
  0
ARC
  5
197
  8
0
 62
     7
 10
44.816282999999991
 20
164.895962
 30
0.0
 40
2.4342440000000001
 50
237.546729
 51
251.14573799999991
  0
ARC
  5
198
  8
0
 62
     7
 10
45.309322999999992
 20
166.189661
 30
0.0
 40
3.818168
 50
250.41775999999999
 51
264.03143
  0
ARC
  5
199
  8
0
 62
     7
 10
45.470858
 20
167.2117889999999
 30
0.0
 40
4.851856999999999
 50
263.38930199999987
 51
270.07167199999998
  0
ARC
  5
19A
  8
0
 62
     7
 10
45.476505999999993
 20
167.1309029999999
 30
0.0
 40
4.7709669999999988
 50
270.00505399999997
 51
283.80440299999992
  0
ARC
  5
19B
  8
0
 62
     7
 10
45.782231000000003
 20
165.748278
 30
0.0
 40
3.355491999999999
 50
284.36807499999992
 51
295.02355699999993
  0
ARC
  5
19C
  8
0
 62
     7
 10
46.294125999999999
 20
164.61390900000001
 30
0.0
 40
2.111133999999999
 50
295.457313
 51
309.26500099999993
  0
ARC
  5
19D
  8
0
 62
     7
 10
46.845490999999988
 20
163.90697599999999
 30
0.0
 40
1.2150190000000001
 50
310.23371200000003
 51
326.98392200000001
  0
ARC
  5
19E
  8
0
 62
     7
 10
47.230603000000002
 20
163.63924900000001
 30
0.0
 40
0.746362
 50
328.10912500000001
 51
358.48151100000001
  0
LINE
  5
19F
  8
0
 62
     7
 10
39.97679999999999
 20
178.619
 30
0.0
 11
39.97679999999999
 21
104.6189999999999
 31
0.0
  0
LINE
  5
1A0
  8
0
 62
     7
 10
50.976700000000001
 20
178.619
 30
0.0
 11
50.976700000000001
 21
104.6189999999999
 31
0.0
  0
LINE
  5
1A1
  8
0
 62
     7
 10
52.226900000000001
 20
103.6189999999999
 30
0.0
 11
52.226900000000001
 21
104.6189999999999
 31
0.0
  0
LINE
  5
1A2
  8
0
 62
     7
 10
38.726900000000001
 20
104.6189999999999
 30
0.0
 11
38.726900000000001
 21
103.6189999999999
 31
0.0
  0
LINE
  5
1A3
  8
0
 62
     7
 10
38.726900000000001
 20
104.6189999999999
 30
0.0
 11
52.226900000000001
 21
104.6189999999999
 31
0.0
  0
LINE
  5
1A4
  8
0
 62
     7
 10
150.4079999999999
 20
149.619
 30
0.0
 11
161.4079999999999
 21
149.619
 31
0.0
  0
LINE
  5
1A5
  8
0
 62
     7
 10
39.97679999999999
 20
149.619
 30
0.0
 11
50.976700000000001
 21
149.619
 31
0.0
  0
LINE
  5
1A6
  8
0
 62
     7
 10
38.726900000000001
 20
103.6189999999999
 30
0.0
 11
52.226900000000001
 21
103.6189999999999
 31
0.0
  0
ARC
  5
1A7
  8
0
 62
     7
 10
45.447873999999992
 20
177.76193699999999
 30
0.0
 40
4.9703749999999989
 50
164.148481
 51
170.0585649999999
  0
ARC
  5
1A8
  8
0
 62
     7
 10
45.498984
 20
177.76041499999991
 30
0.0
 40
4.9771869999999998
 50
9.9454630000000002
 51
15.847451
  0
LINE
  5
1A9
  8
0
 62
     7
 10
50.976700000000001
 20
179.119
 30
0.0
 11
50.976700000000001
 21
186.869
 31
0.0
  0
LINE
  5
1AA
  8
0
 62
     7
 10
39.97679999999999
 20
178.619
 30
0.0
 11
50.976700000000001
 21
178.619
 31
0.0
  0
LINE
  5
1AB
  8
0
 62
     7
 10
39.97679999999999
 20
179.119
 30
0.0
 11
39.97679999999999
 21
186.869
 31
0.0
  0
LINE
  5
1AC
  8
0
 62
     7
 10
39.97679999999999
 20
179.119
 30
0.0
 11
50.976700000000001
 21
179.119
 31
0.0
  0
LINE
  5
1AD
  8
0
 62
     7
 10
39.97679999999999
 20
186.869
 30
0.0
 11
50.976700000000001
 21
186.869
 31
0.0
  0
LINE
  5
1AE
  8
0
 62
     7
 10
120.84
 20
101.407
 30
0.0
 11
120.247
 21
103.6189999999999
 31
0.0
  0
LINE
  5
1AF
  8
0
 62
     7
 10
120.247
 20
103.6189999999999
 30
0.0
 11
119.6539999999999
 21
101.407
 31
0.0
  0
LINE
  5
1B0
  8
0
 62
     7
 10
119.6539999999999
 20
101.407
 30
0.0
 11
120.84
 21
101.407
 31
0.0
  0
LINE
  5
1B1
  8
0
 62
     7
 10
119.669
 20
61.694499999999998
 30
0.0
 11
120.261
 21
59.4831
 31
0.0
  0
LINE
  5
1B2
  8
0
 62
     7
 10
120.261
 20
59.4831
 30
0.0
 11
120.8539999999999
 21
61.694499999999998
 31
0.0
  0
LINE
  5
1B3
  8
0
 62
     7
 10
120.8539999999999
 20
61.694499999999998
 30
0.0
 11
119.669
 21
61.694499999999998
 31
0.0
  0
LINE
  5
1B4
  8
0
 62
     7
 10
120.247
 20
103.6189999999999
 30
0.0
 11
120.247
 21
59.4831
 31
0.0
  0
LINE
  5
1B5
  8
0
 62
     7
 10
89.771100000000004
 20
105.83
 30
0.0
 11
90.363699999999994
 21
103.6189999999999
 31
0.0
  0
LINE
  5
1B6
  8
0
 62
     7
 10
90.363699999999994
 20
103.6189999999999
 30
0.0
 11
90.956299999999985
 21
105.83
 31
0.0
  0
LINE
  5
1B7
  8
0
 62
     7
 10
90.956299999999985
 20
105.83
 30
0.0
 11
89.771100000000004
 21
105.83
 31
0.0
  0
LINE
  5
1B8
  8
0
 62
     7
 10
90.941799999999986
 20
190.9079999999999
 30
0.0
 11
90.349199999999996
 21
193.119
 31
0.0
  0
LINE
  5
1B9
  8
0
 62
     7
 10
90.349199999999996
 20
193.119
 30
0.0
 11
89.756699999999995
 21
190.9079999999999
 31
0.0
  0
LINE
  5
1BA
  8
0
 62
     7
 10
89.756699999999995
 20
190.9079999999999
 30
0.0
 11
90.941799999999986
 21
190.9079999999999
 31
0.0
  0
LINE
  5
1BB
  8
0
 62
     7
 10
90.349199999999996
 20
103.6189999999999
 30
0.0
 11
90.349199999999996
 21
193.119
 31
0.0
  0
LINE
  5
1BC
  8
0
 62
     7
 10
47.67369999999999
 20
219.6279999999999
 30
0.0
 11
45.47679999999999
 21
218.982
 31
0.0
  0
LINE
  5
1BD
  8
0
 62
     7
 10
45.47679999999999
 20
218.982
 30
0.0
 11
47.701999999999991
 21
218.4429999999999
 31
0.0
  0
LINE
  5
1BE
  8
0
 62
     7
 10
47.701999999999991
 20
218.4429999999999
 30
0.0
 11
47.67369999999999
 21
219.6279999999999
 31
0.0
  0
LINE
  5
1BF
  8
0
 62
     7
 10
62.213999999999999
 20
224.53399999999999
 30
0.0
 11
63.482100000000003
 21
226.44
 31
0.0
  0
LINE
  5
1C0
  8
0
 62
     7
 10
63.482100000000003
 20
226.44
 30
0.0
 11
61.430900000000001
 21
225.423
 31
0.0
  0
LINE
  5
1C1
  8
0
 62
     7
 10
61.430900000000001
 20
225.423
 30
0.0
 11
62.213999999999999
 21
224.53399999999999
 31
0.0
  0
LINE
  5
1C2
  8
0
 62
     7
 10
119.6539999999999
 20
105.83
 30
0.0
 11
120.247
 21
103.6189999999999
 31
0.0
  0
LINE
  5
1C3
  8
0
 62
     7
 10
120.247
 20
103.6189999999999
 30
0.0
 11
120.84
 21
105.83
 31
0.0
  0
LINE
  5
1C4
  8
0
 62
     7
 10
120.84
 20
105.83
 30
0.0
 11
119.6539999999999
 21
105.83
 31
0.0
  0
LINE
  5
1C5
  8
0
 62
     7
 10
120.825
 20
160.15799999999999
 30
0.0
 11
120.2329999999999
 21
162.369
 31
0.0
  0
LINE
  5
1C6
  8
0
 62
     7
 10
120.2329999999999
 20
162.369
 30
0.0
 11
119.64
 21
160.15799999999999
 31
0.0
  0
LINE
  5
1C7
  8
0
 62
     7
 10
119.64
 20
160.15799999999999
 30
0.0
 11
120.825
 21
160.15799999999999
 31
0.0
  0
LINE
  5
1C8
  8
0
 62
     7
 10
120.2329999999999
 20
103.6189999999999
 30
0.0
 11
120.2329999999999
 21
162.369
 31
0.0
  0
LINE
  5
1C9
  8
0
 62
     7
 10
96.854600000000005
 20
105.83
 30
0.0
 11
97.447199999999995
 21
103.6189999999999
 31
0.0
  0
LINE
  5
1CA
  8
0
 62
     7
 10
97.447199999999995
 20
103.6189999999999
 30
0.0
 11
98.039800000000014
 21
105.83
 31
0.0
  0
LINE
  5
1CB
  8
0
 62
     7
 10
98.039800000000014
 20
105.83
 30
0.0
 11
96.854600000000005
 21
105.83
 31
0.0
  0
LINE
  5
1CC
  8
0
 62
     7
 10
98.025300000000001
 20
161.4079999999999
 30
0.0
 11
97.432699999999997
 21
163.619
 31
0.0
  0
LINE
  5
1CD
  8
0
 62
     7
 10
97.432699999999997
 20
163.619
 30
0.0
 11
96.840199999999996
 21
161.4079999999999
 31
0.0
  0
LINE
  5
1CE
  8
0
 62
     7
 10
96.840199999999996
 20
161.4079999999999
 30
0.0
 11
98.025300000000001
 21
161.4079999999999
 31
0.0
  0
LINE
  5
1CF
  8
0
 62
     7
 10
97.432699999999997
 20
103.6189999999999
 30
0.0
 11
97.432699999999997
 21
163.619
 31
0.0
  0
LINE
  5
1D0
  8
0
 62
     7
 10
130.7589999999999
 20
59.4831
 30
0.0
 11
119.547
 21
59.4831
 31
0.0
  0
LINE
  5
1D1
  8
0
 62
     7
 10
136.114
 20
193.119
 30
0.0
 11
89.649199999999993
 21
193.119
 31
0.0
  0
LINE
  5
1D2
  8
0
 62
     7
 10
148.458
 20
103.6189999999999
 30
0.0
 11
89.663700000000006
 21
103.6189999999999
 31
0.0
  0
LINE
  5
1D3
  8
0
 62
     7
 10
120.93300000000001
 20
162.369
 30
0.0
 11
110.023
 21
162.369
 31
0.0
  0
LINE
  5
1D4
  8
0
 62
     7
 10
106.108
 20
163.619
 30
0.0
 11
96.732699999999994
 21
163.619
 31
0.0
  0
LINE
  5
1D5
  8
0
 62
     7
 10
157.233
 20
45.996099999999998
 30
0.0
 11
175.74199999999999
 21
45.996099999999998
 31
0.0
  0
LINE
  5
1D6
  8
0
 62
     7
 10
175.63499999999991
 20
101.407
 30
0.0
 11
175.042
 21
103.6189999999999
 31
0.0
  0
LINE
  5
1D7
  8
0
 62
     7
 10
175.042
 20
103.6189999999999
 30
0.0
 11
174.4499999999999
 21
101.407
 31
0.0
  0
LINE
  5
1D8
  8
0
 62
     7
 10
174.4499999999999
 20
101.407
 30
0.0
 11
175.63499999999991
 21
101.407
 31
0.0
  0
LINE
  5
1D9
  8
0
 62
     7
 10
174.464
 20
48.207500000000003
 30
0.0
 11
175.05699999999999
 21
45.996099999999998
 31
0.0
  0
LINE
  5
1DA
  8
0
 62
     7
 10
175.05699999999999
 20
45.996099999999998
 30
0.0
 11
175.649
 21
48.207500000000003
 31
0.0
  0
LINE
  5
1DB
  8
0
 62
     7
 10
175.649
 20
48.207500000000003
 30
0.0
 11
174.464
 21
48.207500000000003
 31
0.0
  0
LINE
  5
1DC
  8
0
 62
     7
 10
175.042
 20
103.6189999999999
 30
0.0
 11
175.042
 21
45.996099999999998
 31
0.0
  0
LINE
  5
1DD
  8
0
 62
     7
 10
164.94699999999989
 20
162.98500000000001
 30
0.0
 11
167.1579999999999
 21
163.57699999999991
 31
0.0
  0
LINE
  5
1DE
  8
0
 62
     7
 10
167.1579999999999
 20
163.57699999999991
 30
0.0
 11
164.94699999999989
 21
164.1699999999999
 31
0.0
  0
LINE
  5
1DF
  8
0
 62
     7
 10
164.94699999999989
 20
164.1699999999999
 30
0.0
 11
164.94699999999989
 21
162.98500000000001
 31
0.0
  0
LINE
  5
1E0
  8
0
 62
     7
 10
163.62
 20
164.155
 30
0.0
 11
161.4079999999999
 21
163.5629999999999
 31
0.0
  0
LINE
  5
1E1
  8
0
 62
     7
 10
161.4079999999999
 20
163.5629999999999
 30
0.0
 11
163.62
 21
162.96999999999991
 31
0.0
  0
LINE
  5
1E2
  8
0
 62
     7
 10
163.62
 20
162.96999999999991
 30
0.0
 11
163.62
 21
164.155
 31
0.0
  0
LINE
  5
1E3
  8
0
 62
     7
 10
167.1579999999999
 20
163.5629999999999
 30
0.0
 11
161.4079999999999
 21
163.5629999999999
 31
0.0
  0
LINE
  5
1E4
  8
0
 62
     7
 10
167.1579999999999
 20
164.26300000000001
 30
0.0
 11
167.1579999999999
 21
158.69399999999999
 31
0.0
  0
LINE
  5
1E5
  8
0
 62
     7
 10
161.4079999999999
 20
193.309
 30
0.0
 11
161.4079999999999
 21
187.56899999999999
 31
0.0
  0
LINE
  5
1E6
  8
0
 62
     7
 10
150.4079999999999
 20
193.309
 30
0.0
 11
150.4079999999999
 21
187.56899999999999
 31
0.0
  0
LINE
  5
1E7
  8
0
 62
     7
 10
152.62
 20
193.20099999999999
 30
0.0
 11
150.4079999999999
 21
192.60900000000001
 31
0.0
  0
LINE
  5
1E8
  8
0
 62
     7
 10
150.4079999999999
 20
192.60900000000001
 30
0.0
 11
152.62
 21
192.01599999999991
 31
0.0
  0
LINE
  5
1E9
  8
0
 62
     7
 10
152.62
 20
192.01599999999991
 30
0.0
 11
152.62
 21
193.20099999999999
 31
0.0
  0
LINE
  5
1EA
  8
0
 62
     7
 10
159.197
 20
192.03099999999989
 30
0.0
 11
161.4079999999999
 21
192.62299999999991
 31
0.0
  0
LINE
  5
1EB
  8
0
 62
     7
 10
161.4079999999999
 20
192.62299999999991
 30
0.0
 11
159.197
 21
193.21599999999989
 31
0.0
  0
LINE
  5
1EC
  8
0
 62
     7
 10
159.197
 20
193.21599999999989
 30
0.0
 11
159.197
 21
192.03099999999989
 31
0.0
  0
LINE
  5
1ED
  8
0
 62
     7
 10
150.4079999999999
 20
192.60900000000001
 30
0.0
 11
161.4079999999999
 21
192.60900000000001
 31
0.0
  0
LINE
  5
1EE
  8
0
 62
     7
 10
175.63499999999991
 20
184.6579999999999
 30
0.0
 11
175.042
 21
186.869
 31
0.0
  0
LINE
  5
1EF
  8
0
 62
     7
 10
175.042
 20
186.869
 30
0.0
 11
174.4499999999999
 21
184.6579999999999
 31
0.0
  0
LINE
  5
1F0
  8
0
 62
     7
 10
174.4499999999999
 20
184.6579999999999
 30
0.0
 11
175.63499999999991
 21
184.6579999999999
 31
0.0
  0
LINE
  5
1F1
  8
0
 62
     7
 10
174.464
 20
105.83
 30
0.0
 11
175.05699999999999
 21
103.6189999999999
 31
0.0
  0
LINE
  5
1F2
  8
0
 62
     7
 10
175.05699999999999
 20
103.6189999999999
 30
0.0
 11
175.649
 21
105.83
 31
0.0
  0
LINE
  5
1F3
  8
0
 62
     7
 10
175.649
 20
105.83
 30
0.0
 11
174.464
 21
105.83
 31
0.0
  0
LINE
  5
1F4
  8
0
 62
     7
 10
175.042
 20
186.869
 30
0.0
 11
175.042
 21
103.6189999999999
 31
0.0
  0
LINE
  5
1F5
  8
0
 62
     7
 10
175.74199999999999
 20
186.869
 30
0.0
 11
162.108
 21
186.869
 31
0.0
  0
LINE
  5
1F6
  8
0
 62
     7
 10
175.74199999999999
 20
103.6189999999999
 30
0.0
 11
163.358
 21
103.6189999999999
 31
0.0
  0
LINE
  5
1F7
  8
0
 62
     7
 10
162.6579999999999
 20
114.515
 30
0.0
 11
162.6579999999999
 21
105.319
 31
0.0
  0
LINE
  5
1F8
  8
0
 62
     7
 10
149.1579999999999
 20
114.515
 30
0.0
 11
149.1579999999999
 21
105.319
 31
0.0
  0
LINE
  5
1F9
  8
0
 62
     7
 10
151.36899999999989
 20
114.4079999999999
 30
0.0
 11
149.1579999999999
 21
113.8149999999999
 31
0.0
  0
LINE
  5
1FA
  8
0
 62
     7
 10
149.1579999999999
 20
113.8149999999999
 30
0.0
 11
151.36899999999989
 21
113.223
 31
0.0
  0
LINE
  5
1FB
  8
0
 62
     7
 10
151.36899999999989
 20
113.223
 30
0.0
 11
151.36899999999989
 21
114.4079999999999
 31
0.0
  0
LINE
  5
1FC
  8
0
 62
     7
 10
160.447
 20
113.23699999999999
 30
0.0
 11
162.6579999999999
 21
113.83
 31
0.0
  0
LINE
  5
1FD
  8
0
 62
     7
 10
162.6579999999999
 20
113.83
 30
0.0
 11
160.447
 21
114.422
 31
0.0
  0
LINE
  5
1FE
  8
0
 62
     7
 10
160.447
 20
114.422
 30
0.0
 11
160.447
 21
113.23699999999999
 31
0.0
  0
LINE
  5
1FF
  8
0
 62
     7
 10
149.1579999999999
 20
113.8149999999999
 30
0.0
 11
162.6579999999999
 21
113.8149999999999
 31
0.0
  0
LINE
  5
200
  8
0
 62
     7
 10
144.84200000000001
 20
101.407
 30
0.0
 11
144.25
 21
103.6189999999999
 31
0.0
  0
LINE
  5
201
  8
0
 62
     7
 10
144.25
 20
103.6189999999999
 30
0.0
 11
143.65700000000001
 21
101.407
 31
0.0
  0
LINE
  5
202
  8
0
 62
     7
 10
143.65700000000001
 20
101.407
 30
0.0
 11
144.84200000000001
 21
101.407
 31
0.0
  0
LINE
  5
203
  8
0
 62
     7
 10
143.672
 20
97.080299999999994
 30
0.0
 11
144.26400000000001
 21
94.868899999999996
 31
0.0
  0
LINE
  5
204
  8
0
 62
     7
 10
144.26400000000001
 20
94.868899999999996
 30
0.0
 11
144.85699999999991
 21
97.080299999999994
 31
0.0
  0
LINE
  5
205
  8
0
 62
     7
 10
144.85699999999991
 20
97.080299999999994
 30
0.0
 11
143.672
 21
97.080299999999994
 31
0.0
  0
LINE
  5
206
  8
0
 62
     7
 10
144.25
 20
103.6189999999999
 30
0.0
 11
144.25
 21
94.868899999999996
 31
0.0
  0
LINE
  5
207
  8
0
 62
     7
 10
149.352
 20
94.868899999999996
 30
0.0
 11
143.55000000000001
 21
94.868899999999996
 31
0.0
  0
LINE
  5
208
  8
0
 62
     7
 10
153.072
 20
51.428699999999999
 30
0.0
 11
155.2829999999999
 21
52.021299999999997
 31
0.0
  0
LINE
  5
209
  8
0
 62
     7
 10
155.2829999999999
 20
52.021299999999997
 30
0.0
 11
153.072
 21
52.613799999999991
 31
0.0
  0
LINE
  5
20A
  8
0
 62
     7
 10
153.072
 20
52.613799999999991
 30
0.0
 11
153.072
 21
51.428699999999999
 31
0.0
  0
LINE
  5
20B
  8
0
 62
     7
 10
158.745
 20
52.599400000000003
 30
0.0
 11
156.5329999999999
 21
52.006799999999998
 31
0.0
  0
LINE
  5
20C
  8
0
 62
     7
 10
156.5329999999999
 20
52.006799999999998
 30
0.0
 11
158.745
 21
51.414200000000001
 31
0.0
  0
LINE
  5
20D
  8
0
 62
     7
 10
158.745
 20
51.414200000000001
 30
0.0
 11
158.745
 21
52.599400000000003
 31
0.0
  0
LINE
  5
20E
  8
0
 62
     7
 10
163.55299999999991
 20
52.006799999999998
 30
0.0
 11
150.685
 21
52.006799999999998
 31
0.0
  0
LINE
  5
20F
  8
0
 62
     7
 10
153.697
 20
153.51900000000001
 30
0.0
 11
155.9079999999999
 21
154.1109999999999
 31
0.0
  0
LINE
  5
210
  8
0
 62
     7
 10
155.9079999999999
 20
154.1109999999999
 30
0.0
 11
153.697
 21
154.70400000000001
 31
0.0
  0
LINE
  5
211
  8
0
 62
     7
 10
153.697
 20
154.70400000000001
 30
0.0
 11
153.697
 21
153.51900000000001
 31
0.0
  0
LINE
  5
212
  8
0
 62
     7
 10
100.276
 20
156.23699999999999
 30
0.0
 11
102.3959999999999
 21
155.37200000000001
 31
0.0
  0
LINE
  5
213
  8
0
 62
     7
 10
102.3959999999999
 20
155.37200000000001
 30
0.0
 11
100.994
 21
157.18100000000001
 31
0.0
  0
LINE
  5
214
  8
0
 62
     7
 10
100.994
 20
157.18100000000001
 30
0.0
 11
100.276
 21
156.23699999999999
 31
0.0
  0
LINE
  5
215
  8
0
 62
     7
 10
109.369
 20
154.68899999999991
 30
0.0
 11
107.1579999999999
 21
154.09700000000001
 31
0.0
  0
LINE
  5
216
  8
0
 62
     7
 10
107.1579999999999
 20
154.09700000000001
 30
0.0
 11
109.369
 21
153.50399999999991
 31
0.0
  0
LINE
  5
217
  8
0
 62
     7
 10
109.369
 20
153.50399999999991
 30
0.0
 11
109.369
 21
154.68899999999991
 31
0.0
  0
LINE
  5
218
  8
0
 62
     7
 10
155.9079999999999
 20
154.09700000000001
 30
0.0
 11
107.1579999999999
 21
154.09700000000001
 31
0.0
  0
LINE
  5
219
  8
0
 62
     7
 10
107.1579999999999
 20
162.9189999999999
 30
0.0
 11
107.1579999999999
 21
153.39699999999999
 31
0.0
  0
ARC
  5
21A
  8
0
 62
     7
 10
107.232232
 20
163.77625099999989
 30
0.0
 40
9.6797160000000009
 50
219.53106
 51
269.55834499999997
  0
LINE
  5
21B
  8
0
 62
     7
 10
102.015
 20
154.71199999999999
 30
0.0
 11
106.09399999999989
 21
161.77799999999991
 31
0.0
  0
LINE
  5
21C
  8
0
 62
     7
 10
155.2829999999999
 20
77.296000000000006
 30
0.0
 11
155.2829999999999
 21
75.276200000000003
 31
0.0
  0
LINE
  5
21D
  8
0
 62
     7
 10
155.2829999999999
 20
71.5261
 30
0.0
 11
155.2829999999999
 21
45.996099999999998
 31
0.0
  0
LINE
  5
21E
  8
0
 62
     7
 10
156.5329999999999
 20
77.296000000000006
 30
0.0
 11
156.5329999999999
 21
75.276200000000003
 31
0.0
  0
LINE
  5
21F
  8
0
 62
     7
 10
156.5329999999999
 20
71.5261
 30
0.0
 11
156.5329999999999
 21
45.996099999999998
 31
0.0
  0
LINE
  5
220
  8
0
 62
     7
 10
155.1579999999999
 20
75.276200000000003
 30
0.0
 11
156.6579999999999
 21
75.276200000000003
 31
0.0
  0
LINE
  5
221
  8
0
 62
     7
 10
155.1579999999999
 20
71.5261
 30
0.0
 11
156.6579999999999
 21
71.5261
 31
0.0
  0
LINE
  5
222
  8
0
 62
     7
 10
155.2829999999999
 20
45.996099999999998
 30
0.0
 11
156.5329999999999
 21
45.996099999999998
 31
0.0
  0
LINE
  5
223
  8
0
 62
     7
 10
167.1579999999999
 20
156.74399999999989
 30
0.0
 11
162.809
 21
156.74399999999989
 31
0.0
  0
LINE
  5
224
  8
0
 62
     7
 10
162.56999999999991
 20
156.566
 30
0.0
 11
161.4079999999999
 21
152.6939999999999
 31
0.0
  0
ARC
  5
225
  8
0
 62
     7
 10
162.81438600000001
 20
156.48746299999999
 30
0.0
 40
0.256809
 50
91.123264999999989
 51
162.16671099999999
  0
LINE
  5
226
  8
0
  6
AIGENLINE001
 62
     7
 10
162.809
 20
157.369
 30
0.0
 11
168.833
 21
157.369
 31
0.0
  0
LINE
  5
227
  8
0
  6
AIGENLINE001
 62
     7
 10
155.9079999999999
 20
136.541
 30
0.0
 11
161.97099999999989
 21
156.74600000000001
 31
0.0
  0
ARC
  5
228
  8
0
  6
AIGENLINE001
 62
     7
 10
162.827504
 20
156.46963099999991
 30
0.0
 40
0.8997189999999999
 50
91.156058999999999
 51
162.13779999999991
  0
LINE
  5
229
  8
0
 62
     7
 10
167.1579999999999
 20
157.994
 30
0.0
 11
162.809
 21
157.994
 31
0.0
  0
ARC
  5
22A
  8
0
 62
     7
 10
162.8364489999999
 20
156.45445599999991
 30
0.0
 40
1.5398940000000001
 50
91.008254000000008
 51
158.04582600000001
  0
LINE
  5
22B
  8
0
 62
     7
 10
167.1579999999999
 20
156.74399999999989
 30
0.0
 11
167.1579999999999
 21
157.994
 31
0.0
  0
LINE
  5
22C
  8
0
 62
     7
 10
147.1579999999999
 20
168.619
 30
0.0
 11
147.1579999999999
 21
173.62
 31
0.0
  0
LINE
  5
22D
  8
0
 62
     7
 10
150.4079999999999
 20
167.119
 30
0.0
 11
150.4079999999999
 21
104.6189999999999
 31
0.0
  0
LINE
  5
22E
  8
0
 62
     7
 10
115.8179999999999
 20
168.619
 30
0.0
 11
148.9079999999999
 21
168.619
 31
0.0
  0
ARC
  5
22F
  8
0
 62
     7
 10
148.85113799999999
 20
167.0621999999999
 30
0.0
 40
1.558219
 50
2.1024579999999999
 51
87.897531999999984
  0
LINE
  5
230
  8
0
 62
     7
 10
150.4079999999999
 20
178.619
 30
0.0
 11
150.4079999999999
 21
175.119
 31
0.0
  0
LINE
  5
231
  8
0
 62
     7
 10
115.8179999999999
 20
173.619
 30
0.0
 11
148.9079999999999
 21
173.619
 31
0.0
  0
ARC
  5
232
  8
0
 62
     7
 10
148.85112799999999
 20
175.17644799999999
 30
0.0
 40
1.5582290000000001
 50
272.10281700000002
 51
357.89719300000002
  0
LINE
  5
233
  8
0
 62
     7
 10
111.488
 20
166.119
 30
0.0
 11
109.32299999999989
 21
162.369
 31
0.0
  0
ARC
  5
234
  8
0
 62
     7
 10
115.87627000000001
 20
163.5190189999999
 30
0.0
 40
5.1006839999999993
 50
90.655088000000006
 51
149.35077899999999
  0
LINE
  5
235
  8
0
  6
AIGENLINE001
 62
     7
 10
115.8179999999999
 20
171.119
 30
0.0
 11
155.9079999999999
 21
171.119
 31
0.0
  0
LINE
  5
236
  8
0
  6
AIGENLINE001
 62
     7
 10
109.32299999999989
 20
167.369
 30
0.0
 11
106.55200000000001
 21
162.56999999999991
 31
0.0
  0
ARC
  5
237
  8
0
  6
AIGENLINE001
 62
     7
 10
115.905422
 20
163.46794800000001
 30
0.0
 40
7.652042999999999
 50
90.654945999999995
 51
149.347936
  0
LINE
  5
238
  8
0
 62
     7
 10
107.1579999999999
 20
168.619
 30
0.0
 11
104.99299999999999
 21
164.869
 31
0.0
  0
ARC
  5
239
  8
0
 62
     7
 10
115.934574
 20
163.417384
 30
0.0
 40
10.202550999999991
 50
90.654930000000007
 51
149.3469879999999
  0
LINE
  5
23A
  8
0
 62
     7
 10
104.99299999999999
 20
164.869
 30
0.0
 11
109.32299999999989
 21
162.369
 31
0.0
  0
LINE
  5
23B
  8
0
 62
     7
 10
161.4079999999999
 20
178.619
 30
0.0
 11
161.4079999999999
 21
104.6189999999999
 31
0.0
  0
LINE
  5
23C
  8
0
 62
     7
 10
162.6579999999999
 20
103.6189999999999
 30
0.0
 11
162.6579999999999
 21
104.6189999999999
 31
0.0
  0
LINE
  5
23D
  8
0
 62
     7
 10
149.1579999999999
 20
104.6189999999999
 30
0.0
 11
149.1579999999999
 21
103.6189999999999
 31
0.0
  0
LINE
  5
23E
  8
0
 62
     7
 10
149.1579999999999
 20
104.6189999999999
 30
0.0
 11
162.6579999999999
 21
104.6189999999999
 31
0.0
  0
LINE
  5
23F
  8
0
 62
     7
 10
149.1579999999999
 20
103.6189999999999
 30
0.0
 11
162.6579999999999
 21
103.6189999999999
 31
0.0
  0
LINE
  5
240
  8
0
  6
AIGENLINE002
 62
     7
 10
162.04900000000001
 20
178.947
 30
0.0
 11
156.10699999999991
 21
179.07799999999989
 31
0.0
  0
LINE
  5
241
  8
0
  6
AIGENLINE002
 62
     7
 10
162.04900000000001
 20
178.947
 30
0.0
 11
164.24299999999999
 21
183.9909999999999
 31
0.0
  0
LINE
  5
242
  8
0
  6
AIGENLINE002
 62
     7
 10
151.06399999999991
 20
181.2709999999999
 30
0.0
 11
151.76199999999989
 21
182.87599999999989
 31
0.0
  0
LINE
  5
243
  8
0
  6
AIGENLINE002
 62
     7
 10
136.93000000000001
 20
190.14500000000001
 30
0.0
 11
151.37299999999991
 21
183.863
 31
0.0
  0
ARC
  5
244
  8
0
  6
AIGENLINE002
 62
     7
 10
151.035326
 20
183.160078
 30
0.0
 40
0.780083
 50
338.65384999999992
 51
64.326978999999994
  0
LINE
  5
245
  8
0
  6
AIGENLINE002
 62
     7
 10
153.65700000000001
 20
187.232
 30
0.0
 11
154.15499999999989
 21
188.3779999999999
 31
0.0
  0
LINE
  5
246
  8
0
  6
AIGENLINE002
 62
     7
 10
138.227
 20
193.12599999999989
 30
0.0
 11
152.6699999999999
 21
186.84299999999999
 31
0.0
  0
ARC
  5
247
  8
0
  6
AIGENLINE002
 62
     7
 10
152.95318299999991
 20
187.57059399999989
 30
0.0
 40
0.780708
 50
248.7073529999999
 51
334.30811999999997
  0
LINE
  5
248
  8
0
  6
AIGENLINE002
 62
     7
 10
136.93000000000001
 20
190.14500000000001
 30
0.0
 11
138.227
 21
193.12599999999989
 31
0.0
  0
LINE
  5
249
  8
0
  6
AIGENLINE002
 62
     7
 10
151.06399999999991
 20
181.2709999999999
 30
0.0
 11
156.10699999999991
 21
179.07799999999989
 31
0.0
  0
LINE
  5
24A
  8
0
  6
AIGENLINE002
 62
     7
 10
154.15499999999989
 20
188.3779999999999
 30
0.0
 11
164.24299999999999
 21
183.9909999999999
 31
0.0
  0
ARC
  5
24B
  8
0
 62
     7
 10
155.94035700000001
 20
177.75131699999989
 30
0.0
 40
5.0322639999999987
 50
164.22284500000001
 51
170.05930499999991
  0
ARC
  5
24C
  8
0
 62
     7
 10
155.88802899999999
 20
177.74703
 30
0.0
 40
5.021329999999999
 50
10.012202
 51
36.810415999999989
  0
LINE
  5
24D
  8
0
 62
     7
 10
161.4079999999999
 20
181.369
 30
0.0
 11
155.9079999999999
 21
179.119
 31
0.0
  0
LINE
  5
24E
  8
0
 62
     7
 10
161.4079999999999
 20
181.369
 30
0.0
 11
161.4079999999999
 21
186.869
 31
0.0
  0
LINE
  5
24F
  8
0
 62
     7
 10
150.4079999999999
 20
178.619
 30
0.0
 11
161.4079999999999
 21
178.619
 31
0.0
  0
LINE
  5
250
  8
0
 62
     7
 10
150.4079999999999
 20
179.119
 30
0.0
 11
150.4079999999999
 21
180.869
 31
0.0
  0
LINE
  5
251
  8
0
 62
     7
 10
133.9079999999999
 20
181.619
 30
0.0
 11
149.6579999999999
 21
181.619
 31
0.0
  0
ARC
  5
252
  8
0
 62
     7
 10
149.62932499999991
 20
180.84036499999991
 30
0.0
 40
0.779521
 50
2.130561999999999
 51
87.869427999999999
  0
LINE
  5
253
  8
0
 62
     7
 10
150.4079999999999
 20
185.619
 30
0.0
 11
150.4079999999999
 21
186.869
 31
0.0
  0
LINE
  5
254
  8
0
 62
     7
 10
133.9079999999999
 20
184.869
 30
0.0
 11
149.6579999999999
 21
184.869
 31
0.0
  0
ARC
  5
255
  8
0
 62
     7
 10
149.62932499999991
 20
185.6484529999999
 30
0.0
 40
0.779521
 50
272.13057199999997
 51
357.86943799999989
  0
LINE
  5
256
  8
0
 62
     7
 10
148.9079999999999
 20
181.619
 30
0.0
 11
148.9079999999999
 21
184.869
 31
0.0
  0
LINE
  5
257
  8
0
 62
     7
 10
133.9079999999999
 20
181.619
 30
0.0
 11
133.9079999999999
 21
184.869
 31
0.0
  0
LINE
  5
258
  8
0
  6
AIGENLINE001
 62
     7
 10
155.9079999999999
 20
43.87769999999999
 30
0.0
 11
155.9079999999999
 21
113.02
 31
0.0
  0
LINE
  5
259
  8
0
  6
AIGENLINE001
 62
     7
 10
155.9079999999999
 20
118.904
 30
0.0
 11
155.9079999999999
 21
189.40199999999999
 31
0.0
  0
LINE
  5
25A
  8
0
 62
     7
 10
150.4079999999999
 20
179.119
 30
0.0
 11
155.9079999999999
 21
179.119
 31
0.0
  0
LINE
  5
25B
  8
0
 62
     7
 10
150.4079999999999
 20
186.869
 30
0.0
 11
161.4079999999999
 21
186.869
 31
0.0
  0
LINE
  5
25C
  8
0
  6
AIGENLINE001
 62
     7
 10
45.476900000000001
 20
44.667000000000002
 30
0.0
 11
45.476900000000001
 21
189.40199999999999
 31
0.0
  0
LINE
  5
25D
  8
0
 62
     7
 10
163.02099999999999
 20
251.559
 30
0.0
 11
168.80799999999999
 21
251.559
 31
0.0
  0
LINE
  5
25E
  8
0
 62
     7
 10
151.6699999999999
 20
239.36999999999989
 30
0.0
 11
152.81399999999999
 21
241.352
 31
0.0
  0
LINE
  5
25F
  8
0
 62
     7
 10
152.81399999999999
 20
241.352
 30
0.0
 11
150.83099999999999
 21
240.208
 31
0.0
  0
LINE
  5
260
  8
0
 62
     7
 10
150.83099999999999
 20
240.208
 30
0.0
 11
151.6699999999999
 21
239.36999999999989
 31
0.0
  0
LINE
  5
261
  8
0
 62
     7
 10
160.14699999999999
 20
249.52199999999999
 30
0.0
 11
159.00200000000001
 21
247.53999999999999
 31
0.0
  0
LINE
  5
262
  8
0
 62
     7
 10
159.00200000000001
 20
247.53999999999999
 30
0.0
 11
160.98500000000001
 21
248.684
 31
0.0
  0
LINE
  5
263
  8
0
 62
     7
 10
160.98500000000001
 20
248.684
 30
0.0
 11
160.14699999999999
 21
249.52199999999999
 31
0.0
  0
LINE
  5
264
  8
0
 62
     7
 10
163.02099999999999
 20
251.559
 30
0.0
 11
148.83500000000001
 21
237.37299999999999
 31
0.0
  0
LINE
  5
265
  8
0
  6
AIGENLINE001
 62
     7
 10
155.9079999999999
 20
250.767
 30
0.0
 11
155.9079999999999
 21
237.6149999999999
 31
0.0
  0
ARC
  5
266
  8
0
 62
     7
 10
155.90826399999989
 20
244.44588300000001
 30
0.0
 40
4.3751269999999991
 50
0.002266
 51
90.002235999999996
  0
ARC
  5
267
  8
0
 62
     7
 10
155.908266
 20
244.44622799999991
 30
0.0
 40
4.374782999999999
 50
90.002256000000017
 51
180.00226599999991
  0
ARC
  5
268
  8
0
 62
     7
 10
155.90826399999989
 20
244.44588300000001
 30
0.0
 40
4.3747809999999987
 50
179.997714
 51
269.99776400000002
  0
ARC
  5
269
  8
0
 62
     7
 10
155.90826399999989
 20
244.44622899999999
 30
0.0
 40
4.3751269999999991
 50
269.99776400000002
 51
359.99773399999992
  0
LINE
  5
26A
  8
0
  6
AIGENLINE001
 62
     7
 10
148.97
 20
244.44599999999991
 30
0.0
 11
162.685
 21
244.44599999999991
 31
0.0
  0
LINE
  5
26B
  8
0
 62
     7
 10
45.476900000000001
 20
89.119000000000014
 30
0.0
 11
45.476900000000001
 21
86.369100000000003
 31
0.0
  0
LINE
  5
26C
  8
0
 62
     7
 10
43.976899999999993
 20
92.619200000000006
 30
0.0
 11
43.976899999999993
 21
86.369100000000003
 31
0.0
  0
LINE
  5
26D
  8
0
 62
     7
 10
46.976900000000001
 20
92.619200000000006
 30
0.0
 11
46.976900000000001
 21
86.369100000000003
 31
0.0
  0
LINE
  5
26E
  8
0
 62
     7
 10
43.976899999999993
 20
86.369100000000003
 30
0.0
 11
46.976900000000001
 21
86.369100000000003
 31
0.0
  0
LINE
  5
26F
  8
0
 62
     7
 10
43.976899999999993
 20
89.119000000000014
 30
0.0
 11
46.976900000000001
 21
89.119000000000014
 31
0.0
  0
LINE
  5
270
  8
0
 62
     7
 10
46.976900000000001
 20
92.619200000000006
 30
0.0
 11
47.976700000000001
 21
92.994099999999989
 31
0.0
  0
LINE
  5
271
  8
0
 62
     7
 10
42.97679999999999
 20
92.994099999999989
 30
0.0
 11
43.976899999999993
 21
92.619200000000006
 31
0.0
  0
LINE
  5
272
  8
0
 62
     7
 10
43.976899999999993
 20
92.619200000000006
 30
0.0
 11
46.976900000000001
 21
92.619200000000006
 31
0.0
  0
LINE
  5
273
  8
0
 62
     7
 10
38.976700000000001
 20
94.868899999999996
 30
0.0
 11
38.976700000000001
 21
92.994099999999989
 31
0.0
  0
LINE
  5
274
  8
0
 62
     7
 10
51.976799999999997
 20
94.868899999999996
 30
0.0
 11
51.976799999999997
 21
92.994099999999989
 31
0.0
  0
LINE
  5
275
  8
0
 62
     7
 10
38.976700000000001
 20
92.994099999999989
 30
0.0
 11
51.976799999999997
 21
92.994099999999989
 31
0.0
  0
LINE
  5
276
  8
0
 62
     7
 10
38.976700000000001
 20
94.369299999999996
 30
0.0
 11
51.976799999999997
 21
94.369299999999996
 31
0.0
  0
LINE
  5
277
  8
0
 62
     7
 10
38.976700000000001
 20
94.868899999999996
 30
0.0
 11
51.976799999999997
 21
94.868899999999996
 31
0.0
  0
LINE
  5
278
  8
0
  6
AIGENLINE001
 62
     7
 10
134.20400000000001
 20
97.513400000000004
 30
0.0
 11
134.20400000000001
 21
57.271299999999989
 31
0.0
  0
LINE
  5
279
  8
0
 62
     7
 10
138.47799999999989
 20
51.057299999999998
 30
0.0
 11
136.26599999999991
 21
50.46479999999999
 31
0.0
  0
LINE
  5
27A
  8
0
 62
     7
 10
136.26599999999991
 20
50.46479999999999
 30
0.0
 11
138.47799999999989
 21
49.872900000000001
 31
0.0
  0
LINE
  5
27B
  8
0
 62
     7
 10
138.47799999999989
 20
49.872900000000001
 30
0.0
 11
138.47799999999989
 21
51.057299999999998
 31
0.0
  0
LINE
  5
27C
  8
0
 62
     7
 10
129.93100000000001
 20
49.88669999999999
 30
0.0
 11
132.14099999999991
 21
50.479199999999999
 31
0.0
  0
LINE
  5
27D
  8
0
 62
     7
 10
132.14099999999991
 20
50.479199999999999
 30
0.0
 11
129.93100000000001
 21
51.071800000000003
 31
0.0
  0
LINE
  5
27E
  8
0
 62
     7
 10
129.93100000000001
 20
51.071800000000003
 30
0.0
 11
129.93100000000001
 21
49.88669999999999
 31
0.0
  0
LINE
  5
27F
  8
0
 62
     7
 10
121.631
 20
50.47229999999999
 30
0.0
 11
139.982
 21
50.47229999999999
 31
0.0
  0
LINE
  5
280
  8
0
 62
     7
 10
134.20400000000001
 20
58.732999999999997
 30
0.0
 11
134.20400000000001
 21
61.358199999999989
 31
0.0
  0
LINE
  5
281
  8
0
 62
     7
 10
131.828
 20
58.732999999999997
 30
0.0
 11
131.828
 21
61.358199999999989
 31
0.0
  0
ARC
  5
282
  8
0
 62
     7
 10
137.452111
 20
81.181880000000007
 30
0.0
 40
23.142506999999998
 50
255.936249
 51
256.95002199999999
  0
ARC
  5
283
  8
0
 62
     7
 10
133.32303300000001
 20
63.486738000000003
 30
0.0
 40
4.9720930000000001
 50
257.25949700000001
 51
263.09643
  0
ARC
  5
284
  8
0
 62
     7
 10
133.03943499999991
 20
61.362729999999999
 30
0.0
 40
2.8295180000000002
 50
263.62774799999988
 51
269.79011099999991
  0
ARC
  5
285
  8
0
 62
     7
 10
133.027748
 20
61.054206000000008
 30
0.0
 40
2.5209749999999991
 50
270.03002299999991
 51
277.20703900000001
  0
ARC
  5
286
  8
0
 62
     7
 10
132.81587300000001
 20
62.849142999999998
 30
0.0
 40
4.3283379999999987
 50
277.008714
 51
283.59966600000001
  0
ARC
  5
287
  8
0
 62
     7
 10
130.03375199999999
 20
74.920687999999998
 30
0.0
 40
16.716142999999992
 50
283.13919599999991
 51
284.445897
  0
ARC
  5
288
  8
0
 62
     7
 10
132.58496099999999
 20
56.624101000000003
 30
0.0
 40
5.0032759999999996
 50
71.121235999999996
 51
78.868915000000001
  0
ARC
  5
289
  8
0
 62
     7
 10
132.998041
 20
58.570306999999993
 30
0.0
 40
3.014079999999999
 50
79.431341000000003
 51
89.410163999999995
  0
ARC
  5
28A
  8
0
 62
     7
 10
133.029414
 20
58.701363000000001
 30
0.0
 40
2.8828640000000001
 50
90.006844999999998
 51
100.852923
  0
ARC
  5
28B
  8
0
 62
     7
 10
133.274134
 20
57.232410999999999
 30
0.0
 40
4.3717699999999988
 50
100.3779049999999
 51
109.3104749999999
  0
ARC
  5
28C
  8
0
 62
     7
 10
139.781609
 20
80.99845400000001
 30
0.0
 40
22.953423999999998
 50
255.9361529999999
 51
256.95859000000002
  0
ARC
  5
28D
  8
0
 62
     7
 10
135.700525
 20
63.497130000000013
 30
0.0
 40
4.9826600000000001
 50
257.2639299999999
 51
263.08700699999991
  0
ARC
  5
28E
  8
0
 62
     7
 10
135.414378
 20
61.354242999999997
 30
0.0
 40
2.8210309999999992
 50
263.617998
 51
269.78492499999987
  0
ARC
  5
28F
  8
0
 62
     7
 10
135.40247400000001
 20
61.056668000000002
 30
0.0
 40
2.523436999999999
 50
270.02984600000002
 51
277.20351699999992
  0
ARC
  5
290
  8
0
 62
     7
 10
135.19049499999991
 20
62.852041999999997
 30
0.0
 40
4.3312460000000002
 50
277.00742700000001
 51
283.59563300000002
  0
ARC
  5
291
  8
0
 62
     7
 10
132.3450499999999
 20
75.198781000000011
 30
0.0
 40
17.001439000000001
 50
283.13524999999993
 51
284.42132700000002
  0
LINE
  5
292
  8
0
 62
     7
 10
136.57900000000001
 20
58.732999999999997
 30
0.0
 11
136.57900000000001
 21
61.358199999999989
 31
0.0
  0
ARC
  5
293
  8
0
 62
     7
 10
134.9545949999999
 20
56.601302000000011
 30
0.0
 40
5.0267169999999988
 50
71.143041000000011
 51
78.857030000000009
  0
ARC
  5
294
  8
0
 62
     7
 10
135.3729909999999
 20
58.567647999999998
 30
0.0
 40
3.016735999999999
 50
79.436267999999998
 51
89.415066000000024
  0
ARC
  5
295
  8
0
 62
     7
 10
135.40413499999991
 20
58.707011000000001
 30
0.0
 40
2.877216999999999
 50
90.006888999999987
 51
100.863602
  0
ARC
  5
296
  8
0
 62
     7
 10
135.65142900000001
 20
57.225976000000003
 30
0.0
 40
4.3784669999999988
 50
100.388957
 51
109.305924
  0
LINE
  5
297
  8
0
 62
     7
 10
136.57900000000001
 20
58.533200000000001
 30
0.0
 11
136.57900000000001
 21
58.732999999999997
 31
0.0
  0
LINE
  5
298
  8
0
 62
     7
 10
136.57900000000001
 20
61.358199999999989
 30
0.0
 11
136.57900000000001
 21
61.584200000000003
 31
0.0
  0
LINE
  5
299
  8
0
 62
     7
 10
131.828
 20
58.533200000000001
 30
0.0
 11
131.828
 21
58.732999999999997
 31
0.0
  0
LINE
  5
29A
  8
0
 62
     7
 10
131.828
 20
61.358199999999989
 30
0.0
 11
131.828
 21
61.584200000000003
 31
0.0
  0
LINE
  5
29B
  8
0
 62
     7
 10
135.45400000000001
 20
61.758600000000001
 30
0.0
 11
134.20400000000001
 21
61.758600000000001
 31
0.0
  0
LINE
  5
29C
  8
0
 62
     7
 10
134.20400000000001
 20
61.758600000000001
 30
0.0
 11
132.95400000000001
 21
61.758600000000001
 31
0.0
  0
LINE
  5
29D
  8
0
 62
     7
 10
136.57900000000001
 20
58.533200000000001
 30
0.0
 11
136.50399999999999
 21
58.483600000000003
 31
0.0
  0
LINE
  5
29E
  8
0
 62
     7
 10
136.50399999999999
 20
58.483600000000003
 30
0.0
 11
131.90399999999991
 21
58.483600000000003
 31
0.0
  0
LINE
  5
29F
  8
0
 62
     7
 10
131.90399999999991
 20
58.483600000000003
 30
0.0
 11
131.828
 21
58.533200000000001
 31
0.0
  0
ARC
  5
2A0
  8
0
 62
     7
 10
136.560766
 20
61.550484999999988
 30
0.0
 40
0.038479
 50
61.269488000000003
 51
90.14337900000001
  0
ARC
  5
2A1
  8
0
 62
     7
 10
136.39917700000001
 20
60.231445999999998
 30
0.0
 40
1.3670910000000001
 50
83.215862000000001
 51
88.382508000000001
  0
ARC
  5
2A2
  8
0
 62
     7
 10
135.8912719999999
 20
48.013694999999991
 30
0.0
 40
13.595285000000001
 50
87.696236999999996
 51
89.304100000000005
  0
ARC
  5
2A3
  8
0
 62
     7
 10
134.97815399999999
 20
-13.672853999999999
 30
0.0
 40
75.288551999999996
 50
89.179406999999998
 51
89.888685999999993
  0
ARC
  5
2A4
  8
0
 62
     7
 10
134.27986499999989
 20
-316.48961200000002
 30
0.0
 40
378.106111
 50
89.872012999999995
 51
90.360083999999986
  0
LINE
  5
2A5
  8
0
 62
     7
 10
131.90399999999991
 20
61.608999999999988
 30
0.0
 11
131.828
 21
61.584200000000003
 31
0.0
  0
LINE
  5
2A6
  8
0
 62
     7
 10
135.75399999999991
 20
61.608999999999988
 30
0.0
 11
135.75399999999991
 21
61.733699999999999
 31
0.0
  0
LINE
  5
2A7
  8
0
 62
     7
 10
135.75399999999991
 20
61.733699999999999
 30
0.0
 11
132.654
 21
61.733699999999999
 31
0.0
  0
LINE
  5
2A8
  8
0
 62
     7
 10
132.654
 20
61.608999999999988
 30
0.0
 11
132.654
 21
61.733699999999999
 31
0.0
  0
LINE
  5
2A9
  8
0
 62
     7
 10
132.95400000000001
 20
61.758600000000001
 30
0.0
 11
132.57900000000001
 21
62.059699999999999
 31
0.0
  0
LINE
  5
2AA
  8
0
 62
     7
 10
132.57900000000001
 20
62.059699999999999
 30
0.0
 11
132.55399999999989
 21
62.55919999999999
 31
0.0
  0
LINE
  5
2AB
  8
0
 62
     7
 10
135.8549999999999
 20
62.55919999999999
 30
0.0
 11
135.82899999999989
 21
62.059699999999999
 31
0.0
  0
LINE
  5
2AC
  8
0
 62
     7
 10
135.82899999999989
 20
62.059699999999999
 30
0.0
 11
135.45400000000001
 21
61.758600000000001
 31
0.0
  0
LINE
  5
2AD
  8
0
 62
     7
 10
135.654
 20
62.98429999999999
 30
0.0
 11
132.75399999999991
 21
62.98429999999999
 31
0.0
  0
LINE
  5
2AE
  8
0
 62
     7
 10
132.75399999999991
 20
62.98429999999999
 30
0.0
 11
132.55399999999989
 21
62.55919999999999
 31
0.0
  0
LINE
  5
2AF
  8
0
 62
     7
 10
135.8549999999999
 20
62.55919999999999
 30
0.0
 11
135.654
 21
62.98429999999999
 31
0.0
  0
LINE
  5
2B0
  8
0
 62
     7
 10
135.654
 20
64.9846
 30
0.0
 11
132.75399999999991
 21
64.9846
 31
0.0
  0
LINE
  5
2B1
  8
0
 62
     7
 10
132.14099999999991
 20
50.082999999999998
 30
0.0
 11
132.14099999999991
 21
58.043300000000002
 31
0.0
  0
LINE
  5
2B2
  8
0
 62
     7
 10
136.26599999999991
 20
50.082999999999998
 30
0.0
 11
136.26599999999991
 21
58.043300000000002
 31
0.0
  0
LINE
  5
2B3
  8
0
 62
     7
 10
132.75399999999991
 20
62.98429999999999
 30
0.0
 11
132.75399999999991
 21
64.9846
 31
0.0
  0
LINE
  5
2B4
  8
0
 62
     7
 10
135.654
 20
62.98429999999999
 30
0.0
 11
135.654
 21
64.9846
 31
0.0
  0
LINE
  5
2B5
  8
0
 62
     7
 10
132.75399999999991
 20
64.9846
 30
0.0
 11
132.57900000000001
 21
65.284999999999997
 31
0.0
  0
LINE
  5
2B6
  8
0
 62
     7
 10
135.82899999999989
 20
65.284999999999997
 30
0.0
 11
135.654
 21
64.9846
 31
0.0
  0
LINE
  5
2B7
  8
0
 62
     7
 10
132.57900000000001
 20
65.284999999999997
 30
0.0
 11
132.52799999999999
 21
65.409700000000001
 31
0.0
  0
LINE
  5
2B8
  8
0
 62
     7
 10
132.52799999999999
 20
65.409700000000001
 30
0.0
 11
132.52799999999999
 21
65.534400000000005
 31
0.0
  0
ARC
  5
2B9
  8
0
 62
     7
 10
135.28625
 20
65.593226999999999
 30
0.0
 40
0.620564
 50
339.65870099999989
 51
354.56034
  0
ARC
  5
2BA
  8
0
 62
     7
 10
135.2089939999999
 20
65.602138999999994
 30
0.0
 40
0.6963460000000001
 50
332.90463599999993
 51
341.18094600000001
  0
LINE
  5
2BB
  8
0
 62
     7
 10
135.904
 20
65.534400000000005
 30
0.0
 11
135.904
 21
66.235100000000003
 31
0.0
  0
LINE
  5
2BC
  8
0
 62
     7
 10
135.904
 20
66.235100000000003
 30
0.0
 11
132.52799999999999
 21
66.235100000000003
 31
0.0
  0
LINE
  5
2BD
  8
0
 62
     7
 10
132.52799999999999
 20
65.534400000000005
 30
0.0
 11
132.52799999999999
 21
66.235100000000003
 31
0.0
  0
ARC
  5
2BE
  8
0
 62
     7
 10
80.397650999999996
 20
73.530532999999991
 30
0.0
 40
0.519555
 50
272.12995100000001
 51
357.87005899999991
  0
ARC
  5
2BF
  8
0
 62
     7
 10
78.436370999999994
 20
73.530881999999991
 30
0.0
 40
0.519904
 50
182.167022
 51
267.87248099999988
  0
ARC
  5
2C0
  8
0
 62
     7
 10
80.397645999999995
 20
74.892004
 30
0.0
 40
0.5195610000000001
 50
2.130487
 51
87.869502999999995
  0
ARC
  5
2C1
  8
0
 62
     7
 10
78.436047000000002
 20
74.891984999999991
 30
0.0
 40
0.519567
 50
92.093094999999977
 51
177.86740199999991
  0
LINE
  5
2C2
  8
0
 62
     7
 10
81.185599999999994
 20
50.387900000000002
 30
0.0
 11
79.416799999999995
 21
49.914200000000001
 31
0.0
  0
LINE
  5
2C3
  8
0
 62
     7
 10
79.416799999999995
 20
49.914200000000001
 30
0.0
 11
81.185599999999994
 21
49.4405
 31
0.0
  0
LINE
  5
2C4
  8
0
 62
     7
 10
81.185599999999994
 20
49.4405
 30
0.0
 11
81.185599999999994
 21
50.387900000000002
 31
0.0
  0
LINE
  5
2C5
  8
0
 62
     7
 10
113.649
 20
49.452199999999991
 30
0.0
 11
115.417
 21
49.925600000000003
 31
0.0
  0
LINE
  5
2C6
  8
0
 62
     7
 10
115.417
 20
49.925600000000003
 30
0.0
 11
113.649
 21
50.399700000000003
 31
0.0
  0
LINE
  5
2C7
  8
0
 62
     7
 10
113.649
 20
50.399700000000003
 30
0.0
 11
113.649
 21
49.452199999999991
 31
0.0
  0
LINE
  5
2C8
  8
0
 62
     7
 10
79.438199999999995
 20
49.920099999999998
 30
0.0
 11
115.396
 21
49.920099999999998
 31
0.0
  0
LINE
  5
2C9
  8
0
 62
     7
 10
115.417
 20
64.374799999999993
 30
0.0
 11
115.417
 21
49.225200000000001
 31
0.0
  0
LINE
  5
2CA
  8
0
 62
     7
 10
83.178200000000004
 20
55.537999999999997
 30
0.0
 11
92.227500000000006
 21
55.537999999999997
 31
0.0
  0
LINE
  5
2CB
  8
0
 62
     7
 10
77.424899999999994
 20
56.005899999999997
 30
0.0
 11
75.656800000000004
 21
55.532499999999999
 31
0.0
  0
LINE
  5
2CC
  8
0
 62
     7
 10
75.656800000000004
 20
55.532499999999999
 30
0.0
 11
77.424899999999994
 21
55.058500000000002
 31
0.0
  0
LINE
  5
2CD
  8
0
 62
     7
 10
77.424899999999994
 20
55.058500000000002
 30
0.0
 11
77.424899999999994
 21
56.005899999999997
 31
0.0
  0
LINE
  5
2CE
  8
0
 62
     7
 10
81.409499999999994
 20
55.0702
 30
0.0
 11
83.178200000000004
 21
55.543900000000001
 31
0.0
  0
LINE
  5
2CF
  8
0
 62
     7
 10
83.178200000000004
 20
55.543900000000001
 30
0.0
 11
81.409499999999994
 21
56.018000000000001
 31
0.0
  0
LINE
  5
2D0
  8
0
 62
     7
 10
81.409499999999994
 20
56.018000000000001
 30
0.0
 11
81.409499999999994
 21
55.0702
 31
0.0
  0
LINE
  5
2D1
  8
0
 62
     7
 10
75.678200000000004
 20
55.537999999999997
 30
0.0
 11
83.156199999999998
 21
55.537999999999997
 31
0.0
  0
LINE
  5
2D2
  8
0
 62
     7
 10
75.656800000000004
 20
61.300699999999992
 30
0.0
 11
75.656800000000004
 21
55.017099999999999
 31
0.0
  0
LINE
  5
2D3
  8
0
 62
     7
 10
83.178200000000004
 20
61.300699999999992
 30
0.0
 11
83.178200000000004
 21
55.073999999999998
 31
0.0
  0
LINE
  5
2D4
  8
0
 62
     7
 10
69.829099999999997
 20
77.924099999999996
 30
0.0
 11
69.355000000000004
 21
79.692499999999995
 31
0.0
  0
LINE
  5
2D5
  8
0
 62
     7
 10
69.355000000000004
 20
79.692499999999995
 30
0.0
 11
68.881
 21
77.924099999999996
 31
0.0
  0
LINE
  5
2D6
  8
0
 62
     7
 10
68.881
 20
77.924099999999996
 30
0.0
 11
69.829099999999997
 21
77.924099999999996
 31
0.0
  0
LINE
  5
2D7
  8
0
 62
     7
 10
68.892700000000005
 20
73.450900000000004
 30
0.0
 11
69.366699999999994
 21
71.682599999999994
 31
0.0
  0
LINE
  5
2D8
  8
0
 62
     7
 10
69.366699999999994
 20
71.682599999999994
 30
0.0
 11
69.840800000000002
 21
73.450900000000004
 31
0.0
  0
LINE
  5
2D9
  8
0
 62
     7
 10
69.840800000000002
 20
73.450900000000004
 30
0.0
 11
68.892700000000005
 21
73.450900000000004
 31
0.0
  0
LINE
  5
2DA
  8
0
 62
     7
 10
69.360500000000002
 20
79.692499999999995
 30
0.0
 11
69.360500000000002
 21
71.682599999999994
 31
0.0
  0
LINE
  5
2DB
  8
0
 62
     7
 10
69.829099999999997
 20
69.913799999999995
 30
0.0
 11
69.355000000000004
 21
71.682599999999994
 31
0.0
  0
LINE
  5
2DC
  8
0
 62
     7
 10
69.355000000000004
 20
71.682599999999994
 30
0.0
 11
68.881
 21
69.913799999999995
 31
0.0
  0
LINE
  5
2DD
  8
0
 62
     7
 10
68.881
 20
69.913799999999995
 30
0.0
 11
69.829099999999997
 21
69.913799999999995
 31
0.0
  0
LINE
  5
2DE
  8
0
 62
     7
 10
68.892700000000005
 20
63.384
 30
0.0
 11
69.366699999999994
 21
61.615900000000003
 31
0.0
  0
LINE
  5
2DF
  8
0
 62
     7
 10
69.366699999999994
 20
61.615900000000003
 30
0.0
 11
69.840800000000002
 21
63.384
 31
0.0
  0
LINE
  5
2E0
  8
0
 62
     7
 10
69.840800000000002
 20
63.384
 30
0.0
 11
68.892700000000005
 21
63.384
 31
0.0
  0
LINE
  5
2E1
  8
0
 62
     7
 10
69.360500000000002
 20
71.703900000000004
 30
0.0
 11
69.360500000000002
 21
61.615900000000003
 31
0.0
  0
LINE
  5
2E2
  8
0
 62
     7
 10
75.053299999999993
 20
61.615900000000003
 30
0.0
 11
69.018100000000004
 21
61.615900000000003
 31
0.0
  0
LINE
  5
2E3
  8
0
 62
     7
 10
72.906300000000002
 20
71.682599999999994
 30
0.0
 11
69.018100000000004
 21
71.682599999999994
 31
0.0
  0
LINE
  5
2E4
  8
0
 62
     7
 10
72.829099999999997
 20
79.692499999999995
 30
0.0
 11
69.015299999999996
 21
79.692499999999995
 31
0.0
  0
LINE
  5
2E5
  8
0
 62
     7
 10
85.706900000000005
 20
79.445800000000006
 30
0.0
 11
85.706900000000005
 21
79.345200000000006
 31
0.0
  0
ARC
  5
2E6
  8
0
 62
     7
 10
88.042229000000006
 20
66.468343999999988
 30
0.0
 40
5.1192349999999989
 50
197.7938509999999
 51
205.456209
  0
ARC
  5
2E7
  8
0
 62
     7
 10
85.167998999999995
 20
65.124053000000004
 30
0.0
 40
1.9463680000000001
 50
206.09278499999999
 51
211.00056599999999
  0
ARC
  5
2E8
  8
0
 62
     7
 10
84.102510999999993
 20
64.473496999999995
 30
0.0
 40
0.698061
 50
210.27364900000001
 51
225.39328699999999
  0
ARC
  5
2E9
  8
0
 62
     7
 10
85.509647999999999
 20
65.536050000000003
 30
0.0
 40
2.302220999999999
 50
149.52437900000001
 51
157.20595499999999
  0
ARC
  5
2EA
  8
0
 62
     7
 10
87.146456000000001
 20
64.815044
 30
0.0
 40
4.0906459999999987
 50
156.7778129999999
 51
168.87007099999991
  0
LINE
  5
2EB
  8
0
 62
     7
 10
89.114199999999997
 20
67.253500000000003
 30
0.0
 11
88.649799999999999
 21
67.253500000000003
 31
0.0
  0
LINE
  5
2EC
  8
0
 62
     7
 10
87.564499999999995
 20
63.290599999999998
 30
0.0
 11
86.856200000000001
 21
63.290599999999998
 31
0.0
  0
LINE
  5
2ED
  8
0
 62
     7
 10
89.121700000000004
 20
63.290599999999998
 30
0.0
 11
88.702799999999996
 21
63.290599999999998
 31
0.0
  0
ARC
  5
2EE
  8
0
 62
     7
 10
88.114850000000004
 20
63.221806999999998
 30
0.0
 40
0.856685
 50
71.079227000000003
 51
90.030982999999992
  0
ARC
  5
2EF
  8
0
 62
     7
 10
88.197744
 20
63.521409999999989
 30
0.0
 40
0.546712
 50
15.048963000000001
 51
69.115506000000011
  0
ARC
  5
2F0
  8
0
 62
     7
 10
87.861060999999992
 20
63.416699000000001
 30
0.0
 40
0.8991399999999998
 50
358.79156799999998
 51
15.922105
  0
ARC
  5
2F1
  8
0
 62
     7
 10
88.68310799999999
 20
63.398166000000003
 30
0.0
 40
0.076894
 50
340.23881299999988
 51
359.68055299999992
  0
ARC
  5
2F2
  8
0
 62
     7
 10
88.592054999999988
 20
63.4283
 30
0.0
 40
0.172791
 50
326.44246900000002
 51
341.04307299999999
  0
ARC
  5
2F3
  8
0
 62
     7
 10
88.426556999999988
 20
63.535406999999992
 30
0.0
 40
0.369918
 50
315.87787099999991
 51
326.78745299999991
  0
ARC
  5
2F4
  8
0
 62
     7
 10
88.181440000000009
 20
63.772247999999998
 30
0.0
 40
0.7107640000000001
 50
299.99903499999999
 51
315.92864899999989
  0
ARC
  5
2F5
  8
0
 62
     7
 10
88.072244999999995
 20
63.931603000000003
 30
0.0
 40
0.903489
 50
271.49285400000002
 51
300.94344699999999
  0
ARC
  5
2F6
  8
0
 62
     7
 10
88.097341
 20
63.664481000000002
 30
0.0
 40
0.6360630000000001
 50
238.0169599999999
 51
269.859666
  0
ARC
  5
2F7
  8
0
 62
     7
 10
88.157281000000012
 20
63.791217000000003
 30
0.0
 40
0.7754800000000001
 50
216.71406300000001
 51
239.2203439999999
  0
ARC
  5
2F8
  8
0
 62
     7
 10
87.823553000000004
 20
63.538125999999998
 30
0.0
 40
0.356667
 50
203.97207299999991
 51
216.171798
  0
ARC
  5
2F9
  8
0
 62
     7
 10
87.596236000000005
 20
63.439754000000001
 30
0.0
 40
0.109018
 50
183.07270700000001
 51
205.27071000000001
  0
ARC
  5
2FA
  8
0
 62
     7
 10
88.605288000000002
 20
63.434964999999998
 30
0.0
 40
1.117912999999999
 50
169.31603299999989
 51
180.05405699999989
  0
ARC
  5
2FB
  8
0
 62
     7
 10
88.105704000000003
 20
63.522841000000007
 30
0.0
 40
0.610731
 50
143.50345200000001
 51
168.72816599999999
  0
ARC
  5
2FC
  8
0
 62
     7
 10
87.986232999999999
 20
63.585643999999988
 30
0.0
 40
0.4777790000000001
 50
101.71068199999991
 51
141.035741
  0
ARC
  5
2FD
  8
0
 62
     7
 10
88.098485999999994
 20
63.196036999999997
 30
0.0
 40
0.8825979999999999
 50
88.967709999999997
 51
103.712953
  0
ARC
  5
2FE
  8
0
 62
     7
 10
88.059697999999983
 20
65.614436999999995
 30
0.0
 40
1.7637890000000001
 50
76.622818999999993
 51
90.014088999999984
  0
ARC
  5
2FF
  8
0
 62
     7
 10
88.298290000000009
 20
66.660706000000005
 30
0.0
 40
0.690778
 50
59.890551000000002
 51
75.797769999999986
  0
ARC
  5
300
  8
0
 62
     7
 10
88.544381000000016
 20
67.094898000000001
 30
0.0
 40
0.191783
 50
29.411314999999998
 51
58.418089999999999
  0
ARC
  5
301
  8
0
 62
     7
 10
88.633643000000006
 20
67.153129000000007
 30
0.0
 40
0.085707
 50
0.317384
 51
24.799139
  0
ARC
  5
302
  8
0
 62
     7
 10
87.480959999999996
 20
67.153176999999985
 30
0.0
 40
1.2383889999999991
 50
344.521458
 51
0.019753
  0
ARC
  5
303
  8
0
 62
     7
 10
87.984875999999986
 20
67.028948
 30
0.0
 40
0.719747
 50
319.05866800000001
 51
343.34634499999999
  0
ARC
  5
304
  8
0
 62
     7
 10
88.127522999999997
 20
66.929702000000006
 30
0.0
 40
0.5472730000000001
 50
268.62459499999989
 51
317.12087300000002
  0
ARC
  5
305
  8
0
 62
     7
 10
88.120695999999995
 20
67.002561
 30
0.0
 40
0.6200070000000001
 50
212.58928399999991
 51
269.41688399999992
  0
ARC
  5
306
  8
0
 62
     7
 10
88.268319000000005
 20
67.105046999999999
 30
0.0
 40
0.799616
 50
190.5786479999999
 51
213.079275
  0
ARC
  5
307
  8
0
 62
     7
 10
88.533971999999991
 20
67.170070999999993
 30
0.0
 40
1.072797999999999
 50
179.6650689999999
 51
191.38775000000001
  0
ARC
  5
308
  8
0
 62
     7
 10
87.518636000000001
 20
67.176290000000009
 30
0.0
 40
0.057444
 50
159.6352169999999
 51
179.948408
  0
ARC
  5
309
  8
0
 62
     7
 10
87.553238000000007
 20
67.162902000000003
 30
0.0
 40
0.094543
 50
138.68355500000001
 51
159.326448
  0
ARC
  5
30A
  8
0
 62
     7
 10
87.629331999999991
 20
67.096952000000002
 30
0.0
 40
0.195239
 50
124.2858139999999
 51
138.89040800000001
  0
ARC
  5
30B
  8
0
 62
     7
 10
87.743942000000004
 20
66.932620999999997
 30
0.0
 40
0.395583
 50
114.19512399999989
 51
124.59347099999999
  0
ARC
  5
30C
  8
0
 62
     7
 10
87.915134999999978
 20
66.550027999999998
 30
0.0
 40
0.8147300000000001
 50
99.289972999999975
 51
114.149432
  0
ARC
  5
30D
  8
0
 62
     7
 10
88.049142000000003
 20
65.908728999999994
 30
0.0
 40
1.469530999999999
 50
89.605311999999998
 51
100.409947
  0
ARC
  5
30E
  8
0
 62
     7
 10
88.112992999999989
 20
65.681888000000001
 30
0.0
 40
0.4791790000000001
 50
54.511673999999999
 51
89.833435999999992
  0
ARC
  5
30F
  8
0
 62
     7
 10
88.000568000000001
 20
65.505798999999996
 30
0.0
 40
0.6879070000000001
 50
30.722599999999989
 51
55.401756000000013
  0
ARC
  5
310
  8
0
 62
     7
 10
87.697815999999989
 20
65.303834999999992
 30
0.0
 40
1.0515190000000001
 50
4.3951299999999991
 51
31.755082999999999
  0
ARC
  5
311
  8
0
 62
     7
 10
87.465415000000007
 20
65.258447000000004
 30
0.0
 40
1.287007
 50
359.98454800000002
 51
5.6170159999999996
  0
ARC
  5
312
  8
0
 62
     7
 10
87.541850999999994
 20
65.259348000000003
 30
0.0
 40
1.2105719999999991
 50
331.61258500000002
 51
359.94094899999999
  0
ARC
  5
313
  8
0
 62
     7
 10
87.931281999999996
 20
65.074027999999998
 30
0.0
 40
0.780175
 50
307.38971800000002
 51
329.988471
  0
ARC
  5
314
  8
0
 62
     7
 10
88.101450999999983
 20
64.870933999999991
 30
0.0
 40
0.515617
 50
271.43757499999992
 51
306.06975999999997
  0
ARC
  5
315
  8
0
 62
     7
 10
88.115793000000011
 20
64.834461000000005
 30
0.0
 40
0.4789830000000001
 50
234.517503
 51
269.83175099999988
  0
ARC
  5
316
  8
0
 62
     7
 10
88.228980000000007
 20
65.012315000000001
 30
0.0
 40
0.6895970000000001
 50
210.80902
 51
235.437174
  0
ARC
  5
317
  8
0
 62
     7
 10
88.528503999999984
 20
65.212924999999998
 30
0.0
 40
1.0497700000000001
 50
184.43253000000001
 51
211.840114
  0
ARC
  5
318
  8
0
 62
     7
 10
88.754498999999996
 20
65.257689999999997
 30
0.0
 40
1.278837
 50
179.981582
 51
185.6496909999999
  0
ARC
  5
319
  8
0
 62
     7
 10
88.683115999999998
 20
65.256856999999997
 30
0.0
 40
1.207455999999999
 50
151.52532500000001
 51
179.94099800000001
  0
ARC
  5
31A
  8
0
 62
     7
 10
88.299153000000004
 20
65.440321999999995
 30
0.0
 40
0.782774
 50
127.383118
 51
149.93007299999991
  0
ARC
  5
31B
  8
0
 62
     7
 10
88.127763000000016
 20
65.645110000000003
 30
0.0
 40
0.516129
 50
91.485153999999994
 51
126.0675379999999
  0
LINE
  5
31C
  8
0
 62
     7
 10
96.253100000000003
 20
62.966799999999999
 30
0.0
 11
95.779799999999994
 21
64.735100000000003
 31
0.0
  0
LINE
  5
31D
  8
0
 62
     7
 10
95.779799999999994
 20
64.735100000000003
 30
0.0
 11
95.305700000000002
 21
62.966799999999999
 31
0.0
  0
LINE
  5
31E
  8
0
 62
     7
 10
95.305700000000002
 20
62.966799999999999
 30
0.0
 11
96.253100000000003
 21
62.966799999999999
 31
0.0
  0
LINE
  5
31F
  8
0
 62
     7
 10
95.317400000000006
 20
67.502200000000002
 30
0.0
 11
95.791499999999999
 21
65.734200000000001
 31
0.0
  0
LINE
  5
320
  8
0
 62
     7
 10
95.791499999999999
 20
65.734200000000001
 30
0.0
 11
96.264799999999994
 21
67.502200000000002
 31
0.0
  0
LINE
  5
321
  8
0
 62
     7
 10
96.264799999999994
 20
67.502200000000002
 30
0.0
 11
95.317400000000006
 21
67.502200000000002
 31
0.0
  0
LINE
  5
322
  8
0
 62
     7
 10
95.785300000000007
 20
71.6571
 30
0.0
 11
95.785300000000007
 21
61.700699999999991
 31
0.0
  0
LINE
  5
323
  8
0
 62
     7
 10
113.48999999999999
 20
64.875699999999995
 30
0.0
 11
112.95699999999999
 21
64.875699999999995
 31
0.0
  0
LINE
  5
324
  8
0
 62
     7
 10
113.48999999999999
 20
65.581299999999999
 30
0.0
 11
112.95699999999999
 21
65.581299999999999
 31
0.0
  0
LINE
  5
325
  8
0
 62
     7
 10
113.57899999999989
 20
64.764799999999994
 30
0.0
 11
113.583
 21
64.764799999999994
 31
0.0
  0
LINE
  5
326
  8
0
 62
     7
 10
112.95699999999999
 20
64.755099999999985
 30
0.0
 11
113.48999999999999
 21
64.755099999999985
 31
0.0
  0
LINE
  5
327
  8
0
 62
     7
 10
112.95699999999999
 20
65.700500000000005
 30
0.0
 11
113.48999999999999
 21
65.700500000000005
 31
0.0
  0
ARC
  5
328
  8
0
 62
     7
 10
113.7450409999999
 20
64.591360999999992
 30
0.0
 40
0.253579
 50
157.15717599999991
 51
179.74174999999991
  0
ARC
  5
329
  8
0
 62
     7
 10
113.6807889999999
 20
64.608491999999998
 30
0.0
 40
0.187939
 50
106.63170599999999
 51
154.3649659999999
  0
ARC
  5
32A
  8
0
 62
     7
 10
113.757761
 20
64.40898
 30
0.0
 40
0.401481
 50
88.080568000000014
 51
109.008132
  0
ARC
  5
32B
  8
0
 62
     7
 10
113.7774399999999
 20
64.403677999999999
 30
0.0
 40
0.406605
 50
73.499137000000005
 51
90.878256000000022
  0
ARC
  5
32C
  8
0
 62
     7
 10
113.822407
 20
64.575113999999999
 30
0.0
 40
0.229525
 50
25.086769
 51
72.1066
  0
ARC
  5
32D
  8
0
 62
     7
 10
113.72953699999999
 20
65.849316000000002
 30
0.0
 40
0.239085
 50
182.98161500000001
 51
206.05611399999989
  0
ARC
  5
32E
  8
0
 62
     7
 10
113.6789679999999
 20
65.834734999999995
 30
0.0
 40
0.187473
 50
208.84238199999999
 51
256.26913500000001
  0
ARC
  5
32F
  8
0
 62
     7
 10
113.7584929999999
 20
66.067162999999994
 30
0.0
 40
0.432698
 50
253.343772
 51
271.68390499999992
  0
ARC
  5
330
  8
0
 62
     7
 10
113.77163899999999
 20
66.071271999999993
 30
0.0
 40
0.43662
 50
269.94350600000001
 51
286.72206799999998
  0
ARC
  5
331
  8
0
 62
     7
 10
113.8287169999999
 20
65.864749000000003
 30
0.0
 40
0.222459
 50
287.94761199999988
 51
335.39102700000001
  0
ARC
  5
332
  8
0
 62
     7
 10
113.7888589999999
 20
65.337544999999992
 30
0.0
 40
0.297631
 50
93.399935000000013
 51
177.7179659999999
  0
ARC
  5
333
  8
0
 62
     7
 10
113.77123899999989
 20
65.374025000000003
 30
0.0
 40
0.260627
 50
26.767737
 51
90.006745999999993
  0
ARC
  5
334
  8
0
 62
     7
 10
113.70251999999989
 20
65.321196999999984
 30
0.0
 40
0.346154
 50
8.6347919999999991
 51
29.45307
  0
ARC
  5
335
  8
0
 62
     7
 10
113.786647
 20
65.106763000000001
 30
0.0
 40
0.29693
 50
184.84000999999989
 51
267.01964500000003
  0
ARC
  5
336
  8
0
 62
     7
 10
113.77122299999991
 20
65.242062000000004
 30
0.0
 40
0.431827
 50
269.99801599999989
 51
286.71117900000002
  0
ARC
  5
337
  8
0
 62
     7
 10
113.8256209999999
 20
65.040947000000003
 30
0.0
 40
0.223637
 50
288.17918900000001
 51
348.47666499999991
  0
LINE
  5
338
  8
0
 62
     7
 10
113.84699999999999
 20
64.551199999999994
 30
0.0
 11
113.48999999999999
 21
64.551199999999994
 31
0.0
  0
LINE
  5
339
  8
0
 62
     7
 10
114.0449999999999
 20
65.700500000000005
 30
0.0
 11
114.0449999999999
 21
64.748900000000006
 31
0.0
  0
ARC
  5
33A
  8
0
 62
     7
 10
113.839833
 20
64.756067000000002
 30
0.0
 40
0.2050429999999999
 50
272.09971300000001
 51
358.000202
  0
LINE
  5
33B
  8
0
 62
     7
 10
113.84699999999999
 20
65.897499999999994
 30
0.0
 11
113.48999999999999
 21
65.897499999999994
 31
0.0
  0
ARC
  5
33C
  8
0
 62
     7
 10
113.8398049999999
 20
65.692554999999999
 30
0.0
 40
0.2050969999999999
 50
2.206941
 51
87.893129000000016
  0
LINE
  5
33D
  8
0
 62
     7
 10
113.48999999999999
 20
65.897499999999994
 30
0.0
 11
113.48999999999999
 21
64.551199999999994
 31
0.0
  0
LINE
  5
33E
  8
0
 62
     7
 10
112.87
 20
64.782700000000006
 30
0.0
 11
112.871
 21
64.782700000000006
 31
0.0
  0
LINE
  5
33F
  8
0
 62
     7
 10
112.95699999999999
 20
65.912999999999997
 30
0.0
 11
112.756
 21
66.086299999999994
 31
0.0
  0
LINE
  5
340
  8
0
 62
     7
 10
112.95699999999999
 20
64.566299999999998
 30
0.0
 11
112.756
 21
64.394800000000004
 31
0.0
  0
LINE
  5
341
  8
0
 62
     7
 10
110.22199999999999
 20
64.394800000000004
 30
0.0
 11
110.02
 21
64.566299999999998
 31
0.0
  0
LINE
  5
342
  8
0
 62
     7
 10
110.22199999999999
 20
66.084900000000005
 30
0.0
 11
110.02
 21
65.912700000000001
 31
0.0
  0
LINE
  5
343
  8
0
 62
     7
 10
110.02
 20
65.912700000000001
 30
0.0
 11
110.02
 21
64.566299999999998
 31
0.0
  0
ARC
  5
344
  8
0
 62
     7
 10
110.625094
 20
64.747368999999992
 30
0.0
 40
0.352616
 50
239.63459199999991
 51
269.89340399999992
  0
ARC
  5
345
  8
0
 62
     7
 10
110.69940799999991
 20
64.889550999999997
 30
0.0
 40
0.5129190000000001
 50
222.37375099999991
 51
240.50099900000001
  0
ARC
  5
346
  8
0
 62
     7
 10
110.92102199999999
 20
65.10073100000001
 30
0.0
 40
0.818993
 50
200.653401
 51
222.839123
  0
ARC
  5
347
  8
0
 62
     7
 10
111.228281
 20
65.243479000000008
 30
0.0
 40
1.1571290000000001
 50
179.95834699999989
 51
201.901252
  0
ARC
  5
348
  8
0
 62
     7
 10
111.2551089999999
 20
65.24312900000001
 30
0.0
 40
1.183956999999999
 50
151.664929
 51
179.94233500000001
  0
ARC
  5
349
  8
0
 62
     7
 10
110.84478899999991
 20
65.454440000000005
 30
0.0
 40
0.7225580000000001
 50
128.05987899999991
 51
150.970618
  0
ARC
  5
34A
  8
0
 62
     7
 10
110.633432
 20
65.700046999999998
 30
0.0
 40
0.399159
 50
105.370673
 51
125.90599899999989
  0
ARC
  5
34B
  8
0
 62
     7
 10
112.392084
 20
65.719689000000002
 30
0.0
 40
0.36975
 50
50.165275000000001
 51
81.041458000000006
  0
ARC
  5
34C
  8
0
 62
     7
 10
112.2514
 20
65.525407000000001
 30
0.0
 40
0.6092770000000001
 50
34.482365999999992
 51
51.70975
  0
ARC
  5
34D
  8
0
 62
     7
 10
111.9547
 20
65.310368999999994
 30
0.0
 40
0.975636
 50
14.163016999999989
 51
35.027301999999999
  0
ARC
  5
34E
  8
0
 62
     7
 10
111.737645
 20
65.232442000000006
 30
0.0
 40
1.2053700000000001
 50
0.269828
 51
15.230138999999999
  0
ARC
  5
34F
  8
0
 62
     7
 10
111.7708029999999
 20
65.239056000000005
 30
0.0
 40
1.1721989999999991
 50
331.624143
 51
359.95420000000001
  0
ARC
  5
350
  8
0
 62
     7
 10
112.162617
 20
65.036644999999993
 30
0.0
 40
0.7313109999999999
 50
308.37078799999989
 51
330.98790099999991
  0
ARC
  5
351
  8
0
 62
     7
 10
112.378173
 20
64.786697000000004
 30
0.0
 40
0.401781
 50
282.7057299999999
 51
306.396365
  0
LINE
  5
352
  8
0
 62
     7
 10
110.2109999999999
 20
65.325599999999994
 30
0.0
 11
111.407
 21
65.325599999999994
 31
0.0
  0
LINE
  5
353
  8
0
 62
     7
 10
110.2109999999999
 20
65.153400000000005
 30
0.0
 11
111.407
 21
65.153400000000005
 31
0.0
  0
ARC
  5
354
  8
0
 62
     7
 10
110.91898500000001
 20
65.225325999999995
 30
0.0
 40
0.7142770000000001
 50
112.691394
 51
178.97377900000001
  0
ARC
  5
355
  8
0
 62
     7
 10
110.8103449999999
 20
65.407362000000006
 30
0.0
 40
0.5053130000000001
 50
90.180612999999994
 51
109.28695
  0
ARC
  5
356
  8
0
 62
     7
 10
110.807106
 20
65.394429000000002
 30
0.0
 40
0.518246
 50
54.269506000000007
 51
89.818010000000001
  0
ARC
  5
357
  8
0
 62
     7
 10
110.694562
 20
65.22784
 30
0.0
 40
0.719225
 50
0.818867
 51
54.741467000000007
  0
ARC
  5
358
  8
0
 62
     7
 10
110.703935
 20
65.251023000000004
 30
0.0
 40
0.709897
 50
292.38365599999997
 51
358.95840499999991
  0
ARC
  5
359
  8
0
 62
     7
 10
110.80711699999991
 20
65.074170999999993
 30
0.0
 40
0.507853
 50
270.18441999999999
 51
289.21613400000001
  0
ARC
  5
35A
  8
0
 62
     7
 10
110.81040299999999
 20
65.084355000000002
 30
0.0
 40
0.518037
 50
234.30796799999999
 51
269.81742200000002
  0
ARC
  5
35B
  8
0
 62
     7
 10
110.921526
 20
65.249217000000002
 30
0.0
 40
0.716789
 50
180.88720000000001
 51
234.78239300000001
  0
LINE
  5
35C
  8
0
 62
     7
 10
110.2179999999999
 20
64.394800000000004
 30
0.0
 11
112.759
 21
64.394800000000004
 31
0.0
  0
LINE
  5
35D
  8
0
 62
     7
 10
110.22199999999999
 20
66.084900000000005
 30
0.0
 11
112.75700000000001
 21
66.084900000000005
 31
0.0
  0
LINE
  5
35E
  8
0
 62
     7
 10
112.95699999999999
 20
65.912999999999997
 30
0.0
 11
112.95699999999999
 21
64.566299999999998
 31
0.0
  0
LINE
  5
35F
  8
0
 62
     7
 10
73.128100000000003
 20
80.071399999999997
 30
0.0
 11
73.128100000000003
 21
84.183499999999995
 31
0.0
  0
LINE
  5
360
  8
0
 62
     7
 10
73.374799999999993
 20
79.692499999999995
 30
0.0
 11
85.459599999999995
 21
79.692499999999995
 31
0.0
  0
ARC
  5
361
  8
0
 62
     7
 10
85.450065000000009
 20
79.435552000000001
 30
0.0
 40
0.257077
 50
2.280692999999999
 51
87.879118000000005
  0
ARC
  5
362
  8
0
 62
     7
 10
73.383631000000008
 20
79.436233000000001
 30
0.0
 40
0.255684
 50
91.980152000000004
 51
177.85955000000001
  0
LINE
  5
363
  8
0
 62
     7
 10
73.128100000000003
 20
79.345200000000006
 30
0.0
 11
73.128100000000003
 21
79.445800000000006
 31
0.0
  0
LINE
  5
364
  8
0
 62
     7
 10
83.338800000000006
 20
73.011300000000006
 30
0.0
 11
83.411799999999985
 21
73.011300000000006
 31
0.0
  0
LINE
  5
365
  8
0
 62
     7
 10
83.017700000000005
 20
73.333799999999997
 30
0.0
 11
83.017700000000005
 21
75.090100000000007
 31
0.0
  0
ARC
  5
366
  8
0
 62
     7
 10
83.351202999999984
 20
73.344808999999984
 30
0.0
 40
0.333705
 50
181.89070599999991
 51
267.86394599999988
  0
LINE
  5
367
  8
0
 62
     7
 10
75.826300000000003
 20
73.333799999999997
 30
0.0
 11
75.826300000000003
 21
75.090100000000007
 31
0.0
  0
LINE
  5
368
  8
0
 62
     7
 10
75.422600000000003
 20
73.011300000000006
 30
0.0
 11
75.505300000000005
 21
73.011300000000006
 31
0.0
  0
ARC
  5
369
  8
0
 62
     7
 10
75.491507999999996
 20
73.346114999999998
 30
0.0
 40
0.33506
 50
272.35174199999989
 51
357.89364599999988
  0
LINE
  5
36A
  8
0
 62
     7
 10
83.338800000000006
 20
75.411199999999994
 30
0.0
 11
83.411799999999985
 21
75.411199999999994
 31
0.0
  0
ARC
  5
36B
  8
0
 62
     7
 10
83.351105000000004
 20
75.077780000000004
 30
0.0
 40
0.333654
 50
92.119619999999983
 51
177.88035099999991
  0
LINE
  5
36C
  8
0
 62
     7
 10
75.422600000000003
 20
75.411199999999994
 30
0.0
 11
75.505300000000005
 21
75.411199999999994
 31
0.0
  0
ARC
  5
36D
  8
0
 62
     7
 10
75.492915999999994
 20
75.077780000000004
 30
0.0
 40
0.333654
 50
2.1196470000000001
 51
87.880343000000011
  0
LINE
  5
36E
  8
0
 62
     7
 10
75.422600000000003
 20
75.411199999999994
 30
0.0
 11
75.422600000000003
 21
77.481399999999994
 31
0.0
  0
LINE
  5
36F
  8
0
 62
     7
 10
75.422600000000003
 20
72.611400000000003
 30
0.0
 11
75.422600000000003
 21
73.011300000000006
 31
0.0
  0
LINE
  5
370
  8
0
 62
     7
 10
75.422600000000003
 20
77.481399999999994
 30
0.0
 11
75.273700000000005
 21
77.637100000000004
 31
0.0
  0
LINE
  5
371
  8
0
 62
     7
 10
83.524100000000004
 20
77.637100000000004
 30
0.0
 11
83.411799999999985
 21
77.481399999999994
 31
0.0
  0
LINE
  5
372
  8
0
 62
     7
 10
83.411799999999985
 20
73.011300000000006
 30
0.0
 11
83.411799999999985
 21
72.611400000000003
 31
0.0
  0
LINE
  5
373
  8
0
 62
     7
 10
83.411799999999985
 20
77.481399999999994
 30
0.0
 11
83.411799999999985
 21
75.411199999999994
 31
0.0
  0
LINE
  5
374
  8
0
 62
     7
 10
73.128100000000003
 20
79.345200000000006
 30
0.0
 11
85.727599999999995
 21
79.345200000000006
 31
0.0
  0
LINE
  5
375
  8
0
 62
     7
 10
89.360799999999998
 20
63.537599999999998
 30
0.0
 11
89.360799999999998
 21
67.008600000000001
 31
0.0
  0
ARC
  5
376
  8
0
 62
     7
 10
89.111841999999996
 20
63.547146999999988
 30
0.0
 40
0.256744
 50
272.209045
 51
357.87093099999993
  0
ARC
  5
377
  8
0
 62
     7
 10
89.104732999999996
 20
66.997343999999998
 30
0.0
 40
0.256342
 50
2.508769
 51
87.892731999999995
  0
LINE
  5
378
  8
0
 62
     7
 10
83.584699999999998
 20
63.421199999999999
 30
0.0
 11
75.249600000000001
 21
63.421199999999999
 31
0.0
  0
LINE
  5
379
  8
0
 62
     7
 10
85.441699999999983
 20
71.692499999999995
 30
0.0
 11
73.392700000000005
 21
71.692499999999995
 31
0.0
  0
LINE
  5
37A
  8
0
 62
     7
 10
86.001199999999997
 20
66.875900000000001
 30
0.0
 11
86.001199999999997
 21
63.593400000000003
 31
0.0
  0
LINE
  5
37B
  8
0
 62
     7
 10
85.706900000000005
 20
79.875399999999999
 30
0.0
 11
85.706900000000005
 21
84.183499999999995
 31
0.0
  0
LINE
  5
37C
  8
0
 62
     7
 10
83.938900000000004
 20
83.370500000000007
 30
0.0
 11
85.706900000000005
 21
83.844200000000001
 31
0.0
  0
LINE
  5
37D
  8
0
 62
     7
 10
85.706900000000005
 20
83.844200000000001
 30
0.0
 11
83.938900000000004
 21
84.318200000000004
 31
0.0
  0
LINE
  5
37E
  8
0
 62
     7
 10
83.938900000000004
 20
84.318200000000004
 30
0.0
 11
83.938900000000004
 21
83.370500000000007
 31
0.0
  0
LINE
  5
37F
  8
0
 62
     7
 10
74.896199999999993
 20
84.306799999999996
 30
0.0
 11
73.128100000000003
 21
83.832800000000006
 31
0.0
  0
LINE
  5
380
  8
0
 62
     7
 10
73.128100000000003
 20
83.832800000000006
 30
0.0
 11
74.896199999999993
 21
83.358699999999985
 31
0.0
  0
LINE
  5
381
  8
0
 62
     7
 10
74.896199999999993
 20
83.358699999999985
 30
0.0
 11
74.896199999999993
 21
84.306799999999996
 31
0.0
  0
LINE
  5
382
  8
0
 62
     7
 10
85.685599999999994
 20
83.838699999999989
 30
0.0
 11
73.208100000000002
 21
83.838699999999989
 31
0.0
  0
LINE
  5
383
  8
0
 62
     7
 10
79.416799999999995
 20
59.17329999999999
 30
0.0
 11
79.416799999999995
 21
49.106999999999999
 31
0.0
  0
LINE
  5
384
  8
0
 62
     7
 10
114.047
 20
64.720699999999994
 30
0.0
 11
115.20399999999989
 21
64.720699999999994
 31
0.0
  0
LINE
  5
385
  8
0
 62
     7
 10
89.361500000000007
 20
64.735100000000003
 30
0.0
 11
111.172
 21
64.735100000000003
 31
0.0
  0
LINE
  5
386
  8
0
  6
AIGENLINE001
 62
     7
 10
81.914599999999993
 20
65.234700000000004
 30
0.0
 11
117.10599999999999
 21
65.234700000000004
 31
0.0
  0
LINE
  5
387
  8
0
 62
     7
 10
114.047
 20
65.720100000000002
 30
0.0
 11
115.20399999999989
 21
65.720100000000002
 31
0.0
  0
LINE
  5
388
  8
0
 62
     7
 10
89.361500000000007
 20
65.734200000000001
 30
0.0
 11
111.172
 21
65.734200000000001
 31
0.0
  0
ARC
  5
389
  8
0
 62
     7
 10
83.888646999999992
 20
63.239282999999993
 30
0.0
 40
0.35417
 50
90.787019999999984
 51
149.10000999999991
  0
LINE
  5
38A
  8
0
 62
     7
 10
86.770099999999999
 20
63.377400000000002
 30
0.0
 11
86.770099999999999
 21
67.0916
 31
0.0
  0
ARC
  5
38B
  8
0
 62
     7
 10
83.943023999999994
 20
67.234231999999992
 30
0.0
 40
0.358543
 50
182.20471900000001
 51
267.90978799999999
  0
LINE
  5
38C
  8
0
 62
     7
 10
86.770099999999999
 20
63.377400000000002
 30
0.0
 11
86.856200000000001
 21
63.290599999999998
 31
0.0
  0
LINE
  5
38D
  8
0
 62
     7
 10
86.856200000000001
 20
67.176299999999983
 30
0.0
 11
86.770099999999999
 21
67.0916
 31
0.0
  0
LINE
  5
38E
  8
0
 62
     7
 10
83.929900000000004
 20
66.875900000000001
 30
0.0
 11
86.770099999999999
 21
66.875900000000001
 31
0.0
  0
LINE
  5
38F
  8
0
 62
     7
 10
86.770099999999999
 20
63.593400000000003
 30
0.0
 11
83.883799999999994
 21
63.593400000000003
 31
0.0
  0
LINE
  5
390
  8
0
 62
     7
 10
86.349100000000007
 20
66.673699999999997
 30
0.0
 11
86.770099999999999
 21
66.673699999999997
 31
0.0
  0
LINE
  5
391
  8
0
 62
     7
 10
86.770099999999999
 20
63.793199999999992
 30
0.0
 11
86.349100000000007
 21
63.793199999999992
 31
0.0
  0
LINE
  5
392
  8
0
 62
     7
 10
115.20399999999989
 20
65.720100000000002
 30
0.0
 11
115.20399999999989
 21
64.720699999999994
 31
0.0
  0
ARC
  5
393
  8
0
 62
     7
 10
84.787311000000003
 20
77.634956999999986
 30
0.0
 40
1.263201
 50
152.342443
 51
179.90299899999999
  0
ARC
  5
394
  8
0
 62
     7
 10
85.237398999999996
 20
77.425833999999995
 30
0.0
 40
1.759093
 50
131.91711599999999
 51
153.11427900000001
  0
ARC
  5
395
  8
0
 62
     7
 10
85.703900000000004
 20
76.959622999999993
 30
0.0
 40
2.4179169999999992
 50
98.762539000000004
 51
132.7624889999999
  0
ARC
  5
396
  8
0
 62
     7
 10
73.181032000000002
 20
77.216605000000001
 30
0.0
 40
2.1510910000000001
 50
60.907572999999992
 51
82.505166000000003
  0
ARC
  5
397
  8
0
 62
     7
 10
73.100863000000004
 20
76.992411000000004
 30
0.0
 40
2.386298
 50
41.047313000000003
 51
61.842871999999993
  0
ARC
  5
398
  8
0
 62
     7
 10
73.59308
 20
77.449052000000009
 30
0.0
 40
1.715347
 50
19.775463999999999
 51
40.340727999999999
  0
ARC
  5
399
  8
0
 62
     7
 10
74.002980000000008
 20
77.623551000000006
 30
0.0
 40
1.2708369999999991
 50
0.610684
 51
18.624625000000002
  0
LINE
  5
39A
  8
0
 62
     7
 10
80.916799999999995
 20
73.511200000000002
 30
0.0
 11
80.916799999999995
 21
74.911299999999997
 31
0.0
  0
LINE
  5
39B
  8
0
 62
     7
 10
77.916799999999995
 20
73.511200000000002
 30
0.0
 11
77.916799999999995
 21
74.911299999999997
 31
0.0
  0
LINE
  5
39C
  8
0
  6
AIGENLINE001
 62
     7
 10
79.416799999999995
 20
59.995699999999999
 30
0.0
 11
79.416799999999995
 21
80.817999999999984
 31
0.0
  0
ARC
  5
39D
  8
0
 62
     7
 10
74.220829000000009
 20
72.097573999999994
 30
0.0
 40
0.526354
 50
180.58722700000001
 51
230.30881600000001
  0
ARC
  5
39E
  8
0
 62
     7
 10
74.233602000000005
 20
72.072272999999996
 30
0.0
 40
0.539466
 50
92.152704999999997
 51
177.88529700000001
  0
ARC
  5
39F
  8
0
 62
     7
 10
84.602381000000008
 20
72.074643999999992
 30
0.0
 40
0.537088
 50
1.8709919999999991
 51
87.862240999999997
  0
ARC
  5
3A0
  8
0
 62
     7
 10
84.616067999999999
 20
72.095470999999989
 30
0.0
 40
0.523125
 50
309.62571400000002
 51
359.63948299999993
  0
LINE
  5
3A1
  8
0
 62
     7
 10
83.584699999999998
 20
69.947900000000004
 30
0.0
 11
83.584699999999998
 21
67.220399999999984
 31
0.0
  0
ARC
  5
3A2
  8
0
 62
     7
 10
74.368397999999999
 20
69.938361999999998
 30
0.0
 40
0.8812829999999999
 50
0.6226010000000001
 51
59.354366000000013
  0
ARC
  5
3A3
  8
0
 62
     7
 10
84.466927999999996
 20
69.937814000000003
 30
0.0
 40
0.8822399999999998
 50
120.6805539999999
 51
179.3424399999999
  0
LINE
  5
3A4
  8
0
 62
     7
 10
75.249600000000001
 20
63.421199999999999
 30
0.0
 11
75.249600000000001
 21
69.947900000000004
 31
0.0
  0
LINE
  5
3A5
  8
0
 62
     7
 10
86.349100000000007
 20
63.793199999999992
 30
0.0
 11
86.001199999999997
 21
63.593400000000003
 31
0.0
  0
LINE
  5
3A6
  8
0
 62
     7
 10
83.178200000000004
 20
61.692399999999999
 30
0.0
 11
83.178200000000004
 21
62.902299999999997
 31
0.0
  0
LINE
  5
3A7
  8
0
 62
     7
 10
75.422600000000003
 20
61.92669999999999
 30
0.0
 11
83.411799999999985
 21
61.92669999999999
 31
0.0
  0
LINE
  5
3A8
  8
0
 62
     7
 10
85.441699999999983
 20
71.518900000000002
 30
0.0
 11
84.016800000000003
 21
70.696600000000004
 31
0.0
  0
LINE
  5
3A9
  8
0
 62
     7
 10
85.441699999999983
 20
71.518900000000002
 30
0.0
 11
85.441699999999983
 21
71.692499999999995
 31
0.0
  0
LINE
  5
3AA
  8
0
 62
     7
 10
83.411799999999985
 20
62.902299999999997
 30
0.0
 11
75.465299999999999
 21
62.902299999999997
 31
0.0
  0
LINE
  5
3AB
  8
0
 62
     7
 10
83.368399999999994
 20
62.902299999999997
 30
0.0
 11
83.368399999999994
 21
63.421199999999999
 31
0.0
  0
LINE
  5
3AC
  8
0
 62
     7
 10
75.465299999999999
 20
62.902299999999997
 30
0.0
 11
75.465299999999999
 21
63.421199999999999
 31
0.0
  0
LINE
  5
3AD
  8
0
 62
     7
 10
75.422600000000003
 20
61.92669999999999
 30
0.0
 11
75.656800000000004
 21
61.692399999999999
 31
0.0
  0
LINE
  5
3AE
  8
0
 62
     7
 10
83.411799999999985
 20
61.92669999999999
 30
0.0
 11
83.178200000000004
 21
61.692399999999999
 31
0.0
  0
LINE
  5
3AF
  8
0
 62
     7
 10
83.411799999999985
 20
62.902299999999997
 30
0.0
 11
83.411799999999985
 21
61.92669999999999
 31
0.0
  0
LINE
  5
3B0
  8
0
 62
     7
 10
75.422600000000003
 20
61.92669999999999
 30
0.0
 11
75.422600000000003
 21
62.902299999999997
 31
0.0
  0
LINE
  5
3B1
  8
0
 62
     7
 10
83.178200000000004
 20
61.692399999999999
 30
0.0
 11
75.656800000000004
 21
61.692399999999999
 31
0.0
  0
LINE
  5
3B2
  8
0
 62
     7
 10
73.392700000000005
 20
71.518900000000002
 30
0.0
 11
74.817599999999999
 21
70.696600000000004
 31
0.0
  0
LINE
  5
3B3
  8
0
 62
     7
 10
73.392700000000005
 20
71.518900000000002
 30
0.0
 11
73.392700000000005
 21
71.692499999999995
 31
0.0
  0
LINE
  5
3B4
  8
0
 62
     7
 10
115.376
 20
64.892200000000003
 30
0.0
 11
115.20399999999989
 21
64.720699999999994
 31
0.0
  0
LINE
  5
3B5
  8
0
 62
     7
 10
115.20399999999989
 20
65.720100000000002
 30
0.0
 11
115.376
 21
65.546099999999996
 31
0.0
  0
LINE
  5
3B6
  8
0
 62
     7
 10
115.376
 20
64.892200000000003
 30
0.0
 11
115.376
 21
65.546099999999996
 31
0.0
  0
LINE
  5
3B7
  8
0
 62
     7
 10
75.656800000000004
 20
61.692399999999999
 30
0.0
 11
75.656800000000004
 21
62.902299999999997
 31
0.0
  0
LINE
  5
3B8
  8
0
 62
     7
 10
78.417100000000005
 20
75.411199999999994
 30
0.0
 11
80.417000000000002
 21
75.411199999999994
 31
0.0
  0
LINE
  5
3B9
  8
0
 62
     7
 10
78.417100000000005
 20
73.011300000000006
 30
0.0
 11
80.417000000000002
 21
73.011300000000006
 31
0.0
  0
LINE
  5
3BA
  8
0
 62
     7
 10
74.213300000000004
 20
72.611400000000003
 30
0.0
 11
84.622399999999985
 21
72.611400000000003
 31
0.0
  0
LINE
  5
3BB
  8
0
 62
     7
 10
86.349100000000007
 20
63.593400000000003
 30
0.0
 11
86.349100000000007
 21
66.875900000000001
 31
0.0
  0
LINE
  5
3BC
  8
0
 62
     7
 10
86.001199999999997
 20
66.875900000000001
 30
0.0
 11
86.349100000000007
 21
66.673699999999997
 31
0.0
  0
LINE
  5
3BD
  8
0
 62
     7
 10
87.461200000000005
 20
67.176299999999983
 30
0.0
 11
86.856200000000001
 21
67.176299999999983
 31
0.0
  0
TEXT
  5
3BE
  8
_________2
 62
     7
 10
24.586400000000001
 20
0.707627
 30
0.0
 40
3.9357000000000002
  1
（社）日本水道協会認証品
 41
0.5
  0
TEXT
  5
3BF
  8
_________2
 62
     7
 10
109.179
 20
24.226099999999999
 30
0.0
 40
3.9357000000000002
  1
パン 湯水混合水栓
 41
0.5
  0
LINE
  5
3C0
  8
_________2
 62
     7
 10
205.30099999999999
 20
127.411
 30
0.0
 11
183.55099999999999
 21
127.411
 31
0.0
  0
LINE
  5
3C1
  8
_________2
 62
     7
 10
100.2999999999999
 20
-4.0910799999999998
 30
0.0
 11
100.2999999999999
 21
-21.070999999999991
 31
0.0
  0
LINE
  5
3C2
  8
_________2
 62
     7
 10
100.2999999999999
 20
275.93099999999993
 30
0.0
 11
100.2999999999999
 21
258.911
 31
0.0
  0
LINE
  5
3C3
  8
_________2
 62
     7
 10
17.049199999999988
 20
127.411
 30
0.0
 11
-4.7012099999999988
 21
127.411
 31
0.0
  0
LINE
  5
3C4
  8
_________2
 62
     7
 10
76.740700000000004
 20
29.8047
 30
0.0
 11
74.554400000000001
 21
29.8047
 31
0.0
  0
LINE
  5
3C5
  8
_________2
 62
     7
 10
77.2333
 20
29.8047
 30
0.0
 11
76.981099999999984
 21
29.8047
 31
0.0
  0
LINE
  5
3C6
  8
_________2
 62
     7
 10
77.725999999999999
 20
29.8047
 30
0.0
 11
80.650899999999993
 21
29.8047
 31
0.0
  0
LINE
  5
3C7
  8
_________2
 62
     7
 10
77.2333
 20
29.8047
 30
0.0
 11
77.485500000000002
 21
29.8047
 31
0.0
  0
LINE
  5
3C8
  8
_________2
 62
     7
 10
70.837100000000007
 20
29.8047
 30
0.0
 11
68.650199999999998
 21
29.8047
 31
0.0
  0
LINE
  5
3C9
  8
_________2
 62
     7
 10
71.329099999999997
 20
29.8047
 30
0.0
 11
71.077600000000004
 21
29.8047
 31
0.0
  0
LINE
  5
3CA
  8
_________2
 62
     7
 10
71.329099999999997
 20
30.2974
 30
0.0
 11
71.329099999999997
 21
32.484400000000001
 31
0.0
  0
LINE
  5
3CB
  8
_________2
 62
     7
 10
71.329099999999997
 20
29.8047
 30
0.0
 11
71.329099999999997
 21
30.057300000000001
 31
0.0
  0
LINE
  5
3CC
  8
_________2
 62
     7
 10
71.821700000000007
 20
29.8047
 30
0.0
 11
74.008700000000005
 21
29.8047
 31
0.0
  0
LINE
  5
3CD
  8
_________2
 62
     7
 10
71.329099999999997
 20
29.8047
 30
0.0
 11
71.581299999999985
 21
29.8047
 31
0.0
  0
LINE
  5
3CE
  8
_________2
 62
     7
 10
71.329099999999997
 20
29.312799999999999
 30
0.0
 11
71.329099999999997
 21
27.126200000000001
 31
0.0
  0
LINE
  5
3CF
  8
_________2
 62
     7
 10
71.329099999999997
 20
29.8047
 30
0.0
 11
71.329099999999997
 21
29.5532
 31
0.0
  0
LINE
  5
3D0
  8
_________2
 62
     7
 10
75.040199999999999
 20
28.5852
 30
0.0
 11
80.218199999999996
 21
27.720400000000001
 31
0.0
  0
LINE
  5
3D1
  8
_________2
 62
     7
 10
75.040199999999999
 20
31.024699999999999
 30
0.0
 11
80.218199999999996
 21
31.8901
 31
0.0
  0
LINE
  5
3D2
  8
_________2
 62
     7
 10
80.218199999999996
 20
27.720400000000001
 30
0.0
 11
80.218199999999996
 21
31.8901
 31
0.0
  0
LINE
  5
3D3
  8
_________2
 62
     7
 10
75.040199999999999
 20
28.5852
 30
0.0
 11
75.040199999999999
 21
31.024699999999999
 31
0.0
  0
ARC
  5
3D4
  8
_________2
 62
     7
 10
71.282501999999994
 20
29.757801000000001
 30
0.0
 40
1.267714
 50
2.1220840000000001
 51
87.894083999999992
  0
ARC
  5
3D5
  8
_________2
 62
     7
 10
71.375640000000004
 20
29.758545999999999
 30
0.0
 40
1.2669680000000001
 50
92.105782999999988
 51
177.91037
  0
ARC
  5
3D6
  8
_________2
 62
     7
 10
71.376013999999998
 20
29.851671
 30
0.0
 40
1.2673680000000001
 50
182.12203600000001
 51
267.877993
  0
ARC
  5
3D7
  8
_________2
 62
     7
 10
71.282195999999999
 20
29.852347999999999
 30
0.0
 40
1.2680439999999991
 50
272.11916400000001
 51
357.84848499999993
  0
ARC
  5
3D8
  8
_________2
 62
     7
 10
71.248716999999985
 20
29.724731999999989
 30
0.0
 40
2.1668310000000002
 50
2.1161439999999989
 51
87.874379000000005
  0
ARC
  5
3D9
  8
_________2
 62
     7
 10
71.408756000000011
 20
29.726146
 30
0.0
 40
2.165392999999999
 50
92.108508999999998
 51
177.91986499999999
  0
ARC
  5
3DA
  8
_________2
 62
     7
 10
71.409094999999994
 20
29.884751999999999
 30
0.0
 40
2.1657829999999998
 50
182.117133
 51
267.88289700000001
  0
ARC
  5
3DB
  8
_________2
 62
     7
 10
71.249115000000003
 20
29.885429999999989
 30
0.0
 40
2.1664590000000001
 50
272.11546800000002
 51
357.86560400000002
  0
TEXT
  5
3DC
  8
_________2
 62
     7
 10
104.605
 20
1.6794899999999999
 30
0.0
 40
3.0923400000000001
  1
図番
 41
0.5
  0
LINE
  5
3DD
  8
_________2
 62
     7
 10
103.55
 20
5.9087199999999989
 30
0.0
 11
183.55099999999999
 21
5.9087199999999989
 31
0.0
  0
TEXT
  5
3DE
  8
_________2
 62
     7
 10
104.605
 20
11.679299999999991
 30
0.0
 40
3.0923400000000001
  1
品番
 41
0.5
  0
TEXT
  5
3DF
  8
_________2
 62
     7
 10
104.605
 20
31.8184
 30
0.0
 40
3.0923400000000001
  1
名称
 41
0.5
  0
TEXT
  5
3E0
  8
_________2
 62
     7
 10
91.844758333333345
 20
26.822299999999998
 30
0.0
 40
3.6545800000000002
  1
mm
 41
0.5
 72
     1
 11
93.367500000000007
 21
26.822299999999998
 31
0.0
  0
TEXT
  5
3E1
  8
_________2
 62
     7
 10
85.642899999999983
 20
31.8184
 30
0.0
 40
3.0923400000000001
  1
単位
 41
0.5
  0
TEXT
  5
3E2
  8
_________2
 62
     7
 10
85.642899999999983
 20
19.410799999999991
 30
0.0
 40
3.0923400000000001
  1
尺度
 41
0.5
  0
TEXT
  5
3E3
  8
_________2
 62
     7
 10
90.548458666666676
 20
13.218199999999991
 30
0.0
 40
3.6545800000000002
  1
1 ： 4
 41
0.5
 72
     1
 11
93.959400000000016
 21
13.218199999999991
 31
0.0
  0
TEXT
  5
3E4
  8
_________2
 62
     7
 10
138.30240000000001
 20
9.1082000000000001
 30
0.0
 40
3.9357000000000002
  1
ZU6218
 41
0.5
 72
     1
 11
143.55000000000001
 21
9.1082000000000001
 31
0.0
  0
TEXT
  5
3E5
  8
_________2
 62
     7
 10
138.30240000000001
 20
-0.8926299999999999
 30
0.0
 40
3.9357000000000002
  1
ZU6218
 41
0.5
 72
     1
 11
143.55000000000001
 21
-0.8926299999999999
 31
0.0
  0
TEXT
  5
3E6
  8
_________2
 62
     7
 10
39.42500033333333
 20
13.603400000000001
 30
0.0
 40
3.6545800000000002
  1
早川
 41
0.5
 72
     1
 11
41.313200000000002
 21
13.603400000000001
 31
0.0
  0
TEXT
  5
3E7
  8
_________2
 62
     7
 10
20.790090666666661
 20
13.603400000000001
 30
0.0
 40
3.6545800000000002
  1
石原
 41
0.5
 72
     1
 11
22.73919999999999
 21
13.603400000000001
 31
0.0
  0
TEXT
  5
3E8
  8
_________2
 62
     7
 10
67.785399999999996
 20
13.218199999999991
 30
0.0
 40
3.6545800000000002
  1
14.01.14
 41
0.5
  0
TEXT
  5
3E9
  8
_________2
 62
     7
 10
66.592699999999994
 20
19.410799999999991
 30
0.0
 40
3.0923400000000001
  1
日付
 41
0.5
  0
TEXT
  5
3EA
  8
_________2
 62
     7
 10
29.638999999999999
 20
19.410799999999991
 30
0.0
 40
3.0923400000000001
  1
検図
 41
0.5
  0
TEXT
  5
3EB
  8
_________2
 62
     7
 10
18.020700000000001
 20
5.21143
 30
0.0
 40
3.0923400000000001
  1
備考
 41
0.5
  0
TEXT
  5
3EC
  8
_________2
 62
     7
 10
18.020700000000001
 20
19.410799999999991
 30
0.0
 40
3.0923400000000001
  1
製図
 41
0.5
  0
TEXT
  5
3ED
  8
_________2
 62
     7
 10
23.788165333333328
 20
27.936800000000002
 30
0.0
 40
4.4979399999999989
  1
セラトレーディング株式会社
 41
0.5
 72
     1
 11
41.180199999999999
 21
27.936800000000002
 31
0.0
  0
LINE
  5
3EE
  8
_________2
 62
     7
 10
183.55099999999999
 20
-4.0910799999999998
 30
0.0
 11
17.049199999999988
 21
-4.0910799999999998
 31
0.0
  0
LINE
  5
3EF
  8
_________2
 62
     7
 10
17.049199999999988
 20
-4.0910799999999998
 30
0.0
 11
17.049199999999988
 21
258.911
 31
0.0
  0
LINE
  5
3F0
  8
_________2
 62
     7
 10
17.049199999999988
 20
258.911
 30
0.0
 11
183.55099999999999
 21
258.911
 31
0.0
  0
LINE
  5
3F1
  8
_________2
 62
     7
 10
183.55099999999999
 20
258.911
 30
0.0
 11
183.55099999999999
 21
-4.0910799999999998
 31
0.0
  0
LINE
  5
3F2
  8
_________2
 62
     7
 10
65.549599999999998
 20
9.4092999999999982
 30
0.0
 11
65.549599999999998
 21
35.909100000000002
 31
0.0
  0
LINE
  5
3F3
  8
_________2
 62
     7
 10
84.549400000000006
 20
9.4092999999999982
 30
0.0
 11
84.549400000000006
 21
35.909100000000002
 31
0.0
  0
LINE
  5
3F4
  8
_________2
 62
     7
 10
103.55
 20
-4.0910799999999998
 30
0.0
 11
103.55
 21
35.909100000000002
 31
0.0
  0
LINE
  5
3F5
  8
_________2
 62
     7
 10
28.548999999999999
 20
9.4092999999999982
 30
0.0
 11
28.548999999999999
 21
23.409199999999998
 31
0.0
  0
LINE
  5
3F6
  8
_________2
 62
     7
 10
17.049199999999988
 20
9.4092999999999982
 30
0.0
 11
103.55
 21
9.4092999999999982
 31
0.0
  0
LINE
  5
3F7
  8
_________2
 62
     7
 10
17.049199999999988
 20
23.409199999999998
 30
0.0
 11
103.55
 21
23.409199999999998
 31
0.0
  0
LINE
  5
3F8
  8
_________2
 62
     7
 10
103.55
 20
15.9085
 30
0.0
 11
183.55099999999999
 21
15.9085
 31
0.0
  0
LINE
  5
3F9
  8
_________2
 62
     7
 10
17.049199999999988
 20
35.909100000000002
 30
0.0
 11
183.55099999999999
 21
35.909100000000002
 31
0.0
  0
ENDSEC
  0
EOF
