  0
SECTION
  2
HEADER
  9
$ACADVER
  1
AC1009
  9
$INSBASE
 10
0.0
 20
0.0
 30
0.0
  9
$EXTMIN
 10
-4.7012099999999988
 20
-21.071000000000002
 30
0.0
  9
$EXTMAX
 10
205.30099999999999
 20
275.93099999999998
 30
0.0
  9
$LIMMIN
 10
0.0
 20
0.0
  9
$LIMMAX
 10
12.0
 20
9.0
  9
$ORTHOMODE
 70
     0
  9
$REGENMODE
 70
     1
  9
$FILLMODE
 70
     1
  9
$QTEXTMODE
 70
     0
  9
$MIRRTEXT
 70
     1
  9
$DRAGMODE
 70
     2
  9
$LTSCALE
 40
1.0
  9
$OSMODE
 70
    37
  9
$ATTMODE
 70
     1
  9
$TEXTSIZE
 40
0.0
  9
$TRACEWID
 40
0.05
  9
$TEXTSTYLE
  7
STANDARD
  9
$CLAYER
  8
0
  9
$CELTYPE
  6
CONTINUOUS
  9
$CECOLOR
 62
   256
  9
$DIMSCALE
 40
1.0
  9
$DIMASZ
 40
0.18
  9
$DIMEXO
 40
0.0625
  9
$DIMDLI
 40
0.38
  9
$DIMRND
 40
0.0
  9
$DIMDLE
 40
0.0
  9
$DIMEXE
 40
0.18
  9
$DIMTP
 40
0.0
  9
$DIMTM
 40
0.0
  9
$DIMTXT
 40
0.18
  9
$DIMCEN
 40
0.09
  9
$DIMTSZ
 40
0.0
  9
$DIMTOL
 70
     0
  9
$DIMLIM
 70
     0
  9
$DIMTIH
 70
     1
  9
$DIMTOH
 70
     1
  9
$DIMSE1
 70
     0
  9
$DIMSE2
 70
     0
  9
$DIMTAD
 70
     0
  9
$DIMZIN
 70
     0
  9
$DIMBLK
  1

  9
$DIMASO
 70
     1
  9
$DIMSHO
 70
     1
  9
$DIMPOST
  1

  9
$DIMAPOST
  1

  9
$DIMALT
 70
     0
  9
$DIMALTD
 70
     2
  9
$DIMALTF
 40
25.399999999999999
  9
$DIMLFAC
 40
1.0
  9
$DIMTOFL
 70
     0
  9
$DIMTVP
 40
0.0
  9
$DIMTIX
 70
     0
  9
$DIMSOXD
 70
     0
  9
$DIMSAH
 70
     0
  9
$DIMBLK1
  1

  9
$DIMBLK2
  1

  9
$DIMSTYLE
  2
STANDARD
  9
$DIMCLRD
 70
     0
  9
$DIMCLRE
 70
     0
  9
$DIMCLRT
 70
     0
  9
$DIMTFAC
 40
1.0
  9
$DIMGAP
 40
0.09
  9
$LUNITS
 70
     2
  9
$LUPREC
 70
     4
  9
$SKETCHINC
 40
0.1
  9
$FILLETRAD
 40
0.0
  9
$AUNITS
 70
     0
  9
$AUPREC
 70
     0
  9
$MENU
  1
.
  9
$ELEVATION
 40
0.0
  9
$PELEVATION
 40
0.0
  9
$THICKNESS
 40
0.0
  9
$LIMCHECK
 70
     0
  9
$BLIPMODE
 70
     0
  9
$CHAMFERA
 40
0.0
  9
$CHAMFERB
 40
0.0
  9
$SKPOLY
 70
     0
  9
$TDCREATE
 40
2444972.375
  9
$TDUPDATE
 40
2457436.2673982992
  9
$TDINDWG
 40
0.0000301042
  9
$TDUSRTIMER
 40
0.0000301042
  9
$USRTIMER
 70
     1
  9
$ANGBASE
 50
0.0
  9
$ANGDIR
 70
     0
  9
$PDMODE
 70
     0
  9
$PDSIZE
 40
0.0
  9
$PLINEWID
 40
0.0
  9
$COORDS
 70
     1
  9
$SPLFRAME
 70
     0
  9
$SPLINETYPE
 70
     6
  9
$SPLINESEGS
 70
     8
  9
$ATTDIA
 70
     1
  9
$ATTREQ
 70
     1
  9
$HANDLING
 70
     1
  9
$HANDSEED
  5
487
  9
$SURFTAB1
 70
     6
  9
$SURFTAB2
 70
     6
  9
$SURFTYPE
 70
     6
  9
$SURFU
 70
     6
  9
$SURFV
 70
     6
  9
$UCSNAME
  2

  9
$UCSORG
 10
0.0
 20
0.0
 30
0.0
  9
$UCSXDIR
 10
1.0
 20
0.0
 30
0.0
  9
$UCSYDIR
 10
0.0
 20
1.0
 30
0.0
  9
$PUCSNAME
  2

  9
$PUCSORG
 10
0.0
 20
0.0
 30
0.0
  9
$PUCSXDIR
 10
1.0
 20
0.0
 30
0.0
  9
$PUCSYDIR
 10
0.0
 20
1.0
 30
0.0
  9
$USERI1
 70
     0
  9
$USERI2
 70
     0
  9
$USERI3
 70
     0
  9
$USERI4
 70
     0
  9
$USERI5
 70
     0
  9
$USERR1
 40
0.0
  9
$USERR2
 40
0.0
  9
$USERR3
 40
0.0
  9
$USERR4
 40
0.0
  9
$USERR5
 40
0.0
  9
$WORLDVIEW
 70
     1
  9
$SHADEDGE
 70
     3
  9
$SHADEDIF
 70
    70
  9
$TILEMODE
 70
     1
  9
$MAXACTVP
 70
    48
  9
$PLIMCHECK
 70
     0
  9
$PEXTMIN
 10
1.0000000000000000E+020
 20
1.0000000000000000E+020
 30
1.0000000000000000E+020
  9
$PEXTMAX
 10
-1.0000000000000000E+020
 20
-1.0000000000000000E+020
 30
-1.0000000000000000E+020
  9
$PLIMMIN
 10
0.0
 20
0.0
  9
$PLIMMAX
 10
12.0
 20
9.0
  9
$UNITMODE
 70
     0
  9
$VISRETAIN
 70
     1
  9
$PLINEGEN
 70
     0
  9
$PSLTSCALE
 70
     1
  0
ENDSEC
  0
SECTION
  2
TABLES
  0
TABLE
  2
VPORT
 70
     1
  0
VPORT
  2
*ACTIVE
 70
     0
 10
0.0
 20
0.0
 11
1.0
 21
1.0
 12
165.7276238025147
 22
127.42999999999989
 13
0.0
 23
0.0
 14
1.0
 24
1.0
 15
0.0
 25
0.0
 16
0.0
 26
0.0
 36
1.0
 17
0.0
 27
0.0
 37
0.0
 40
283.528435666853
 41
2.1001926782273599
 42
50.0
 43
0.0
 44
0.0
 50
0.0
 51
0.0
 71
     0
 72
   100
 73
     1
 74
     1
 75
     0
 76
     0
 77
     0
 78
     0
  0
ENDTAB
  0
TABLE
  2
LTYPE
 70
     3
  0
LTYPE
  2
CONTINUOUS
 70
     0
  3
Solid line
 72
    65
 73
     0
 40
0.0
  0
LTYPE
  2
AIGENLINE001
 70
     0
  3
generate AI->DXF Converter
 72
    65
 73
     6
 40
7.4083750000000004
 49
3.5278
 49
-0.776115
 49
0.776115
 49
-0.776115
 49
0.776115
 49
-0.776115
  0
LTYPE
  2
AIGENLINE002
 70
     0
  3
generate AI->DXF Converter
 72
    65
 73
     4
 40
5.8561449999999988
 49
3.5278
 49
-0.776115
 49
0.776115
 49
-0.776115
  0
ENDTAB
  0
TABLE
  2
LAYER
 70
     2
  0
LAYER
  2
0
 70
     0
 62
     7
  6
CONTINUOUS
  0
LAYER
  2
_________2
 70
     0
 62
     7
  6
CONTINUOUS
  0
ENDTAB
  0
TABLE
  2
STYLE
 70
     1
  0
STYLE
  2
STANDARD
 70
     0
 40
0.0
 41
0.0
 50
0.0
 71
     0
 42
0.0
  3
TXT
  4
EXTFONT.SHX
  0
ENDTAB
  0
TABLE
  2
VIEW
 70
     0
  0
ENDTAB
  0
TABLE
  2
UCS
 70
     0
  0
ENDTAB
  0
TABLE
  2
APPID
 70
     3
  0
APPID
  2
ACAD
 70
     0
  0
APPID
  2
ACAD_NAV_VCDISPLAY
 70
     0
  0
APPID
  2
ACAD_MLEADERVER
 70
     0
  0
ENDTAB
  0
TABLE
  2
DIMSTYLE
 70
     1
  0
DIMSTYLE
  2
STANDARD
 70
     0
  3

  4

  5

  6

  7

 40
1.0
 41
0.18
 42
0.0625
 43
0.38
 44
0.18
 45
0.0
 46
0.0
 47
0.0
 48
0.0
140
0.18
141
0.09
142
0.0
143
25.399999999999999
144
1.0
145
0.0
146
1.0
147
0.09
 71
     0
 72
     0
 73
     1
 74
     1
 75
     0
 76
     0
 77
     0
 78
     0
170
     0
171
     2
172
     0
173
     0
174
     0
175
     0
176
     0
177
     0
178
     0
  0
ENDTAB
  0
ENDSEC
  0
SECTION
  2
BLOCKS
  0
BLOCK
  8
0
  2
$MODEL_SPACE
 70
     0
 10
0.0
 20
0.0
 30
0.0
  3
$MODEL_SPACE
  1

  0
ENDBLK
  5
1A
  8
0
  0
BLOCK
 67
     1
  8
0
  2
$PAPER_SPACE
 70
     0
 10
0.0
 20
0.0
 30
0.0
  3
$PAPER_SPACE
  1

  0
ENDBLK
  5
17
 67
     1
  8
0
  0
ENDSEC
  0
SECTION
  2
ENTITIES
  0
TEXT
  5
23
  8
0
 62
     7
 10
62.106699999999996
 20
185.006
 30
0.0
 40
3.0923400000000001
  1
スパウト回転360%%d
 41
0.5
  0
TEXT
  5
24
  8
0
 62
     7
 10
105.06
 20
218.63252499999999
 30
0.0
 40
3.0923400000000001
  1
88
 50
90.0
 41
0.5
 72
     1
 11
105.06
 21
219.92099999999999
 31
0.0
  0
TEXT
  5
25
  8
0
 62
     7
 10
126.94588
 20
234.63200000000001
 30
0.0
 40
3.0923400000000001
  1
%%c35
 41
0.5
 72
     2
 11
131.06899999999999
 21
234.63200000000001
 31
0.0
  0
TEXT
  5
26
  8
0
 62
     7
 10
156.94587999999999
 20
234.63200000000001
 30
0.0
 40
3.0923400000000001
  1
%%c35
 41
0.5
 72
     2
 11
161.06899999999999
 21
234.63200000000001
 31
0.0
  0
TEXT
  5
27
  8
0
 62
     7
 10
96.219700000000003
 20
214.87100000000001
 30
0.0
 40
3.0923400000000001
  1
水
 41
0.5
  0
TEXT
  5
28
  8
0
 62
     7
 10
87.305435000000017
 20
205.494
 30
0.0
 40
3.0923400000000001
  1
45%%d
 41
0.5
 72
     1
 11
89.109300000000005
 21
205.494
 31
0.0
  0
TEXT
  5
29
  8
0
 62
     7
 10
71.504634999999993
 20
205.494
 30
0.0
 40
3.0923400000000001
  1
45%%d
 41
0.5
 72
     1
 11
73.308499999999995
 21
205.494
 31
0.0
  0
TEXT
  5
2A
  8
0
 62
     7
 10
65.248707999999993
 20
214.87100000000001
 30
0.0
 40
3.0923400000000001
  1
湯
 41
0.5
 72
     2
 11
66.691800000000001
 21
214.87100000000001
 31
0.0
  0
TEXT
  5
2B
  8
0
 62
     7
 10
62.611158000000003
 20
244.20599999999999
 30
0.0
 40
3.0923400000000001
  1
80～150
 41
0.5
 72
     1
 11
66.631200000000007
 21
244.20599999999999
 31
0.0
  0
TEXT
  5
2C
  8
0
 62
     7
 10
130.76664600000001
 20
217.37299999999999
 30
0.0
 40
3.0923400000000001
  1
水栓取付穴
 41
0.5
 72
     1
 11
135.19900000000001
 21
217.37299999999999
 31
0.0
  0
TEXT
  5
2D
  8
0
 62
     7
 10
130.0819896666666
 20
135.93899999999999
 30
0.0
 40
2.4738699999999998
  1
開
 41
0.5
 72
     2
 11
131.154
 21
135.93899999999999
 31
0.0
  0
TEXT
  5
2E
  8
0
 62
     7
 10
126.9379896666666
 20
128.66
 30
0.0
 40
2.4738699999999998
  1
閉
 41
0.5
 72
     2
 11
128.00999999999999
 21
128.66
 31
0.0
  0
TEXT
  5
2F
  8
0
 62
     7
 10
60.097474999999989
 20
122.55
 30
0.0
 40
3.0923400000000001
  1
%%c60
 41
0.5
 72
     2
 11
63.962899999999998
 21
122.55
 31
0.0
  0
TEXT
  5
30
  8
0
 62
     7
 10
60.2575
 20
99.962100000000007
 30
0.0
 40
3.0923400000000001
  1
max.40
 50
90.0
 41
0.5
  0
TEXT
  5
31
  8
0
 62
     7
 10
70.378900000000002
 20
107.7704225
 30
0.0
 40
3.0923400000000001
  1
max.50
 50
90.0
 41
0.5
 72
     1
 11
70.378900000000002
 21
111.50700000000001
 31
0.0
  0
TEXT
  5
32
  8
0
 62
     7
 10
100.206
 20
122.596525
 30
0.0
 40
3.0923400000000001
  1
87
 50
90.0
 41
0.5
 72
     1
 11
100.206
 21
123.88500000000001
 31
0.0
  0
TEXT
  5
33
  8
0
 62
     7
 10
117.565
 20
129.881135
 30
0.0
 40
3.0923400000000001
  1
165
 50
90.0
 41
0.5
 72
     1
 11
117.565
 21
131.685
 31
0.0
  0
TEXT
  5
34
  8
0
 62
     7
 10
160.006
 20
141.3244399999999
 30
0.0
 40
3.0923400000000001
  1
285
 50
90.0
 41
0.5
 72
     1
 11
160.006
 21
143.386
 31
0.0
  0
TEXT
  5
35
  8
0
 62
     7
 10
37.2958
 20
60.082500000000003
 30
0.0
 40
3.0923400000000001
  1
フレキ管L＝300
 41
0.5
  0
TEXT
  5
36
  8
0
 62
     7
 10
126.514135
 20
142.393
 30
0.0
 40
3.0923400000000001
  1
187
 41
0.5
 72
     1
 11
128.3179999999999
 21
142.393
 31
0.0
  0
TEXT
  5
37
  8
0
 62
     7
 10
57.835774999999991
 20
142.52199999999999
 30
0.0
 40
3.0923400000000001
  1
%%c20
 41
0.5
 72
     2
 11
61.7012
 21
142.52199999999999
 31
0.0
  0
TEXT
  5
38
  8
0
 62
     7
 10
79.54598750000001
 20
137.51900000000001
 30
0.0
 40
3.0923400000000001
  1
%%c60
 41
0.5
 72
     1
 11
81.478700000000003
 21
137.51900000000001
 31
0.0
  0
TEXT
  5
39
  8
0
 62
     7
 10
38.200499999999998
 20
55.554600000000001
 30
0.0
 40
3.0923400000000001
  1
G 3/8\U+00D7G 1/2
 41
0.5
  0
TEXT
  5
3A
  8
0
 62
     7
 10
95.869007999999994
 20
46.367099999999994
 30
0.0
 40
3.0923400000000001
  1
G 3/8
 41
0.5
 72
     2
 11
102.46599999999999
 21
46.367099999999994
 31
0.0
  0
TEXT
  5
3B
  8
0
 62
     7
 10
100.273
 20
81.809487500000003
 30
0.0
 40
3.0923400000000001
  1
370
 50
90.0
 41
0.5
 72
     1
 11
100.273
 21
83.742199999999997
 31
0.0
  0
LINE
  5
3C
  8
0
  6
AIGENLINE002
 62
     7
 10
109.818
 20
151.08600000000001
 30
0.0
 11
109.818
 21
145.95599999999999
 31
0.0
  0
LINE
  5
3D
  8
0
 62
     7
 10
111.818
 20
148.185
 30
0.0
 11
107.818
 21
148.185
 31
0.0
  0
LINE
  5
3E
  8
0
 62
     7
 10
107.818
 20
151.08600000000001
 30
0.0
 11
107.818
 21
148.185
 31
0.0
  0
LINE
  5
3F
  8
0
 62
     7
 10
111.818
 20
151.08600000000001
 30
0.0
 11
111.818
 21
148.185
 31
0.0
  0
ARC
  5
40
  8
0
  6
AIGENLINE002
 62
     7
 10
128.31812600000001
 20
151.08535599999999
 30
0.0
 40
18.500368999999999
 50
0.00081
 51
90.000780000000006
  0
ARC
  5
41
  8
0
  6
AIGENLINE002
 62
     7
 10
128.317961
 20
151.085701
 30
0.0
 40
18.500025000000001
 50
90.000267000000008
 51
180.00027700000001
  0
ARC
  5
42
  8
0
 62
     7
 10
128.31795399999999
 20
151.08552900000001
 30
0.0
 40
16.500305999999998
 50
0.000309
 51
90.000279000000006
  0
ARC
  5
43
  8
0
 62
     7
 10
128.31796
 20
151.085701
 30
0.0
 40
16.500133999999999
 50
90.000298999999984
 51
180.00030899999999
  0
ARC
  5
44
  8
0
 62
     7
 10
128.317868
 20
151.08561399999999
 30
0.0
 40
20.500174000000001
 50
0.00001
 51
89.999980000000008
  0
ARC
  5
45
  8
0
 62
     7
 10
128.31787499999999
 20
151.08561399999999
 30
0.0
 40
20.500174000000001
 50
90.0
 51
179.99996999999999
  0
LINE
  5
46
  8
0
 62
     7
 10
105.182
 20
213.333
 30
0.0
 11
105.774
 21
211.12100000000001
 31
0.0
  0
LINE
  5
47
  8
0
 62
     7
 10
105.774
 20
211.12100000000001
 30
0.0
 11
106.367
 21
213.333
 31
0.0
  0
LINE
  5
48
  8
0
 62
     7
 10
106.367
 20
213.333
 30
0.0
 11
105.182
 21
213.333
 31
0.0
  0
LINE
  5
49
  8
0
 62
     7
 10
106.352
 20
226.50899999999999
 30
0.0
 11
105.76000000000001
 21
228.721
 31
0.0
  0
LINE
  5
4A
  8
0
 62
     7
 10
105.76000000000001
 20
228.721
 30
0.0
 11
105.167
 21
226.50899999999999
 31
0.0
  0
LINE
  5
4B
  8
0
 62
     7
 10
105.167
 20
226.50899999999999
 30
0.0
 11
106.352
 21
226.50899999999999
 31
0.0
  0
LINE
  5
4C
  8
0
 62
     7
 10
105.76000000000001
 20
211.12100000000001
 30
0.0
 11
105.76000000000001
 21
228.721
 31
0.0
  0
LINE
  5
4D
  8
0
 62
     7
 10
90.265900000000002
 20
228.721
 30
0.0
 11
106.45999999999999
 21
228.721
 31
0.0
  0
LINE
  5
4E
  8
0
 62
     7
 10
83.868300000000005
 20
211.12100000000001
 30
0.0
 11
106.45999999999999
 21
211.12100000000001
 31
0.0
  0
ARC
  5
4F
  8
0
 62
     7
 10
81.580815999999999
 20
228.96643299999999
 30
0.0
 40
20.616845000000001
 50
225.28040300000001
 51
269.71682600000003
  0
ARC
  5
50
  8
0
 62
     7
 10
81.379812999999984
 20
228.95970700000001
 30
0.0
 40
20.610105000000001
 50
270.27552300000002
 51
314.72454800000003
  0
LINE
  5
51
  8
0
  6
AIGENLINE002
 62
     7
 10
66.744500000000002
 20
213.98699999999999
 30
0.0
 11
68.139300000000006
 21
215.381
 31
0.0
  0
LINE
  5
52
  8
0
  6
AIGENLINE002
 62
     7
 10
68.486699999999999
 20
215.72900000000001
 30
0.0
 11
81.478899999999996
 21
228.721
 31
0.0
  0
LINE
  5
53
  8
0
  6
AIGENLINE001
 62
     7
 10
75.081299999999999
 20
224.161
 30
0.0
 11
68.114800000000002
 21
217.19499999999999
 31
0.0
  0
LINE
  5
54
  8
0
  6
AIGENLINE001
 62
     7
 10
76.919600000000003
 20
222.32300000000001
 30
0.0
 11
69.953500000000005
 21
215.357
 31
0.0
  0
LINE
  5
55
  8
0
  6
AIGENLINE001
 62
     7
 10
68.114800000000002
 20
217.19499999999999
 30
0.0
 11
69.953500000000005
 21
215.357
 31
0.0
  0
LINE
  5
56
  8
0
 62
     7
 10
79.721199999999996
 20
208.86600000000001
 30
0.0
 11
81.478899999999996
 21
208.34999999999999
 31
0.0
  0
LINE
  5
57
  8
0
 62
     7
 10
81.478899999999996
 20
208.34999999999999
 30
0.0
 11
79.698700000000002
 21
207.91900000000001
 31
0.0
  0
LINE
  5
58
  8
0
 62
     7
 10
79.698700000000002
 20
207.91900000000001
 30
0.0
 11
79.721199999999996
 21
208.86600000000001
 31
0.0
  0
LINE
  5
59
  8
0
 62
     7
 10
68.089100000000002
 20
212.791
 30
0.0
 11
67.0745
 21
214.31700000000001
 31
0.0
  0
LINE
  5
5A
  8
0
 62
     7
 10
67.0745
 20
214.31700000000001
 30
0.0
 11
68.715400000000002
 21
213.50299999999999
 31
0.0
  0
LINE
  5
5B
  8
0
 62
     7
 10
68.715400000000002
 20
213.50299999999999
 30
0.0
 11
68.089100000000002
 21
212.791
 31
0.0
  0
LINE
  5
5C
  8
0
  6
AIGENLINE002
 62
     7
 10
96.213200000000001
 20
213.98699999999999
 30
0.0
 11
94.818399999999997
 21
215.381
 31
0.0
  0
LINE
  5
5D
  8
0
  6
AIGENLINE002
 62
     7
 10
94.471000000000004
 20
215.72900000000001
 30
0.0
 11
81.478899999999996
 21
228.721
 31
0.0
  0
LINE
  5
5E
  8
0
  6
AIGENLINE001
 62
     7
 10
87.876300000000001
 20
224.161
 30
0.0
 11
94.842899999999986
 21
217.19499999999999
 31
0.0
  0
LINE
  5
5F
  8
0
  6
AIGENLINE001
 62
     7
 10
86.037999999999997
 20
222.32300000000001
 30
0.0
 11
93.004199999999997
 21
215.357
 31
0.0
  0
LINE
  5
60
  8
0
  6
AIGENLINE001
 62
     7
 10
94.842899999999986
 20
217.19499999999999
 30
0.0
 11
93.004199999999997
 21
215.357
 31
0.0
  0
LINE
  5
61
  8
0
 62
     7
 10
80.179199999999994
 20
223.12100000000001
 30
0.0
 11
82.778800000000004
 21
223.12100000000001
 31
0.0
  0
LINE
  5
62
  8
0
 62
     7
 10
82.778800000000004
 20
224.096
 30
0.0
 11
82.778800000000004
 21
211.12100000000001
 31
0.0
  0
ARC
  5
63
  8
0
 62
     7
 10
83.394739999999999
 20
224.084844
 30
0.0
 40
0.6160790000000002
 50
113.32220100000001
 51
178.96976000000001
  0
LINE
  5
64
  8
0
 62
     7
 10
80.178899999999985
 20
224.096
 30
0.0
 11
80.178899999999985
 21
211.12100000000001
 31
0.0
  0
ARC
  5
65
  8
0
 62
     7
 10
79.564503000000002
 20
224.085903
 30
0.0
 40
0.614482
 50
0.9341219999999999
 51
66.773877999999996
  0
LINE
  5
66
  8
0
 62
     7
 10
82.778800000000004
 20
211.12100000000001
 30
0.0
 11
80.178899999999985
 21
211.12100000000001
 31
0.0
  0
LINE
  5
67
  8
0
 62
     7
 10
83.236400000000003
 20
208.86600000000001
 30
0.0
 11
81.478899999999996
 21
208.34999999999999
 31
0.0
  0
LINE
  5
68
  8
0
 62
     7
 10
81.478899999999996
 20
208.34999999999999
 30
0.0
 11
83.259
 21
207.91900000000001
 31
0.0
  0
LINE
  5
69
  8
0
 62
     7
 10
83.259
 20
207.91900000000001
 30
0.0
 11
83.236400000000003
 21
208.86600000000001
 31
0.0
  0
LINE
  5
6A
  8
0
 62
     7
 10
94.868700000000004
 20
212.791
 30
0.0
 11
95.883099999999985
 21
214.31700000000001
 31
0.0
  0
LINE
  5
6B
  8
0
 62
     7
 10
95.883099999999985
 20
214.31700000000001
 30
0.0
 11
94.242199999999997
 21
213.50299999999999
 31
0.0
  0
LINE
  5
6C
  8
0
 62
     7
 10
94.242199999999997
 20
213.50299999999999
 30
0.0
 11
94.868700000000004
 21
212.791
 31
0.0
  0
ARC
  5
6D
  8
0
 62
     7
 10
147.56780699999999
 20
103.683679
 30
0.0
 40
0.4510220000000001
 50
291.18463700000001
 51
359.109509
  0
ARC
  5
6E
  8
0
 62
     7
 10
147.38193899999999
 20
104.078351
 30
0.0
 40
0.88672
 50
278.585419
 51
293.16760299999999
  0
ARC
  5
6F
  8
0
 62
     7
 10
147.316385
 20
104.40463099999999
 30
0.0
 40
1.2192369999999999
 50
270.11005799999998
 51
279.34259200000002
  0
ARC
  5
70
  8
0
 62
     7
 10
147.32169400000001
 20
104.161294
 30
0.0
 40
0.9759019999999999
 50
238.985173
 51
269.82576699999998
  0
ARC
  5
71
  8
0
 62
     7
 10
147.08062799999999
 20
103.727056
 30
0.0
 40
0.479841
 50
208.945898
 51
236.937693
  0
ARC
  5
72
  8
0
 62
     7
 10
147.00922600000001
 20
103.67119700000001
 30
0.0
 40
0.390586
 50
179.197081
 51
206.84416899999999
  0
ARC
  5
73
  8
0
 62
     7
 10
147.56780699999999
 20
105.08698200000001
 30
0.0
 40
0.4510220000000001
 50
0.890491
 51
68.815363000000005
  0
ARC
  5
74
  8
0
 62
     7
 10
147.38193899999999
 20
104.69231000000001
 30
0.0
 40
0.88672
 50
66.832397
 51
81.414581000000013
  0
ARC
  5
75
  8
0
 62
     7
 10
147.316385
 20
104.36602999999999
 30
0.0
 40
1.2192369999999999
 50
80.657407999999975
 51
89.889942000000005
  0
ARC
  5
76
  8
0
 62
     7
 10
147.321629
 20
104.60553299999999
 30
0.0
 40
0.979737
 50
90.169736999999984
 51
120.439457
  0
ARC
  5
77
  8
0
 62
     7
 10
147.08474899999999
 20
105.040254
 30
0.0
 40
0.48519
 50
122.33064400000001
 51
150.91773000000001
  0
ARC
  5
78
  8
0
 62
     7
 10
147.00986499999999
 20
105.099557
 30
0.0
 40
0.391226
 50
153.17780400000001
 51
180.81515300000001
  0
LINE
  5
79
  8
0
 62
     7
 10
146.619
 20
103.67700000000001
 30
0.0
 11
146.619
 21
105.09399999999999
 31
0.0
  0
ARC
  5
7A
  8
0
 62
     7
 10
148.96790300000001
 20
103.683679
 30
0.0
 40
0.4510220000000001
 50
291.18463700000001
 51
359.109509
  0
ARC
  5
7B
  8
0
 62
     7
 10
148.78203500000001
 20
104.078351
 30
0.0
 40
0.88672
 50
278.585419
 51
293.16760299999999
  0
ARC
  5
7C
  8
0
 62
     7
 10
148.71647999999999
 20
104.40463099999999
 30
0.0
 40
1.2192369999999999
 50
270.11005799999998
 51
279.34259200000002
  0
ARC
  5
7D
  8
0
 62
     7
 10
148.72179
 20
104.161294
 30
0.0
 40
0.9759019999999999
 50
238.985173
 51
269.82576699999998
  0
ARC
  5
7E
  8
0
 62
     7
 10
148.48072400000001
 20
103.727056
 30
0.0
 40
0.479841
 50
208.945898
 51
236.937693
  0
ARC
  5
7F
  8
0
 62
     7
 10
148.409322
 20
103.67119700000001
 30
0.0
 40
0.390586
 50
179.197081
 51
206.84416899999999
  0
ARC
  5
80
  8
0
 62
     7
 10
148.96790300000001
 20
105.08698200000001
 30
0.0
 40
0.4510220000000001
 50
0.890491
 51
68.815363000000005
  0
ARC
  5
81
  8
0
 62
     7
 10
148.78203500000001
 20
104.69231000000001
 30
0.0
 40
0.88672
 50
66.832397
 51
81.414581000000013
  0
ARC
  5
82
  8
0
 62
     7
 10
148.71647999999999
 20
104.36602999999999
 30
0.0
 40
1.2192369999999999
 50
80.657407999999975
 51
89.889942000000005
  0
ARC
  5
83
  8
0
 62
     7
 10
148.72172499999999
 20
104.60553299999999
 30
0.0
 40
0.979737
 50
90.169736999999984
 51
120.439457
  0
ARC
  5
84
  8
0
 62
     7
 10
148.48484400000001
 20
105.040254
 30
0.0
 40
0.48519
 50
122.33064400000001
 51
150.91773000000001
  0
ARC
  5
85
  8
0
 62
     7
 10
148.40996100000001
 20
105.099557
 30
0.0
 40
0.391226
 50
153.17780400000001
 51
180.81515300000001
  0
LINE
  5
86
  8
0
 62
     7
 10
149.41800000000001
 20
103.67700000000001
 30
0.0
 11
149.41800000000001
 21
105.09399999999999
 31
0.0
  0
LINE
  5
87
  8
0
 62
     7
 10
147.31899999999999
 20
103.185
 30
0.0
 11
148.71899999999999
 21
103.185
 31
0.0
  0
LINE
  5
88
  8
0
 62
     7
 10
147.31899999999999
 20
105.58499999999999
 30
0.0
 11
148.71799999999999
 21
105.58499999999999
 31
0.0
  0
LINE
  5
89
  8
0
 62
     7
 10
148.01900000000001
 20
103.67700000000001
 30
0.0
 11
148.01900000000001
 21
105.09399999999999
 31
0.0
  0
ARC
  5
8A
  8
0
 62
     7
 10
147.69397000000001
 20
90.277853000000007
 30
0.0
 40
0.325496
 50
314.85815400000001
 51
359.769116
  0
ARC
  5
8B
  8
0
 62
     7
 10
147.55271999999999
 20
90.41376600000001
 30
0.0
 40
0.5214870000000001
 50
297.15664100000009
 51
315.326076
  0
ARC
  5
8C
  8
0
 62
     7
 10
147.316609
 20
90.840900000000005
 30
0.0
 40
1.0094149999999991
 50
284.35814900000008
 51
298.01540799999998
  0
ARC
  5
8D
  8
0
 62
     7
 10
147.047944
 20
91.768966000000006
 30
0.0
 40
1.9753459999999989
 50
275.84294599999998
 51
285.23208
  0
ARC
  5
8E
  8
0
 62
     7
 10
146.91691599999999
 20
92.757343000000006
 30
0.0
 40
2.9720749999999989
 50
270.04197099999999
 51
276.41606999999999
  0
ARC
  5
8F
  8
0
 62
     7
 10
146.92170999999999
 20
92.158886999999979
 30
0.0
 40
2.3736209999999991
 50
254.103722
 51
269.936823
  0
ARC
  5
90
  8
0
 62
     7
 10
146.61270200000001
 20
91.044782999999995
 30
0.0
 40
1.2175100000000001
 50
241.885166
 51
253.72919600000009
  0
ARC
  5
91
  8
0
 62
     7
 10
146.31945300000001
 20
90.480483999999976
 30
0.0
 40
0.58165
 50
224.24398500000001
 51
241.168755
  0
ARC
  5
92
  8
0
 62
     7
 10
146.12851499999999
 20
90.286023000000014
 30
0.0
 40
0.309249
 50
181.75693000000001
 51
223.11612700000001
  0
ARC
  5
93
  8
0
 62
     7
 10
147.693996
 20
91.692556999999994
 30
0.0
 40
0.32547
 50
0.229943
 51
45.143743999999991
  0
ARC
  5
94
  8
0
 62
     7
 10
147.55299199999999
 20
91.557004000000006
 30
0.0
 40
0.521033
 50
44.665948999999991
 51
62.851332999999997
  0
ARC
  5
95
  8
0
 62
     7
 10
147.31676300000001
 20
91.130018999999976
 30
0.0
 40
1.0088839999999999
 50
61.978473000000008
 51
75.643179000000003
  0
ARC
  5
96
  8
0
 62
     7
 10
147.04764399999999
 20
90.199652999999998
 30
0.0
 40
1.9771529999999991
 50
74.773173000000014
 51
84.153677000000002
  0
ARC
  5
97
  8
0
 62
     7
 10
146.91691599999999
 20
89.213061999999994
 30
0.0
 40
2.9720749999999989
 50
83.583930000000009
 51
89.95802900000001
  0
ARC
  5
98
  8
0
 62
     7
 10
146.92172400000001
 20
89.805173999999994
 30
0.0
 40
2.3799639999999989
 50
90.063339999999982
 51
105.85313600000001
  0
ARC
  5
99
  8
0
 62
     7
 10
146.61192199999999
 20
90.927113000000006
 30
0.0
 40
1.216097999999999
 50
106.251926
 51
118.10870300000001
  0
ARC
  5
9A
  8
0
 62
     7
 10
146.31901199999999
 20
91.490953000000005
 30
0.0
 40
0.5808020000000002
 50
118.827684
 51
135.77963799999989
  0
ARC
  5
9B
  8
0
 62
     7
 10
146.128837
 20
91.684530000000009
 30
0.0
 40
0.309566
 50
136.908366
 51
178.27240800000001
  0
LINE
  5
9C
  8
0
 62
     7
 10
145.81899999999999
 20
90.276499999999984
 30
0.0
 11
145.81899999999999
 21
91.693899999999985
 31
0.0
  0
ARC
  5
9D
  8
0
 62
     7
 10
149.89402200000001
 20
90.277853000000007
 30
0.0
 40
0.325496
 50
314.85815400000001
 51
359.769116
  0
ARC
  5
9E
  8
0
 62
     7
 10
149.75277199999999
 20
90.41376600000001
 30
0.0
 40
0.5214870000000001
 50
297.15664100000009
 51
315.326076
  0
ARC
  5
9F
  8
0
 62
     7
 10
149.516661
 20
90.840900000000005
 30
0.0
 40
1.0094149999999991
 50
284.35814900000008
 51
298.01540799999998
  0
ARC
  5
A0
  8
0
 62
     7
 10
149.247996
 20
91.768966000000006
 30
0.0
 40
1.9753459999999989
 50
275.84294599999998
 51
285.23208
  0
ARC
  5
A1
  8
0
 62
     7
 10
149.11696800000001
 20
92.757343000000006
 30
0.0
 40
2.9720749999999989
 50
270.04197099999999
 51
276.41606999999999
  0
ARC
  5
A2
  8
0
 62
     7
 10
149.121746
 20
92.163011999999995
 30
0.0
 40
2.3777449999999991
 50
254.117605
 51
269.93733400000002
  0
ARC
  5
A3
  8
0
 62
     7
 10
148.81222199999999
 20
91.045384999999996
 30
0.0
 40
1.2181049999999991
 50
241.89291
 51
253.734432
  0
ARC
  5
A4
  8
0
 62
     7
 10
148.518967
 20
90.480698000000004
 30
0.0
 40
0.5819
 50
224.24940100000001
 51
241.16770600000001
  0
ARC
  5
A5
  8
0
 62
     7
 10
148.32769999999999
 20
90.285961999999998
 30
0.0
 40
0.309069
 50
181.74653699999999
 51
223.13174100000001
  0
ARC
  5
A6
  8
0
 62
     7
 10
149.894048
 20
91.692556999999994
 30
0.0
 40
0.32547
 50
0.229943
 51
45.143743999999991
  0
ARC
  5
A7
  8
0
 62
     7
 10
149.75304399999999
 20
91.557004000000006
 30
0.0
 40
0.521033
 50
44.665948999999991
 51
62.851332999999997
  0
ARC
  5
A8
  8
0
 62
     7
 10
149.51681500000001
 20
91.130018999999976
 30
0.0
 40
1.0088839999999999
 50
61.978473000000008
 51
75.643179000000003
  0
ARC
  5
A9
  8
0
 62
     7
 10
149.24769599999999
 20
90.199652999999998
 30
0.0
 40
1.9771529999999991
 50
74.773173000000014
 51
84.153677000000002
  0
ARC
  5
AA
  8
0
 62
     7
 10
149.11696800000001
 20
89.213061999999994
 30
0.0
 40
2.9720749999999989
 50
83.583930000000009
 51
89.95802900000001
  0
ARC
  5
AB
  8
0
 62
     7
 10
149.121759
 20
89.801039000000003
 30
0.0
 40
2.3841000000000001
 50
90.062828999999994
 51
105.83929000000001
  0
ARC
  5
AC
  8
0
 62
     7
 10
148.811441
 20
90.926511000000005
 30
0.0
 40
1.2166920000000001
 50
106.24669400000001
 51
118.10096
  0
ARC
  5
AD
  8
0
 62
     7
 10
148.51852600000001
 20
91.490740000000002
 30
0.0
 40
0.581051
 50
118.828734
 51
135.77422200000001
  0
ARC
  5
AE
  8
0
 62
     7
 10
148.328022
 20
91.684591999999995
 30
0.0
 40
0.309386
 50
136.89275699999999
 51
178.282802
  0
LINE
  5
AF
  8
0
 62
     7
 10
150.21899999999999
 20
90.276499999999984
 30
0.0
 11
150.21899999999999
 21
91.693899999999985
 31
0.0
  0
LINE
  5
B0
  8
0
 62
     7
 10
146.91900000000001
 20
89.785300000000007
 30
0.0
 11
149.119
 21
89.785300000000007
 31
0.0
  0
LINE
  5
B1
  8
0
 62
     7
 10
146.91900000000001
 20
92.185100000000006
 30
0.0
 11
149.11799999999999
 21
92.185100000000006
 31
0.0
  0
LINE
  5
B2
  8
0
 62
     7
 10
148.01900000000001
 20
90.276499999999984
 30
0.0
 11
148.01900000000001
 21
91.693899999999985
 31
0.0
  0
ARC
  5
B3
  8
0
 62
     7
 10
148.01877400000001
 20
68.418306000000001
 30
0.0
 40
1.249887999999999
 50
179.99996999999999
 51
270.00002000000001
  0
ARC
  5
B4
  8
0
 62
     7
 10
148.01877400000001
 20
68.418306999999999
 30
0.0
 40
1.249889
 50
270.00002000000001
 51
359.99999000000003
  0
LINE
  5
B5
  8
0
 62
     7
 10
93.970699999999994
 20
53.799599999999998
 30
0.0
 11
93.970699999999994
 21
51.698799999999999
 31
0.0
  0
LINE
  5
B6
  8
0
 62
     7
 10
92.870400000000004
 20
53.799599999999998
 30
0.0
 11
92.870400000000004
 21
51.698799999999999
 31
0.0
  0
ARC
  5
B7
  8
0
 62
     7
 10
91.248362
 20
58.053935000000003
 30
0.0
 40
6.9136809999999986
 50
291.41233399999999
 51
293.18910199999999
  0
ARC
  5
B8
  8
0
 62
     7
 10
93.281937999999997
 20
52.903128000000002
 30
0.0
 40
1.376044
 50
279.69283899999999
 51
290.880538
  0
ARC
  5
B9
  8
0
 62
     7
 10
93.408338000000001
 20
52.255431999999999
 30
0.0
 40
0.716482
 50
270.19190900000001
 51
278.449614
  0
ARC
  5
BA
  8
0
 62
     7
 10
93.411489999999986
 20
52.280600999999997
 30
0.0
 40
0.7416470000000001
 50
256.38591500000001
 51
269.94185399999998
  0
ARC
  5
BB
  8
0
 62
     7
 10
93.540772000000004
 20
52.874681999999993
 30
0.0
 40
1.349540999999999
 50
245.10833099999999
 51
256.98820799999999
  0
ARC
  5
BC
  8
0
 62
     7
 10
94.010621
 20
53.982893999999987
 30
0.0
 40
2.552884999999999
 50
243.470947
 51
246.011685
  0
ARC
  5
BD
  8
0
 62
     7
 10
93.463009000000014
 20
52.92064899999999
 30
0.0
 40
1.0601160000000001
 50
92.826238000000004
 51
123.988834
  0
ARC
  5
BE
  8
0
 62
     7
 10
93.410216000000005
 20
53.234388000000003
 30
0.0
 40
0.745088
 50
76.541521000000003
 51
89.959924000000001
  0
ARC
  5
BF
  8
0
 62
     7
 10
93.318899999999985
 20
52.804153999999997
 30
0.0
 40
1.184814
 50
64.749554000000003
 51
77.089151999999984
  0
ARC
  5
C0
  8
0
 62
     7
 10
93.124709999999993
 20
52.351089000000002
 30
0.0
 40
1.6775189999999991
 50
59.712780000000002
 51
65.351741000000004
  0
LINE
  5
C1
  8
0
 62
     7
 10
89.570499999999996
 20
53.799599999999998
 30
0.0
 11
89.570499999999996
 21
51.698799999999999
 31
0.0
  0
LINE
  5
C2
  8
0
 62
     7
 10
90.670100000000005
 20
53.799599999999998
 30
0.0
 11
90.670100000000005
 21
51.698799999999999
 31
0.0
  0
ARC
  5
C3
  8
0
 62
     7
 10
88.203387000000006
 20
57.429687999999992
 30
0.0
 40
6.2392219999999989
 50
291.36314900000002
 51
293.28863899999999
  0
ARC
  5
C4
  8
0
 62
     7
 10
89.957877999999994
 20
52.963459
 30
0.0
 40
1.440761
 50
280.174443
 51
291.08508699999999
  0
ARC
  5
C5
  8
0
 62
     7
 10
90.127146999999994
 20
52.109002000000011
 30
0.0
 40
0.5700560000000001
 50
270.29923600000001
 51
278.59911399999999
  0
ARC
  5
C6
  8
0
 62
     7
 10
90.130673999999999
 20
52.27564799999999
 30
0.0
 40
0.736694
 50
256.22179599999998
 51
269.957245
  0
ARC
  5
C7
  8
0
 62
     7
 10
90.246202999999994
 20
52.825586000000001
 30
0.0
 40
1.2984569999999991
 50
251.30794299999999
 51
257.050119
  0
ARC
  5
C8
  8
0
 62
     7
 10
90.776438999999996
 20
54.354593999999992
 30
0.0
 40
2.9167740000000002
 50
245.57754
 51
251.06732000000011
  0
ARC
  5
C9
  8
0
 62
     7
 10
90.357935999999995
 20
52.449283999999999
 30
0.0
 40
1.5631930000000001
 50
106.241091
 51
120.24891100000001
  0
ARC
  5
CA
  8
0
 62
     7
 10
90.143089000000003
 20
53.126300000000001
 30
0.0
 40
0.853274
 50
90.870563000000004
 51
105.10452100000001
  0
ARC
  5
CB
  8
0
 62
     7
 10
90.129644999999996
 20
53.354195999999988
 30
0.0
 40
0.625279
 50
75.137753000000004
 51
89.956040999999985
  0
ARC
  5
CC
  8
0
 62
     7
 10
89.989395000000002
 20
52.738422999999997
 30
0.0
 40
1.2566250000000001
 50
63.839731999999991
 51
76.158470000000008
  0
ARC
  5
CD
  8
0
 62
     7
 10
89.807918000000001
 20
52.314828999999989
 30
0.0
 40
1.717004
 50
59.856297999999988
 51
64.636236999999994
  0
ARC
  5
CE
  8
0
 62
     7
 10
93.946787999999984
 20
46.294755000000002
 30
0.0
 40
5.5102139999999986
 50
101.26512700000001
 51
103.426074
  0
ARC
  5
CF
  8
0
 62
     7
 10
91.545178000000007
 20
55.953422000000003
 30
0.0
 40
4.4430959999999988
 50
278.47461199999998
 51
284.62960199999998
  0
ARC
  5
D0
  8
0
 62
     7
 10
91.932519999999997
 20
53.339697999999999
 30
0.0
 40
1.800829
 50
270.556423
 51
278.54062800000003
  0
LINE
  5
D1
  8
0
 62
     7
 10
91.950000000000003
 20
51.539000000000001
 30
0.0
 11
91.590699999999984
 21
51.539000000000001
 31
0.0
  0
ARC
  5
D2
  8
0
 62
     7
 10
91.59205
 20
53.156965999999997
 30
0.0
 40
1.618012
 50
260.71864199999999
 51
269.95156400000002
  0
ARC
  5
D3
  8
0
 62
     7
 10
91.841015999999996
 20
54.889918999999992
 30
0.0
 40
3.368601
 50
257.77596799999998
 51
261.29335800000001
  0
ARC
  5
D4
  8
0
 62
     7
 10
78.439243999999974
 20
-4.7414979999999991
 30
0.0
 40
57.750351000000002
 50
77.307795999999996
 51
77.772765000000021
  0
ARC
  5
D5
  8
0
 62
     7
 10
91.691455000000005
 20
50.777083000000012
 30
0.0
 40
3.1904430000000001
 50
102.108501
 51
108.669875
  0
ARC
  5
D6
  8
0
 62
     7
 10
91.870320000000007
 20
50.128489999999999
 30
0.0
 40
3.8623199999999991
 50
95.808346000000014
 51
102.684591
  0
ARC
  5
D7
  8
0
 62
     7
 10
91.685438000000005
 20
51.901913
 30
0.0
 40
2.0792969999999991
 50
87.659710000000004
 51
95.685461000000004
  0
ARC
  5
D8
  8
0
 62
     7
 10
91.838250000000002
 20
52.832937999999999
 30
0.0
 40
1.148545999999999
 50
88.649874999999994
 51
93.389440000000036
  0
ARC
  5
D9
  8
0
 62
     7
 10
91.820728000000003
 20
51.792948000000003
 30
0.0
 40
2.1886709999999989
 50
84.630166000000017
 51
88.832785999999999
  0
ARC
  5
DA
  8
0
 62
     7
 10
91.649872000000002
 20
49.974336000000001
 30
0.0
 40
4.0152919999999988
 50
72.304228000000009
 51
84.631405999999998
  0
LINE
  5
DB
  8
0
 62
     7
 10
92.770499999999998
 20
54.11999999999999
 30
0.0
 11
91.770300000000006
 21
54.11999999999999
 31
0.0
  0
LINE
  5
DC
  8
0
 62
     7
 10
90.770399999999995
 20
54.11999999999999
 30
0.0
 11
91.770300000000006
 21
54.11999999999999
 31
0.0
  0
LINE
  5
DD
  8
0
 62
     7
 10
89.929800000000014
 20
51.498999999999988
 30
0.0
 11
91.770300000000006
 21
51.498999999999988
 31
0.0
  0
LINE
  5
DE
  8
0
 62
     7
 10
91.770300000000006
 20
51.498999999999988
 30
0.0
 11
93.610900000000001
 21
51.498999999999988
 31
0.0
  0
LINE
  5
DF
  8
0
 62
     7
 10
93.850899999999996
 20
51.658799999999999
 30
0.0
 11
93.610900000000001
 21
51.518999999999998
 31
0.0
  0
LINE
  5
E0
  8
0
 62
     7
 10
93.610900000000001
 20
51.518999999999998
 30
0.0
 11
93.610900000000001
 21
51.498999999999988
 31
0.0
  0
LINE
  5
E1
  8
0
 62
     7
 10
93.970699999999994
 20
51.698799999999999
 30
0.0
 11
93.610900000000001
 21
51.518999999999998
 31
0.0
  0
LINE
  5
E2
  8
0
 62
     7
 10
89.570499999999996
 20
51.698799999999999
 30
0.0
 11
89.929800000000014
 21
51.498999999999988
 31
0.0
  0
LINE
  5
E3
  8
0
 62
     7
 10
89.929800000000014
 20
53.999499999999998
 30
0.0
 11
93.610900000000001
 21
53.999499999999998
 31
0.0
  0
LINE
  5
E4
  8
0
 62
     7
 10
90.530100000000004
 20
54.099400000000003
 30
0.0
 11
93.010599999999997
 21
54.099400000000003
 31
0.0
  0
ARC
  5
E5
  8
0
 62
     7
 10
92.563361999999984
 20
54.667520999999986
 30
0.0
 40
0.5853470000000001
 50
290.72044099999999
 51
322.56921599999998
  0
ARC
  5
E6
  8
0
 62
     7
 10
92.691998999999996
 20
54.552546999999997
 30
0.0
 40
0.413523
 50
324.3865009999999
 51
341.27009399999997
  0
LINE
  5
E7
  8
0
 62
     7
 10
93.083600000000004
 20
54.419800000000002
 30
0.0
 11
93.110299999999995
 21
54.499699999999997
 31
0.0
  0
LINE
  5
E8
  8
0
 62
     7
 10
93.110299999999995
 20
54.499699999999997
 30
0.0
 11
93.110299999999995
 21
54.619599999999998
 31
0.0
  0
LINE
  5
E9
  8
0
 62
     7
 10
93.110299999999995
 20
54.619599999999998
 30
0.0
 11
93.070700000000016
 21
54.759399999999999
 31
0.0
  0
LINE
  5
EA
  8
0
 62
     7
 10
90.450199999999995
 20
54.759399999999999
 30
0.0
 11
90.469999999999999
 21
54.759399999999999
 31
0.0
  0
ARC
  5
EB
  8
0
 62
     7
 10
106.75075200000001
 20
52.37953199999999
 30
0.0
 40
16.473396999999999
 50
171.69336999999999
 51
172.18471099999999
  0
LINE
  5
EC
  8
0
 62
     7
 10
90.430400000000006
 20
54.619599999999998
 30
0.0
 11
90.430400000000006
 21
54.499699999999997
 31
0.0
  0
LINE
  5
ED
  8
0
 62
     7
 10
90.430400000000006
 20
54.499699999999997
 30
0.0
 11
90.456199999999995
 21
54.419800000000002
 31
0.0
  0
ARC
  5
EE
  8
0
 62
     7
 10
91.294368000000006
 20
54.700513999999998
 30
0.0
 40
0.8839339999999999
 50
198.51891499999999
 51
203.87817899999999
  0
ARC
  5
EF
  8
0
 62
     7
 10
90.800507999999994
 20
54.481361999999997
 30
0.0
 40
0.343634
 50
203.79745700000001
 51
237.85920200000001
  0
ARC
  5
F0
  8
0
 62
     7
 10
91.308025999999998
 20
55.333672
 30
0.0
 40
1.3355330000000001
 50
238.87573499999999
 51
245.33017599999999
  0
LINE
  5
F1
  8
0
 62
     7
 10
90.750600000000006
 20
54.11999999999999
 30
0.0
 11
90.770399999999995
 21
54.11999999999999
 31
0.0
  0
LINE
  5
F2
  8
0
 62
     7
 10
90.610399999999998
 20
55.099800000000002
 30
0.0
 11
92.910899999999998
 21
55.099800000000002
 31
0.0
  0
LINE
  5
F3
  8
0
 62
     7
 10
90.610399999999998
 20
56.6997
 30
0.0
 11
91.770300000000006
 21
56.6997
 31
0.0
  0
LINE
  5
F4
  8
0
 62
     7
 10
91.770300000000006
 20
56.6997
 30
0.0
 11
92.910899999999998
 21
56.6997
 31
0.0
  0
LINE
  5
F5
  8
0
 62
     7
 10
93.110299999999995
 20
57.140000000000001
 30
0.0
 11
93.110299999999995
 21
57.040100000000002
 31
0.0
  0
LINE
  5
F6
  8
0
 62
     7
 10
93.110299999999995
 20
57.040100000000002
 30
0.0
 11
93.050600000000003
 21
56.939500000000002
 31
0.0
  0
LINE
  5
F7
  8
0
 62
     7
 10
90.410200000000003
 20
57.140000000000001
 30
0.0
 11
90.430400000000006
 21
57.040100000000002
 31
0.0
  0
LINE
  5
F8
  8
0
 62
     7
 10
90.430400000000006
 20
57.040100000000002
 30
0.0
 11
90.469999999999999
 21
56.939500000000002
 31
0.0
  0
LINE
  5
F9
  8
0
 62
     7
 10
90.410200000000003
 20
57.700200000000002
 30
0.0
 11
93.110299999999995
 21
57.700200000000002
 31
0.0
  0
LINE
  5
FA
  8
0
 62
     7
 10
90.410200000000003
 20
57.700200000000002
 30
0.0
 11
90.410200000000003
 21
57.140000000000001
 31
0.0
  0
LINE
  5
FB
  8
0
 62
     7
 10
93.110299999999995
 20
57.700200000000002
 30
0.0
 11
93.110299999999995
 21
57.140000000000001
 31
0.0
  0
LINE
  5
FC
  8
0
 62
     7
 10
93.610900000000001
 20
53.999499999999998
 30
0.0
 11
93.970699999999994
 21
53.799599999999998
 31
0.0
  0
LINE
  5
FD
  8
0
 62
     7
 10
89.929800000000014
 20
53.999499999999998
 30
0.0
 11
89.570499999999996
 21
53.799599999999998
 31
0.0
  0
LINE
  5
FE
  8
0
 62
     7
 10
90.469999999999999
 20
56.939500000000002
 30
0.0
 11
90.610399999999998
 21
56.6997
 31
0.0
  0
LINE
  5
FF
  8
0
 62
     7
 10
90.610399999999998
 20
55.099800000000002
 30
0.0
 11
90.469999999999999
 21
54.759399999999999
 31
0.0
  0
LINE
  5
100
  8
0
 62
     7
 10
93.050600000000003
 20
56.939500000000002
 30
0.0
 11
92.910899999999998
 21
56.6997
 31
0.0
  0
LINE
  5
101
  8
0
 62
     7
 10
92.910899999999998
 20
55.099800000000002
 30
0.0
 11
93.070700000000016
 21
54.759399999999999
 31
0.0
  0
LINE
  5
102
  8
0
 62
     7
 10
90.610399999999998
 20
56.6997
 30
0.0
 11
90.610399999999998
 21
55.099800000000002
 31
0.0
  0
LINE
  5
103
  8
0
 62
     7
 10
92.910899999999998
 20
56.6997
 30
0.0
 11
92.910899999999998
 21
55.099800000000002
 31
0.0
  0
LINE
  5
104
  8
0
 62
     7
 10
90.530100000000004
 20
54.099400000000003
 30
0.0
 11
90.530100000000004
 21
53.999499999999998
 31
0.0
  0
LINE
  5
105
  8
0
 62
     7
 10
93.010599999999997
 20
54.099400000000003
 30
0.0
 11
93.010599999999997
 21
53.999499999999998
 31
0.0
  0
LINE
  5
106
  8
0
 62
     7
 10
89.570499999999996
 20
51.698799999999999
 30
0.0
 11
89.929800000000014
 21
51.498999999999988
 31
0.0
  0
LINE
  5
107
  8
0
 62
     7
 10
93.970699999999994
 20
51.698799999999999
 30
0.0
 11
93.610900000000001
 21
51.498999999999988
 31
0.0
  0
LINE
  5
108
  8
0
  6
AIGENLINE001
 62
     7
 10
151.73099999999999
 20
126.247
 30
0.0
 11
146.97800000000001
 21
126.352
 31
0.0
  0
LINE
  5
109
  8
0
  6
AIGENLINE001
 62
     7
 10
151.73099999999999
 20
126.247
 30
0.0
 11
153.48599999999999
 21
130.28200000000001
 31
0.0
  0
LINE
  5
10A
  8
0
  6
AIGENLINE001
 62
     7
 10
142.9429999999999
 20
128.107
 30
0.0
 11
143.50200000000001
 21
129.38999999999999
 31
0.0
  0
LINE
  5
10B
  8
0
  6
AIGENLINE001
 62
     7
 10
131.636
 20
135.20599999999999
 30
0.0
 11
143.191
 21
130.18000000000001
 31
0.0
  0
ARC
  5
10C
  8
0
  6
AIGENLINE001
 62
     7
 10
142.920016
 20
129.617268
 30
0.0
 40
0.624293
 50
338.66762299999999
 51
64.295889999999986
  0
LINE
  5
10D
  8
0
  6
AIGENLINE001
 62
     7
 10
145.017
 20
132.875
 30
0.0
 11
145.416
 21
133.792
 31
0.0
  0
LINE
  5
10E
  8
0
  6
AIGENLINE001
 62
     7
 10
132.67400000000001
 20
137.59
 30
0.0
 11
144.22800000000001
 21
132.56399999999999
 31
0.0
  0
ARC
  5
10F
  8
0
  6
AIGENLINE001
 62
     7
 10
144.45472100000001
 20
133.14510899999999
 30
0.0
 40
0.624037
 50
248.67325600000001
 51
334.37683500000003
  0
LINE
  5
110
  8
0
  6
AIGENLINE001
 62
     7
 10
131.636
 20
135.20599999999999
 30
0.0
 11
132.67400000000001
 21
137.59
 31
0.0
  0
LINE
  5
111
  8
0
  6
AIGENLINE001
 62
     7
 10
142.9429999999999
 20
128.107
 30
0.0
 11
146.97800000000001
 21
126.352
 31
0.0
  0
LINE
  5
112
  8
0
  6
AIGENLINE001
 62
     7
 10
145.416
 20
133.792
 30
0.0
 11
153.48599999999999
 21
130.28200000000001
 31
0.0
  0
ARC
  5
113
  8
0
 62
     7
 10
146.771998
 20
125.302723
 30
0.0
 40
3.9527000000000001
 50
164.11182700000001
 51
170.05767599999999
  0
ARC
  5
114
  8
0
 62
     7
 10
146.80561700000001
 20
125.288027
 30
0.0
 40
4.013723999999999
 50
10.002598000000001
 51
36.828845999999999
  0
LINE
  5
115
  8
0
 62
     7
 10
151.21899999999999
 20
128.185
 30
0.0
 11
146.81800000000001
 21
126.38500000000001
 31
0.0
  0
LINE
  5
116
  8
0
 62
     7
 10
151.21899999999999
 20
128.185
 30
0.0
 11
151.21899999999999
 21
132.584
 31
0.0
  0
LINE
  5
117
  8
0
 62
     7
 10
142.41800000000001
 20
126.38500000000001
 30
0.0
 11
142.41800000000001
 21
127.785
 31
0.0
  0
LINE
  5
118
  8
0
 62
     7
 10
129.21899999999999
 20
128.38499999999999
 30
0.0
 11
141.8179999999999
 21
128.38499999999999
 31
0.0
  0
ARC
  5
119
  8
0
 62
     7
 10
141.818252
 20
127.78491099999999
 30
0.0
 40
0.6001400000000001
 50
0.00001
 51
89.999980000000008
  0
LINE
  5
11A
  8
0
 62
     7
 10
142.41800000000001
 20
131.58500000000001
 30
0.0
 11
142.41800000000001
 21
132.584
 31
0.0
  0
LINE
  5
11B
  8
0
 62
     7
 10
129.21899999999999
 20
130.98500000000001
 30
0.0
 11
141.8179999999999
 21
130.98500000000001
 31
0.0
  0
ARC
  5
11C
  8
0
 62
     7
 10
141.818252
 20
131.58470399999999
 30
0.0
 40
0.6001400000000001
 50
270.00002000000001
 51
359.99999000000003
  0
LINE
  5
11D
  8
0
 62
     7
 10
141.21899999999999
 20
128.38499999999999
 30
0.0
 11
141.21899999999999
 21
130.98500000000001
 31
0.0
  0
LINE
  5
11E
  8
0
 62
     7
 10
129.21899999999999
 20
128.38499999999999
 30
0.0
 11
129.21899999999999
 21
130.98500000000001
 31
0.0
  0
LINE
  5
11F
  8
0
 62
     7
 10
142.41800000000001
 20
126.38500000000001
 30
0.0
 11
146.81800000000001
 21
126.38500000000001
 31
0.0
  0
LINE
  5
120
  8
0
 62
     7
 10
142.41800000000001
 20
132.584
 30
0.0
 11
151.21899999999999
 21
132.584
 31
0.0
  0
ARC
  5
121
  8
0
 62
     7
 10
81.478745999999987
 20
129.68437700000001
 30
0.0
 40
1.3001869999999991
 50
0.00001
 51
89.999980000000008
  0
ARC
  5
122
  8
0
 62
     7
 10
81.478831999999997
 20
129.68446299999999
 30
0.0
 40
1.3001009999999991
 50
90.003795999999994
 51
180.003806
  0
ARC
  5
123
  8
0
 62
     7
 10
81.527967000000004
 20
129.73431299999999
 30
0.0
 40
1.35016
 50
182.11961599999989
 51
267.91078999999991
  0
ARC
  5
124
  8
0
 62
     7
 10
81.428884999999994
 20
129.73513199999999
 30
0.0
 40
1.3510009999999999
 50
272.11506500000002
 51
357.84697799999998
  0
ARC
  5
125
  8
0
 62
     7
 10
81.448611999999983
 20
125.29897099999999
 30
0.0
 40
3.9694660000000002
 50
164.12439599999999
 51
170.045108
  0
ARC
  5
126
  8
0
 62
     7
 10
81.405675000000016
 20
125.277035
 30
0.0
 40
4.0747410000000004
 50
10.008227
 51
15.7753
  0
LINE
  5
127
  8
0
 62
     7
 10
85.878699999999995
 20
126.38500000000001
 30
0.0
 11
85.878699999999995
 21
132.584
 31
0.0
  0
LINE
  5
128
  8
0
 62
     7
 10
77.078599999999994
 20
126.38500000000001
 30
0.0
 11
77.078599999999994
 21
132.584
 31
0.0
  0
LINE
  5
129
  8
0
 62
     7
 10
77.078599999999994
 20
126.38500000000001
 30
0.0
 11
85.878699999999995
 21
126.38500000000001
 31
0.0
  0
LINE
  5
12A
  8
0
 62
     7
 10
77.078599999999994
 20
132.584
 30
0.0
 11
85.878699999999995
 21
132.584
 31
0.0
  0
LINE
  5
12B
  8
0
  6
AIGENLINE002
 62
     7
 10
91.768100000000004
 20
104.175
 30
0.0
 11
83.278599999999983
 21
96.222099999999998
 31
0.0
  0
LINE
  5
12C
  8
0
 62
     7
 10
136.07900000000001
 20
57.700200000000002
 30
0.0
 11
136.07900000000001
 21
101.869
 31
0.0
  0
LINE
  5
12D
  8
0
 62
     7
 10
138.179
 20
101.869
 30
0.0
 11
138.179
 21
57.700200000000002
 31
0.0
  0
LINE
  5
12E
  8
0
  6
AIGENLINE002
 62
     7
 10
137.12899999999999
 20
104.175
 30
0.0
 11
137.12899999999999
 21
50.529499999999999
 31
0.0
  0
LINE
  5
12F
  8
0
 62
     7
 10
90.717999999999989
 20
57.700200000000002
 30
0.0
 11
90.717999999999989
 21
101.869
 31
0.0
  0
LINE
  5
130
  8
0
 62
     7
 10
92.818200000000004
 20
101.869
 30
0.0
 11
92.818200000000004
 21
57.700200000000002
 31
0.0
  0
LINE
  5
131
  8
0
 62
     7
 10
137.12899999999999
 20
51.698799999999999
 30
0.0
 11
137.12899999999999
 21
53.798999999999999
 31
0.0
  0
LINE
  5
132
  8
0
 62
     7
 10
135.22800000000001
 20
51.698799999999999
 30
0.0
 11
135.22800000000001
 21
53.798999999999999
 31
0.0
  0
ARC
  5
133
  8
0
 62
     7
 10
139.31619599999999
 20
67.962647000000004
 30
0.0
 40
16.76968299999999
 50
255.89149500000011
 51
257.06355600000001
  0
ARC
  5
134
  8
0
 62
     7
 10
136.3742189999999
 20
55.241104000000007
 30
0.0
 40
3.7124549999999998
 50
257.36189899999999
 51
264.203329
  0
ARC
  5
135
  8
0
 62
     7
 10
136.19273799999999
 20
53.699302000000003
 30
0.0
 40
2.160350999999999
 50
264.86194699999999
 51
269.89901800000001
  0
ARC
  5
136
  8
0
 62
     7
 10
136.18809899999999
 20
53.586282999999987
 30
0.0
 40
2.0473279999999989
 50
270.02328399999999
 51
278.14766500000002
  0
ARC
  5
137
  8
0
 62
     7
 10
136.02985000000001
 20
54.856169999999999
 30
0.0
 40
3.3269079999999991
 50
277.74600099999998
 51
281.36863899999997
  0
ARC
  5
138
  8
0
 62
     7
 10
135.15586200000001
 20
59.089294999999993
 30
0.0
 40
7.6492889999999987
 50
281.536449
 51
284.94662499999998
  0
ARC
  5
139
  8
0
 62
     7
 10
135.86087000000001
 20
50.086911999999998
 30
0.0
 40
3.9225979999999998
 50
71.141821999999991
 51
79.928281000000013
  0
ARC
  5
13A
  8
0
 62
     7
 10
136.172079
 20
51.659828999999988
 30
0.0
 40
2.3197079999999999
 50
80.702400000000011
 51
89.58376899999999
  0
ARC
  5
13B
  8
0
 62
     7
 10
136.19037499999999
 20
51.624546000000002
 30
0.0
 40
2.3549299999999991
 50
90.03513700000002
 51
102.151605
  0
ARC
  5
13C
  8
0
 62
     7
 10
136.42390599999999
 20
50.350918
 30
0.0
 40
3.649395999999999
 50
101.526737
 51
109.12202499999999
  0
ARC
  5
13D
  8
0
 62
     7
 10
141.216523
 20
67.962647000000004
 30
0.0
 40
16.76968299999999
 50
255.89149500000011
 51
257.06355600000001
  0
ARC
  5
13E
  8
0
 62
     7
 10
138.27454599999999
 20
55.241104000000007
 30
0.0
 40
3.7124549999999998
 50
257.36189899999999
 51
264.203329
  0
ARC
  5
13F
  8
0
 62
     7
 10
138.093065
 20
53.699302000000003
 30
0.0
 40
2.160350999999999
 50
264.86194699999999
 51
269.89901800000001
  0
ARC
  5
140
  8
0
 62
     7
 10
138.08842300000001
 20
53.582090999999998
 30
0.0
 40
2.0431369999999989
 50
270.02341000000001
 51
278.15603299999998
  0
ARC
  5
141
  8
0
 62
     7
 10
137.928394
 20
54.86598
 30
0.0
 40
3.3368279999999988
 50
277.7484970000001
 51
281.36127399999998
  0
ARC
  5
142
  8
0
 62
     7
 10
137.05742799999999
 20
59.087656000000003
 30
0.0
 40
7.6473849999999999
 50
281.527986
 51
284.94081699999998
  0
LINE
  5
143
  8
0
 62
     7
 10
139.029
 20
51.698799999999999
 30
0.0
 11
139.029
 21
53.798999999999999
 31
0.0
  0
ARC
  5
144
  8
0
 62
     7
 10
137.755976
 20
50.065829000000001
 30
0.0
 40
3.9442370000000002
 50
71.169038
 51
79.909779999999998
  0
ARC
  5
145
  8
0
 62
     7
 10
138.07247599999999
 20
51.662907000000011
 30
0.0
 40
2.3166289999999998
 50
80.696275999999997
 51
89.584947000000014
  0
ARC
  5
146
  8
0
 62
     7
 10
138.090676
 20
51.624887000000001
 30
0.0
 40
2.3545889999999989
 50
90.034518999999989
 51
102.15248699999999
  0
ARC
  5
147
  8
0
 62
     7
 10
138.328215
 20
50.336323999999998
 30
0.0
 40
3.6644890000000001
 50
101.541983
 51
109.106105
  0
LINE
  5
148
  8
0
 62
     7
 10
139.029
 20
51.539000000000001
 30
0.0
 11
139.029
 21
51.698799999999999
 31
0.0
  0
LINE
  5
149
  8
0
 62
     7
 10
139.029
 20
53.798999999999999
 30
0.0
 11
139.029
 21
53.979500000000002
 31
0.0
  0
LINE
  5
14A
  8
0
 62
     7
 10
135.22800000000001
 20
51.539000000000001
 30
0.0
 11
135.22800000000001
 21
51.698799999999999
 31
0.0
  0
LINE
  5
14B
  8
0
 62
     7
 10
135.22800000000001
 20
53.798999999999999
 30
0.0
 11
135.22800000000001
 21
53.979500000000002
 31
0.0
  0
LINE
  5
14C
  8
0
 62
     7
 10
138.12899999999999
 20
54.119300000000003
 30
0.0
 11
137.12899999999999
 21
54.119300000000003
 31
0.0
  0
LINE
  5
14D
  8
0
 62
     7
 10
137.12899999999999
 20
54.119300000000003
 30
0.0
 11
136.13
 21
54.119300000000003
 31
0.0
  0
LINE
  5
14E
  8
0
 62
     7
 10
139.029
 20
51.539000000000001
 30
0.0
 11
138.96899999999999
 21
51.498999999999988
 31
0.0
  0
LINE
  5
14F
  8
0
 62
     7
 10
138.96899999999999
 20
51.498999999999988
 30
0.0
 11
135.28899999999999
 21
51.498999999999988
 31
0.0
  0
LINE
  5
150
  8
0
 62
     7
 10
135.28899999999999
 20
51.498999999999988
 30
0.0
 11
135.22800000000001
 21
51.539000000000001
 31
0.0
  0
ARC
  5
151
  8
0
 62
     7
 10
139.01435799999999
 20
53.952971999999988
 30
0.0
 40
0.03032
 50
60.94053000000001
 51
90.245726000000005
  0
ARC
  5
152
  8
0
 62
     7
 10
138.87479300000001
 20
52.806619999999988
 30
0.0
 40
1.184904
 50
83.241970999999992
 51
88.786173000000005
  0
ARC
  5
153
  8
0
 62
     7
 10
138.376893
 20
39.566282999999999
 30
0.0
 40
14.434453
 50
87.923552000000015
 51
89.528672999999984
  0
ARC
  5
154
  8
0
 62
     7
 10
137.52916200000001
 20
-35.122107999999997
 30
0.0
 40
89.127596999999994
 50
89.378682999999995
 51
90.042079999999999
  0
ARC
  5
155
  8
0
 62
     7
 10
137.55441500000001
 20
-372.43456200000003
 30
0.0
 40
426.44003700000002
 50
90.012179999999987
 51
90.304359999999988
  0
LINE
  5
156
  8
0
 62
     7
 10
135.28899999999999
 20
53.999499999999998
 30
0.0
 11
135.22800000000001
 21
53.979500000000002
 31
0.0
  0
LINE
  5
157
  8
0
 62
     7
 10
138.369
 20
53.999499999999998
 30
0.0
 11
138.369
 21
54.099400000000003
 31
0.0
  0
LINE
  5
158
  8
0
 62
     7
 10
138.369
 20
54.099400000000003
 30
0.0
 11
135.88900000000001
 21
54.099400000000003
 31
0.0
  0
LINE
  5
159
  8
0
 62
     7
 10
135.88900000000001
 20
53.999499999999998
 30
0.0
 11
135.88900000000001
 21
54.099400000000003
 31
0.0
  0
LINE
  5
15A
  8
0
 62
     7
 10
136.13
 20
54.119300000000003
 30
0.0
 11
135.82900000000001
 21
54.3598
 31
0.0
  0
LINE
  5
15B
  8
0
 62
     7
 10
135.82900000000001
 20
54.3598
 30
0.0
 11
135.809
 21
54.759399999999999
 31
0.0
  0
LINE
  5
15C
  8
0
 62
     7
 10
138.44999999999999
 20
54.759399999999999
 30
0.0
 11
138.429
 21
54.3598
 31
0.0
  0
LINE
  5
15D
  8
0
 62
     7
 10
138.429
 20
54.3598
 30
0.0
 11
138.12899999999999
 21
54.119300000000003
 31
0.0
  0
LINE
  5
15E
  8
0
 62
     7
 10
138.28899999999999
 20
55.099800000000002
 30
0.0
 11
135.97
 21
55.099800000000002
 31
0.0
  0
LINE
  5
15F
  8
0
 62
     7
 10
135.97
 20
55.099800000000002
 30
0.0
 11
135.809
 21
54.759399999999999
 31
0.0
  0
LINE
  5
160
  8
0
 62
     7
 10
138.44999999999999
 20
54.759399999999999
 30
0.0
 11
138.28899999999999
 21
55.099800000000002
 31
0.0
  0
LINE
  5
161
  8
0
 62
     7
 10
138.28899999999999
 20
56.6997
 30
0.0
 11
135.97
 21
56.6997
 31
0.0
  0
LINE
  5
162
  8
0
 62
     7
 10
135.97
 20
55.099800000000002
 30
0.0
 11
135.97
 21
56.6997
 31
0.0
  0
LINE
  5
163
  8
0
 62
     7
 10
138.28899999999999
 20
55.099800000000002
 30
0.0
 11
138.28899999999999
 21
56.6997
 31
0.0
  0
LINE
  5
164
  8
0
 62
     7
 10
135.97
 20
56.6997
 30
0.0
 11
135.82900000000001
 21
56.940199999999997
 31
0.0
  0
LINE
  5
165
  8
0
 62
     7
 10
138.429
 20
56.940199999999997
 30
0.0
 11
138.28899999999999
 21
56.6997
 31
0.0
  0
LINE
  5
166
  8
0
 62
     7
 10
135.82900000000001
 20
56.940199999999997
 30
0.0
 11
135.78899999999999
 21
57.040100000000002
 31
0.0
  0
LINE
  5
167
  8
0
 62
     7
 10
135.78899999999999
 20
57.040100000000002
 30
0.0
 11
135.78899999999999
 21
57.140000000000001
 31
0.0
  0
ARC
  5
168
  8
0
 62
     7
 10
138.079894
 20
57.174632000000003
 30
0.0
 40
0.410459
 50
347.320627
 51
355.16366099999999
  0
ARC
  5
169
  8
0
 62
     7
 10
137.89390399999999
 20
57.212057999999992
 30
0.0
 40
0.600143
 50
333.06534700000009
 51
347.73209200000002
  0
LINE
  5
16A
  8
0
 62
     7
 10
138.489
 20
57.140000000000001
 30
0.0
 11
138.489
 21
57.700200000000002
 31
0.0
  0
LINE
  5
16B
  8
0
 62
     7
 10
138.489
 20
57.700200000000002
 30
0.0
 11
135.78899999999999
 21
57.700200000000002
 31
0.0
  0
LINE
  5
16C
  8
0
 62
     7
 10
135.78899999999999
 20
57.140000000000001
 30
0.0
 11
135.78899999999999
 21
57.700200000000002
 31
0.0
  0
LINE
  5
16D
  8
0
  6
AIGENLINE002
 62
     7
 10
91.768100000000004
 20
104.175
 30
0.0
 11
91.768100000000004
 21
50.529499999999999
 31
0.0
  0
LINE
  5
16E
  8
0
  6
AIGENLINE002
 62
     7
 10
137.12899999999999
 20
104.175
 30
0.0
 11
145.61799999999999
 21
96.222099999999998
 31
0.0
  0
LINE
  5
16F
  8
0
  6
AIGENLINE002
 62
     7
 10
71.1892
 20
104.175
 30
0.0
 11
79.678700000000006
 21
96.222099999999998
 31
0.0
  0
LINE
  5
170
  8
0
 62
     7
 10
72.2393
 20
57.700200000000002
 30
0.0
 11
72.2393
 21
101.869
 31
0.0
  0
LINE
  5
171
  8
0
 62
     7
 10
70.139099999999999
 20
101.869
 30
0.0
 11
70.139099999999999
 21
57.700200000000002
 31
0.0
  0
LINE
  5
172
  8
0
  6
AIGENLINE002
 62
     7
 10
71.1892
 20
104.175
 30
0.0
 11
71.1892
 21
50.529499999999999
 31
0.0
  0
LINE
  5
173
  8
0
 62
     7
 10
95.628699999999995
 20
46.213500000000003
 30
0.0
 11
93.418299999999988
 21
45.621600000000001
 31
0.0
  0
LINE
  5
174
  8
0
 62
     7
 10
93.418299999999988
 20
45.621600000000001
 30
0.0
 11
95.628699999999995
 21
45.029099999999993
 31
0.0
  0
LINE
  5
175
  8
0
 62
     7
 10
95.628699999999995
 20
45.029099999999993
 30
0.0
 11
95.628699999999995
 21
46.213500000000003
 31
0.0
  0
LINE
  5
176
  8
0
 62
     7
 10
87.907700000000006
 20
45.043500000000002
 30
0.0
 11
90.118200000000002
 21
45.636099999999992
 31
0.0
  0
LINE
  5
177
  8
0
 62
     7
 10
90.118200000000002
 20
45.636099999999992
 30
0.0
 11
87.907700000000006
 21
46.228000000000002
 31
0.0
  0
LINE
  5
178
  8
0
 62
     7
 10
87.907700000000006
 20
46.228000000000002
 30
0.0
 11
87.907700000000006
 21
45.043500000000002
 31
0.0
  0
LINE
  5
179
  8
0
 62
     7
 10
86.793199999999999
 20
45.621600000000001
 30
0.0
 11
102.55
 21
45.621600000000001
 31
0.0
  0
LINE
  5
17A
  8
0
 62
     7
 10
90.118200000000002
 20
44.921599999999998
 30
0.0
 11
90.118200000000002
 21
50.881300000000003
 31
0.0
  0
LINE
  5
17B
  8
0
 62
     7
 10
93.418299999999988
 20
44.921599999999998
 30
0.0
 11
93.418299999999988
 21
50.881300000000003
 31
0.0
  0
LINE
  5
17C
  8
0
 62
     7
 10
71.1892
 20
51.698799999999999
 30
0.0
 11
71.1892
 21
53.798999999999999
 31
0.0
  0
LINE
  5
17D
  8
0
 62
     7
 10
69.288899999999984
 20
51.698799999999999
 30
0.0
 11
69.288899999999984
 21
53.798999999999999
 31
0.0
  0
ARC
  5
17E
  8
0
 62
     7
 10
73.398291
 20
68.048823999999996
 30
0.0
 40
16.858535
 50
255.89156299999999
 51
257.05718000000002
  0
ARC
  5
17F
  8
0
 62
     7
 10
70.433855000000008
 20
55.236266000000001
 30
0.0
 40
3.707573
 50
257.35668500000003
 51
264.20631300000002
  0
ARC
  5
180
  8
0
 62
     7
 10
70.253159999999994
 20
53.701565000000002
 30
0.0
 40
2.162614
 50
264.86465600000002
 51
269.90001899999999
  0
ARC
  5
181
  8
0
 62
     7
 10
70.248553000000001
 20
53.584186000000003
 30
0.0
 40
2.0452319999999991
 50
270.023347
 51
278.15184699999998
  0
ARC
  5
182
  8
0
 62
     7
 10
70.089415000000002
 20
54.861069999999998
 30
0.0
 40
3.3318620000000001
 50
277.74724900000001
 51
281.36495500000001
  0
ARC
  5
183
  8
0
 62
     7
 10
69.216193000000004
 20
59.091639000000001
 30
0.0
 40
7.6515859999999991
 50
281.53294099999999
 51
284.94299599999999
  0
ARC
  5
184
  8
0
 62
     7
 10
69.918719999999993
 20
50.076390000000011
 30
0.0
 40
3.9333979999999999
 50
71.155439000000001
 51
79.919021999999998
  0
ARC
  5
185
  8
0
 62
     7
 10
70.232569999999996
 20
51.661368000000003
 30
0.0
 40
2.318168
 50
80.699338999999995
 51
89.584357999999995
  0
ARC
  5
186
  8
0
 62
     7
 10
70.250821000000002
 20
51.623426999999992
 30
0.0
 40
2.3560490000000001
 50
90.034874000000016
 51
102.148708
  0
ARC
  5
187
  8
0
 62
     7
 10
70.484183999999999
 20
50.352302000000002
 30
0.0
 40
3.6480299999999999
 50
101.530342
 51
109.126516
  0
ARC
  5
188
  8
0
 62
     7
 10
75.279848999999984
 20
67.974080000000001
 30
0.0
 40
16.781471
 50
255.891504
 51
257.06270599999999
  0
ARC
  5
189
  8
0
 62
     7
 10
72.334950000000006
 20
55.239941000000002
 30
0.0
 40
3.7113119999999999
 50
257.35858899999999
 51
264.19949900000012
  0
ARC
  5
18A
  8
0
 62
     7
 10
72.153201999999993
 20
53.696272
 30
0.0
 40
2.157321
 50
264.85832199999999
 51
269.89818500000001
  0
ARC
  5
18B
  8
0
 62
     7
 10
72.148534999999995
 20
53.584342000000007
 30
0.0
 40
2.0453879999999991
 50
270.02335499999998
 51
278.15153600000002
  0
ARC
  5
18C
  8
0
 62
     7
 10
71.988961000000003
 20
54.864432000000001
 30
0.0
 40
3.3352539999999991
 50
277.74706700000002
 51
281.36173100000002
  0
ARC
  5
18D
  8
0
 62
     7
 10
71.110442000000006
 20
59.121834999999997
 30
0.0
 40
7.6823289999999993
 50
281.53016500000001
 51
284.92872
  0
LINE
  5
18E
  8
0
 62
     7
 10
73.089500000000001
 20
51.698799999999999
 30
0.0
 11
73.089500000000001
 21
53.798999999999999
 31
0.0
  0
ARC
  5
18F
  8
0
 62
     7
 10
71.816827000000004
 20
50.066992999999997
 30
0.0
 40
3.9430079999999998
 50
71.169023999999993
 51
79.913636999999994
  0
ARC
  5
190
  8
0
 62
     7
 10
72.132676000000004
 20
51.660701000000003
 30
0.0
 40
2.3188349999999991
 50
80.700817999999998
 51
89.587531999999996
  0
ARC
  5
191
  8
0
 62
     7
 10
72.150796999999997
 20
51.62636599999999
 30
0.0
 40
2.353108999999999
 50
90.034768999999997
 51
102.156322
  0
ARC
  5
192
  8
0
 62
     7
 10
72.387082999999976
 20
50.343133000000002
 30
0.0
 40
3.657535999999999
 50
101.541693
 51
109.117527
  0
LINE
  5
193
  8
0
 62
     7
 10
73.089500000000001
 20
51.539000000000001
 30
0.0
 11
73.089500000000001
 21
51.698799999999999
 31
0.0
  0
LINE
  5
194
  8
0
 62
     7
 10
73.089500000000001
 20
53.798999999999999
 30
0.0
 11
73.089500000000001
 21
53.979500000000002
 31
0.0
  0
LINE
  5
195
  8
0
 62
     7
 10
69.288899999999984
 20
51.539000000000001
 30
0.0
 11
69.288899999999984
 21
51.698799999999999
 31
0.0
  0
LINE
  5
196
  8
0
 62
     7
 10
69.288899999999984
 20
53.798999999999999
 30
0.0
 11
69.288899999999984
 21
53.979500000000002
 31
0.0
  0
LINE
  5
197
  8
0
 62
     7
 10
72.189700000000002
 20
54.119300000000003
 30
0.0
 11
71.1892
 21
54.119300000000003
 31
0.0
  0
LINE
  5
198
  8
0
 62
     7
 10
71.1892
 20
54.119300000000003
 30
0.0
 11
70.189800000000005
 21
54.119300000000003
 31
0.0
  0
LINE
  5
199
  8
0
 62
     7
 10
73.089500000000001
 20
51.539000000000001
 30
0.0
 11
73.029600000000002
 21
51.498999999999988
 31
0.0
  0
LINE
  5
19A
  8
0
 62
     7
 10
73.029600000000002
 20
51.498999999999988
 30
0.0
 11
69.349199999999996
 21
51.498999999999988
 31
0.0
  0
LINE
  5
19B
  8
0
 62
     7
 10
69.349199999999996
 20
51.498999999999988
 30
0.0
 11
69.288899999999984
 21
51.539000000000001
 31
0.0
  0
ARC
  5
19C
  8
0
 62
     7
 10
73.074777999999995
 20
53.952832999999998
 30
0.0
 40
0.030459
 50
61.008843999999989
 51
90.187413000000006
  0
ARC
  5
19D
  8
0
 62
     7
 10
72.935247000000004
 20
52.806654000000002
 30
0.0
 40
1.1848700000000001
 50
83.241947999999994
 51
88.786569999999998
  0
ARC
  5
19E
  8
0
 62
     7
 10
72.437268000000003
 20
39.562603000000003
 30
0.0
 40
14.438133000000001
 50
87.923800999999997
 51
89.528661999999997
  0
ARC
  5
19F
  8
0
 62
     7
 10
71.589468000000011
 20
-35.140900999999999
 30
0.0
 40
89.146389999999997
 50
89.378748999999999
 51
90.042068
  0
ARC
  5
1A0
  8
0
 62
     7
 10
71.614710000000002
 20
-372.503964
 30
0.0
 40
426.50943799999988
 50
90.012176000000025
 51
90.304334999999995
  0
LINE
  5
1A1
  8
0
 62
     7
 10
69.349199999999996
 20
53.999499999999998
 30
0.0
 11
69.288899999999984
 21
53.979500000000002
 31
0.0
  0
LINE
  5
1A2
  8
0
 62
     7
 10
72.429500000000004
 20
53.999499999999998
 30
0.0
 11
72.429500000000004
 21
54.099400000000003
 31
0.0
  0
LINE
  5
1A3
  8
0
 62
     7
 10
72.429500000000004
 20
54.099400000000003
 30
0.0
 11
69.948999999999998
 21
54.099400000000003
 31
0.0
  0
LINE
  5
1A4
  8
0
 62
     7
 10
69.948999999999998
 20
53.999499999999998
 30
0.0
 11
69.948999999999998
 21
54.099400000000003
 31
0.0
  0
LINE
  5
1A5
  8
0
 62
     7
 10
70.189800000000005
 20
54.119300000000003
 30
0.0
 11
69.889399999999995
 21
54.3598
 31
0.0
  0
LINE
  5
1A6
  8
0
 62
     7
 10
69.889399999999995
 20
54.3598
 30
0.0
 11
69.869
 21
54.759399999999999
 31
0.0
  0
LINE
  5
1A7
  8
0
 62
     7
 10
72.510400000000004
 20
54.759399999999999
 30
0.0
 11
72.489400000000003
 21
54.3598
 31
0.0
  0
LINE
  5
1A8
  8
0
 62
     7
 10
72.489400000000003
 20
54.3598
 30
0.0
 11
72.189700000000002
 21
54.119300000000003
 31
0.0
  0
LINE
  5
1A9
  8
0
 62
     7
 10
72.349500000000006
 20
55.099800000000002
 30
0.0
 11
70.029899999999998
 21
55.099800000000002
 31
0.0
  0
LINE
  5
1AA
  8
0
 62
     7
 10
70.029899999999998
 20
55.099800000000002
 30
0.0
 11
69.869
 21
54.759399999999999
 31
0.0
  0
LINE
  5
1AB
  8
0
 62
     7
 10
72.510400000000004
 20
54.759399999999999
 30
0.0
 11
72.349500000000006
 21
55.099800000000002
 31
0.0
  0
LINE
  5
1AC
  8
0
 62
     7
 10
72.349500000000006
 20
56.6997
 30
0.0
 11
70.029899999999998
 21
56.6997
 31
0.0
  0
LINE
  5
1AD
  8
0
 62
     7
 10
70.029899999999998
 20
55.099800000000002
 30
0.0
 11
70.029899999999998
 21
56.6997
 31
0.0
  0
LINE
  5
1AE
  8
0
 62
     7
 10
72.349500000000006
 20
55.099800000000002
 30
0.0
 11
72.349500000000006
 21
56.6997
 31
0.0
  0
LINE
  5
1AF
  8
0
 62
     7
 10
70.029899999999998
 20
56.6997
 30
0.0
 11
69.889399999999995
 21
56.940199999999997
 31
0.0
  0
LINE
  5
1B0
  8
0
 62
     7
 10
72.489400000000003
 20
56.940199999999997
 30
0.0
 11
72.349500000000006
 21
56.6997
 31
0.0
  0
LINE
  5
1B1
  8
0
 62
     7
 10
69.889399999999995
 20
56.940199999999997
 30
0.0
 11
69.849100000000007
 21
57.040100000000002
 31
0.0
  0
LINE
  5
1B2
  8
0
 62
     7
 10
69.849100000000007
 20
57.040100000000002
 30
0.0
 11
69.849100000000007
 21
57.140000000000001
 31
0.0
  0
ARC
  5
1B3
  8
0
 62
     7
 10
72.022908000000001
 20
57.189056999999998
 30
0.0
 40
0.528717
 50
331.92257600000011
 51
354.67893900000001
  0
LINE
  5
1B4
  8
0
 62
     7
 10
72.549300000000002
 20
57.140000000000001
 30
0.0
 11
72.549300000000002
 21
57.700200000000002
 31
0.0
  0
LINE
  5
1B5
  8
0
 62
     7
 10
72.549300000000002
 20
57.700200000000002
 30
0.0
 11
69.849100000000007
 21
57.700200000000002
 31
0.0
  0
LINE
  5
1B6
  8
0
 62
     7
 10
69.849100000000007
 20
57.140000000000001
 30
0.0
 11
69.849100000000007
 21
57.700200000000002
 31
0.0
  0
LINE
  5
1B7
  8
0
 62
     7
 10
100.42
 20
54.509999999999998
 30
0.0
 11
101.01300000000001
 21
52.29829999999999
 31
0.0
  0
LINE
  5
1B8
  8
0
 62
     7
 10
101.01300000000001
 20
52.29829999999999
 30
0.0
 11
101.605
 21
54.509999999999998
 31
0.0
  0
LINE
  5
1B9
  8
0
 62
     7
 10
101.605
 20
54.509999999999998
 30
0.0
 11
100.42
 21
54.509999999999998
 31
0.0
  0
LINE
  5
1BA
  8
0
 62
     7
 10
100.998
 20
115.185
 30
0.0
 11
100.998
 21
52.29890000000001
 31
0.0
  0
LINE
  5
1BB
  8
0
 62
     7
 10
101.71299999999999
 20
52.29890000000001
 30
0.0
 11
94.651799999999994
 21
52.29890000000001
 31
0.0
  0
ARC
  5
1BC
  8
0
 62
     7
 10
148.53536299999999
 20
89.050246000000001
 30
0.0
 40
1.0377739999999991
 50
40.258434999999992
 51
45.040339999999993
  0
ARC
  5
1BD
  8
0
 62
     7
 10
149.043237
 20
89.485081999999991
 30
0.0
 40
0.369207
 50
6.1464460000000001
 51
39.694679999999998
  0
ARC
  5
1BE
  8
0
 62
     7
 10
148.425386
 20
89.399063999999996
 30
0.0
 40
0.992905
 50
359.14551999999998
 51
7.2642800000000012
  0
ARC
  5
1BF
  8
0
 62
     7
 10
148.52131199999999
 20
89.728336999999996
 30
0.0
 40
1.0543450000000001
 50
315.13977799999998
 51
319.85984700000012
  0
ARC
  5
1C0
  8
0
 62
     7
 10
149.04031800000001
 20
89.285876999999985
 30
0.0
 40
0.372363
 50
320.42379599999998
 51
354.265332
  0
ARC
  5
1C1
  8
0
 62
     7
 10
148.40544600000001
 20
89.371333999999976
 30
0.0
 40
1.0128269999999999
 50
353.043792
 51
0.770044
  0
ARC
  5
1C2
  8
0
 62
     7
 10
148.10296
 20
86.685234999999992
 30
0.0
 40
1.268275
 50
12.651960000000001
 51
23.201581000000001
  0
ARC
  5
1C3
  8
0
 62
     7
 10
146.865771
 20
86.373657999999992
 30
0.0
 40
2.5438809999999998
 50
4.8838419999999987
 51
13.395951
  0
ARC
  5
1C4
  8
0
 62
     7
 10
145.23996700000001
 20
86.197749000000016
 30
0.0
 40
4.178922
 50
359.82686000000001
 51
5.3891759999999991
  0
ARC
  5
1C5
  8
0
 62
     7
 10
147.92747499999999
 20
86.687969999999993
 30
0.0
 40
1.2612929999999991
 50
156.79763600000001
 51
167.40416099999999
  0
ARC
  5
1C6
  8
0
 62
     7
 10
149.16344799999999
 20
86.377314999999996
 30
0.0
 40
2.5354869999999989
 50
166.64378500000001
 51
175.182852
  0
ARC
  5
1C7
  8
0
 62
     7
 10
150.82741100000001
 20
86.198616999999985
 30
0.0
 40
4.208755
 50
174.66099
 51
180.18375499999999
  0
ARC
  5
1C8
  8
0
 62
     7
 10
147.501497
 20
89.050246000000001
 30
0.0
 40
1.0377739999999991
 50
134.95964000000001
 51
139.741545
  0
ARC
  5
1C9
  8
0
 62
     7
 10
146.99362199999999
 20
89.485081999999991
 30
0.0
 40
0.369207
 50
140.30529999999999
 51
173.853534
  0
ARC
  5
1CA
  8
0
 62
     7
 10
147.611468
 20
89.399063999999996
 30
0.0
 40
0.9929
 50
172.73568
 51
180.85451900000001
  0
ARC
  5
1CB
  8
0
 62
     7
 10
147.515548
 20
89.728336999999996
 30
0.0
 40
1.0543450000000001
 50
220.14017200000001
 51
224.860242
  0
ARC
  5
1CC
  8
0
 62
     7
 10
146.99654200000001
 20
89.285876999999985
 30
0.0
 40
0.372363
 50
185.73468800000001
 51
219.576223
  0
ARC
  5
1CD
  8
0
 62
     7
 10
147.63140799999999
 20
89.371332999999993
 30
0.0
 40
1.0128209999999991
 50
179.229916
 51
186.9562479999999
  0
LINE
  5
1CE
  8
0
 62
     7
 10
146.619
 20
86.185100000000006
 30
0.0
 11
149.41900000000001
 21
86.185100000000006
 31
0.0
  0
LINE
  5
1CF
  8
0
 62
     7
 10
149.26900000000001
 20
87.184899999999999
 30
0.0
 11
149.26900000000001
 21
88.9846
 31
0.0
  0
LINE
  5
1D0
  8
0
 62
     7
 10
146.768
 20
87.184899999999999
 30
0.0
 11
146.768
 21
88.9846
 31
0.0
  0
LINE
  5
1D1
  8
0
 62
     7
 10
146.768
 20
87.184899999999999
 30
0.0
 11
149.26900000000001
 21
87.184899999999999
 31
0.0
  0
LINE
  5
1D2
  8
0
 62
     7
 10
146.768
 20
88.9846
 30
0.0
 11
149.26900000000001
 21
88.9846
 31
0.0
  0
ARC
  5
1D3
  8
0
 62
     7
 10
81.985065000000006
 20
90.399822999999998
 30
0.0
 40
0.6068480000000001
 50
325.80682200000001
 51
348.21231999999998
  0
ARC
  5
1D4
  8
0
 62
     7
 10
82.08800699999999
 20
90.351799000000014
 30
0.0
 40
0.495044
 50
294.878175
 51
323.70822199999998
  0
ARC
  5
1D5
  8
0
 62
     7
 10
81.919844999999995
 20
90.676210999999995
 30
0.0
 40
0.8602459999999998
 50
281.240455
 51
295.94920200000001
  0
ARC
  5
1D6
  8
0
 62
     7
 10
81.744731000000002
 20
91.409858000000014
 30
0.0
 40
1.6142110000000001
 50
277.15299399999998
 51
282.26088499999997
  0
ARC
  5
1D7
  8
0
 62
     7
 10
81.620232999999985
 20
92.394575999999986
 30
0.0
 40
2.6067669999999992
 50
273.09215699999999
 51
277.173069
  0
ARC
  5
1D8
  8
0
 62
     7
 10
81.499334000000005
 20
94.626625999999987
 30
0.0
 40
4.8420889999999988
 50
269.76047399999999
 51
273.09597100000002
  0
ARC
  5
1D9
  8
0
 62
     7
 10
83.104851999999994
 20
90.275385
 30
0.0
 40
0.5742910000000001
 50
337.22645499999999
 51
0.046671
  0
ARC
  5
1DA
  8
0
 62
     7
 10
83.253452999999993
 20
90.232078999999999
 30
0.0
 40
0.420878
 50
293.22978799999999
 51
334.83089899999999
  0
ARC
  5
1DB
  8
0
 62
     7
 10
83.139154000000005
 20
90.460869999999986
 30
0.0
 40
0.6763650000000001
 50
269.15076499999998
 51
294.483045
  0
ARC
  5
1DC
  8
0
 62
     7
 10
83.133780000000002
 20
90.407900999999995
 30
0.0
 40
0.62334
 50
223.297541
 51
269.57250299999998
  0
ARC
  5
1DD
  8
0
 62
     7
 10
83.019718999999995
 20
90.261499000000001
 30
0.0
 40
0.440836
 50
178.13414299999999
 51
219.61293900000001
  0
ARC
  5
1DE
  8
0
 62
     7
 10
80.973830000000007
 20
90.399977000000007
 30
0.0
 40
0.60758
 50
191.788115
 51
214.163882
  0
ARC
  5
1DF
  8
0
 62
     7
 10
80.869979000000001
 20
90.351631999999995
 30
0.0
 40
0.494839
 50
216.285167
 51
245.126891
  0
ARC
  5
1E0
  8
0
 62
     7
 10
81.038199000000006
 20
90.676066000000006
 30
0.0
 40
0.8600870000000001
 50
244.05054799999999
 51
258.76340699999997
  0
ARC
  5
1E1
  8
0
 62
     7
 10
81.213484999999991
 20
91.410527000000016
 30
0.0
 40
1.614881999999999
 50
257.741266
 51
262.84778599999999
  0
ARC
  5
1E2
  8
0
 62
     7
 10
81.337924000000001
 20
92.394745
 30
0.0
 40
2.606935
 50
262.82735100000002
 51
266.90835399999997
  0
ARC
  5
1E3
  8
0
 62
     7
 10
81.458849000000001
 20
94.627094999999997
 30
0.0
 40
4.8425580000000004
 50
266.904202
 51
270.23950200000002
  0
ARC
  5
1E4
  8
0
 62
     7
 10
79.853328000000005
 20
90.275385
 30
0.0
 40
0.57429
 50
179.9532899999999
 51
202.773585
  0
ARC
  5
1E5
  8
0
 62
     7
 10
79.704728000000003
 20
90.232078999999999
 30
0.0
 40
0.420878
 50
205.16912099999999
 51
246.77023199999999
  0
ARC
  5
1E6
  8
0
 62
     7
 10
79.819027000000006
 20
90.460869999999986
 30
0.0
 40
0.6763650000000001
 50
245.516975
 51
270.84925399999997
  0
ARC
  5
1E7
  8
0
 62
     7
 10
79.824393999999998
 20
90.407830000000004
 30
0.0
 40
0.6232680000000002
 50
270.42818299999999
 51
316.70533699999999
  0
ARC
  5
1E8
  8
0
 62
     7
 10
79.938575
 20
90.261504000000002
 30
0.0
 40
0.440724
 50
320.37413599999991
 51
1.8656959999999989
  0
ARC
  5
1E9
  8
0
 62
     7
 10
81.984077999999997
 20
91.569215999999997
 30
0.0
 40
0.6078120000000001
 50
11.767507999999999
 51
34.161296999999998
  0
ARC
  5
1EA
  8
0
 62
     7
 10
82.08835400000001
 20
91.617943000000025
 30
0.0
 40
0.494503
 50
36.274496999999997
 51
65.137169
  0
ARC
  5
1EB
  8
0
 62
     7
 10
81.920456999999985
 20
91.293751
 30
0.0
 40
0.859389
 50
64.068352000000004
 51
78.789781000000005
  0
ARC
  5
1EC
  8
0
 62
     7
 10
81.744943999999975
 20
90.55560899999999
 30
0.0
 40
1.617823
 50
77.774635000000004
 51
82.870663000000008
  0
ARC
  5
1ED
  8
0
 62
     7
 10
81.621131000000005
 20
89.573579000000009
 30
0.0
 40
2.607626999999999
 50
82.849186000000003
 51
86.928615000000008
  0
ARC
  5
1EE
  8
0
 62
     7
 10
81.499539999999996
 20
87.324668000000003
 30
0.0
 40
4.8598229999999996
 50
86.917780000000008
 51
90.241090000000014
  0
ARC
  5
1EF
  8
0
 62
     7
 10
83.104877000000016
 20
91.693646999999999
 30
0.0
 40
0.574265
 50
359.95281999999997
 51
22.774054
  0
ARC
  5
1F0
  8
0
 62
     7
 10
83.253452999999993
 20
91.736947999999984
 30
0.0
 40
0.420878
 50
25.169101000000001
 51
66.770212000000001
  0
ARC
  5
1F1
  8
0
 62
     7
 10
83.139154000000005
 20
91.508156999999997
 30
0.0
 40
0.6763650000000001
 50
65.51695500000001
 51
90.849234999999993
  0
ARC
  5
1F2
  8
0
 62
     7
 10
83.133773000000005
 20
91.560483000000005
 30
0.0
 40
0.6239819999999999
 50
90.426394000000002
 51
136.63891100000001
  0
ARC
  5
1F3
  8
0
 62
     7
 10
83.019863999999998
 20
91.707763999999983
 30
0.0
 40
0.440989
 50
140.39265499999999
 51
181.89601999999999
  0
ARC
  5
1F4
  8
0
 62
     7
 10
80.974817999999999
 20
91.569063000000014
 30
0.0
 40
0.608545
 50
145.867974
 51
168.232057
  0
ARC
  5
1F5
  8
0
 62
     7
 10
80.869631000000012
 20
91.618110000000001
 30
0.0
 40
0.494299
 50
114.857765
 51
143.732113
  0
ARC
  5
1F6
  8
0
 62
     7
 10
81.037587999999985
 20
91.293895999999989
 30
0.0
 40
0.8592299999999999
 50
101.206362
 51
115.93189699999991
  0
ARC
  5
1F7
  8
0
 62
     7
 10
81.213272000000003
 20
90.554939000000005
 30
0.0
 40
1.618495999999999
 50
97.128559999999979
 51
102.22322
  0
ARC
  5
1F8
  8
0
 62
     7
 10
81.337025999999994
 20
89.573408999999998
 30
0.0
 40
2.607796
 50
93.070876999999996
 51
97.150393999999977
  0
ARC
  5
1F9
  8
0
 62
     7
 10
81.458641999999998
 20
87.324196999999984
 30
0.0
 40
4.8602939999999997
 50
89.758932999999999
 51
93.082048
  0
ARC
  5
1FA
  8
0
 62
     7
 10
79.853302999999997
 20
91.693646999999999
 30
0.0
 40
0.574264
 50
157.22590600000001
 51
180.04722000000001
  0
ARC
  5
1FB
  8
0
 62
     7
 10
79.704728000000003
 20
91.736947999999984
 30
0.0
 40
0.420878
 50
113.22976800000001
 51
154.83087900000001
  0
ARC
  5
1FC
  8
0
 62
     7
 10
79.819027000000006
 20
91.508156999999997
 30
0.0
 40
0.6763650000000001
 50
89.150745999999998
 51
114.483025
  0
ARC
  5
1FD
  8
0
 62
     7
 10
79.824400999999995
 20
91.560554999999994
 30
0.0
 40
0.6239100000000001
 50
43.358213999999997
 51
89.572919999999996
  0
ARC
  5
1FE
  8
0
 62
     7
 10
79.938428999999999
 20
91.707759999999993
 30
0.0
 40
0.4408770000000001
 50
358.10413199999999
 51
39.620269
  0
LINE
  5
1FF
  8
0
 62
     7
 10
80.379099999999994
 20
90.275899999999993
 30
0.0
 11
80.379099999999994
 21
91.693200000000004
 31
0.0
  0
LINE
  5
200
  8
0
 62
     7
 10
82.579099999999997
 20
90.275899999999993
 30
0.0
 11
82.579099999999997
 21
91.693200000000004
 31
0.0
  0
LINE
  5
201
  8
0
 62
     7
 10
83.678799999999995
 20
90.275899999999993
 30
0.0
 11
83.678799999999995
 21
91.693200000000004
 31
0.0
  0
LINE
  5
202
  8
0
 62
     7
 10
79.278999999999996
 20
90.275899999999993
 30
0.0
 11
79.278999999999996
 21
91.693200000000004
 31
0.0
  0
LINE
  5
203
  8
0
 62
     7
 10
79.829099999999997
 20
89.784599999999998
 30
0.0
 11
83.129099999999994
 21
89.784599999999998
 31
0.0
  0
LINE
  5
204
  8
0
 62
     7
 10
79.829099999999997
 20
92.184399999999997
 30
0.0
 11
83.128799999999984
 21
92.184399999999997
 31
0.0
  0
ARC
  5
205
  8
0
 62
     7
 10
81.978418000000005
 20
89.033364000000006
 30
0.0
 40
1.061672999999999
 50
40.360152999999997
 51
45.038097
  0
ARC
  5
206
  8
0
 62
     7
 10
82.503679999999989
 20
89.484844999999993
 30
0.0
 40
0.3690739999999999
 50
6.1855760000000002
 51
39.759486000000003
  0
ARC
  5
207
  8
0
 62
     7
 10
81.888006000000004
 20
89.398966000000001
 30
0.0
 40
0.9906
 50
359.14914800000003
 51
7.286938000000001
  0
ARC
  5
208
  8
0
 62
     7
 10
81.963830999999999
 20
89.745644999999996
 30
0.0
 40
1.078924999999999
 50
315.142019
 51
319.758174
  0
ARC
  5
209
  8
0
 62
     7
 10
82.500748000000002
 20
89.286126999999993
 30
0.0
 40
0.372248
 50
320.35921000000002
 51
354.22490800000003
  0
ARC
  5
20A
  8
0
 62
     7
 10
81.868972999999997
 20
89.371358000000001
 30
0.0
 40
1.009614999999999
 50
353.02016200000003
 51
0.771108
  0
ARC
  5
20B
  8
0
 62
     7
 10
81.562689000000006
 20
86.684984999999998
 30
0.0
 40
1.268913999999999
 50
12.657063000000001
 51
23.201512000000001
  0
ARC
  5
20C
  8
0
 62
     7
 10
80.335724999999996
 20
86.376593000000014
 30
0.0
 40
2.5338370000000001
 50
4.836657999999999
 51
13.381838
  0
ARC
  5
20D
  8
0
 62
     7
 10
78.680246999999994
 20
86.198406999999989
 30
0.0
 40
4.1986150000000002
 50
359.81868900000001
 51
5.3548010000000001
  0
ARC
  5
20E
  8
0
 62
     7
 10
81.394802999999996
 20
86.684984999999998
 30
0.0
 40
1.268913999999999
 50
156.79846800000001
 51
167.342918
  0
ARC
  5
20F
  8
0
 62
     7
 10
82.621766000000008
 20
86.376593000000014
 30
0.0
 40
2.5338370000000001
 50
166.61814200000001
 51
175.16332199999999
  0
ARC
  5
210
  8
0
 62
     7
 10
84.277214000000015
 20
86.198408000000001
 30
0.0
 40
4.1985849999999987
 50
174.64515900000001
 51
180.18135100000001
  0
ARC
  5
211
  8
0
 62
     7
 10
80.978729999999985
 20
89.033364000000006
 30
0.0
 40
1.061672999999999
 50
134.961883
 51
139.639827
  0
ARC
  5
212
  8
0
 62
     7
 10
80.453467000000003
 20
89.484844999999993
 30
0.0
 40
0.3690739999999999
 50
140.24049500000001
 51
173.81440499999999
  0
ARC
  5
213
  8
0
 62
     7
 10
81.069136
 20
89.398966999999999
 30
0.0
 40
0.990595
 50
172.713022
 51
180.85089099999999
  0
ARC
  5
214
  8
0
 62
     7
 10
80.993317000000005
 20
89.745644999999996
 30
0.0
 40
1.078924999999999
 50
220.24184600000001
 51
224.85800099999989
  0
ARC
  5
215
  8
0
 62
     7
 10
80.456399000000005
 20
89.286126999999993
 30
0.0
 40
0.372248
 50
185.77511200000001
 51
219.64080999999999
  0
ARC
  5
216
  8
0
 62
     7
 10
81.088168999999979
 20
89.371358000000001
 30
0.0
 40
1.0096099999999999
 50
179.22885199999999
 51
186.97987800000001
  0
LINE
  5
217
  8
0
 62
     7
 10
83.078699999999984
 20
94.824799999999996
 30
0.0
 11
83.078699999999984
 21
92.184399999999997
 31
0.0
  0
LINE
  5
218
  8
0
 62
     7
 10
79.878500000000003
 20
94.824799999999996
 30
0.0
 11
79.878500000000003
 21
92.184399999999997
 31
0.0
  0
LINE
  5
219
  8
0
 62
     7
 10
82.728599999999986
 20
86.185100000000006
 30
0.0
 11
82.728599999999986
 21
84.520099999999985
 31
0.0
  0
LINE
  5
21A
  8
0
 62
     7
 10
80.228499999999997
 20
86.185100000000006
 30
0.0
 11
80.228499999999997
 21
84.520099999999985
 31
0.0
  0
LINE
  5
21B
  8
0
 62
     7
 10
80.078699999999998
 20
86.185100000000006
 30
0.0
 11
82.878799999999984
 21
86.185100000000006
 31
0.0
  0
LINE
  5
21C
  8
0
 62
     7
 10
82.728599999999986
 20
87.184899999999999
 30
0.0
 11
82.728599999999986
 21
88.9846
 31
0.0
  0
LINE
  5
21D
  8
0
 62
     7
 10
80.228499999999997
 20
87.184899999999999
 30
0.0
 11
80.228499999999997
 21
88.9846
 31
0.0
  0
LINE
  5
21E
  8
0
 62
     7
 10
80.228499999999997
 20
87.184899999999999
 30
0.0
 11
82.728599999999986
 21
87.184899999999999
 31
0.0
  0
LINE
  5
21F
  8
0
 62
     7
 10
80.228499999999997
 20
88.9846
 30
0.0
 11
82.728599999999986
 21
88.9846
 31
0.0
  0
ARC
  5
220
  8
0
 62
     7
 10
83.797854000000015
 20
114.45218300000001
 30
0.0
 40
1.0351539999999999
 50
40.302723
 51
45.100356000000012
  0
ARC
  5
221
  8
0
 62
     7
 10
84.303467999999995
 20
114.885653
 30
0.0
 40
0.369191
 50
6.1900810000000002
 51
39.753850999999997
  0
ARC
  5
222
  8
0
 62
     7
 10
83.688096999999985
 20
114.79982699999999
 30
0.0
 40
0.9904110000000002
 50
359.148371
 51
7.2877159999999988
  0
ARC
  5
223
  8
0
 62
     7
 10
83.762936999999994
 20
115.147283
 30
0.0
 40
1.0800449999999999
 50
315.14211899999998
 51
319.75327399999998
  0
ARC
  5
224
  8
0
 62
     7
 10
84.300651999999985
 20
114.686969
 30
0.0
 40
0.372244
 50
320.359195
 51
354.226022
  0
ARC
  5
225
  8
0
 62
     7
 10
83.668875
 20
114.77220800000001
 30
0.0
 40
1.009614999999999
 50
353.02016200000003
 51
0.771108
  0
ARC
  5
226
  8
0
 62
     7
 10
83.358208999999988
 20
112.08441000000001
 30
0.0
 40
1.2735009999999991
 50
12.676632
 51
23.182756999999999
  0
ARC
  5
227
  8
0
 62
     7
 10
82.135131000000001
 20
111.777371
 30
0.0
 40
2.5343360000000001
 50
4.8373129999999991
 51
13.380925
  0
ARC
  5
228
  8
0
 62
     7
 10
80.480540999999988
 20
111.59927399999999
 30
0.0
 40
4.1982229999999996
 50
359.81842999999998
 51
5.355059999999999
  0
ARC
  5
229
  8
0
 62
     7
 10
83.199084999999997
 20
112.08441000000001
 30
0.0
 40
1.2735009999999991
 50
156.81722400000001
 51
167.32334800000001
  0
ARC
  5
22A
  8
0
 62
     7
 10
84.422162999999998
 20
111.777371
 30
0.0
 40
2.5343360000000001
 50
166.619055
 51
175.162668
  0
ARC
  5
22B
  8
0
 62
     7
 10
86.076723000000001
 20
111.599276
 30
0.0
 40
4.198192999999999
 50
174.64490000000001
 51
180.18161000000001
  0
ARC
  5
22C
  8
0
 62
     7
 10
82.759096
 20
114.45218300000001
 30
0.0
 40
1.0351539999999999
 50
134.89962499999999
 51
139.69725800000001
  0
ARC
  5
22D
  8
0
 62
     7
 10
82.253481999999991
 20
114.885653
 30
0.0
 40
0.369191
 50
140.246129
 51
173.809899
  0
ARC
  5
22E
  8
0
 62
     7
 10
82.868848000000014
 20
114.79982699999999
 30
0.0
 40
0.9904059999999999
 50
172.712244
 51
180.85166899999999
  0
ARC
  5
22F
  8
0
 62
     7
 10
82.794013000000007
 20
115.147283
 30
0.0
 40
1.0800449999999999
 50
220.246746
 51
224.857901
  0
ARC
  5
230
  8
0
 62
     7
 10
82.256298000000001
 20
114.686969
 30
0.0
 40
0.372244
 50
185.77399800000001
 51
219.64082500000001
  0
ARC
  5
231
  8
0
 62
     7
 10
82.888069999999999
 20
114.77220699999999
 30
0.0
 40
1.0096099999999999
 50
179.22885199999999
 51
186.97987800000001
  0
LINE
  5
232
  8
0
  6
AIGENLINE002
 62
     7
 10
81.478700000000003
 20
83.418299999999988
 30
0.0
 11
81.478700000000003
 21
134.05799999999999
 31
0.0
  0
LINE
  5
233
  8
0
  6
AIGENLINE002
 62
     7
 10
83.278599999999983
 20
96.222099999999998
 30
0.0
 11
83.278599999999983
 21
116.627
 31
0.0
  0
LINE
  5
234
  8
0
 62
     7
 10
84.528499999999994
 20
111.586
 30
0.0
 11
84.528499999999994
 21
99.1036
 31
0.0
  0
LINE
  5
235
  8
0
 62
     7
 10
82.028400000000005
 20
111.586
 30
0.0
 11
82.028400000000005
 21
99.1036
 31
0.0
  0
LINE
  5
236
  8
0
 62
     7
 10
81.878600000000006
 20
111.586
 30
0.0
 11
84.678700000000006
 21
111.586
 31
0.0
  0
LINE
  5
237
  8
0
 62
     7
 10
84.528499999999994
 20
112.586
 30
0.0
 11
84.528499999999994
 21
114.38500000000001
 31
0.0
  0
LINE
  5
238
  8
0
 62
     7
 10
82.028400000000005
 20
112.586
 30
0.0
 11
82.028400000000005
 21
114.38500000000001
 31
0.0
  0
LINE
  5
239
  8
0
 62
     7
 10
82.028400000000005
 20
112.586
 30
0.0
 11
84.528499999999994
 21
112.586
 31
0.0
  0
LINE
  5
23A
  8
0
 62
     7
 10
82.028400000000005
 20
114.38500000000001
 30
0.0
 11
84.528499999999994
 21
114.38500000000001
 31
0.0
  0
ARC
  5
23B
  8
0
 62
     7
 10
80.197879
 20
114.45218300000001
 30
0.0
 40
1.0351539999999999
 50
40.302723
 51
45.100356000000012
  0
ARC
  5
23C
  8
0
 62
     7
 10
80.703493000000009
 20
114.885653
 30
0.0
 40
0.369191
 50
6.1900810000000002
 51
39.753850999999997
  0
ARC
  5
23D
  8
0
 62
     7
 10
80.088121999999984
 20
114.79982699999999
 30
0.0
 40
0.9904110000000002
 50
359.148371
 51
7.2877159999999988
  0
ARC
  5
23E
  8
0
 62
     7
 10
80.162961999999993
 20
115.147283
 30
0.0
 40
1.0800449999999999
 50
315.14211899999998
 51
319.75327399999998
  0
ARC
  5
23F
  8
0
 62
     7
 10
80.700676999999999
 20
114.686969
 30
0.0
 40
0.372244
 50
320.359195
 51
354.226022
  0
ARC
  5
240
  8
0
 62
     7
 10
80.068899000000002
 20
114.77220800000001
 30
0.0
 40
1.009614999999999
 50
353.02016200000003
 51
0.771108
  0
ARC
  5
241
  8
0
 62
     7
 10
79.758234000000002
 20
112.08441000000001
 30
0.0
 40
1.2735009999999991
 50
12.676632
 51
23.182756999999999
  0
ARC
  5
242
  8
0
 62
     7
 10
78.535156000000001
 20
111.777371
 30
0.0
 40
2.5343360000000001
 50
4.8373129999999991
 51
13.380925
  0
ARC
  5
243
  8
0
 62
     7
 10
76.880566000000002
 20
111.59927399999999
 30
0.0
 40
4.1982229999999996
 50
359.81842999999998
 51
5.355059999999999
  0
ARC
  5
244
  8
0
 62
     7
 10
79.599109999999996
 20
112.08441000000001
 30
0.0
 40
1.2735009999999991
 50
156.81722400000001
 51
167.32334800000001
  0
ARC
  5
245
  8
0
 62
     7
 10
80.822187999999997
 20
111.777371
 30
0.0
 40
2.5343360000000001
 50
166.619055
 51
175.162668
  0
ARC
  5
246
  8
0
 62
     7
 10
82.476748000000001
 20
111.599276
 30
0.0
 40
4.198192999999999
 50
174.64490000000001
 51
180.18161000000001
  0
ARC
  5
247
  8
0
 62
     7
 10
79.159120999999985
 20
114.45218300000001
 30
0.0
 40
1.0351539999999999
 50
134.89962499999999
 51
139.69725800000001
  0
ARC
  5
248
  8
0
 62
     7
 10
78.653506999999991
 20
114.885653
 30
0.0
 40
0.369191
 50
140.246129
 51
173.809899
  0
ARC
  5
249
  8
0
 62
     7
 10
79.268872999999999
 20
114.79982699999999
 30
0.0
 40
0.9904059999999999
 50
172.712244
 51
180.85166899999999
  0
ARC
  5
24A
  8
0
 62
     7
 10
79.194038000000006
 20
115.147283
 30
0.0
 40
1.0800449999999999
 50
220.246746
 51
224.857901
  0
ARC
  5
24B
  8
0
 62
     7
 10
78.656323
 20
114.686969
 30
0.0
 40
0.372244
 50
185.77399800000001
 51
219.64082500000001
  0
ARC
  5
24C
  8
0
 62
     7
 10
79.288094999999984
 20
114.77220699999999
 30
0.0
 40
1.0096099999999999
 50
179.22885199999999
 51
186.97987800000001
  0
LINE
  5
24D
  8
0
  6
AIGENLINE002
 62
     7
 10
79.678700000000006
 20
96.222099999999998
 30
0.0
 11
79.678700000000006
 21
116.627
 31
0.0
  0
LINE
  5
24E
  8
0
 62
     7
 10
80.928599999999989
 20
111.586
 30
0.0
 11
80.928599999999989
 21
99.1036
 31
0.0
  0
LINE
  5
24F
  8
0
 62
     7
 10
78.428399999999996
 20
111.586
 30
0.0
 11
78.428399999999996
 21
99.1036
 31
0.0
  0
LINE
  5
250
  8
0
 62
     7
 10
78.278599999999997
 20
111.586
 30
0.0
 11
81.078799999999987
 21
111.586
 31
0.0
  0
LINE
  5
251
  8
0
 62
     7
 10
80.928599999999989
 20
112.586
 30
0.0
 11
80.928599999999989
 21
114.38500000000001
 31
0.0
  0
LINE
  5
252
  8
0
 62
     7
 10
78.428399999999996
 20
112.586
 30
0.0
 11
78.428399999999996
 21
114.38500000000001
 31
0.0
  0
LINE
  5
253
  8
0
 62
     7
 10
78.428399999999996
 20
112.586
 30
0.0
 11
80.928599999999989
 21
112.586
 31
0.0
  0
LINE
  5
254
  8
0
 62
     7
 10
78.428399999999996
 20
114.38500000000001
 30
0.0
 11
80.928599999999989
 21
114.38500000000001
 31
0.0
  0
ARC
  5
255
  8
0
 62
     7
 10
51.997871999999987
 20
99.251637000000002
 30
0.0
 40
1.0351539999999999
 50
40.302723
 51
45.100356000000012
  0
ARC
  5
256
  8
0
 62
     7
 10
52.503485999999988
 20
99.685106999999988
 30
0.0
 40
0.369191
 50
6.1900810000000002
 51
39.753850999999997
  0
ARC
  5
257
  8
0
 62
     7
 10
51.888114000000002
 20
99.599280000000007
 30
0.0
 40
0.9904110000000002
 50
359.148371
 51
7.2877159999999988
  0
ARC
  5
258
  8
0
 62
     7
 10
51.962954000000003
 20
99.946736000000001
 30
0.0
 40
1.0800449999999999
 50
315.14211899999998
 51
319.75327399999998
  0
ARC
  5
259
  8
0
 62
     7
 10
52.500669999999992
 20
99.486422000000005
 30
0.0
 40
0.372244
 50
320.359195
 51
354.226022
  0
ARC
  5
25A
  8
0
 62
     7
 10
51.868891999999988
 20
99.571661000000006
 30
0.0
 40
1.009614999999999
 50
353.02016200000003
 51
0.771108
  0
ARC
  5
25B
  8
0
 62
     7
 10
51.558227000000002
 20
96.883863000000005
 30
0.0
 40
1.2735009999999991
 50
12.676632
 51
23.182756999999999
  0
ARC
  5
25C
  8
0
 62
     7
 10
50.335149000000001
 20
96.576824999999985
 30
0.0
 40
2.5343360000000001
 50
4.8373129999999991
 51
13.380925
  0
ARC
  5
25D
  8
0
 62
     7
 10
48.680559000000002
 20
96.398728000000006
 30
0.0
 40
4.1982229999999996
 50
359.81842999999998
 51
5.355059999999999
  0
ARC
  5
25E
  8
0
 62
     7
 10
51.399102999999997
 20
96.883863000000005
 30
0.0
 40
1.2735009999999991
 50
156.81722400000001
 51
167.32334800000001
  0
ARC
  5
25F
  8
0
 62
     7
 10
52.622181000000012
 20
96.576824999999985
 30
0.0
 40
2.5343360000000001
 50
166.619055
 51
175.162668
  0
ARC
  5
260
  8
0
 62
     7
 10
54.276741000000001
 20
96.398729000000003
 30
0.0
 40
4.198192999999999
 50
174.64490000000001
 51
180.18161000000001
  0
ARC
  5
261
  8
0
 62
     7
 10
50.959113000000002
 20
99.251637000000002
 30
0.0
 40
1.0351539999999999
 50
134.89962499999999
 51
139.69725800000001
  0
ARC
  5
262
  8
0
 62
     7
 10
50.453499000000001
 20
99.685106999999988
 30
0.0
 40
0.369191
 50
140.246129
 51
173.809899
  0
ARC
  5
263
  8
0
 62
     7
 10
51.068866
 20
99.599281000000005
 30
0.0
 40
0.9904059999999999
 50
172.712244
 51
180.85166899999999
  0
ARC
  5
264
  8
0
 62
     7
 10
50.994030999999993
 20
99.946736000000001
 30
0.0
 40
1.0800449999999999
 50
220.246746
 51
224.857901
  0
ARC
  5
265
  8
0
 62
     7
 10
50.456314999999996
 20
99.486422000000005
 30
0.0
 40
0.372244
 50
185.77399800000001
 51
219.64082500000001
  0
ARC
  5
266
  8
0
 62
     7
 10
51.088087999999999
 20
99.571661000000006
 30
0.0
 40
1.0096099999999999
 50
179.22885199999999
 51
186.97987800000001
  0
ARC
  5
267
  8
0
 62
     7
 10
52.217298
 20
100.70874999999999
 30
0.0
 40
0.6783900000000001
 50
325.08304700000002
 51
347.17365400000011
  0
ARC
  5
268
  8
0
 62
     7
 10
52.301450000000003
 20
100.671126
 30
0.0
 40
0.5881070000000001
 50
296.89262300000001
 51
323.395781
  0
ARC
  5
269
  8
0
 62
     7
 10
52.114329999999988
 20
101.00529899999999
 30
0.0
 40
0.9709059999999999
 50
284.25095599999997
 51
297.8209930000001
  0
ARC
  5
26A
  8
0
 62
     7
 10
51.862008000000003
 20
101.919735
 30
0.0
 40
1.9194150000000001
 50
274.95778300000001
 51
284.831594
  0
ARC
  5
26B
  8
0
 62
     7
 10
51.630967999999989
 20
103.97152699999999
 30
0.0
 40
3.9838480000000001
 50
272.48573299999998
 51
275.717985
  0
ARC
  5
26C
  8
0
 62
     7
 10
51.498213999999997
 20
107.089693
 30
0.0
 40
7.104838
 50
269.842355
 51
272.46470499999998
  0
ARC
  5
26D
  8
0
 62
     7
 10
53.653463000000002
 20
100.557506
 30
0.0
 40
0.625393
 50
337.10199699999998
 51
0.058945
  0
ARC
  5
26E
  8
0
 62
     7
 10
53.783625999999991
 20
100.52222999999999
 30
0.0
 40
0.492096
 50
295.82751500000001
 51
334.98843199999999
  0
ARC
  5
26F
  8
0
 62
     7
 10
53.643642
 20
100.76446199999999
 30
0.0
 40
0.7713899999999999
 50
281.93251299999997
 51
297.34807899999998
  0
ARC
  5
270
  8
0
 62
     7
 10
53.577061999999991
 20
101.025234
 30
0.0
 40
1.040354
 50
270.096203
 51
282.55069700000001
  0
ARC
  5
271
  8
0
 62
     7
 10
53.582659999999997
 20
100.834238
 30
0.0
 40
0.8493639999999999
 50
229.92968200000001
 51
269.74019099999998
  0
ARC
  5
272
  8
0
 62
     7
 10
53.381622999999998
 20
100.549526
 30
0.0
 40
0.5029360000000001
 50
179.01754199999999
 51
226.574805
  0
ARC
  5
273
  8
0
 62
     7
 10
50.740031999999992
 20
100.70874999999999
 30
0.0
 40
0.6783900000000001
 50
192.82636600000001
 51
214.91697300000001
  0
ARC
  5
274
  8
0
 62
     7
 10
50.655879999999989
 20
100.671126
 30
0.0
 40
0.5881070000000001
 50
216.60423800000001
 51
243.10739699999999
  0
ARC
  5
275
  8
0
 62
     7
 10
50.843000000000004
 20
101.00529899999999
 30
0.0
 40
0.9709059999999999
 50
242.17902699999999
 51
255.74906400000009
  0
ARC
  5
276
  8
0
 62
     7
 10
51.095322000000003
 20
101.919735
 30
0.0
 40
1.9194150000000001
 50
255.16842600000001
 51
265.042237
  0
ARC
  5
277
  8
0
 62
     7
 10
51.326362000000003
 20
103.97152699999999
 30
0.0
 40
3.9838480000000001
 50
264.28203500000001
 51
267.51428700000002
  0
ARC
  5
278
  8
0
 62
     7
 10
51.459114999999997
 20
107.089693
 30
0.0
 40
7.104838
 50
267.53531500000003
 51
270.15766400000001
  0
ARC
  5
279
  8
0
 62
     7
 10
49.303865000000002
 20
100.557506
 30
0.0
 40
0.6253920000000001
 50
179.94101499999999
 51
202.898042
  0
ARC
  5
27A
  8
0
 62
     7
 10
49.173703000000003
 20
100.52222999999999
 30
0.0
 40
0.492096
 50
205.01158799999999
 51
244.172505
  0
ARC
  5
27B
  8
0
 62
     7
 10
49.313687999999999
 20
100.76446199999999
 30
0.0
 40
0.7713899999999999
 50
242.65194099999999
 51
258.06750699999998
  0
ARC
  5
27C
  8
0
 62
     7
 10
49.380268000000001
 20
101.025234
 30
0.0
 40
1.040354
 50
257.44932299999999
 51
269.903817
  0
ARC
  5
27D
  8
0
 62
     7
 10
49.374670000000002
 20
100.834238
 30
0.0
 40
0.8493639999999999
 50
270.25982800000003
 51
310.07033799999999
  0
ARC
  5
27E
  8
0
 62
     7
 10
49.575705999999997
 20
100.549527
 30
0.0
 40
0.5029370000000001
 50
313.42523399999999
 51
0.9824189999999999
  0
ARC
  5
27F
  8
0
 62
     7
 10
52.217298
 20
102.061206
 30
0.0
 40
0.6783900000000001
 50
12.826345999999999
 51
34.916952999999999
  0
ARC
  5
280
  8
0
 62
     7
 10
52.301450000000003
 20
102.09883000000001
 30
0.0
 40
0.5881070000000001
 50
36.604219000000001
 51
63.107377
  0
ARC
  5
281
  8
0
 62
     7
 10
52.114329999999988
 20
101.764657
 30
0.0
 40
0.9709059999999999
 50
62.179006999999991
 51
75.749043999999998
  0
ARC
  5
282
  8
0
 62
     7
 10
51.862008000000003
 20
100.850221
 30
0.0
 40
1.9194150000000001
 50
75.168406000000004
 51
85.042216999999994
  0
ARC
  5
283
  8
0
 62
     7
 10
51.630967999999989
 20
98.798428999999985
 30
0.0
 40
3.9838480000000001
 50
84.282015000000001
 51
87.514267000000004
  0
ARC
  5
284
  8
0
 62
     7
 10
51.498213999999997
 20
95.680262999999997
 30
0.0
 40
7.104838
 50
87.535294999999991
 51
90.157645000000016
  0
ARC
  5
285
  8
0
 62
     7
 10
53.653463000000002
 20
102.21244900000001
 30
0.0
 40
0.625393
 50
359.94105500000001
 51
22.898002999999999
  0
ARC
  5
286
  8
0
 62
     7
 10
53.783625999999991
 20
102.247726
 30
0.0
 40
0.492096
 50
25.011568
 51
64.172484999999995
  0
ARC
  5
287
  8
0
 62
     7
 10
53.643642
 20
102.005493
 30
0.0
 40
0.7713899999999999
 50
62.651921000000002
 51
78.067486999999986
  0
ARC
  5
288
  8
0
 62
     7
 10
53.577061999999991
 20
101.744721
 30
0.0
 40
1.040354
 50
77.449303
 51
89.903796999999997
  0
ARC
  5
289
  8
0
 62
     7
 10
53.582659999999997
 20
101.93571799999999
 30
0.0
 40
0.8493639999999999
 50
90.259808999999976
 51
130.07031799999999
  0
ARC
  5
28A
  8
0
 62
     7
 10
53.381622999999998
 20
102.220429
 30
0.0
 40
0.5029360000000001
 50
133.425195
 51
180.98245800000001
  0
ARC
  5
28B
  8
0
 62
     7
 10
50.740031999999992
 20
102.061206
 30
0.0
 40
0.6783900000000001
 50
145.08302699999999
 51
167.17363399999999
  0
ARC
  5
28C
  8
0
 62
     7
 10
50.655879999999989
 20
102.09883000000001
 30
0.0
 40
0.5881070000000001
 50
116.89260299999999
 51
143.39576199999999
  0
ARC
  5
28D
  8
0
 62
     7
 10
50.843000000000004
 20
101.764657
 30
0.0
 40
0.9709059999999999
 50
104.250936
 51
117.820973
  0
ARC
  5
28E
  8
0
 62
     7
 10
51.095322000000003
 20
100.850221
 30
0.0
 40
1.9194150000000001
 50
94.957763000000014
 51
104.831574
  0
ARC
  5
28F
  8
0
 62
     7
 10
51.326362000000003
 20
98.798428999999985
 30
0.0
 40
3.9838480000000001
 50
92.485713000000004
 51
95.717965000000007
  0
ARC
  5
290
  8
0
 62
     7
 10
51.459114999999997
 20
95.680262999999997
 30
0.0
 40
7.104838
 50
89.842336000000003
 51
92.464685000000003
  0
ARC
  5
291
  8
0
 62
     7
 10
49.303865000000002
 20
102.21245
 30
0.0
 40
0.6253920000000001
 50
157.101958
 51
180.05898499999989
  0
ARC
  5
292
  8
0
 62
     7
 10
49.173703000000003
 20
102.247726
 30
0.0
 40
0.492096
 50
115.827495
 51
154.98841200000001
  0
ARC
  5
293
  8
0
 62
     7
 10
49.313687999999999
 20
102.005493
 30
0.0
 40
0.7713899999999999
 50
101.93249299999999
 51
117.34805900000001
  0
ARC
  5
294
  8
0
 62
     7
 10
49.380268000000001
 20
101.744721
 30
0.0
 40
1.040354
 50
90.096182999999996
 51
102.55067699999999
  0
ARC
  5
295
  8
0
 62
     7
 10
49.374670000000002
 20
101.93571799999999
 30
0.0
 40
0.8493639999999999
 50
49.929662000000008
 51
89.740172000000015
  0
ARC
  5
296
  8
0
 62
     7
 10
49.575705999999997
 20
102.220429
 30
0.0
 40
0.5029370000000001
 50
359.01758100000012
 51
46.574765999999997
  0
LINE
  5
297
  8
0
 62
     7
 10
144.8179999999999
 20
151.08600000000001
 30
0.0
 11
144.8179999999999
 21
132.584
 31
0.0
  0
LINE
  5
298
  8
0
 62
     7
 10
148.81899999999999
 20
151.08600000000001
 30
0.0
 11
148.81899999999999
 21
132.584
 31
0.0
  0
LINE
  5
299
  8
0
 62
     7
 10
160.297
 20
117.39700000000001
 30
0.0
 11
160.88999999999999
 21
115.185
 31
0.0
  0
LINE
  5
29A
  8
0
 62
     7
 10
160.88999999999999
 20
115.185
 30
0.0
 11
161.482
 21
117.39700000000001
 31
0.0
  0
LINE
  5
29B
  8
0
 62
     7
 10
161.482
 20
117.39700000000001
 30
0.0
 11
160.297
 21
117.39700000000001
 31
0.0
  0
LINE
  5
29C
  8
0
 62
     7
 10
161.46799999999999
 20
169.374
 30
0.0
 11
160.875
 21
171.58600000000001
 31
0.0
  0
LINE
  5
29D
  8
0
 62
     7
 10
160.875
 20
171.58600000000001
 30
0.0
 11
160.28299999999999
 21
169.374
 31
0.0
  0
LINE
  5
29E
  8
0
 62
     7
 10
160.28299999999999
 20
169.374
 30
0.0
 11
161.46799999999999
 21
169.374
 31
0.0
  0
LINE
  5
29F
  8
0
 62
     7
 10
160.875
 20
115.185
 30
0.0
 11
160.875
 21
171.58600000000001
 31
0.0
  0
LINE
  5
2A0
  8
0
 62
     7
 10
133.79599999999999
 20
171.58600000000001
 30
0.0
 11
161.57499999999999
 21
171.58600000000001
 31
0.0
  0
LINE
  5
2A1
  8
0
 62
     7
 10
153.51900000000001
 20
115.185
 30
0.0
 11
161.57499999999999
 21
115.185
 31
0.0
  0
LINE
  5
2A2
  8
0
 62
     7
 10
144.607
 20
140.965
 30
0.0
 11
146.81800000000001
 21
141.55699999999999
 31
0.0
  0
LINE
  5
2A3
  8
0
 62
     7
 10
146.81800000000001
 20
141.55699999999999
 30
0.0
 11
144.607
 21
142.15000000000001
 31
0.0
  0
LINE
  5
2A4
  8
0
 62
     7
 10
144.607
 20
142.15000000000001
 30
0.0
 11
144.607
 21
140.965
 31
0.0
  0
LINE
  5
2A5
  8
0
 62
     7
 10
112.029
 20
142.13499999999999
 30
0.0
 11
109.818
 21
141.54300000000001
 31
0.0
  0
LINE
  5
2A6
  8
0
 62
     7
 10
109.818
 20
141.54300000000001
 30
0.0
 11
112.029
 21
140.94999999999999
 31
0.0
  0
LINE
  5
2A7
  8
0
 62
     7
 10
112.029
 20
140.94999999999999
 30
0.0
 11
112.029
 21
142.13499999999999
 31
0.0
  0
LINE
  5
2A8
  8
0
 62
     7
 10
55.794499999999999
 20
59.161999999999992
 30
0.0
 11
37.113399999999999
 21
59.161999999999992
 31
0.0
  0
LINE
  5
2A9
  8
0
 62
     7
 10
146.81800000000001
 20
141.54300000000001
 30
0.0
 11
109.818
 21
141.54300000000001
 31
0.0
  0
LINE
  5
2AA
  8
0
 62
     7
 10
119.009
 20
148.18600000000001
 30
0.0
 11
112.518
 21
148.18600000000001
 31
0.0
  0
LINE
  5
2AB
  8
0
 62
     7
 10
109.818
 20
144.93299999999999
 30
0.0
 11
109.818
 21
140.84299999999999
 31
0.0
  0
LINE
  5
2AC
  8
0
 62
     7
 10
60.959099999999992
 20
67.039900000000003
 30
0.0
 11
61.537700000000001
 21
69.255099999999999
 31
0.0
  0
LINE
  5
2AD
  8
0
 62
     7
 10
61.537700000000001
 20
69.255099999999999
 30
0.0
 11
59.929200000000002
 21
67.626300000000001
 31
0.0
  0
LINE
  5
2AE
  8
0
 62
     7
 10
59.929200000000002
 20
67.626300000000001
 30
0.0
 11
60.959099999999992
 21
67.039900000000003
 31
0.0
  0
LINE
  5
2AF
  8
0
 62
     7
 10
61.537700000000001
 20
69.255099999999999
 30
0.0
 11
55.794499999999999
 21
59.161999999999992
 31
0.0
  0
LINE
  5
2B0
  8
0
 62
     7
 10
118.901
 20
145.97399999999999
 30
0.0
 11
118.309
 21
148.18600000000001
 31
0.0
  0
LINE
  5
2B1
  8
0
 62
     7
 10
118.309
 20
148.18600000000001
 30
0.0
 11
117.71599999999999
 21
145.97399999999999
 31
0.0
  0
LINE
  5
2B2
  8
0
 62
     7
 10
117.71599999999999
 20
145.97399999999999
 30
0.0
 11
118.901
 21
145.97399999999999
 31
0.0
  0
LINE
  5
2B3
  8
0
 62
     7
 10
117.73099999999999
 20
117.39700000000001
 30
0.0
 11
118.32299999999999
 21
115.185
 31
0.0
  0
LINE
  5
2B4
  8
0
 62
     7
 10
118.32299999999999
 20
115.185
 30
0.0
 11
118.916
 21
117.39700000000001
 31
0.0
  0
LINE
  5
2B5
  8
0
 62
     7
 10
118.916
 20
117.39700000000001
 30
0.0
 11
117.73099999999999
 21
117.39700000000001
 31
0.0
  0
LINE
  5
2B6
  8
0
 62
     7
 10
118.309
 20
148.18600000000001
 30
0.0
 11
118.309
 21
115.185
 31
0.0
  0
LINE
  5
2B7
  8
0
 62
     7
 10
140.11799999999999
 20
115.185
 30
0.0
 11
117.60899999999999
 21
115.185
 31
0.0
  0
LINE
  5
2B8
  8
0
 62
     7
 10
55.690100000000001
 20
141.755
 30
0.0
 11
53.4786
 21
141.16300000000001
 31
0.0
  0
LINE
  5
2B9
  8
0
 62
     7
 10
53.4786
 20
141.16300000000001
 30
0.0
 11
55.690100000000001
 21
140.56999999999999
 31
0.0
  0
LINE
  5
2BA
  8
0
 62
     7
 10
55.690100000000001
 20
140.56999999999999
 30
0.0
 11
55.690100000000001
 21
141.755
 31
0.0
  0
LINE
  5
2BB
  8
0
 62
     7
 10
47.266800000000003
 20
140.56999999999999
 30
0.0
 11
49.478400000000001
 21
141.16300000000001
 31
0.0
  0
LINE
  5
2BC
  8
0
 62
     7
 10
49.478400000000001
 20
141.16300000000001
 30
0.0
 11
47.266800000000003
 21
141.755
 31
0.0
  0
LINE
  5
2BD
  8
0
 62
     7
 10
47.266800000000003
 20
141.755
 30
0.0
 11
47.266800000000003
 21
140.56999999999999
 31
0.0
  0
LINE
  5
2BE
  8
0
 62
     7
 10
45.668500000000002
 20
141.16300000000001
 30
0.0
 11
61.754399999999997
 21
141.16300000000001
 31
0.0
  0
LINE
  5
2BF
  8
0
 62
     7
 10
101.59099999999999
 20
112.974
 30
0.0
 11
100.998
 21
115.185
 31
0.0
  0
LINE
  5
2C0
  8
0
 62
     7
 10
100.998
 20
115.185
 30
0.0
 11
100.40600000000001
 21
112.974
 31
0.0
  0
LINE
  5
2C1
  8
0
 62
     7
 10
100.40600000000001
 20
112.974
 30
0.0
 11
101.59099999999999
 21
112.974
 31
0.0
  0
LINE
  5
2C2
  8
0
 62
     7
 10
101.57599999999999
 20
130.374
 30
0.0
 11
100.98399999999999
 21
132.58500000000001
 31
0.0
  0
LINE
  5
2C3
  8
0
 62
     7
 10
100.98399999999999
 20
132.58500000000001
 30
0.0
 11
100.39100000000001
 21
130.374
 31
0.0
  0
LINE
  5
2C4
  8
0
 62
     7
 10
100.39100000000001
 20
130.374
 30
0.0
 11
101.57599999999999
 21
130.374
 31
0.0
  0
LINE
  5
2C5
  8
0
 62
     7
 10
100.40600000000001
 20
117.39700000000001
 30
0.0
 11
100.998
 21
115.185
 31
0.0
  0
LINE
  5
2C6
  8
0
 62
     7
 10
100.998
 20
115.185
 30
0.0
 11
101.59099999999999
 21
117.39700000000001
 31
0.0
  0
LINE
  5
2C7
  8
0
 62
     7
 10
101.59099999999999
 20
117.39700000000001
 30
0.0
 11
100.40600000000001
 21
117.39700000000001
 31
0.0
  0
LINE
  5
2C8
  8
0
 62
     7
 10
100.98399999999999
 20
132.58500000000001
 30
0.0
 11
100.98399999999999
 21
115.185
 31
0.0
  0
LINE
  5
2C9
  8
0
 62
     7
 10
101.684
 20
132.58500000000001
 30
0.0
 11
86.750500000000002
 21
132.58500000000001
 31
0.0
  0
LINE
  5
2CA
  8
0
 62
     7
 10
101.69799999999999
 20
115.185
 30
0.0
 11
88.178799999999995
 21
115.185
 31
0.0
  0
LINE
  5
2CB
  8
0
 62
     7
 10
71.009
 20
109.39700000000001
 30
0.0
 11
71.601600000000005
 21
107.185
 31
0.0
  0
LINE
  5
2CC
  8
0
 62
     7
 10
71.601600000000005
 20
107.185
 30
0.0
 11
72.194199999999995
 21
109.39700000000001
 31
0.0
  0
LINE
  5
2CD
  8
0
 62
     7
 10
72.194199999999995
 20
109.39700000000001
 30
0.0
 11
71.009
 21
109.39700000000001
 31
0.0
  0
LINE
  5
2CE
  8
0
 62
     7
 10
72.179699999999997
 20
112.974
 30
0.0
 11
71.587100000000007
 21
115.185
 31
0.0
  0
LINE
  5
2CF
  8
0
 62
     7
 10
71.587100000000007
 20
115.185
 30
0.0
 11
70.994600000000005
 21
112.974
 31
0.0
  0
LINE
  5
2D0
  8
0
 62
     7
 10
70.994600000000005
 20
112.974
 30
0.0
 11
72.179699999999997
 21
112.974
 31
0.0
  0
LINE
  5
2D1
  8
0
 62
     7
 10
71.587100000000007
 20
107.185
 30
0.0
 11
71.587100000000007
 21
115.185
 31
0.0
  0
LINE
  5
2D2
  8
0
 62
     7
 10
75.111500000000007
 20
107.185
 30
0.0
 11
70.819900000000004
 21
107.185
 31
0.0
  0
LINE
  5
2D3
  8
0
 62
     7
 10
74.711500000000001
 20
115.185
 30
0.0
 11
70.819900000000004
 21
115.185
 31
0.0
  0
LINE
  5
2D4
  8
0
 62
     7
 10
87.478800000000007
 20
137.387
 30
0.0
 11
87.478800000000007
 21
117.184
 31
0.0
  0
LINE
  5
2D5
  8
0
 62
     7
 10
75.478700000000003
 20
137.387
 30
0.0
 11
75.478700000000003
 21
117.184
 31
0.0
  0
LINE
  5
2D6
  8
0
 62
     7
 10
77.690299999999993
 20
136.78100000000001
 30
0.0
 11
75.478700000000003
 21
136.18799999999999
 31
0.0
  0
LINE
  5
2D7
  8
0
 62
     7
 10
75.478700000000003
 20
136.18799999999999
 30
0.0
 11
77.690299999999993
 21
135.596
 31
0.0
  0
LINE
  5
2D8
  8
0
 62
     7
 10
77.690299999999993
 20
135.596
 30
0.0
 11
77.690299999999993
 21
136.78100000000001
 31
0.0
  0
LINE
  5
2D9
  8
0
 62
     7
 10
85.267200000000003
 20
135.61000000000001
 30
0.0
 11
87.478800000000007
 21
136.203
 31
0.0
  0
LINE
  5
2DA
  8
0
 62
     7
 10
87.478800000000007
 20
136.203
 30
0.0
 11
85.267200000000003
 21
136.79499999999999
 31
0.0
  0
LINE
  5
2DB
  8
0
 62
     7
 10
85.267200000000003
 20
136.79499999999999
 30
0.0
 11
85.267200000000003
 21
135.61000000000001
 31
0.0
  0
LINE
  5
2DC
  8
0
 62
     7
 10
75.478700000000003
 20
136.18799999999999
 30
0.0
 11
87.478800000000007
 21
136.18799999999999
 31
0.0
  0
LINE
  5
2DD
  8
0
 62
     7
 10
57.178600000000003
 20
109.38500000000001
 30
0.0
 11
61.548099999999998
 21
109.38500000000001
 31
0.0
  0
LINE
  5
2DE
  8
0
 62
     7
 10
61.548099999999998
 20
115.185
 30
0.0
 11
58.178699999999999
 21
115.185
 31
0.0
  0
LINE
  5
2DF
  8
0
 62
     7
 10
61.440600000000003
 20
112.974
 30
0.0
 11
60.847999999999999
 21
115.185
 31
0.0
  0
LINE
  5
2E0
  8
0
 62
     7
 10
60.847999999999999
 20
115.185
 30
0.0
 11
60.255400000000002
 21
112.974
 31
0.0
  0
LINE
  5
2E1
  8
0
 62
     7
 10
60.255400000000002
 20
112.974
 30
0.0
 11
61.440600000000003
 21
112.974
 31
0.0
  0
LINE
  5
2E2
  8
0
 62
     7
 10
60.2699
 20
111.59699999999999
 30
0.0
 11
60.86249999999999
 21
109.38500000000001
 31
0.0
  0
LINE
  5
2E3
  8
0
 62
     7
 10
60.86249999999999
 20
109.38500000000001
 30
0.0
 11
61.454999999999998
 21
111.59699999999999
 31
0.0
  0
LINE
  5
2E4
  8
0
 62
     7
 10
61.454999999999998
 20
111.59699999999999
 30
0.0
 11
60.2699
 21
111.59699999999999
 31
0.0
  0
LINE
  5
2E5
  8
0
 62
     7
 10
60.847999999999999
 20
115.185
 30
0.0
 11
60.847999999999999
 21
99.931100000000015
 31
0.0
  0
LINE
  5
2E6
  8
0
 62
     7
 10
57.478700000000003
 20
122.431
 30
0.0
 11
57.478700000000003
 21
117.199
 31
0.0
  0
LINE
  5
2E7
  8
0
 62
     7
 10
45.4786
 20
122.417
 30
0.0
 11
45.4786
 21
117.184
 31
0.0
  0
LINE
  5
2E8
  8
0
 62
     7
 10
47.690199999999997
 20
121.81
 30
0.0
 11
45.4786
 21
121.218
 31
0.0
  0
LINE
  5
2E9
  8
0
 62
     7
 10
45.4786
 20
121.218
 30
0.0
 11
47.690199999999997
 21
120.625
 31
0.0
  0
LINE
  5
2EA
  8
0
 62
     7
 10
47.690199999999997
 20
120.625
 30
0.0
 11
47.690199999999997
 21
121.81
 31
0.0
  0
LINE
  5
2EB
  8
0
 62
     7
 10
55.267099999999999
 20
120.64
 30
0.0
 11
57.478700000000003
 21
121.232
 31
0.0
  0
LINE
  5
2EC
  8
0
 62
     7
 10
57.478700000000003
 20
121.232
 30
0.0
 11
55.267099999999999
 21
121.825
 31
0.0
  0
LINE
  5
2ED
  8
0
 62
     7
 10
55.267099999999999
 20
121.825
 30
0.0
 11
55.267099999999999
 21
120.64
 31
0.0
  0
LINE
  5
2EE
  8
0
 62
     7
 10
45.4786
 20
121.218
 30
0.0
 11
64.015600000000006
 21
121.218
 31
0.0
  0
LINE
  5
2EF
  8
0
 62
     7
 10
51.478700000000011
 20
244.03100000000001
 30
0.0
 11
51.478700000000011
 21
236.923
 31
0.0
  0
LINE
  5
2F0
  8
0
 62
     7
 10
81.478700000000003
 20
244.03100000000001
 30
0.0
 11
81.478700000000003
 21
237.67599999999999
 31
0.0
  0
LINE
  5
2F1
  8
0
 62
     7
 10
79.267200000000003
 20
242.75299999999999
 30
0.0
 11
81.478700000000003
 21
243.346
 31
0.0
  0
LINE
  5
2F2
  8
0
 62
     7
 10
81.478700000000003
 20
243.346
 30
0.0
 11
79.267200000000003
 21
243.93799999999999
 31
0.0
  0
LINE
  5
2F3
  8
0
 62
     7
 10
79.267200000000003
 20
243.93799999999999
 30
0.0
 11
79.267200000000003
 21
242.75299999999999
 31
0.0
  0
LINE
  5
2F4
  8
0
 62
     7
 10
55.598500000000001
 20
191.916
 30
0.0
 11
53.4786
 21
192.78100000000001
 31
0.0
  0
LINE
  5
2F5
  8
0
 62
     7
 10
53.4786
 20
192.78100000000001
 30
0.0
 11
54.882100000000001
 21
190.97200000000001
 31
0.0
  0
LINE
  5
2F6
  8
0
 62
     7
 10
54.882100000000001
 20
190.97200000000001
 30
0.0
 11
55.598500000000001
 21
191.916
 31
0.0
  0
LINE
  5
2F7
  8
0
 62
     7
 10
61.5777
 20
186.63399999999999
 30
0.0
 11
53.4786
 21
192.78100000000001
 31
0.0
  0
LINE
  5
2F8
  8
0
 62
     7
 10
53.690300000000001
 20
243.92400000000001
 30
0.0
 11
51.478700000000011
 21
243.33099999999999
 31
0.0
  0
LINE
  5
2F9
  8
0
 62
     7
 10
51.478700000000011
 20
243.33099999999999
 30
0.0
 11
53.690300000000001
 21
242.739
 31
0.0
  0
LINE
  5
2FA
  8
0
 62
     7
 10
53.690300000000001
 20
242.739
 30
0.0
 11
53.690300000000001
 21
243.92400000000001
 31
0.0
  0
LINE
  5
2FB
  8
0
 62
     7
 10
81.478700000000003
 20
243.33099999999999
 30
0.0
 11
51.478700000000011
 21
243.33099999999999
 31
0.0
  0
LINE
  5
2FC
  8
0
 62
     7
 10
146.726
 20
224.26300000000001
 30
0.0
 11
147.87100000000001
 21
226.24600000000001
 31
0.0
  0
LINE
  5
2FD
  8
0
 62
     7
 10
147.87100000000001
 20
226.24600000000001
 30
0.0
 11
145.88800000000001
 21
225.101
 31
0.0
  0
LINE
  5
2FE
  8
0
 62
     7
 10
145.88800000000001
 20
225.101
 30
0.0
 11
146.726
 21
224.26300000000001
 31
0.0
  0
LINE
  5
2FF
  8
0
 62
     7
 10
153.96600000000001
 20
233.178
 30
0.0
 11
152.821
 21
231.19499999999999
 31
0.0
  0
LINE
  5
300
  8
0
 62
     7
 10
152.821
 20
231.19499999999999
 30
0.0
 11
154.804
 21
232.34
 31
0.0
  0
LINE
  5
301
  8
0
 62
     7
 10
154.804
 20
232.34
 30
0.0
 11
153.96600000000001
 21
233.178
 31
0.0
  0
LINE
  5
302
  8
0
 62
     7
 10
116.726
 20
224.26300000000001
 30
0.0
 11
117.871
 21
226.24600000000001
 31
0.0
  0
LINE
  5
303
  8
0
 62
     7
 10
117.871
 20
226.24600000000001
 30
0.0
 11
115.88800000000001
 21
225.101
 31
0.0
  0
LINE
  5
304
  8
0
 62
     7
 10
115.88800000000001
 20
225.101
 30
0.0
 11
116.726
 21
224.26300000000001
 31
0.0
  0
LINE
  5
305
  8
0
 62
     7
 10
123.96599999999999
 20
233.178
 30
0.0
 11
122.821
 21
231.19499999999999
 31
0.0
  0
LINE
  5
306
  8
0
 62
     7
 10
122.821
 20
231.19499999999999
 30
0.0
 11
124.804
 21
232.34
 31
0.0
  0
LINE
  5
307
  8
0
 62
     7
 10
124.804
 20
232.34
 30
0.0
 11
123.96599999999999
 21
233.178
 31
0.0
  0
LINE
  5
308
  8
0
 62
     7
 10
125.29300000000001
 20
233.667
 30
0.0
 11
114.459
 21
222.834
 31
0.0
  0
ARC
  5
309
  8
0
 62
     7
 10
120.212118
 20
228.586364
 30
0.0
 40
3.6368219999999991
 50
2.1187259999999992
 51
87.886904000000001
  0
ARC
  5
30A
  8
0
 62
     7
 10
120.34604299999999
 20
228.72064599999999
 30
0.0
 40
3.500067
 50
89.997179999999986
 51
179.99715
  0
ARC
  5
30B
  8
0
 62
     7
 10
120.346214
 20
228.72081800000001
 30
0.0
 40
3.5002390000000001
 50
179.99996999999999
 51
270.00002000000001
  0
ARC
  5
30C
  8
0
 62
     7
 10
120.212543
 20
228.85449
 30
0.0
 40
3.636368
 50
272.106652
 51
357.89335800000009
  0
LINE
  5
30D
  8
0
  6
AIGENLINE002
 62
     7
 10
120.346
 20
223.149
 30
0.0
 11
120.346
 21
234.39699999999999
 31
0.0
  0
LINE
  5
30E
  8
0
 62
     7
 10
125.29300000000001
 20
233.667
 30
0.0
 11
131.24100000000001
 21
233.667
 31
0.0
  0
LINE
  5
30F
  8
0
 62
     7
 10
155.29300000000001
 20
233.667
 30
0.0
 11
161.24100000000001
 21
233.667
 31
0.0
  0
LINE
  5
310
  8
0
 62
     7
 10
155.29300000000001
 20
233.667
 30
0.0
 11
144.459
 21
222.834
 31
0.0
  0
LINE
  5
311
  8
0
  6
AIGENLINE002
 62
     7
 10
155.983
 20
228.721
 30
0.0
 11
115.256
 21
228.721
 31
0.0
  0
ARC
  5
312
  8
0
 62
     7
 10
150.212199
 20
228.586364
 30
0.0
 40
3.6368219999999991
 50
2.1187259999999992
 51
87.886904000000001
  0
ARC
  5
313
  8
0
 62
     7
 10
150.479941
 20
228.586815
 30
0.0
 40
3.636355
 50
92.106238000000019
 51
177.888092
  0
ARC
  5
314
  8
0
 62
     7
 10
150.48074
 20
228.85526300000001
 30
0.0
 40
3.6371690000000001
 50
182.11838299999999
 51
267.88164599999999
  0
ARC
  5
315
  8
0
 62
     7
 10
150.21262400000001
 20
228.85449
 30
0.0
 40
3.636368
 50
272.106652
 51
357.89335800000009
  0
LINE
  5
316
  8
0
  6
AIGENLINE002
 62
     7
 10
150.346
 20
223.149
 30
0.0
 11
150.346
 21
234.39699999999999
 31
0.0
  0
LINE
  5
317
  8
0
  6
AIGENLINE002
 62
     7
 10
89.215800000000002
 20
228.721
 30
0.0
 11
73.626300000000001
 21
228.721
 31
0.0
  0
ARC
  5
318
  8
0
 62
     7
 10
81.478744999999975
 20
228.72081800000001
 30
0.0
 40
4.400104999999999
 50
0.00001
 51
89.999980000000008
  0
ARC
  5
319
  8
0
 62
     7
 10
81.478746999999998
 20
228.72081800000001
 30
0.0
 40
4.400104999999999
 50
90.0
 51
179.99996999999999
  0
ARC
  5
31A
  8
0
 62
     7
 10
81.478744999999975
 20
228.72081800000001
 30
0.0
 40
4.4001029999999988
 50
179.99996999999999
 51
270.00002000000001
  0
ARC
  5
31B
  8
0
 62
     7
 10
81.478744999999975
 20
228.72081900000001
 30
0.0
 40
4.400104999999999
 50
270.00002000000001
 51
359.99999000000003
  0
ARC
  5
31C
  8
0
 62
     7
 10
81.299311999999986
 20
228.863617
 30
0.0
 40
6.1810999999999989
 50
283.84985599999999
 51
358.67621000000008
  0
ARC
  5
31D
  8
0
 62
     7
 10
81.478744999999975
 20
228.72081700000001
 30
0.0
 40
6.0000169999999988
 50
0.00001
 51
89.999980000000008
  0
ARC
  5
31E
  8
0
 62
     7
 10
81.478746999999998
 20
228.72081700000001
 30
0.0
 40
6.0000169999999988
 50
90.0
 51
179.99996999999999
  0
ARC
  5
31F
  8
0
 62
     7
 10
81.665388000000007
 20
228.86931000000001
 30
0.0
 40
6.1884399999999991
 50
181.37496400000001
 51
256.10146500000002
  0
LINE
  5
320
  8
0
  6
AIGENLINE002
 62
     7
 10
81.478700000000003
 20
207.22
 30
0.0
 11
81.478700000000003
 21
236.80199999999999
 31
0.0
  0
LINE
  5
321
  8
0
 62
     7
 10
53.4786
 20
191.72
 30
0.0
 11
53.4786
 21
228.721
 31
0.0
  0
LINE
  5
322
  8
0
 62
     7
 10
49.478400000000001
 20
191.72
 30
0.0
 11
49.478400000000001
 21
228.721
 31
0.0
  0
ARC
  5
323
  8
0
 62
     7
 10
51.478664000000002
 20
191.720259
 30
0.0
 40
2.0002349999999991
 50
179.99996999999999
 51
270.00002000000001
  0
ARC
  5
324
  8
0
 62
     7
 10
51.478491999999989
 20
191.72008700000001
 30
0.0
 40
2.000062999999999
 50
270.004954
 51
0.004925
  0
ARC
  5
325
  8
0
 62
     7
 10
51.478664000000002
 20
228.72081800000001
 30
0.0
 40
1.9998910000000001
 50
0.00001
 51
89.999980000000008
  0
ARC
  5
326
  8
0
 62
     7
 10
51.478493
 20
228.72064599999999
 30
0.0
 40
2.000062999999999
 50
89.995064999999997
 51
179.995036
  0
ARC
  5
327
  8
0
 62
     7
 10
51.317816000000001
 20
228.83432300000001
 30
0.0
 40
6.1619099999999989
 50
290.53457400000002
 51
358.94453399999998
  0
ARC
  5
328
  8
0
 62
     7
 10
51.478664000000002
 20
228.72081700000001
 30
0.0
 40
6.0000169999999988
 50
0.00001
 51
89.999980000000008
  0
ARC
  5
329
  8
0
 62
     7
 10
51.478665999999997
 20
228.72081700000001
 30
0.0
 40
6.0000169999999988
 50
90.0
 51
179.99996999999999
  0
ARC
  5
32A
  8
0
 62
     7
 10
51.638573999999998
 20
228.83365900000001
 30
0.0
 40
6.1609590000000001
 50
181.049476
 51
249.47145699999999
  0
LINE
  5
32B
  8
0
  6
AIGENLINE002
 62
     7
 10
43.461199999999991
 20
228.721
 30
0.0
 11
59.512999999999998
 21
228.721
 31
0.0
  0
LINE
  5
32C
  8
0
  6
AIGENLINE002
 62
     7
 10
51.478700000000011
 20
187.196
 30
0.0
 11
51.478700000000011
 21
236.22300000000001
 31
0.0
  0
ARC
  5
32D
  8
0
  6
AIGENLINE002
 62
     7
 10
66.478702999999996
 20
83.418343999999991
 30
0.0
 40
15.000038
 50
179.99996999999999
 51
270.00002000000001
  0
ARC
  5
32E
  8
0
  6
AIGENLINE002
 62
     7
 10
66.478702999999996
 20
83.418349000000006
 30
0.0
 40
15.000043
 50
270.00002000000001
 51
359.99999000000003
  0
LINE
  5
32F
  8
0
  6
AIGENLINE002
 62
     7
 10
51.478700000000011
 20
83.418299999999988
 30
0.0
 11
51.478700000000011
 21
174.00999999999999
 31
0.0
  0
LINE
  5
330
  8
0
  6
AIGENLINE002
 62
     7
 10
146.81800000000001
 20
151.08600000000001
 30
0.0
 11
146.81800000000001
 21
112.42100000000001
 31
0.0
  0
LINE
  5
331
  8
0
  6
AIGENLINE002
 62
     7
 10
145.61799999999999
 20
96.222099999999998
 30
0.0
 11
145.61799999999999
 21
116.886
 31
0.0
  0
LINE
  5
332
  8
0
 62
     7
 10
146.66800000000001
 20
105.289
 30
0.0
 11
146.66800000000001
 21
105.58499999999999
 31
0.0
  0
LINE
  5
333
  8
0
 62
     7
 10
146.66800000000001
 20
100.185
 30
0.0
 11
146.66800000000001
 21
103.482
 31
0.0
  0
LINE
  5
334
  8
0
 62
     7
 10
144.56800000000001
 20
100.33199999999999
 30
0.0
 11
144.56800000000001
 21
105.801
 31
0.0
  0
LINE
  5
335
  8
0
 62
     7
 10
146.619
 20
105.58499999999999
 30
0.0
 11
142.81899999999999
 21
105.985
 31
0.0
  0
LINE
  5
336
  8
0
 62
     7
 10
148.9189999999999
 20
100.185
 30
0.0
 11
148.9189999999999
 21
103.185
 31
0.0
  0
LINE
  5
337
  8
0
 62
     7
 10
147.11799999999999
 20
100.185
 30
0.0
 11
147.11799999999999
 21
103.185
 31
0.0
  0
LINE
  5
338
  8
0
 62
     7
 10
146.66800000000001
 20
107.185
 30
0.0
 11
146.66800000000001
 21
115.185
 31
0.0
  0
LINE
  5
339
  8
0
 62
     7
 10
144.56800000000001
 20
107.185
 30
0.0
 11
144.56800000000001
 21
115.185
 31
0.0
  0
LINE
  5
33A
  8
0
  6
AIGENLINE002
 62
     7
 10
148.01900000000001
 20
65.4238
 30
0.0
 11
148.01900000000001
 21
116.886
 31
0.0
  0
LINE
  5
33B
  8
0
 62
     7
 10
148.9189999999999
 20
107.185
 30
0.0
 11
148.9189999999999
 21
115.185
 31
0.0
  0
LINE
  5
33C
  8
0
 62
     7
 10
147.11799999999999
 20
107.185
 30
0.0
 11
147.11799999999999
 21
115.185
 31
0.0
  0
LINE
  5
33D
  8
0
 62
     7
 10
146.91800000000001
 20
107.185
 30
0.0
 11
146.91800000000001
 21
115.185
 31
0.0
  0
LINE
  5
33E
  8
0
 62
     7
 10
149.11799999999999
 20
107.185
 30
0.0
 11
149.11799999999999
 21
115.185
 31
0.0
  0
LINE
  5
33F
  8
0
 62
     7
 10
151.21899999999999
 20
105.58499999999999
 30
0.0
 11
151.21899999999999
 21
107.185
 31
0.0
  0
LINE
  5
340
  8
0
 62
     7
 10
142.81899999999999
 20
105.985
 30
0.0
 11
142.81899999999999
 21
107.185
 31
0.0
  0
LINE
  5
341
  8
0
 62
     7
 10
149.26900000000001
 20
86.185100000000006
 30
0.0
 11
149.26900000000001
 21
68.418300000000002
 31
0.0
  0
LINE
  5
342
  8
0
 62
     7
 10
146.768
 20
86.185100000000006
 30
0.0
 11
146.768
 21
68.418300000000002
 31
0.0
  0
LINE
  5
343
  8
0
 62
     7
 10
146.768
 20
86.185100000000006
 30
0.0
 11
149.26900000000001
 21
86.185100000000006
 31
0.0
  0
LINE
  5
344
  8
0
 62
     7
 10
149.619
 20
92.185100000000006
 30
0.0
 11
149.619
 21
100.185
 31
0.0
  0
LINE
  5
345
  8
0
 62
     7
 10
146.41800000000001
 20
92.185100000000006
 30
0.0
 11
146.41800000000001
 21
100.185
 31
0.0
  0
LINE
  5
346
  8
0
 62
     7
 10
149.11799999999999
 20
100.185
 30
0.0
 11
149.11799999999999
 21
103.259
 31
0.0
  0
LINE
  5
347
  8
0
 62
     7
 10
146.91800000000001
 20
100.185
 30
0.0
 11
146.91800000000001
 21
103.27200000000001
 31
0.0
  0
LINE
  5
348
  8
0
 62
     7
 10
146.41800000000001
 20
100.185
 30
0.0
 11
149.619
 21
100.185
 31
0.0
  0
LINE
  5
349
  8
0
 62
     7
 10
148.01900000000001
 20
103.185
 30
0.0
 11
148.01900000000001
 21
105.58499999999999
 31
0.0
  0
LINE
  5
34A
  8
0
 62
     7
 10
146.619
 20
105.58499999999999
 30
0.0
 11
151.21899999999999
 21
105.58499999999999
 31
0.0
  0
LINE
  5
34B
  8
0
 62
     7
 10
142.81899999999999
 20
106.785
 30
0.0
 11
151.21899999999999
 21
106.785
 31
0.0
  0
LINE
  5
34C
  8
0
 62
     7
 10
142.81899999999999
 20
107.185
 30
0.0
 11
151.21899999999999
 21
107.185
 31
0.0
  0
LINE
  5
34D
  8
0
 62
     7
 10
151.21899999999999
 20
125.985
 30
0.0
 11
151.21899999999999
 21
115.985
 31
0.0
  0
LINE
  5
34E
  8
0
 62
     7
 10
142.41800000000001
 20
125.985
 30
0.0
 11
142.41800000000001
 21
115.985
 31
0.0
  0
LINE
  5
34F
  8
0
 62
     7
 10
142.41800000000001
 20
125.985
 30
0.0
 11
151.21899999999999
 21
125.985
 31
0.0
  0
LINE
  5
350
  8
0
 62
     7
 10
152.81899999999999
 20
115.185
 30
0.0
 11
152.81899999999999
 21
115.985
 31
0.0
  0
LINE
  5
351
  8
0
 62
     7
 10
140.8179999999999
 20
115.185
 30
0.0
 11
140.8179999999999
 21
115.985
 31
0.0
  0
LINE
  5
352
  8
0
 62
     7
 10
140.8179999999999
 20
115.185
 30
0.0
 11
152.81899999999999
 21
115.185
 31
0.0
  0
LINE
  5
353
  8
0
 62
     7
 10
140.8179999999999
 20
115.985
 30
0.0
 11
152.81899999999999
 21
115.985
 31
0.0
  0
LINE
  5
354
  8
0
 62
     7
 10
80.928599999999989
 20
100.185
 30
0.0
 11
82.028400000000005
 21
100.185
 31
0.0
  0
LINE
  5
355
  8
0
 62
     7
 10
80.928599999999989
 20
103.185
 30
0.0
 11
82.028400000000005
 21
103.185
 31
0.0
  0
LINE
  5
356
  8
0
 62
     7
 10
77.4786
 20
105.58499999999999
 30
0.0
 11
77.4786
 21
107.185
 31
0.0
  0
LINE
  5
357
  8
0
 62
     7
 10
85.478899999999996
 20
105.58499999999999
 30
0.0
 11
85.478899999999996
 21
107.185
 31
0.0
  0
LINE
  5
358
  8
0
 62
     7
 10
87.078800000000015
 20
105.58499999999999
 30
0.0
 11
87.078800000000015
 21
107.185
 31
0.0
  0
LINE
  5
359
  8
0
 62
     7
 10
75.878699999999995
 20
105.58499999999999
 30
0.0
 11
75.878699999999995
 21
107.185
 31
0.0
  0
LINE
  5
35A
  8
0
 62
     7
 10
75.878699999999995
 20
105.58499999999999
 30
0.0
 11
78.428399999999996
 21
105.58499999999999
 31
0.0
  0
LINE
  5
35B
  8
0
 62
     7
 10
80.928599999999989
 20
105.58499999999999
 30
0.0
 11
82.028400000000005
 21
105.58499999999999
 31
0.0
  0
LINE
  5
35C
  8
0
 62
     7
 10
84.528499999999994
 20
105.58499999999999
 30
0.0
 11
87.078800000000015
 21
105.58499999999999
 31
0.0
  0
LINE
  5
35D
  8
0
 62
     7
 10
75.878699999999995
 20
106.785
 30
0.0
 11
78.428399999999996
 21
106.785
 31
0.0
  0
LINE
  5
35E
  8
0
 62
     7
 10
80.928599999999989
 20
106.785
 30
0.0
 11
82.028400000000005
 21
106.785
 31
0.0
  0
LINE
  5
35F
  8
0
 62
     7
 10
84.528499999999994
 20
106.785
 30
0.0
 11
87.078800000000015
 21
106.785
 31
0.0
  0
LINE
  5
360
  8
0
 62
     7
 10
75.878699999999995
 20
107.185
 30
0.0
 11
78.428399999999996
 21
107.185
 31
0.0
  0
LINE
  5
361
  8
0
 62
     7
 10
80.928599999999989
 20
107.185
 30
0.0
 11
82.028400000000005
 21
107.185
 31
0.0
  0
LINE
  5
362
  8
0
 62
     7
 10
84.528499999999994
 20
107.185
 30
0.0
 11
87.078800000000015
 21
107.185
 31
0.0
  0
LINE
  5
363
  8
0
 62
     7
 10
85.878799999999998
 20
125.985
 30
0.0
 11
85.878799999999998
 21
115.985
 31
0.0
  0
LINE
  5
364
  8
0
 62
     7
 10
77.078599999999994
 20
125.985
 30
0.0
 11
77.078599999999994
 21
115.985
 31
0.0
  0
LINE
  5
365
  8
0
 62
     7
 10
77.078599999999994
 20
125.985
 30
0.0
 11
85.878799999999998
 21
125.985
 31
0.0
  0
LINE
  5
366
  8
0
 62
     7
 10
87.478800000000007
 20
115.185
 30
0.0
 11
87.478800000000007
 21
115.985
 31
0.0
  0
LINE
  5
367
  8
0
 62
     7
 10
75.478700000000003
 20
115.185
 30
0.0
 11
75.478700000000003
 21
115.985
 31
0.0
  0
LINE
  5
368
  8
0
 62
     7
 10
75.478700000000003
 20
115.185
 30
0.0
 11
87.478800000000007
 21
115.185
 31
0.0
  0
LINE
  5
369
  8
0
 62
     7
 10
75.478700000000003
 20
115.985
 30
0.0
 11
87.478800000000007
 21
115.985
 31
0.0
  0
LINE
  5
36A
  8
0
 62
     7
 10
52.7286
 20
96.385400000000004
 30
0.0
 11
52.7286
 21
85.527100000000004
 31
0.0
  0
LINE
  5
36B
  8
0
 62
     7
 10
50.228400000000001
 20
96.385400000000004
 30
0.0
 11
50.228400000000001
 21
85.527100000000004
 31
0.0
  0
LINE
  5
36C
  8
0
 62
     7
 10
50.078600000000002
 20
96.385400000000004
 30
0.0
 11
52.878799999999998
 21
96.385400000000004
 31
0.0
  0
LINE
  5
36D
  8
0
 62
     7
 10
52.7286
 20
97.385200000000012
 30
0.0
 11
52.7286
 21
99.184899999999999
 31
0.0
  0
LINE
  5
36E
  8
0
 62
     7
 10
50.228400000000001
 20
97.385200000000012
 30
0.0
 11
50.228400000000001
 21
99.184899999999999
 31
0.0
  0
LINE
  5
36F
  8
0
 62
     7
 10
50.228400000000001
 20
97.385200000000012
 30
0.0
 11
52.7286
 21
97.385200000000012
 31
0.0
  0
LINE
  5
370
  8
0
 62
     7
 10
50.228400000000001
 20
99.184899999999999
 30
0.0
 11
52.7286
 21
99.184899999999999
 31
0.0
  0
LINE
  5
371
  8
0
 62
     7
 10
50.078600000000002
 20
100.55800000000001
 30
0.0
 11
50.078600000000002
 21
102.212
 31
0.0
  0
LINE
  5
372
  8
0
 62
     7
 10
52.878799999999998
 20
100.55800000000001
 30
0.0
 11
52.878799999999998
 21
102.212
 31
0.0
  0
LINE
  5
373
  8
0
 62
     7
 10
54.278500000000001
 20
100.55800000000001
 30
0.0
 11
54.278500000000001
 21
102.212
 31
0.0
  0
LINE
  5
374
  8
0
 62
     7
 10
48.6785
 20
100.55800000000001
 30
0.0
 11
48.6785
 21
102.212
 31
0.0
  0
LINE
  5
375
  8
0
 62
     7
 10
49.378500000000003
 20
99.984899999999996
 30
0.0
 11
53.578800000000001
 21
99.984899999999996
 31
0.0
  0
LINE
  5
376
  8
0
 62
     7
 10
49.578699999999991
 20
102.785
 30
0.0
 11
49.578699999999991
 21
105.58499999999999
 31
0.0
  0
LINE
  5
377
  8
0
 62
     7
 10
53.378599999999999
 20
102.785
 30
0.0
 11
53.378599999999999
 21
105.58499999999999
 31
0.0
  0
LINE
  5
378
  8
0
 62
     7
 10
53.578499999999998
 20
102.785
 30
0.0
 11
53.578499999999998
 21
105.58499999999999
 31
0.0
  0
LINE
  5
379
  8
0
 62
     7
 10
49.378500000000003
 20
102.785
 30
0.0
 11
49.378500000000003
 21
105.58499999999999
 31
0.0
  0
LINE
  5
37A
  8
0
 62
     7
 10
49.378500000000003
 20
102.785
 30
0.0
 11
53.578499999999998
 21
102.785
 31
0.0
  0
LINE
  5
37B
  8
0
 62
     7
 10
50.078600000000002
 20
105.58499999999999
 30
0.0
 11
50.078600000000002
 21
106.785
 31
0.0
  0
LINE
  5
37C
  8
0
 62
     7
 10
52.878799999999998
 20
105.58499999999999
 30
0.0
 11
52.878799999999998
 21
106.785
 31
0.0
  0
LINE
  5
37D
  8
0
 62
     7
 10
54.278500000000001
 20
105.58499999999999
 30
0.0
 11
54.278500000000001
 21
106.785
 31
0.0
  0
LINE
  5
37E
  8
0
 62
     7
 10
48.6785
 20
105.58499999999999
 30
0.0
 11
48.6785
 21
106.785
 31
0.0
  0
LINE
  5
37F
  8
0
 62
     7
 10
48.6785
 20
105.58499999999999
 30
0.0
 11
54.278500000000001
 21
105.58499999999999
 31
0.0
  0
ARC
  5
380
  8
0
 62
     7
 10
53.097225999999999
 20
107.122984
 30
0.0
 40
2.4659749999999989
 50
15.580291000000001
 51
66.546525000000003
  0
ARC
  5
381
  8
0
 62
     7
 10
49.861967999999997
 20
107.120847
 30
0.0
 40
2.4686779999999988
 50
113.473429
 51
164.38569000000001
  0
LINE
  5
382
  8
0
 62
     7
 10
56.4786
 20
106.785
 30
0.0
 11
56.4786
 21
107.785
 31
0.0
  0
LINE
  5
383
  8
0
 62
     7
 10
46.478400000000001
 20
106.785
 30
0.0
 11
46.478400000000001
 21
107.785
 31
0.0
  0
LINE
  5
384
  8
0
 62
     7
 10
46.478400000000001
 20
106.785
 30
0.0
 11
56.4786
 21
106.785
 31
0.0
  0
LINE
  5
385
  8
0
 62
     7
 10
46.478400000000001
 20
107.785
 30
0.0
 11
56.4786
 21
107.785
 31
0.0
  0
LINE
  5
386
  8
0
 62
     7
 10
49.578699999999991
 20
109.38500000000001
 30
0.0
 11
49.578699999999991
 21
114.38500000000001
 31
0.0
  0
LINE
  5
387
  8
0
 62
     7
 10
53.378599999999999
 20
109.38500000000001
 30
0.0
 11
53.378599999999999
 21
114.38500000000001
 31
0.0
  0
LINE
  5
388
  8
0
 62
     7
 10
53.578499999999998
 20
109.38500000000001
 30
0.0
 11
53.578499999999998
 21
114.38500000000001
 31
0.0
  0
LINE
  5
389
  8
0
 62
     7
 10
49.378500000000003
 20
109.38500000000001
 30
0.0
 11
49.378500000000003
 21
114.38500000000001
 31
0.0
  0
LINE
  5
38A
  8
0
 62
     7
 10
48.878599999999992
 20
109.38500000000001
 30
0.0
 11
54.078699999999991
 21
109.38500000000001
 31
0.0
  0
LINE
  5
38B
  8
0
 62
     7
 10
54.578600000000002
 20
114.38500000000001
 30
0.0
 11
54.778700000000001
 21
114.58499999999999
 31
0.0
  0
LINE
  5
38C
  8
0
 62
     7
 10
48.378399999999992
 20
114.38500000000001
 30
0.0
 11
48.178600000000003
 21
114.58499999999999
 31
0.0
  0
LINE
  5
38D
  8
0
 62
     7
 10
54.778700000000001
 20
114.58499999999999
 30
0.0
 11
48.178600000000003
 21
114.58499999999999
 31
0.0
  0
LINE
  5
38E
  8
0
 62
     7
 10
54.778700000000001
 20
114.58499999999999
 30
0.0
 11
54.778700000000001
 21
115.185
 31
0.0
  0
LINE
  5
38F
  8
0
 62
     7
 10
48.178600000000003
 20
114.58499999999999
 30
0.0
 11
48.178600000000003
 21
115.185
 31
0.0
  0
LINE
  5
390
  8
0
 62
     7
 10
48.378399999999992
 20
114.38500000000001
 30
0.0
 11
54.578600000000002
 21
114.38500000000001
 31
0.0
  0
LINE
  5
391
  8
0
 62
     7
 10
49.478400000000001
 20
148.68600000000001
 30
0.0
 11
53.4786
 21
148.68600000000001
 31
0.0
  0
LINE
  5
392
  8
0
 62
     7
 10
53.4786
 20
169.58600000000001
 30
0.0
 11
53.4786
 21
115.985
 31
0.0
  0
LINE
  5
393
  8
0
 62
     7
 10
49.478400000000001
 20
169.58600000000001
 30
0.0
 11
49.478400000000001
 21
115.985
 31
0.0
  0
ARC
  5
394
  8
0
 62
     7
 10
51.478491999999989
 20
169.585725
 30
0.0
 40
2.000062999999999
 50
359.99507499999999
 51
89.995045999999988
  0
ARC
  5
395
  8
0
 62
     7
 10
51.478664999999999
 20
169.58555200000001
 30
0.0
 40
2.0002349999999991
 50
90.0
 51
179.99996999999999
  0
LINE
  5
396
  8
0
 62
     7
 10
57.478700000000003
 20
115.185
 30
0.0
 11
57.478700000000003
 21
115.985
 31
0.0
  0
LINE
  5
397
  8
0
 62
     7
 10
45.4786
 20
115.185
 30
0.0
 11
45.4786
 21
115.985
 31
0.0
  0
LINE
  5
398
  8
0
 62
     7
 10
45.4786
 20
115.185
 30
0.0
 11
57.478700000000003
 21
115.185
 31
0.0
  0
LINE
  5
399
  8
0
 62
     7
 10
45.4786
 20
115.985
 30
0.0
 11
57.478700000000003
 21
115.985
 31
0.0
  0
TEXT
  5
39A
  8
_________2
 62
     7
 10
24.586400000000001
 20
0.707627
 30
0.0
 40
3.9357000000000002
  1
（社）日本水道協会認証品
 41
0.5
  0
TEXT
  5
39B
  8
_________2
 62
     7
 10
109.179
 20
24.226099999999999
 30
0.0
 40
3.9357000000000002
  1
パン 湯水混合栓
 41
0.5
  0
LINE
  5
39C
  8
_________2
 62
     7
 10
205.30099999999999
 20
127.411
 30
0.0
 11
183.55099999999999
 21
127.411
 31
0.0
  0
LINE
  5
39D
  8
_________2
 62
     7
 10
100.3
 20
-4.0910799999999998
 30
0.0
 11
100.3
 21
-21.071000000000002
 31
0.0
  0
LINE
  5
39E
  8
_________2
 62
     7
 10
100.3
 20
275.93099999999998
 30
0.0
 11
100.3
 21
258.911
 31
0.0
  0
LINE
  5
39F
  8
_________2
 62
     7
 10
17.049199999999999
 20
127.411
 30
0.0
 11
-4.7012099999999988
 21
127.411
 31
0.0
  0
LINE
  5
3A0
  8
_________2
 62
     7
 10
76.740700000000004
 20
29.8047
 30
0.0
 11
74.554400000000001
 21
29.8047
 31
0.0
  0
LINE
  5
3A1
  8
_________2
 62
     7
 10
77.2333
 20
29.8047
 30
0.0
 11
76.981099999999984
 21
29.8047
 31
0.0
  0
LINE
  5
3A2
  8
_________2
 62
     7
 10
77.725999999999999
 20
29.8047
 30
0.0
 11
80.650899999999993
 21
29.8047
 31
0.0
  0
LINE
  5
3A3
  8
_________2
 62
     7
 10
77.2333
 20
29.8047
 30
0.0
 11
77.485500000000002
 21
29.8047
 31
0.0
  0
LINE
  5
3A4
  8
_________2
 62
     7
 10
70.837100000000007
 20
29.8047
 30
0.0
 11
68.650199999999998
 21
29.8047
 31
0.0
  0
LINE
  5
3A5
  8
_________2
 62
     7
 10
71.329099999999997
 20
29.8047
 30
0.0
 11
71.077600000000004
 21
29.8047
 31
0.0
  0
LINE
  5
3A6
  8
_________2
 62
     7
 10
71.329099999999997
 20
30.2974
 30
0.0
 11
71.329099999999997
 21
32.484400000000001
 31
0.0
  0
LINE
  5
3A7
  8
_________2
 62
     7
 10
71.329099999999997
 20
29.8047
 30
0.0
 11
71.329099999999997
 21
30.057300000000001
 31
0.0
  0
LINE
  5
3A8
  8
_________2
 62
     7
 10
71.821700000000007
 20
29.8047
 30
0.0
 11
74.008700000000005
 21
29.8047
 31
0.0
  0
LINE
  5
3A9
  8
_________2
 62
     7
 10
71.329099999999997
 20
29.8047
 30
0.0
 11
71.581299999999985
 21
29.8047
 31
0.0
  0
LINE
  5
3AA
  8
_________2
 62
     7
 10
71.329099999999997
 20
29.312799999999999
 30
0.0
 11
71.329099999999997
 21
27.126200000000001
 31
0.0
  0
LINE
  5
3AB
  8
_________2
 62
     7
 10
71.329099999999997
 20
29.8047
 30
0.0
 11
71.329099999999997
 21
29.5532
 31
0.0
  0
LINE
  5
3AC
  8
_________2
 62
     7
 10
75.040199999999999
 20
28.5852
 30
0.0
 11
80.218199999999996
 21
27.720400000000001
 31
0.0
  0
LINE
  5
3AD
  8
_________2
 62
     7
 10
75.040199999999999
 20
31.024699999999999
 30
0.0
 11
80.218199999999996
 21
31.8901
 31
0.0
  0
LINE
  5
3AE
  8
_________2
 62
     7
 10
80.218199999999996
 20
27.720400000000001
 30
0.0
 11
80.218199999999996
 21
31.8901
 31
0.0
  0
LINE
  5
3AF
  8
_________2
 62
     7
 10
75.040199999999999
 20
28.5852
 30
0.0
 11
75.040199999999999
 21
31.024699999999999
 31
0.0
  0
ARC
  5
3B0
  8
_________2
 62
     7
 10
71.282501999999994
 20
29.757801000000001
 30
0.0
 40
1.267714
 50
2.1220840000000001
 51
87.894083999999992
  0
ARC
  5
3B1
  8
_________2
 62
     7
 10
71.375640000000004
 20
29.758545999999999
 30
0.0
 40
1.2669680000000001
 50
92.105782999999988
 51
177.91037
  0
ARC
  5
3B2
  8
_________2
 62
     7
 10
71.376013999999998
 20
29.851671
 30
0.0
 40
1.2673680000000001
 50
182.12203600000001
 51
267.877993
  0
ARC
  5
3B3
  8
_________2
 62
     7
 10
71.282195999999999
 20
29.852347999999999
 30
0.0
 40
1.2680439999999991
 50
272.11916400000001
 51
357.84848499999998
  0
ARC
  5
3B4
  8
_________2
 62
     7
 10
71.248716999999985
 20
29.724731999999999
 30
0.0
 40
2.1668310000000002
 50
2.1161439999999989
 51
87.874379000000005
  0
ARC
  5
3B5
  8
_________2
 62
     7
 10
71.408756000000011
 20
29.726146
 30
0.0
 40
2.165392999999999
 50
92.108508999999998
 51
177.91986499999999
  0
ARC
  5
3B6
  8
_________2
 62
     7
 10
71.409094999999994
 20
29.884751999999999
 30
0.0
 40
2.1657829999999998
 50
182.117133
 51
267.88289700000001
  0
ARC
  5
3B7
  8
_________2
 62
     7
 10
71.249115000000003
 20
29.885429999999999
 30
0.0
 40
2.1664590000000001
 50
272.11546800000002
 51
357.86560400000002
  0
TEXT
  5
3B8
  8
_________2
 62
     7
 10
104.605
 20
1.6794899999999999
 30
0.0
 40
3.0923400000000001
  1
図番
 41
0.5
  0
LINE
  5
3B9
  8
_________2
 62
     7
 10
103.55
 20
5.9087199999999989
 30
0.0
 11
183.55099999999999
 21
5.9087199999999989
 31
0.0
  0
TEXT
  5
3BA
  8
_________2
 62
     7
 10
104.605
 20
11.6793
 30
0.0
 40
3.0923400000000001
  1
品番
 41
0.5
  0
TEXT
  5
3BB
  8
_________2
 62
     7
 10
104.605
 20
31.8184
 30
0.0
 40
3.0923400000000001
  1
名称
 41
0.5
  0
TEXT
  5
3BC
  8
_________2
 62
     7
 10
91.844758333333345
 20
26.822299999999998
 30
0.0
 40
3.6545800000000002
  1
mm
 41
0.5
 72
     1
 11
93.367500000000007
 21
26.822299999999998
 31
0.0
  0
TEXT
  5
3BD
  8
_________2
 62
     7
 10
85.642899999999983
 20
31.8184
 30
0.0
 40
3.0923400000000001
  1
単位
 41
0.5
  0
TEXT
  5
3BE
  8
_________2
 62
     7
 10
85.642899999999983
 20
19.410799999999998
 30
0.0
 40
3.0923400000000001
  1
尺度
 41
0.5
  0
TEXT
  5
3BF
  8
_________2
 62
     7
 10
90.548458666666676
 20
13.2182
 30
0.0
 40
3.6545800000000002
  1
1 ： 5
 41
0.5
 72
     1
 11
93.959400000000016
 21
13.2182
 31
0.0
  0
TEXT
  5
3C0
  8
_________2
 62
     7
 10
136.9905
 20
9.1082000000000001
 30
0.0
 40
3.9357000000000002
  1
ZU6223R
 41
0.5
 72
     1
 11
143.55000000000001
 21
9.1082000000000001
 31
0.0
  0
TEXT
  5
3C1
  8
_________2
 62
     7
 10
136.9905
 20
-0.8926299999999999
 30
0.0
 40
3.9357000000000002
  1
ZU6223R
 41
0.5
 72
     1
 11
143.55000000000001
 21
-0.8926299999999999
 31
0.0
  0
TEXT
  5
3C2
  8
_________2
 62
     7
 10
39.425000333333337
 20
13.603400000000001
 30
0.0
 40
3.6545800000000002
  1
早川
 41
0.5
 72
     1
 11
41.313200000000002
 21
13.603400000000001
 31
0.0
  0
TEXT
  5
3C3
  8
_________2
 62
     7
 10
20.851000333333339
 20
13.603400000000001
 30
0.0
 40
3.6545800000000002
  1
福田
 41
0.5
 72
     1
 11
22.7392
 21
13.603400000000001
 31
0.0
  0
TEXT
  5
3C4
  8
_________2
 62
     7
 10
67.785399999999996
 20
13.2182
 30
0.0
 40
3.6545800000000002
  1
16.01.14
 41
0.5
  0
TEXT
  5
3C5
  8
_________2
 62
     7
 10
66.592699999999994
 20
19.410799999999998
 30
0.0
 40
3.0923400000000001
  1
日付
 41
0.5
  0
TEXT
  5
3C6
  8
_________2
 62
     7
 10
29.638999999999999
 20
19.410799999999998
 30
0.0
 40
3.0923400000000001
  1
検図
 41
0.5
  0
TEXT
  5
3C7
  8
_________2
 62
     7
 10
18.020700000000001
 20
5.21143
 30
0.0
 40
3.0923400000000001
  1
備考
 41
0.5
  0
TEXT
  5
3C8
  8
_________2
 62
     7
 10
18.020700000000001
 20
19.410799999999998
 30
0.0
 40
3.0923400000000001
  1
製図
 41
0.5
  0
TEXT
  5
3C9
  8
_________2
 62
     7
 10
23.788165333333339
 20
27.936800000000002
 30
0.0
 40
4.4979399999999989
  1
セラトレーディング株式会社
 41
0.5
 72
     1
 11
41.180199999999999
 21
27.936800000000002
 31
0.0
  0
LINE
  5
3CA
  8
_________2
 62
     7
 10
183.55099999999999
 20
-4.0910799999999998
 30
0.0
 11
17.049199999999999
 21
-4.0910799999999998
 31
0.0
  0
LINE
  5
3CB
  8
_________2
 62
     7
 10
17.049199999999999
 20
-4.0910799999999998
 30
0.0
 11
17.049199999999999
 21
258.911
 31
0.0
  0
LINE
  5
3CC
  8
_________2
 62
     7
 10
17.049199999999999
 20
258.911
 30
0.0
 11
183.55099999999999
 21
258.911
 31
0.0
  0
LINE
  5
3CD
  8
_________2
 62
     7
 10
183.55099999999999
 20
258.911
 30
0.0
 11
183.55099999999999
 21
-4.0910799999999998
 31
0.0
  0
LINE
  5
3CE
  8
_________2
 62
     7
 10
65.549599999999998
 20
9.4092999999999982
 30
0.0
 11
65.549599999999998
 21
35.909100000000002
 31
0.0
  0
LINE
  5
3CF
  8
_________2
 62
     7
 10
84.549400000000006
 20
9.4092999999999982
 30
0.0
 11
84.549400000000006
 21
35.909100000000002
 31
0.0
  0
LINE
  5
3D0
  8
_________2
 62
     7
 10
103.55
 20
-4.0910799999999998
 30
0.0
 11
103.55
 21
35.909100000000002
 31
0.0
  0
LINE
  5
3D1
  8
_________2
 62
     7
 10
28.548999999999999
 20
9.4092999999999982
 30
0.0
 11
28.548999999999999
 21
23.409199999999998
 31
0.0
  0
LINE
  5
3D2
  8
_________2
 62
     7
 10
17.049199999999999
 20
9.4092999999999982
 30
0.0
 11
103.55
 21
9.4092999999999982
 31
0.0
  0
LINE
  5
3D3
  8
_________2
 62
     7
 10
17.049199999999999
 20
23.409199999999998
 30
0.0
 11
103.55
 21
23.409199999999998
 31
0.0
  0
LINE
  5
3D4
  8
_________2
 62
     7
 10
103.55
 20
15.9085
 30
0.0
 11
183.55099999999999
 21
15.9085
 31
0.0
  0
LINE
  5
3D5
  8
_________2
 62
     7
 10
17.049199999999999
 20
35.909100000000002
 30
0.0
 11
183.55099999999999
 21
35.909100000000002
 31
0.0
  0
ENDSEC
  0
EOF
