  0
SECTION
  2
HEADER
  9
$ACADVER
  1
AC1009
  9
$INSBASE
 10
0.0
 20
0.0
 30
0.0
  9
$EXTMIN
 10
-4.7012099999999988
 20
-21.071000000000002
 30
0.0
  9
$EXTMAX
 10
205.30099999999999
 20
275.93099999999998
 30
0.0
  9
$LIMMIN
 10
0.0
 20
0.0
  9
$LIMMAX
 10
12.0
 20
9.0
  9
$ORTHOMODE
 70
     0
  9
$REGENMODE
 70
     1
  9
$FILLMODE
 70
     1
  9
$QTEXTMODE
 70
     0
  9
$MIRRTEXT
 70
     1
  9
$DRAGMODE
 70
     2
  9
$LTSCALE
 40
1.0
  9
$OSMODE
 70
    37
  9
$ATTMODE
 70
     1
  9
$TEXTSIZE
 40
0.0
  9
$TRACEWID
 40
0.05
  9
$TEXTSTYLE
  7
STANDARD
  9
$CLAYER
  8
0
  9
$CELTYPE
  6
CONTINUOUS
  9
$CECOLOR
 62
   256
  9
$DIMSCALE
 40
1.0
  9
$DIMASZ
 40
0.18
  9
$DIMEXO
 40
0.0625
  9
$DIMDLI
 40
0.38
  9
$DIMRND
 40
0.0
  9
$DIMDLE
 40
0.0
  9
$DIMEXE
 40
0.18
  9
$DIMTP
 40
0.0
  9
$DIMTM
 40
0.0
  9
$DIMTXT
 40
0.18
  9
$DIMCEN
 40
0.09
  9
$DIMTSZ
 40
0.0
  9
$DIMTOL
 70
     0
  9
$DIMLIM
 70
     0
  9
$DIMTIH
 70
     1
  9
$DIMTOH
 70
     1
  9
$DIMSE1
 70
     0
  9
$DIMSE2
 70
     0
  9
$DIMTAD
 70
     0
  9
$DIMZIN
 70
     0
  9
$DIMBLK
  1

  9
$DIMASO
 70
     1
  9
$DIMSHO
 70
     1
  9
$DIMPOST
  1

  9
$DIMAPOST
  1

  9
$DIMALT
 70
     0
  9
$DIMALTD
 70
     2
  9
$DIMALTF
 40
25.399999999999999
  9
$DIMLFAC
 40
1.0
  9
$DIMTOFL
 70
     0
  9
$DIMTVP
 40
0.0
  9
$DIMTIX
 70
     0
  9
$DIMSOXD
 70
     0
  9
$DIMSAH
 70
     0
  9
$DIMBLK1
  1

  9
$DIMBLK2
  1

  9
$DIMSTYLE
  2
STANDARD
  9
$DIMCLRD
 70
     0
  9
$DIMCLRE
 70
     0
  9
$DIMCLRT
 70
     0
  9
$DIMTFAC
 40
1.0
  9
$DIMGAP
 40
0.09
  9
$LUNITS
 70
     2
  9
$LUPREC
 70
     4
  9
$SKETCHINC
 40
0.1
  9
$FILLETRAD
 40
0.0
  9
$AUNITS
 70
     0
  9
$AUPREC
 70
     0
  9
$MENU
  1
.
  9
$ELEVATION
 40
0.0
  9
$PELEVATION
 40
0.0
  9
$THICKNESS
 40
0.0
  9
$LIMCHECK
 70
     0
  9
$BLIPMODE
 70
     0
  9
$CHAMFERA
 40
0.0
  9
$CHAMFERB
 40
0.0
  9
$SKPOLY
 70
     0
  9
$TDCREATE
 40
2444972.375
  9
$TDUPDATE
 40
2457436.2667244328
  9
$TDINDWG
 40
0.000033669
  9
$TDUSRTIMER
 40
0.000033669
  9
$USRTIMER
 70
     1
  9
$ANGBASE
 50
0.0
  9
$ANGDIR
 70
     0
  9
$PDMODE
 70
     0
  9
$PDSIZE
 40
0.0
  9
$PLINEWID
 40
0.0
  9
$COORDS
 70
     1
  9
$SPLFRAME
 70
     0
  9
$SPLINETYPE
 70
     6
  9
$SPLINESEGS
 70
     8
  9
$ATTDIA
 70
     1
  9
$ATTREQ
 70
     1
  9
$HANDLING
 70
     1
  9
$HANDSEED
  5
488
  9
$SURFTAB1
 70
     6
  9
$SURFTAB2
 70
     6
  9
$SURFTYPE
 70
     6
  9
$SURFU
 70
     6
  9
$SURFV
 70
     6
  9
$UCSNAME
  2

  9
$UCSORG
 10
0.0
 20
0.0
 30
0.0
  9
$UCSXDIR
 10
1.0
 20
0.0
 30
0.0
  9
$UCSYDIR
 10
0.0
 20
1.0
 30
0.0
  9
$PUCSNAME
  2

  9
$PUCSORG
 10
0.0
 20
0.0
 30
0.0
  9
$PUCSXDIR
 10
1.0
 20
0.0
 30
0.0
  9
$PUCSYDIR
 10
0.0
 20
1.0
 30
0.0
  9
$USERI1
 70
     0
  9
$USERI2
 70
     0
  9
$USERI3
 70
     0
  9
$USERI4
 70
     0
  9
$USERI5
 70
     0
  9
$USERR1
 40
0.0
  9
$USERR2
 40
0.0
  9
$USERR3
 40
0.0
  9
$USERR4
 40
0.0
  9
$USERR5
 40
0.0
  9
$WORLDVIEW
 70
     1
  9
$SHADEDGE
 70
     3
  9
$SHADEDIF
 70
    70
  9
$TILEMODE
 70
     1
  9
$MAXACTVP
 70
    48
  9
$PLIMCHECK
 70
     0
  9
$PEXTMIN
 10
1.0000000000000000E+020
 20
1.0000000000000000E+020
 30
1.0000000000000000E+020
  9
$PEXTMAX
 10
-1.0000000000000000E+020
 20
-1.0000000000000000E+020
 30
-1.0000000000000000E+020
  9
$PLIMMIN
 10
0.0
 20
0.0
  9
$PLIMMAX
 10
12.0
 20
9.0
  9
$UNITMODE
 70
     0
  9
$VISRETAIN
 70
     1
  9
$PLINEGEN
 70
     0
  9
$PSLTSCALE
 70
     1
  0
ENDSEC
  0
SECTION
  2
TABLES
  0
TABLE
  2
VPORT
 70
     1
  0
VPORT
  2
*ACTIVE
 70
     0
 10
0.0
 20
0.0
 11
1.0
 21
1.0
 12
156.29017955584439
 22
127.42999999999989
 13
0.0
 23
0.0
 14
1.0
 24
1.0
 15
0.0
 25
0.0
 16
0.0
 26
0.0
 36
1.0
 17
0.0
 27
0.0
 37
0.0
 40
282.8995428298735
 41
2.0381526104417671
 42
50.0
 43
0.0
 44
0.0
 50
0.0
 51
0.0
 71
     0
 72
   100
 73
     1
 74
     1
 75
     0
 76
     0
 77
     0
 78
     0
  0
ENDTAB
  0
TABLE
  2
LTYPE
 70
     3
  0
LTYPE
  2
CONTINUOUS
 70
     0
  3
Solid line
 72
    65
 73
     0
 40
0.0
  0
LTYPE
  2
AIGENLINE001
 70
     0
  3
generate AI->DXF Converter
 72
    65
 73
     6
 40
7.4083750000000004
 49
3.5278
 49
-0.776115
 49
0.776115
 49
-0.776115
 49
0.776115
 49
-0.776115
  0
LTYPE
  2
AIGENLINE002
 70
     0
  3
generate AI->DXF Converter
 72
    65
 73
     4
 40
5.8561449999999988
 49
3.5278
 49
-0.776115
 49
0.776115
 49
-0.776115
  0
ENDTAB
  0
TABLE
  2
LAYER
 70
     2
  0
LAYER
  2
0
 70
     0
 62
     7
  6
CONTINUOUS
  0
LAYER
  2
_________2
 70
     0
 62
     7
  6
CONTINUOUS
  0
ENDTAB
  0
TABLE
  2
STYLE
 70
     1
  0
STYLE
  2
STANDARD
 70
     0
 40
0.0
 41
0.0
 50
0.0
 71
     0
 42
0.0
  3
TXT
  4
EXTFONT.SHX
  0
ENDTAB
  0
TABLE
  2
VIEW
 70
     0
  0
ENDTAB
  0
TABLE
  2
UCS
 70
     0
  0
ENDTAB
  0
TABLE
  2
APPID
 70
     3
  0
APPID
  2
ACAD
 70
     0
  0
APPID
  2
ACAD_NAV_VCDISPLAY
 70
     0
  0
APPID
  2
ACAD_MLEADERVER
 70
     0
  0
ENDTAB
  0
TABLE
  2
DIMSTYLE
 70
     1
  0
DIMSTYLE
  2
STANDARD
 70
     0
  3

  4

  5

  6

  7

 40
1.0
 41
0.18
 42
0.0625
 43
0.38
 44
0.18
 45
0.0
 46
0.0
 47
0.0
 48
0.0
140
0.18
141
0.09
142
0.0
143
25.399999999999999
144
1.0
145
0.0
146
1.0
147
0.09
 71
     0
 72
     0
 73
     1
 74
     1
 75
     0
 76
     0
 77
     0
 78
     0
170
     0
171
     2
172
     0
173
     0
174
     0
175
     0
176
     0
177
     0
178
     0
  0
ENDTAB
  0
ENDSEC
  0
SECTION
  2
BLOCKS
  0
BLOCK
  8
0
  2
$MODEL_SPACE
 70
     0
 10
0.0
 20
0.0
 30
0.0
  3
$MODEL_SPACE
  1

  0
ENDBLK
  5
1A
  8
0
  0
BLOCK
 67
     1
  8
0
  2
$PAPER_SPACE
 70
     0
 10
0.0
 20
0.0
 30
0.0
  3
$PAPER_SPACE
  1

  0
ENDBLK
  5
17
 67
     1
  8
0
  0
ENDSEC
  0
SECTION
  2
ENTITIES
  0
TEXT
  5
23
  8
0
 62
     7
 10
129.01787999999999
 20
231.10400000000001
 30
0.0
 40
3.0923400000000001
  1
%%c35
 41
0.5
 72
     2
 11
133.14099999999999
 21
231.10400000000001
 31
0.0
  0
TEXT
  5
24
  8
0
 62
     7
 10
159.01787999999999
 20
231.10400000000001
 30
0.0
 40
3.0923400000000001
  1
%%c35
 41
0.5
 72
     2
 11
163.14099999999999
 21
231.10400000000001
 31
0.0
  0
TEXT
  5
25
  8
0
 62
     7
 10
96.219700000000003
 20
211.34299999999999
 30
0.0
 40
3.0923400000000001
  1
水
 41
0.5
  0
TEXT
  5
26
  8
0
 62
     7
 10
87.305435000000017
 20
201.96600000000001
 30
0.0
 40
3.0923400000000001
  1
45%%d
 41
0.5
 72
     1
 11
89.109300000000005
 21
201.96600000000001
 31
0.0
  0
TEXT
  5
27
  8
0
 62
     7
 10
71.504634999999993
 20
201.96600000000001
 30
0.0
 40
3.0923400000000001
  1
45%%d
 41
0.5
 72
     1
 11
73.308499999999995
 21
201.96600000000001
 31
0.0
  0
TEXT
  5
28
  8
0
 62
     7
 10
65.248707999999993
 20
211.34299999999999
 30
0.0
 40
3.0923400000000001
  1
湯
 41
0.5
 72
     2
 11
66.691800000000001
 21
211.34299999999999
 31
0.0
  0
TEXT
  5
29
  8
0
 62
     7
 10
62.611158000000003
 20
240.678
 30
0.0
 40
3.0923400000000001
  1
80～150
 41
0.5
 72
     1
 11
66.631200000000007
 21
240.678
 31
0.0
  0
TEXT
  5
2A
  8
0
 62
     7
 10
62.106699999999996
 20
186.27799999999999
 30
0.0
 40
3.0923400000000001
  1
スパウト回転360%%d
 41
0.5
  0
TEXT
  5
2B
  8
0
 62
     7
 10
132.83964599999999
 20
213.845
 30
0.0
 40
3.0923400000000001
  1
水栓取付穴
 41
0.5
 72
     1
 11
137.27199999999999
 21
213.845
 31
0.0
  0
TEXT
  5
2C
  8
0
 62
     7
 10
135.6819896666666
 20
139.81999999999999
 30
0.0
 40
2.4738699999999998
  1
開
 41
0.5
 72
     2
 11
136.75399999999999
 21
139.81999999999999
 31
0.0
  0
TEXT
  5
2D
  8
0
 62
     7
 10
132.53898966666659
 20
132.541
 30
0.0
 40
2.4738699999999998
  1
閉
 41
0.5
 72
     2
 11
133.61099999999999
 21
132.541
 31
0.0
  0
TEXT
  5
2E
  8
0
 62
     7
 10
60.150174999999997
 20
125.798
 30
0.0
 40
3.0923400000000001
  1
%%c60
 41
0.5
 72
     2
 11
64.015600000000006
 21
125.798
 31
0.0
  0
TEXT
  5
2F
  8
0
 62
     7
 10
60.2575
 20
103.843
 30
0.0
 40
3.0923400000000001
  1
max.40
 50
90.0
 41
0.5
  0
TEXT
  5
30
  8
0
 62
     7
 10
70.378900000000002
 20
111.6514225
 30
0.0
 40
3.0923400000000001
  1
max.50
 50
90.0
 41
0.5
 72
     1
 11
70.378900000000002
 21
115.38800000000001
 31
0.0
  0
TEXT
  5
31
  8
0
 62
     7
 10
100.206
 20
126.668525
 30
0.0
 40
3.0923400000000001
  1
87
 50
90.0
 41
0.5
 72
     1
 11
100.206
 21
127.95699999999999
 31
0.0
  0
TEXT
  5
32
  8
0
 62
     7
 10
125.56
 20
128.91982999999999
 30
0.0
 40
3.0923400000000001
  1
114
 50
90.0
 41
0.5
 72
     1
 11
125.56
 21
130.46600000000001
 31
0.0
  0
TEXT
  5
33
  8
0
 62
     7
 10
104.422
 20
215.104525
 30
0.0
 40
3.0923400000000001
  1
88
 50
90.0
 41
0.5
 72
     1
 11
104.422
 21
216.393
 31
0.0
  0
TEXT
  5
34
  8
0
 62
     7
 10
165.60599999999999
 20
139.50443999999999
 30
0.0
 40
3.0923400000000001
  1
225
 50
90.0
 41
0.5
 72
     1
 11
165.60599999999999
 21
141.566
 31
0.0
  0
TEXT
  5
35
  8
0
 62
     7
 10
37.2958
 20
63.96309999999999
 30
0.0
 40
3.0923400000000001
  1
フレキ管L＝300
 41
0.5
  0
TEXT
  5
36
  8
0
 62
     7
 10
133.815135
 20
170.24199999999999
 30
0.0
 40
3.0923400000000001
  1
168
 41
0.5
 72
     1
 11
135.619
 21
170.24199999999999
 31
0.0
  0
TEXT
  5
37
  8
0
 62
     7
 10
57.888975000000002
 20
148.91800000000001
 30
0.0
 40
3.0923400000000001
  1
%%c20
 41
0.5
 72
     2
 11
61.754399999999997
 21
148.91800000000001
 31
0.0
  0
TEXT
  5
38
  8
0
 62
     7
 10
79.54598750000001
 20
140.76900000000001
 30
0.0
 40
3.0923400000000001
  1
%%c60
 41
0.5
 72
     1
 11
81.478700000000003
 21
140.76900000000001
 31
0.0
  0
TEXT
  5
39
  8
0
 62
     7
 10
38.200499999999998
 20
59.435200000000002
 30
0.0
 40
3.0923400000000001
  1
G 3/8\U+00D7G 1/2
 41
0.5
  0
TEXT
  5
3A
  8
0
 62
     7
 10
95.869007999999994
 20
50.247700000000002
 30
0.0
 40
3.0923400000000001
  1
G 3/8
 41
0.5
 72
     2
 11
102.46599999999999
 21
50.247700000000002
 31
0.0
  0
TEXT
  5
3B
  8
0
 62
     7
 10
100.273
 20
86.401787500000026
 30
0.0
 40
3.0923400000000001
  1
370
 50
90.0
 41
0.5
 72
     1
 11
100.273
 21
88.334500000000006
 31
0.0
  0
ARC
  5
3C
  8
0
 62
     7
 10
135.61868100000001
 20
145.26603600000001
 30
0.0
 40
18.800267000000002
 50
89.999737999999994
 51
179.999708
  0
ARC
  5
3D
  8
0
 62
     7
 10
135.61884699999999
 20
145.26603600000001
 30
0.0
 40
18.800267000000002
 50
0.000272
 51
90.000243000000026
  0
ARC
  5
3E
  8
0
 62
     7
 10
135.618852
 20
145.266209
 30
0.0
 40
14.799968
 50
90.000332999999998
 51
180.0003429999999
  0
ARC
  5
3F
  8
0
 62
     7
 10
135.618675
 20
145.266209
 30
0.0
 40
14.799968
 50
359.99967600000002
 51
89.99964700000001
  0
ARC
  5
40
  8
0
  6
AIGENLINE002
 62
     7
 10
135.61876699999999
 20
145.26612299999999
 30
0.0
 40
16.800117
 50
90.0
 51
179.99996999999999
  0
ARC
  5
41
  8
0
  6
AIGENLINE002
 62
     7
 10
135.61876100000001
 20
145.26612299999999
 30
0.0
 40
16.800117
 50
0.00001
 51
89.999980000000008
  0
ARC
  5
42
  8
0
 62
     7
 10
81.580815999999999
 20
225.43863300000001
 30
0.0
 40
20.616845000000001
 50
225.28040300000001
 51
269.71682600000003
  0
ARC
  5
43
  8
0
 62
     7
 10
81.379812999999984
 20
225.431907
 30
0.0
 40
20.610105000000001
 50
270.27552300000002
 51
314.72454800000003
  0
LINE
  5
44
  8
0
  6
AIGENLINE002
 62
     7
 10
66.744500000000002
 20
210.459
 30
0.0
 11
68.139300000000006
 21
211.85300000000001
 31
0.0
  0
LINE
  5
45
  8
0
  6
AIGENLINE002
 62
     7
 10
68.486699999999999
 20
212.20099999999999
 30
0.0
 11
81.478899999999996
 21
225.19300000000001
 31
0.0
  0
LINE
  5
46
  8
0
  6
AIGENLINE001
 62
     7
 10
75.081299999999999
 20
220.63399999999999
 30
0.0
 11
68.114800000000002
 21
213.667
 31
0.0
  0
LINE
  5
47
  8
0
  6
AIGENLINE001
 62
     7
 10
76.919600000000003
 20
218.79499999999999
 30
0.0
 11
69.953500000000005
 21
211.82900000000001
 31
0.0
  0
LINE
  5
48
  8
0
  6
AIGENLINE001
 62
     7
 10
68.114800000000002
 20
213.667
 30
0.0
 11
69.953500000000005
 21
211.82900000000001
 31
0.0
  0
LINE
  5
49
  8
0
 62
     7
 10
79.721199999999996
 20
205.33799999999999
 30
0.0
 11
81.478899999999996
 21
204.822
 31
0.0
  0
LINE
  5
4A
  8
0
 62
     7
 10
81.478899999999996
 20
204.822
 30
0.0
 11
79.698700000000002
 21
204.39099999999999
 31
0.0
  0
LINE
  5
4B
  8
0
 62
     7
 10
79.698700000000002
 20
204.39099999999999
 30
0.0
 11
79.721199999999996
 21
205.33799999999999
 31
0.0
  0
LINE
  5
4C
  8
0
 62
     7
 10
68.089100000000002
 20
209.26300000000001
 30
0.0
 11
67.0745
 21
210.78899999999999
 31
0.0
  0
LINE
  5
4D
  8
0
 62
     7
 10
67.0745
 20
210.78899999999999
 30
0.0
 11
68.715400000000002
 21
209.97499999999999
 31
0.0
  0
LINE
  5
4E
  8
0
 62
     7
 10
68.715400000000002
 20
209.97499999999999
 30
0.0
 11
68.089100000000002
 21
209.26300000000001
 31
0.0
  0
LINE
  5
4F
  8
0
  6
AIGENLINE002
 62
     7
 10
96.213200000000001
 20
210.459
 30
0.0
 11
94.818399999999997
 21
211.85300000000001
 31
0.0
  0
LINE
  5
50
  8
0
  6
AIGENLINE002
 62
     7
 10
94.471000000000004
 20
212.20099999999999
 30
0.0
 11
81.478899999999996
 21
225.19300000000001
 31
0.0
  0
LINE
  5
51
  8
0
  6
AIGENLINE001
 62
     7
 10
87.876300000000001
 20
220.63399999999999
 30
0.0
 11
94.842899999999986
 21
213.667
 31
0.0
  0
LINE
  5
52
  8
0
  6
AIGENLINE001
 62
     7
 10
86.037999999999997
 20
218.79499999999999
 30
0.0
 11
93.004199999999997
 21
211.82900000000001
 31
0.0
  0
LINE
  5
53
  8
0
  6
AIGENLINE001
 62
     7
 10
94.842899999999986
 20
213.667
 30
0.0
 11
93.004199999999997
 21
211.82900000000001
 31
0.0
  0
LINE
  5
54
  8
0
 62
     7
 10
80.179199999999994
 20
219.59299999999999
 30
0.0
 11
82.778800000000004
 21
219.59299999999999
 31
0.0
  0
LINE
  5
55
  8
0
 62
     7
 10
82.778800000000004
 20
220.56800000000001
 30
0.0
 11
82.778800000000004
 21
207.59299999999999
 31
0.0
  0
ARC
  5
56
  8
0
 62
     7
 10
83.394739999999999
 20
220.55704399999999
 30
0.0
 40
0.6160790000000002
 50
113.32220100000001
 51
178.96976000000001
  0
LINE
  5
57
  8
0
 62
     7
 10
80.178899999999985
 20
220.56800000000001
 30
0.0
 11
80.178899999999985
 21
207.59299999999999
 31
0.0
  0
ARC
  5
58
  8
0
 62
     7
 10
79.564503000000002
 20
220.55810299999999
 30
0.0
 40
0.614482
 50
0.9341219999999999
 51
66.773877999999996
  0
LINE
  5
59
  8
0
 62
     7
 10
82.778800000000004
 20
207.59299999999999
 30
0.0
 11
80.178899999999985
 21
207.59299999999999
 31
0.0
  0
LINE
  5
5A
  8
0
 62
     7
 10
83.236400000000003
 20
205.33799999999999
 30
0.0
 11
81.478899999999996
 21
204.822
 31
0.0
  0
LINE
  5
5B
  8
0
 62
     7
 10
81.478899999999996
 20
204.822
 30
0.0
 11
83.259
 21
204.39099999999999
 31
0.0
  0
LINE
  5
5C
  8
0
 62
     7
 10
83.259
 20
204.39099999999999
 30
0.0
 11
83.236400000000003
 21
205.33799999999999
 31
0.0
  0
LINE
  5
5D
  8
0
 62
     7
 10
94.868700000000004
 20
209.26300000000001
 30
0.0
 11
95.883099999999985
 21
210.78899999999999
 31
0.0
  0
LINE
  5
5E
  8
0
 62
     7
 10
95.883099999999985
 20
210.78899999999999
 30
0.0
 11
94.242199999999997
 21
209.97499999999999
 31
0.0
  0
LINE
  5
5F
  8
0
 62
     7
 10
94.242199999999997
 20
209.97499999999999
 30
0.0
 11
94.868700000000004
 21
209.26300000000001
 31
0.0
  0
ARC
  5
60
  8
0
 62
     7
 10
153.16819000000001
 20
107.56426
 30
0.0
 40
0.4510220000000001
 50
291.18463700000001
 51
359.109509
  0
ARC
  5
61
  8
0
 62
     7
 10
152.98232200000001
 20
107.95893100000001
 30
0.0
 40
0.88672
 50
278.585419
 51
293.16760299999999
  0
ARC
  5
62
  8
0
 62
     7
 10
152.91676699999999
 20
108.285211
 30
0.0
 40
1.2192369999999999
 50
270.11005799999998
 51
279.34259200000002
  0
ARC
  5
63
  8
0
 62
     7
 10
152.922077
 20
108.04187400000001
 30
0.0
 40
0.9759019999999999
 50
238.985173
 51
269.82576699999998
  0
ARC
  5
64
  8
0
 62
     7
 10
152.68101100000001
 20
107.607637
 30
0.0
 40
0.479841
 50
208.945898
 51
236.937693
  0
ARC
  5
65
  8
0
 62
     7
 10
152.60960900000001
 20
107.551777
 30
0.0
 40
0.390586
 50
179.197081
 51
206.84416899999999
  0
ARC
  5
66
  8
0
 62
     7
 10
153.16819000000001
 20
108.967562
 30
0.0
 40
0.4510220000000001
 50
0.890491
 51
68.815363000000005
  0
ARC
  5
67
  8
0
 62
     7
 10
152.98232200000001
 20
108.57289
 30
0.0
 40
0.88672
 50
66.832397
 51
81.414581000000013
  0
ARC
  5
68
  8
0
 62
     7
 10
152.91676699999999
 20
108.24661
 30
0.0
 40
1.2192369999999999
 50
80.657407999999975
 51
89.889942000000005
  0
ARC
  5
69
  8
0
 62
     7
 10
152.922012
 20
108.486113
 30
0.0
 40
0.979737
 50
90.169736999999984
 51
120.439457
  0
ARC
  5
6A
  8
0
 62
     7
 10
152.68513100000001
 20
108.920834
 30
0.0
 40
0.48519
 50
122.33064400000001
 51
150.91773000000001
  0
ARC
  5
6B
  8
0
 62
     7
 10
152.61024800000001
 20
108.980137
 30
0.0
 40
0.391226
 50
153.17780400000001
 51
180.81515300000001
  0
LINE
  5
6C
  8
0
 62
     7
 10
152.21899999999999
 20
107.557
 30
0.0
 11
152.21899999999999
 21
108.97499999999999
 31
0.0
  0
ARC
  5
6D
  8
0
 62
     7
 10
154.568285
 20
107.56426
 30
0.0
 40
0.4510220000000001
 50
291.18463700000001
 51
359.109509
  0
ARC
  5
6E
  8
0
 62
     7
 10
154.382418
 20
107.95893100000001
 30
0.0
 40
0.88672
 50
278.585419
 51
293.16760299999999
  0
ARC
  5
6F
  8
0
 62
     7
 10
154.31686300000001
 20
108.285211
 30
0.0
 40
1.2192369999999999
 50
270.11005799999998
 51
279.34259200000002
  0
ARC
  5
70
  8
0
 62
     7
 10
154.32217299999999
 20
108.04187400000001
 30
0.0
 40
0.9759019999999999
 50
238.985173
 51
269.82576699999998
  0
ARC
  5
71
  8
0
 62
     7
 10
154.08110600000001
 20
107.607637
 30
0.0
 40
0.479841
 50
208.945898
 51
236.937693
  0
ARC
  5
72
  8
0
 62
     7
 10
154.009705
 20
107.551777
 30
0.0
 40
0.390586
 50
179.197081
 51
206.84416899999999
  0
ARC
  5
73
  8
0
 62
     7
 10
154.568285
 20
108.967562
 30
0.0
 40
0.4510220000000001
 50
0.890491
 51
68.815363000000005
  0
ARC
  5
74
  8
0
 62
     7
 10
154.382418
 20
108.57289
 30
0.0
 40
0.88672
 50
66.832397
 51
81.414581000000013
  0
ARC
  5
75
  8
0
 62
     7
 10
154.31686300000001
 20
108.24661
 30
0.0
 40
1.2192369999999999
 50
80.657407999999975
 51
89.889942000000005
  0
ARC
  5
76
  8
0
 62
     7
 10
154.32210699999999
 20
108.486113
 30
0.0
 40
0.979737
 50
90.169736999999984
 51
120.439457
  0
ARC
  5
77
  8
0
 62
     7
 10
154.085227
 20
108.920834
 30
0.0
 40
0.48519
 50
122.33064400000001
 51
150.91773000000001
  0
ARC
  5
78
  8
0
 62
     7
 10
154.010344
 20
108.980137
 30
0.0
 40
0.391226
 50
153.17780400000001
 51
180.81515300000001
  0
LINE
  5
79
  8
0
 62
     7
 10
155.01900000000001
 20
107.557
 30
0.0
 11
155.01900000000001
 21
108.97499999999999
 31
0.0
  0
LINE
  5
7A
  8
0
 62
     7
 10
152.91900000000001
 20
107.066
 30
0.0
 11
154.31899999999999
 21
107.066
 31
0.0
  0
LINE
  5
7B
  8
0
 62
     7
 10
152.91900000000001
 20
109.46599999999999
 30
0.0
 11
154.31899999999999
 21
109.46599999999999
 31
0.0
  0
LINE
  5
7C
  8
0
 62
     7
 10
153.619
 20
107.557
 30
0.0
 11
153.619
 21
108.97499999999999
 31
0.0
  0
ARC
  5
7D
  8
0
 62
     7
 10
153.29437899999999
 20
94.158428000000001
 30
0.0
 40
0.32547
 50
314.85625599999997
 51
359.77005700000001
  0
ARC
  5
7E
  8
0
 62
     7
 10
153.15337400000001
 20
94.293981000000002
 30
0.0
 40
0.521033
 50
297.14866699999999
 51
315.33405099999999
  0
ARC
  5
7F
  8
0
 62
     7
 10
152.917146
 20
94.720966000000004
 30
0.0
 40
1.0088839999999999
 50
284.35682100000002
 51
298.02152699999999
  0
ARC
  5
80
  8
0
 62
     7
 10
152.64802700000001
 20
95.651331999999996
 30
0.0
 40
1.9771529999999991
 50
275.84632299999998
 51
285.22682700000001
  0
ARC
  5
81
  8
0
 62
     7
 10
152.51729900000001
 20
96.637923000000001
 30
0.0
 40
2.9720749999999989
 50
270.04197099999999
 51
276.41606999999999
  0
ARC
  5
82
  8
0
 62
     7
 10
152.52209300000001
 20
96.039468000000014
 30
0.0
 40
2.3736209999999991
 50
254.103722
 51
269.936823
  0
ARC
  5
83
  8
0
 62
     7
 10
152.21299099999999
 20
94.925072999999983
 30
0.0
 40
1.217206
 50
241.88249200000001
 51
253.72959599999999
  0
ARC
  5
84
  8
0
 62
     7
 10
151.91989799999999
 20
94.361174000000005
 30
0.0
 40
0.5817720000000001
 50
224.24736100000001
 51
241.16824600000001
  0
ARC
  5
85
  8
0
 62
     7
 10
151.72889799999999
 20
94.166603000000009
 30
0.0
 40
0.309249
 50
181.75693000000001
 51
223.11612700000001
  0
ARC
  5
86
  8
0
 62
     7
 10
153.29437899999999
 20
95.573136999999988
 30
0.0
 40
0.32547
 50
0.229943
 51
45.143743999999991
  0
ARC
  5
87
  8
0
 62
     7
 10
153.15337400000001
 20
95.437583999999987
 30
0.0
 40
0.521033
 50
44.665948999999991
 51
62.851332999999997
  0
ARC
  5
88
  8
0
 62
     7
 10
152.917146
 20
95.010598999999985
 30
0.0
 40
1.0088839999999999
 50
61.978473000000008
 51
75.643179000000003
  0
ARC
  5
89
  8
0
 62
     7
 10
152.64802700000001
 20
94.080232999999993
 30
0.0
 40
1.9771529999999991
 50
74.773173000000014
 51
84.153677000000002
  0
ARC
  5
8A
  8
0
 62
     7
 10
152.51729900000001
 20
93.093642000000003
 30
0.0
 40
2.9720749999999989
 50
83.583930000000009
 51
89.95802900000001
  0
ARC
  5
8B
  8
0
 62
     7
 10
152.52210700000001
 20
93.685754000000003
 30
0.0
 40
2.3799639999999989
 50
90.063339999999982
 51
105.85313600000001
  0
ARC
  5
8C
  8
0
 62
     7
 10
152.21230499999999
 20
94.807693
 30
0.0
 40
1.216097999999999
 50
106.251926
 51
118.10870300000001
  0
ARC
  5
8D
  8
0
 62
     7
 10
151.91939400000001
 20
95.371532999999985
 30
0.0
 40
0.5808020000000002
 50
118.827684
 51
135.77963799999989
  0
ARC
  5
8E
  8
0
 62
     7
 10
151.72922
 20
95.565110999999987
 30
0.0
 40
0.309566
 50
136.908366
 51
178.27240800000001
  0
LINE
  5
8F
  8
0
 62
     7
 10
151.41999999999999
 20
94.1571
 30
0.0
 11
151.41999999999999
 21
95.574399999999983
 31
0.0
  0
ARC
  5
90
  8
0
 62
     7
 10
155.49442999999999
 20
94.158428000000001
 30
0.0
 40
0.32547
 50
314.85625599999997
 51
359.77005700000001
  0
ARC
  5
91
  8
0
 62
     7
 10
155.35342600000001
 20
94.293981000000002
 30
0.0
 40
0.521033
 50
297.14866699999999
 51
315.33405099999999
  0
ARC
  5
92
  8
0
 62
     7
 10
155.117198
 20
94.720966000000004
 30
0.0
 40
1.0088839999999999
 50
284.35682100000002
 51
298.02152699999999
  0
ARC
  5
93
  8
0
 62
     7
 10
154.84807900000001
 20
95.651331999999996
 30
0.0
 40
1.9771529999999991
 50
275.84632299999998
 51
285.22682700000001
  0
ARC
  5
94
  8
0
 62
     7
 10
154.71735100000001
 20
96.637923000000001
 30
0.0
 40
2.9720749999999989
 50
270.04197099999999
 51
276.41606999999999
  0
ARC
  5
95
  8
0
 62
     7
 10
154.722128
 20
96.043592000000004
 30
0.0
 40
2.3777449999999991
 50
254.117605
 51
269.93733400000002
  0
ARC
  5
96
  8
0
 62
     7
 10
154.41251099999999
 20
94.925674999999984
 30
0.0
 40
1.2177999999999991
 50
241.89023700000001
 51
253.7348319999999
  0
ARC
  5
97
  8
0
 62
     7
 10
154.11941200000001
 20
94.361386999999979
 30
0.0
 40
0.5820220000000002
 50
224.25277600000001
 51
241.16719699999999
  0
ARC
  5
98
  8
0
 62
     7
 10
153.92808199999999
 20
94.166542000000007
 30
0.0
 40
0.309069
 50
181.74653699999999
 51
223.13174100000001
  0
ARC
  5
99
  8
0
 62
     7
 10
155.49442999999999
 20
95.573136999999988
 30
0.0
 40
0.32547
 50
0.229943
 51
45.143743999999991
  0
ARC
  5
9A
  8
0
 62
     7
 10
155.35342600000001
 20
95.437583999999987
 30
0.0
 40
0.521033
 50
44.665948999999991
 51
62.851332999999997
  0
ARC
  5
9B
  8
0
 62
     7
 10
155.117198
 20
95.010598999999985
 30
0.0
 40
1.0088839999999999
 50
61.978473000000008
 51
75.643179000000003
  0
ARC
  5
9C
  8
0
 62
     7
 10
154.84807900000001
 20
94.080232999999993
 30
0.0
 40
1.9771529999999991
 50
74.773173000000014
 51
84.153677000000002
  0
ARC
  5
9D
  8
0
 62
     7
 10
154.71735100000001
 20
93.093642000000003
 30
0.0
 40
2.9720749999999989
 50
83.583930000000009
 51
89.95802900000001
  0
ARC
  5
9E
  8
0
 62
     7
 10
154.72214199999999
 20
93.681618999999998
 30
0.0
 40
2.3841000000000001
 50
90.062828999999994
 51
105.83929000000001
  0
ARC
  5
9F
  8
0
 62
     7
 10
154.411824
 20
94.807091
 30
0.0
 40
1.2166920000000001
 50
106.24669400000001
 51
118.10096
  0
ARC
  5
A0
  8
0
 62
     7
 10
154.118908
 20
95.371319999999983
 30
0.0
 40
0.581051
 50
118.828734
 51
135.77422200000001
  0
ARC
  5
A1
  8
0
 62
     7
 10
153.928404
 20
95.565172000000004
 30
0.0
 40
0.309386
 50
136.89275699999999
 51
178.282802
  0
LINE
  5
A2
  8
0
 62
     7
 10
155.81899999999999
 20
94.1571
 30
0.0
 11
155.81899999999999
 21
95.574399999999983
 31
0.0
  0
LINE
  5
A3
  8
0
 62
     7
 10
152.51900000000001
 20
93.665800000000004
 30
0.0
 11
154.72
 21
93.665800000000004
 31
0.0
  0
LINE
  5
A4
  8
0
 62
     7
 10
152.51900000000001
 20
96.065700000000007
 30
0.0
 11
154.71899999999999
 21
96.065700000000007
 31
0.0
  0
LINE
  5
A5
  8
0
 62
     7
 10
153.619
 20
94.1571
 30
0.0
 11
153.619
 21
95.574399999999983
 31
0.0
  0
ARC
  5
A6
  8
0
 62
     7
 10
153.619157
 20
72.298885999999996
 30
0.0
 40
1.249887999999999
 50
179.99996999999999
 51
270.00002000000001
  0
ARC
  5
A7
  8
0
 62
     7
 10
153.619157
 20
72.298886999999993
 30
0.0
 40
1.249889
 50
270.00002000000001
 51
359.99999000000003
  0
LINE
  5
A8
  8
0
 62
     7
 10
93.970699999999994
 20
57.680199999999992
 30
0.0
 11
93.970699999999994
 21
55.5794
 31
0.0
  0
LINE
  5
A9
  8
0
 62
     7
 10
92.870400000000004
 20
57.680199999999992
 30
0.0
 11
92.870400000000004
 21
55.5794
 31
0.0
  0
ARC
  5
AA
  8
0
 62
     7
 10
91.248362
 20
61.934514999999998
 30
0.0
 40
6.9136809999999986
 50
291.41233399999999
 51
293.18910199999999
  0
ARC
  5
AB
  8
0
 62
     7
 10
93.281937999999997
 20
56.78370799999999
 30
0.0
 40
1.376044
 50
279.69283899999999
 51
290.880538
  0
ARC
  5
AC
  8
0
 62
     7
 10
93.408338000000001
 20
56.136012999999998
 30
0.0
 40
0.716482
 50
270.19190900000001
 51
278.449614
  0
ARC
  5
AD
  8
0
 62
     7
 10
93.411489999999986
 20
56.161181000000013
 30
0.0
 40
0.7416470000000001
 50
256.38591500000001
 51
269.94185399999998
  0
ARC
  5
AE
  8
0
 62
     7
 10
93.540772000000004
 20
56.755262000000002
 30
0.0
 40
1.349540999999999
 50
245.10833099999999
 51
256.98820799999999
  0
ARC
  5
AF
  8
0
 62
     7
 10
94.010621
 20
57.863473999999997
 30
0.0
 40
2.552884999999999
 50
243.470947
 51
246.011685
  0
ARC
  5
B0
  8
0
 62
     7
 10
93.463009000000014
 20
56.801228999999999
 30
0.0
 40
1.0601160000000001
 50
92.826238000000004
 51
123.988834
  0
ARC
  5
B1
  8
0
 62
     7
 10
93.410216000000005
 20
57.114967999999998
 30
0.0
 40
0.745088
 50
76.541521000000003
 51
89.959924000000001
  0
ARC
  5
B2
  8
0
 62
     7
 10
93.318899999999985
 20
56.684733999999992
 30
0.0
 40
1.184814
 50
64.749554000000003
 51
77.089151999999984
  0
ARC
  5
B3
  8
0
 62
     7
 10
93.124709999999993
 20
56.231668999999997
 30
0.0
 40
1.6775189999999991
 50
59.712780000000002
 51
65.351741000000004
  0
LINE
  5
B4
  8
0
 62
     7
 10
89.570499999999996
 20
57.680199999999992
 30
0.0
 11
89.570499999999996
 21
55.5794
 31
0.0
  0
LINE
  5
B5
  8
0
 62
     7
 10
90.670100000000005
 20
57.680199999999992
 30
0.0
 11
90.670100000000005
 21
55.5794
 31
0.0
  0
ARC
  5
B6
  8
0
 62
     7
 10
88.203387000000006
 20
61.310268000000001
 30
0.0
 40
6.2392219999999989
 50
291.36314900000002
 51
293.28863899999999
  0
ARC
  5
B7
  8
0
 62
     7
 10
89.957877999999994
 20
56.844039000000002
 30
0.0
 40
1.440761
 50
280.174443
 51
291.08508699999999
  0
ARC
  5
B8
  8
0
 62
     7
 10
90.127146999999994
 20
55.989581999999992
 30
0.0
 40
0.5700560000000001
 50
270.29923600000001
 51
278.59911399999999
  0
ARC
  5
B9
  8
0
 62
     7
 10
90.130673999999999
 20
56.156227999999999
 30
0.0
 40
0.736694
 50
256.22179599999998
 51
269.957245
  0
ARC
  5
BA
  8
0
 62
     7
 10
90.246202999999994
 20
56.706166000000003
 30
0.0
 40
1.2984569999999991
 50
251.30794299999999
 51
257.050119
  0
ARC
  5
BB
  8
0
 62
     7
 10
90.776438999999996
 20
58.235174000000001
 30
0.0
 40
2.9167740000000002
 50
245.57754
 51
251.06732000000011
  0
ARC
  5
BC
  8
0
 62
     7
 10
90.357935999999995
 20
56.329864000000001
 30
0.0
 40
1.5631930000000001
 50
106.241091
 51
120.24891100000001
  0
ARC
  5
BD
  8
0
 62
     7
 10
90.143089000000003
 20
57.006880000000002
 30
0.0
 40
0.853274
 50
90.870563000000004
 51
105.10452100000001
  0
ARC
  5
BE
  8
0
 62
     7
 10
90.129644999999996
 20
57.234775999999997
 30
0.0
 40
0.625279
 50
75.137753000000004
 51
89.956040999999985
  0
ARC
  5
BF
  8
0
 62
     7
 10
89.989395000000002
 20
56.619002999999999
 30
0.0
 40
1.2566250000000001
 50
63.839731999999991
 51
76.158470000000008
  0
ARC
  5
C0
  8
0
 62
     7
 10
89.807918000000001
 20
56.195408999999998
 30
0.0
 40
1.717004
 50
59.856297999999988
 51
64.636236999999994
  0
ARC
  5
C1
  8
0
 62
     7
 10
93.946787999999984
 20
50.17533499999999
 30
0.0
 40
5.5102139999999986
 50
101.26512700000001
 51
103.426074
  0
ARC
  5
C2
  8
0
 62
     7
 10
91.545178000000007
 20
59.834002000000012
 30
0.0
 40
4.4430959999999988
 50
278.47461199999998
 51
284.62960199999998
  0
ARC
  5
C3
  8
0
 62
     7
 10
91.932519999999997
 20
57.220278
 30
0.0
 40
1.800829
 50
270.556423
 51
278.54062800000003
  0
LINE
  5
C4
  8
0
 62
     7
 10
91.950000000000003
 20
55.419499999999992
 30
0.0
 11
91.590699999999984
 21
55.419499999999992
 31
0.0
  0
ARC
  5
C5
  8
0
 62
     7
 10
91.59205
 20
57.037545999999992
 30
0.0
 40
1.618012
 50
260.71864199999999
 51
269.95156400000002
  0
ARC
  5
C6
  8
0
 62
     7
 10
91.841015999999996
 20
58.770499000000001
 30
0.0
 40
3.368601
 50
257.77596799999998
 51
261.29335800000001
  0
ARC
  5
C7
  8
0
 62
     7
 10
78.439243999999974
 20
-0.860917
 30
0.0
 40
57.750351000000002
 50
77.307795999999996
 51
77.772765000000021
  0
ARC
  5
C8
  8
0
 62
     7
 10
91.691455000000005
 20
54.657662999999999
 30
0.0
 40
3.1904430000000001
 50
102.108501
 51
108.669875
  0
ARC
  5
C9
  8
0
 62
     7
 10
91.870320000000007
 20
54.009070000000001
 30
0.0
 40
3.8623199999999991
 50
95.808346000000014
 51
102.684591
  0
ARC
  5
CA
  8
0
 62
     7
 10
91.685438000000005
 20
55.782493000000002
 30
0.0
 40
2.0792969999999991
 50
87.659710000000004
 51
95.685461000000004
  0
ARC
  5
CB
  8
0
 62
     7
 10
91.838250000000002
 20
56.713518000000001
 30
0.0
 40
1.148545999999999
 50
88.649874999999994
 51
93.389440000000036
  0
ARC
  5
CC
  8
0
 62
     7
 10
91.820728000000003
 20
55.673527999999997
 30
0.0
 40
2.1886709999999989
 50
84.630166000000017
 51
88.832785999999999
  0
ARC
  5
CD
  8
0
 62
     7
 10
91.649872000000002
 20
53.854916000000003
 30
0.0
 40
4.0152919999999988
 50
72.304228000000009
 51
84.631405999999998
  0
LINE
  5
CE
  8
0
 62
     7
 10
92.770499999999998
 20
58.000599999999999
 30
0.0
 11
91.770300000000006
 21
58.000599999999999
 31
0.0
  0
LINE
  5
CF
  8
0
 62
     7
 10
90.770399999999995
 20
58.000599999999999
 30
0.0
 11
91.770300000000006
 21
58.000599999999999
 31
0.0
  0
LINE
  5
D0
  8
0
 62
     7
 10
89.929800000000014
 20
55.379600000000003
 30
0.0
 11
91.770300000000006
 21
55.379600000000003
 31
0.0
  0
LINE
  5
D1
  8
0
 62
     7
 10
91.770300000000006
 20
55.379600000000003
 30
0.0
 11
93.610900000000001
 21
55.379600000000003
 31
0.0
  0
LINE
  5
D2
  8
0
 62
     7
 10
93.850899999999996
 20
55.539400000000001
 30
0.0
 11
93.610900000000001
 21
55.3996
 31
0.0
  0
LINE
  5
D3
  8
0
 62
     7
 10
93.610900000000001
 20
55.3996
 30
0.0
 11
93.610900000000001
 21
55.379600000000003
 31
0.0
  0
LINE
  5
D4
  8
0
 62
     7
 10
93.970699999999994
 20
55.5794
 30
0.0
 11
93.610900000000001
 21
55.3996
 31
0.0
  0
LINE
  5
D5
  8
0
 62
     7
 10
89.570499999999996
 20
55.5794
 30
0.0
 11
89.929800000000014
 21
55.379600000000003
 31
0.0
  0
LINE
  5
D6
  8
0
 62
     7
 10
89.929800000000014
 20
57.880000000000003
 30
0.0
 11
93.610900000000001
 21
57.880000000000003
 31
0.0
  0
LINE
  5
D7
  8
0
 62
     7
 10
90.530100000000004
 20
57.979900000000001
 30
0.0
 11
93.010599999999997
 21
57.979900000000001
 31
0.0
  0
ARC
  5
D8
  8
0
 62
     7
 10
92.563361999999984
 20
58.548102
 30
0.0
 40
0.5853470000000001
 50
290.72044099999999
 51
322.56921599999998
  0
ARC
  5
D9
  8
0
 62
     7
 10
92.691998999999996
 20
58.433126999999999
 30
0.0
 40
0.413523
 50
324.3865009999999
 51
341.27009399999997
  0
LINE
  5
DA
  8
0
 62
     7
 10
93.083600000000004
 20
58.3003
 30
0.0
 11
93.110299999999995
 21
58.380299999999991
 31
0.0
  0
LINE
  5
DB
  8
0
 62
     7
 10
93.110299999999995
 20
58.380299999999991
 30
0.0
 11
93.110299999999995
 21
58.5002
 31
0.0
  0
LINE
  5
DC
  8
0
 62
     7
 10
93.110299999999995
 20
58.5002
 30
0.0
 11
93.070700000000016
 21
58.640000000000001
 31
0.0
  0
LINE
  5
DD
  8
0
 62
     7
 10
90.450199999999995
 20
58.640000000000001
 30
0.0
 11
90.469999999999999
 21
58.640000000000001
 31
0.0
  0
ARC
  5
DE
  8
0
 62
     7
 10
106.75075200000001
 20
56.260111999999999
 30
0.0
 40
16.473396999999999
 50
171.69336999999999
 51
172.18471099999999
  0
LINE
  5
DF
  8
0
 62
     7
 10
90.430400000000006
 20
58.5002
 30
0.0
 11
90.430400000000006
 21
58.380299999999991
 31
0.0
  0
LINE
  5
E0
  8
0
 62
     7
 10
90.430400000000006
 20
58.380299999999991
 30
0.0
 11
90.456199999999995
 21
58.3003
 31
0.0
  0
ARC
  5
E1
  8
0
 62
     7
 10
91.294368000000006
 20
58.581094
 30
0.0
 40
0.8839339999999999
 50
198.51891499999999
 51
203.87817899999999
  0
ARC
  5
E2
  8
0
 62
     7
 10
90.800507999999994
 20
58.361942000000013
 30
0.0
 40
0.343634
 50
203.79745700000001
 51
237.85920200000001
  0
ARC
  5
E3
  8
0
 62
     7
 10
91.308025999999998
 20
59.214252999999999
 30
0.0
 40
1.3355330000000001
 50
238.87573499999999
 51
245.33017599999999
  0
LINE
  5
E4
  8
0
 62
     7
 10
90.750600000000006
 20
58.000599999999999
 30
0.0
 11
90.770399999999995
 21
58.000599999999999
 31
0.0
  0
LINE
  5
E5
  8
0
 62
     7
 10
90.610399999999998
 20
58.980400000000003
 30
0.0
 11
92.910899999999998
 21
58.980400000000003
 31
0.0
  0
LINE
  5
E6
  8
0
 62
     7
 10
90.610399999999998
 20
60.580300000000001
 30
0.0
 11
91.770300000000006
 21
60.580300000000001
 31
0.0
  0
LINE
  5
E7
  8
0
 62
     7
 10
91.770300000000006
 20
60.580300000000001
 30
0.0
 11
92.910899999999998
 21
60.580300000000001
 31
0.0
  0
LINE
  5
E8
  8
0
 62
     7
 10
93.110299999999995
 20
61.020600000000002
 30
0.0
 11
93.110299999999995
 21
60.920699999999989
 31
0.0
  0
LINE
  5
E9
  8
0
 62
     7
 10
93.110299999999995
 20
60.920699999999989
 30
0.0
 11
93.050600000000003
 21
60.820099999999996
 31
0.0
  0
LINE
  5
EA
  8
0
 62
     7
 10
90.410200000000003
 20
61.020600000000002
 30
0.0
 11
90.430400000000006
 21
60.920699999999989
 31
0.0
  0
LINE
  5
EB
  8
0
 62
     7
 10
90.430400000000006
 20
60.920699999999989
 30
0.0
 11
90.469999999999999
 21
60.820099999999996
 31
0.0
  0
LINE
  5
EC
  8
0
 62
     7
 10
90.410200000000003
 20
61.580800000000004
 30
0.0
 11
93.110299999999995
 21
61.580800000000004
 31
0.0
  0
LINE
  5
ED
  8
0
 62
     7
 10
90.410200000000003
 20
61.580800000000004
 30
0.0
 11
90.410200000000003
 21
61.020600000000002
 31
0.0
  0
LINE
  5
EE
  8
0
 62
     7
 10
93.110299999999995
 20
61.580800000000004
 30
0.0
 11
93.110299999999995
 21
61.020600000000002
 31
0.0
  0
LINE
  5
EF
  8
0
 62
     7
 10
93.610900000000001
 20
57.880000000000003
 30
0.0
 11
93.970699999999994
 21
57.680199999999992
 31
0.0
  0
LINE
  5
F0
  8
0
 62
     7
 10
89.929800000000014
 20
57.880000000000003
 30
0.0
 11
89.570499999999996
 21
57.680199999999992
 31
0.0
  0
LINE
  5
F1
  8
0
 62
     7
 10
90.469999999999999
 20
60.820099999999996
 30
0.0
 11
90.610399999999998
 21
60.580300000000001
 31
0.0
  0
LINE
  5
F2
  8
0
 62
     7
 10
90.610399999999998
 20
58.980400000000003
 30
0.0
 11
90.469999999999999
 21
58.640000000000001
 31
0.0
  0
LINE
  5
F3
  8
0
 62
     7
 10
93.050600000000003
 20
60.820099999999996
 30
0.0
 11
92.910899999999998
 21
60.580300000000001
 31
0.0
  0
LINE
  5
F4
  8
0
 62
     7
 10
92.910899999999998
 20
58.980400000000003
 30
0.0
 11
93.070700000000016
 21
58.640000000000001
 31
0.0
  0
LINE
  5
F5
  8
0
 62
     7
 10
90.610399999999998
 20
60.580300000000001
 30
0.0
 11
90.610399999999998
 21
58.980400000000003
 31
0.0
  0
LINE
  5
F6
  8
0
 62
     7
 10
92.910899999999998
 20
60.580300000000001
 30
0.0
 11
92.910899999999998
 21
58.980400000000003
 31
0.0
  0
LINE
  5
F7
  8
0
 62
     7
 10
90.530100000000004
 20
57.979900000000001
 30
0.0
 11
90.530100000000004
 21
57.880000000000003
 31
0.0
  0
LINE
  5
F8
  8
0
 62
     7
 10
93.010599999999997
 20
57.979900000000001
 30
0.0
 11
93.010599999999997
 21
57.880000000000003
 31
0.0
  0
LINE
  5
F9
  8
0
 62
     7
 10
89.570499999999996
 20
55.5794
 30
0.0
 11
89.929800000000014
 21
55.379600000000003
 31
0.0
  0
LINE
  5
FA
  8
0
 62
     7
 10
93.970699999999994
 20
55.5794
 30
0.0
 11
93.610900000000001
 21
55.379600000000003
 31
0.0
  0
LINE
  5
FB
  8
0
  6
AIGENLINE001
 62
     7
 10
157.33099999999999
 20
130.12799999999999
 30
0.0
 11
152.578
 21
130.232
 31
0.0
  0
LINE
  5
FC
  8
0
  6
AIGENLINE001
 62
     7
 10
157.33099999999999
 20
130.12799999999999
 30
0.0
 11
159.08699999999999
 21
134.16200000000001
 31
0.0
  0
LINE
  5
FD
  8
0
  6
AIGENLINE001
 62
     7
 10
148.54300000000001
 20
131.98699999999999
 30
0.0
 11
149.102
 21
133.27099999999999
 31
0.0
  0
LINE
  5
FE
  8
0
  6
AIGENLINE001
 62
     7
 10
137.23599999999999
 20
139.08600000000001
 30
0.0
 11
148.791
 21
134.06
 31
0.0
  0
ARC
  5
FF
  8
0
  6
AIGENLINE001
 62
     7
 10
148.520399
 20
133.497848
 30
0.0
 40
0.624293
 50
338.66762299999999
 51
64.295889999999986
  0
LINE
  5
100
  8
0
  6
AIGENLINE001
 62
     7
 10
150.61799999999999
 20
136.756
 30
0.0
 11
151.017
 21
137.672
 31
0.0
  0
LINE
  5
101
  8
0
  6
AIGENLINE001
 62
     7
 10
138.274
 20
141.47
 30
0.0
 11
149.828
 21
136.44399999999999
 31
0.0
  0
ARC
  5
102
  8
0
  6
AIGENLINE001
 62
     7
 10
150.055103
 20
137.025689
 30
0.0
 40
0.624037
 50
248.67325600000001
 51
334.37683500000003
  0
LINE
  5
103
  8
0
  6
AIGENLINE001
 62
     7
 10
137.23599999999999
 20
139.08600000000001
 30
0.0
 11
138.274
 21
141.47
 31
0.0
  0
LINE
  5
104
  8
0
  6
AIGENLINE001
 62
     7
 10
148.54300000000001
 20
131.98699999999999
 30
0.0
 11
152.578
 21
130.232
 31
0.0
  0
LINE
  5
105
  8
0
  6
AIGENLINE001
 62
     7
 10
151.017
 20
137.672
 30
0.0
 11
159.08699999999999
 21
134.16200000000001
 31
0.0
  0
ARC
  5
106
  8
0
 62
     7
 10
152.37237999999999
 20
129.183303
 30
0.0
 40
3.9527000000000001
 50
164.11182700000001
 51
170.05767599999999
  0
ARC
  5
107
  8
0
 62
     7
 10
152.40599900000001
 20
129.16860700000001
 30
0.0
 40
4.013723999999999
 50
10.002598000000001
 51
36.828845999999999
  0
LINE
  5
108
  8
0
 62
     7
 10
156.81899999999999
 20
132.065
 30
0.0
 11
152.41900000000001
 21
130.26499999999999
 31
0.0
  0
LINE
  5
109
  8
0
 62
     7
 10
156.81899999999999
 20
132.065
 30
0.0
 11
156.81899999999999
 21
136.465
 31
0.0
  0
LINE
  5
10A
  8
0
 62
     7
 10
148.01900000000001
 20
130.26499999999999
 30
0.0
 11
148.01900000000001
 21
131.66499999999999
 31
0.0
  0
LINE
  5
10B
  8
0
 62
     7
 10
134.81899999999999
 20
132.26599999999999
 30
0.0
 11
147.41900000000001
 21
132.26599999999999
 31
0.0
  0
ARC
  5
10C
  8
0
 62
     7
 10
147.41863499999999
 20
131.665492
 30
0.0
 40
0.6001400000000001
 50
0.00001
 51
89.999980000000008
  0
LINE
  5
10D
  8
0
 62
     7
 10
148.01900000000001
 20
135.465
 30
0.0
 11
148.01900000000001
 21
136.465
 31
0.0
  0
LINE
  5
10E
  8
0
 62
     7
 10
134.81899999999999
 20
134.86500000000001
 30
0.0
 11
147.41900000000001
 21
134.86500000000001
 31
0.0
  0
ARC
  5
10F
  8
0
 62
     7
 10
147.41863499999999
 20
135.465284
 30
0.0
 40
0.6001400000000001
 50
270.00002000000001
 51
359.99999000000003
  0
LINE
  5
110
  8
0
 62
     7
 10
146.81899999999999
 20
132.26599999999999
 30
0.0
 11
146.81899999999999
 21
134.86500000000001
 31
0.0
  0
LINE
  5
111
  8
0
 62
     7
 10
134.81899999999999
 20
132.26599999999999
 30
0.0
 11
134.81899999999999
 21
134.86500000000001
 31
0.0
  0
LINE
  5
112
  8
0
 62
     7
 10
148.01900000000001
 20
130.26499999999999
 30
0.0
 11
152.41900000000001
 21
130.26499999999999
 31
0.0
  0
LINE
  5
113
  8
0
 62
     7
 10
148.01900000000001
 20
136.465
 30
0.0
 11
156.81899999999999
 21
136.465
 31
0.0
  0
ARC
  5
114
  8
0
 62
     7
 10
81.478745999999987
 20
133.56495699999999
 30
0.0
 40
1.3001869999999991
 50
0.00001
 51
89.999980000000008
  0
ARC
  5
115
  8
0
 62
     7
 10
81.478831999999997
 20
133.565043
 30
0.0
 40
1.3001009999999991
 50
90.003795999999994
 51
180.003806
  0
ARC
  5
116
  8
0
 62
     7
 10
81.527967000000004
 20
133.614893
 30
0.0
 40
1.35016
 50
182.11961599999989
 51
267.91078999999991
  0
ARC
  5
117
  8
0
 62
     7
 10
81.428884999999994
 20
133.615712
 30
0.0
 40
1.3510009999999999
 50
272.11506500000002
 51
357.84697799999998
  0
ARC
  5
118
  8
0
 62
     7
 10
81.448611999999983
 20
129.179551
 30
0.0
 40
3.9694660000000002
 50
164.12439599999999
 51
170.045108
  0
ARC
  5
119
  8
0
 62
     7
 10
81.405675000000016
 20
129.15761499999999
 30
0.0
 40
4.0747410000000004
 50
10.008227
 51
15.7753
  0
LINE
  5
11A
  8
0
 62
     7
 10
85.878699999999995
 20
130.26499999999999
 30
0.0
 11
85.878699999999995
 21
136.465
 31
0.0
  0
LINE
  5
11B
  8
0
 62
     7
 10
77.078599999999994
 20
130.26499999999999
 30
0.0
 11
77.078599999999994
 21
136.465
 31
0.0
  0
LINE
  5
11C
  8
0
 62
     7
 10
77.078599999999994
 20
130.26499999999999
 30
0.0
 11
85.878699999999995
 21
130.26499999999999
 31
0.0
  0
LINE
  5
11D
  8
0
 62
     7
 10
77.078599999999994
 20
136.465
 30
0.0
 11
85.878699999999995
 21
136.465
 31
0.0
  0
LINE
  5
11E
  8
0
  6
AIGENLINE002
 62
     7
 10
91.768100000000004
 20
108.05500000000001
 30
0.0
 11
83.278599999999983
 21
100.10299999999999
 31
0.0
  0
LINE
  5
11F
  8
0
 62
     7
 10
141.679
 20
61.580800000000004
 30
0.0
 11
141.679
 21
105.75
 31
0.0
  0
LINE
  5
120
  8
0
 62
     7
 10
143.779
 20
105.75
 30
0.0
 11
143.779
 21
61.580800000000004
 31
0.0
  0
LINE
  5
121
  8
0
  6
AIGENLINE002
 62
     7
 10
142.72900000000001
 20
108.05500000000001
 30
0.0
 11
142.72900000000001
 21
54.4101
 31
0.0
  0
LINE
  5
122
  8
0
 62
     7
 10
90.717999999999989
 20
61.580800000000004
 30
0.0
 11
90.717999999999989
 21
105.75
 31
0.0
  0
LINE
  5
123
  8
0
 62
     7
 10
92.818200000000004
 20
105.75
 30
0.0
 11
92.818200000000004
 21
61.580800000000004
 31
0.0
  0
LINE
  5
124
  8
0
 62
     7
 10
142.72900000000001
 20
55.5794
 30
0.0
 11
142.72900000000001
 21
57.67949999999999
 31
0.0
  0
LINE
  5
125
  8
0
 62
     7
 10
140.82900000000001
 20
55.5794
 30
0.0
 11
140.82900000000001
 21
57.67949999999999
 31
0.0
  0
ARC
  5
126
  8
0
 62
     7
 10
144.91657900000001
 20
71.843226999999999
 30
0.0
 40
16.76968299999999
 50
255.89149500000011
 51
257.06355600000001
  0
ARC
  5
127
  8
0
 62
     7
 10
141.974602
 20
59.121683999999988
 30
0.0
 40
3.7124549999999998
 50
257.36189899999999
 51
264.203329
  0
ARC
  5
128
  8
0
 62
     7
 10
141.79312100000001
 20
57.579881999999991
 30
0.0
 40
2.160350999999999
 50
264.86194699999999
 51
269.89901800000001
  0
ARC
  5
129
  8
0
 62
     7
 10
141.78848199999999
 20
57.466862999999996
 30
0.0
 40
2.0473279999999989
 50
270.02328399999999
 51
278.14766500000002
  0
ARC
  5
12A
  8
0
 62
     7
 10
141.63023200000001
 20
58.736750000000001
 30
0.0
 40
3.3269079999999991
 50
277.74600099999998
 51
281.36863899999997
  0
ARC
  5
12B
  8
0
 62
     7
 10
140.75624500000001
 20
62.969875000000002
 30
0.0
 40
7.6492889999999987
 50
281.536449
 51
284.94662499999998
  0
ARC
  5
12C
  8
0
 62
     7
 10
141.461253
 20
53.967492000000007
 30
0.0
 40
3.9225979999999998
 50
71.141821999999991
 51
79.928281000000013
  0
ARC
  5
12D
  8
0
 62
     7
 10
141.77246199999999
 20
55.540408999999997
 30
0.0
 40
2.3197079999999999
 50
80.702400000000011
 51
89.58376899999999
  0
ARC
  5
12E
  8
0
 62
     7
 10
141.79075800000001
 20
55.505126000000011
 30
0.0
 40
2.3549299999999991
 50
90.03513700000002
 51
102.151605
  0
ARC
  5
12F
  8
0
 62
     7
 10
142.02428900000001
 20
54.231498000000002
 30
0.0
 40
3.649395999999999
 50
101.526737
 51
109.12202499999999
  0
ARC
  5
130
  8
0
 62
     7
 10
146.81690499999999
 20
71.843226999999999
 30
0.0
 40
16.76968299999999
 50
255.89149500000011
 51
257.06355600000001
  0
ARC
  5
131
  8
0
 62
     7
 10
143.87492900000001
 20
59.121683999999988
 30
0.0
 40
3.7124549999999998
 50
257.36189899999999
 51
264.203329
  0
ARC
  5
132
  8
0
 62
     7
 10
143.69344799999999
 20
57.579881999999991
 30
0.0
 40
2.160350999999999
 50
264.86194699999999
 51
269.89901800000001
  0
ARC
  5
133
  8
0
 62
     7
 10
143.688805
 20
57.462670999999993
 30
0.0
 40
2.0431369999999989
 50
270.02341000000001
 51
278.15603299999998
  0
ARC
  5
134
  8
0
 62
     7
 10
143.52877699999999
 20
58.746559999999988
 30
0.0
 40
3.3368279999999988
 50
277.7484970000001
 51
281.36127399999998
  0
ARC
  5
135
  8
0
 62
     7
 10
142.65781100000001
 20
62.96823599999999
 30
0.0
 40
7.6473849999999999
 50
281.527986
 51
284.94081699999998
  0
LINE
  5
136
  8
0
 62
     7
 10
144.62899999999999
 20
55.5794
 30
0.0
 11
144.62899999999999
 21
57.67949999999999
 31
0.0
  0
ARC
  5
137
  8
0
 62
     7
 10
143.356358
 20
53.946408999999989
 30
0.0
 40
3.9442370000000002
 50
71.169038
 51
79.909779999999998
  0
ARC
  5
138
  8
0
 62
     7
 10
143.67285899999999
 20
55.543486999999999
 30
0.0
 40
2.3166289999999998
 50
80.696275999999997
 51
89.584947000000014
  0
ARC
  5
139
  8
0
 62
     7
 10
143.691059
 20
55.505467000000003
 30
0.0
 40
2.3545889999999989
 50
90.034518999999989
 51
102.15248699999999
  0
ARC
  5
13A
  8
0
 62
     7
 10
143.928597
 20
54.216904000000007
 30
0.0
 40
3.6644890000000001
 50
101.541983
 51
109.106105
  0
LINE
  5
13B
  8
0
 62
     7
 10
144.62899999999999
 20
55.419499999999992
 30
0.0
 11
144.62899999999999
 21
55.5794
 31
0.0
  0
LINE
  5
13C
  8
0
 62
     7
 10
144.62899999999999
 20
57.67949999999999
 30
0.0
 11
144.62899999999999
 21
57.860100000000003
 31
0.0
  0
LINE
  5
13D
  8
0
 62
     7
 10
140.82900000000001
 20
55.419499999999992
 30
0.0
 11
140.82900000000001
 21
55.5794
 31
0.0
  0
LINE
  5
13E
  8
0
 62
     7
 10
140.82900000000001
 20
57.67949999999999
 30
0.0
 11
140.82900000000001
 21
57.860100000000003
 31
0.0
  0
LINE
  5
13F
  8
0
 62
     7
 10
143.72999999999999
 20
57.999899999999997
 30
0.0
 11
142.72900000000001
 21
57.999899999999997
 31
0.0
  0
LINE
  5
140
  8
0
 62
     7
 10
142.72900000000001
 20
57.999899999999997
 30
0.0
 11
141.72999999999999
 21
57.999899999999997
 31
0.0
  0
LINE
  5
141
  8
0
 62
     7
 10
144.62899999999999
 20
55.419499999999992
 30
0.0
 11
144.56999999999999
 21
55.379600000000003
 31
0.0
  0
LINE
  5
142
  8
0
 62
     7
 10
144.56999999999999
 20
55.379600000000003
 30
0.0
 11
140.88900000000001
 21
55.379600000000003
 31
0.0
  0
LINE
  5
143
  8
0
 62
     7
 10
140.88900000000001
 20
55.379600000000003
 30
0.0
 11
140.82900000000001
 21
55.419499999999992
 31
0.0
  0
ARC
  5
144
  8
0
 62
     7
 10
144.61474100000001
 20
57.833551999999997
 30
0.0
 40
0.03032
 50
60.94053000000001
 51
90.245726000000005
  0
ARC
  5
145
  8
0
 62
     7
 10
144.475176
 20
56.687199999999997
 30
0.0
 40
1.184904
 50
83.241970999999992
 51
88.786173000000005
  0
ARC
  5
146
  8
0
 62
     7
 10
143.97727599999999
 20
43.446863
 30
0.0
 40
14.434453
 50
87.923552000000015
 51
89.528672999999984
  0
ARC
  5
147
  8
0
 62
     7
 10
143.12954500000001
 20
-31.241527999999999
 30
0.0
 40
89.127596999999994
 50
89.378682999999995
 51
90.042079999999999
  0
ARC
  5
148
  8
0
 62
     7
 10
143.154798
 20
-368.55398200000002
 30
0.0
 40
426.44003700000002
 50
90.012179999999987
 51
90.304359999999988
  0
LINE
  5
149
  8
0
 62
     7
 10
140.88900000000001
 20
57.880000000000003
 30
0.0
 11
140.82900000000001
 21
57.860100000000003
 31
0.0
  0
LINE
  5
14A
  8
0
 62
     7
 10
143.96899999999999
 20
57.880000000000003
 30
0.0
 11
143.96899999999999
 21
57.979900000000001
 31
0.0
  0
LINE
  5
14B
  8
0
 62
     7
 10
143.96899999999999
 20
57.979900000000001
 30
0.0
 11
141.489
 21
57.979900000000001
 31
0.0
  0
LINE
  5
14C
  8
0
 62
     7
 10
141.489
 20
57.880000000000003
 30
0.0
 11
141.489
 21
57.979900000000001
 31
0.0
  0
LINE
  5
14D
  8
0
 62
     7
 10
141.72999999999999
 20
57.999899999999997
 30
0.0
 11
141.43000000000001
 21
58.240400000000001
 31
0.0
  0
LINE
  5
14E
  8
0
 62
     7
 10
141.43000000000001
 20
58.240400000000001
 30
0.0
 11
141.40899999999999
 21
58.640000000000001
 31
0.0
  0
LINE
  5
14F
  8
0
 62
     7
 10
144.05099999999999
 20
58.640000000000001
 30
0.0
 11
144.029
 21
58.240400000000001
 31
0.0
  0
LINE
  5
150
  8
0
 62
     7
 10
144.029
 20
58.240400000000001
 30
0.0
 11
143.72999999999999
 21
57.999899999999997
 31
0.0
  0
LINE
  5
151
  8
0
 62
     7
 10
143.88900000000001
 20
58.980400000000003
 30
0.0
 11
141.56999999999999
 21
58.980400000000003
 31
0.0
  0
LINE
  5
152
  8
0
 62
     7
 10
141.56999999999999
 20
58.980400000000003
 30
0.0
 11
141.40899999999999
 21
58.640000000000001
 31
0.0
  0
LINE
  5
153
  8
0
 62
     7
 10
144.05099999999999
 20
58.640000000000001
 30
0.0
 11
143.88900000000001
 21
58.980400000000003
 31
0.0
  0
LINE
  5
154
  8
0
 62
     7
 10
143.88900000000001
 20
60.580300000000001
 30
0.0
 11
141.56999999999999
 21
60.580300000000001
 31
0.0
  0
LINE
  5
155
  8
0
 62
     7
 10
141.56999999999999
 20
58.980400000000003
 30
0.0
 11
141.56999999999999
 21
60.580300000000001
 31
0.0
  0
LINE
  5
156
  8
0
 62
     7
 10
143.88900000000001
 20
58.980400000000003
 30
0.0
 11
143.88900000000001
 21
60.580300000000001
 31
0.0
  0
LINE
  5
157
  8
0
 62
     7
 10
141.56999999999999
 20
60.580300000000001
 30
0.0
 11
141.43000000000001
 21
60.820799999999998
 31
0.0
  0
LINE
  5
158
  8
0
 62
     7
 10
144.029
 20
60.820799999999998
 30
0.0
 11
143.88900000000001
 21
60.580300000000001
 31
0.0
  0
LINE
  5
159
  8
0
 62
     7
 10
141.43000000000001
 20
60.820799999999998
 30
0.0
 11
141.38900000000001
 21
60.920699999999989
 31
0.0
  0
LINE
  5
15A
  8
0
 62
     7
 10
141.38900000000001
 20
60.920699999999989
 30
0.0
 11
141.38900000000001
 21
61.020600000000002
 31
0.0
  0
ARC
  5
15B
  8
0
 62
     7
 10
143.68027599999999
 20
61.055211999999997
 30
0.0
 40
0.410459
 50
347.320627
 51
355.16366099999999
  0
ARC
  5
15C
  8
0
 62
     7
 10
143.49428700000001
 20
61.092638000000001
 30
0.0
 40
0.600143
 50
333.06534700000009
 51
347.73209200000002
  0
LINE
  5
15D
  8
0
 62
     7
 10
144.089
 20
61.020600000000002
 30
0.0
 11
144.089
 21
61.580800000000004
 31
0.0
  0
LINE
  5
15E
  8
0
 62
     7
 10
144.089
 20
61.580800000000004
 30
0.0
 11
141.38900000000001
 21
61.580800000000004
 31
0.0
  0
LINE
  5
15F
  8
0
 62
     7
 10
141.38900000000001
 20
61.020600000000002
 30
0.0
 11
141.38900000000001
 21
61.580800000000004
 31
0.0
  0
LINE
  5
160
  8
0
  6
AIGENLINE002
 62
     7
 10
91.768100000000004
 20
108.05500000000001
 30
0.0
 11
91.768100000000004
 21
54.4101
 31
0.0
  0
LINE
  5
161
  8
0
  6
AIGENLINE002
 62
     7
 10
142.72900000000001
 20
108.05500000000001
 30
0.0
 11
151.21899999999999
 21
100.10299999999999
 31
0.0
  0
LINE
  5
162
  8
0
  6
AIGENLINE002
 62
     7
 10
71.1892
 20
108.05500000000001
 30
0.0
 11
79.678700000000006
 21
100.10299999999999
 31
0.0
  0
LINE
  5
163
  8
0
 62
     7
 10
72.2393
 20
61.580800000000004
 30
0.0
 11
72.2393
 21
105.75
 31
0.0
  0
LINE
  5
164
  8
0
 62
     7
 10
70.139099999999999
 20
105.75
 30
0.0
 11
70.139099999999999
 21
61.580800000000004
 31
0.0
  0
LINE
  5
165
  8
0
  6
AIGENLINE002
 62
     7
 10
71.1892
 20
108.05500000000001
 30
0.0
 11
71.1892
 21
54.4101
 31
0.0
  0
LINE
  5
166
  8
0
 62
     7
 10
95.628699999999995
 20
50.09409999999999
 30
0.0
 11
93.418299999999988
 21
49.502200000000002
 31
0.0
  0
LINE
  5
167
  8
0
 62
     7
 10
93.418299999999988
 20
49.502200000000002
 30
0.0
 11
95.628699999999995
 21
48.90959999999999
 31
0.0
  0
LINE
  5
168
  8
0
 62
     7
 10
95.628699999999995
 20
48.90959999999999
 30
0.0
 11
95.628699999999995
 21
50.09409999999999
 31
0.0
  0
LINE
  5
169
  8
0
 62
     7
 10
87.907700000000006
 20
48.924100000000003
 30
0.0
 11
90.118200000000002
 21
49.5167
 31
0.0
  0
LINE
  5
16A
  8
0
 62
     7
 10
90.118200000000002
 20
49.5167
 30
0.0
 11
87.907700000000006
 21
50.108499999999999
 31
0.0
  0
LINE
  5
16B
  8
0
 62
     7
 10
87.907700000000006
 20
50.108499999999999
 30
0.0
 11
87.907700000000006
 21
48.924100000000003
 31
0.0
  0
LINE
  5
16C
  8
0
 62
     7
 10
86.793199999999999
 20
49.502200000000002
 30
0.0
 11
102.55
 21
49.502200000000002
 31
0.0
  0
LINE
  5
16D
  8
0
 62
     7
 10
90.118200000000002
 20
48.802199999999999
 30
0.0
 11
90.118200000000002
 21
54.76189999999999
 31
0.0
  0
LINE
  5
16E
  8
0
 62
     7
 10
93.418299999999988
 20
48.802199999999999
 30
0.0
 11
93.418299999999988
 21
54.76189999999999
 31
0.0
  0
LINE
  5
16F
  8
0
 62
     7
 10
71.1892
 20
55.5794
 30
0.0
 11
71.1892
 21
57.67949999999999
 31
0.0
  0
LINE
  5
170
  8
0
 62
     7
 10
69.288899999999984
 20
55.5794
 30
0.0
 11
69.288899999999984
 21
57.67949999999999
 31
0.0
  0
ARC
  5
171
  8
0
 62
     7
 10
73.398291
 20
71.929404000000005
 30
0.0
 40
16.858535
 50
255.89156299999999
 51
257.05718000000002
  0
ARC
  5
172
  8
0
 62
     7
 10
70.433855000000008
 20
59.116846000000002
 30
0.0
 40
3.707573
 50
257.35668500000003
 51
264.20631300000002
  0
ARC
  5
173
  8
0
 62
     7
 10
70.253159999999994
 20
57.582144999999997
 30
0.0
 40
2.162614
 50
264.86465600000002
 51
269.90001899999999
  0
ARC
  5
174
  8
0
 62
     7
 10
70.248553000000001
 20
57.464766000000012
 30
0.0
 40
2.0452319999999991
 50
270.023347
 51
278.15184699999998
  0
ARC
  5
175
  8
0
 62
     7
 10
70.089415000000002
 20
58.74165
 30
0.0
 40
3.3318620000000001
 50
277.74724900000001
 51
281.36495500000001
  0
ARC
  5
176
  8
0
 62
     7
 10
69.216193000000004
 20
62.972219000000003
 30
0.0
 40
7.6515859999999991
 50
281.53294099999999
 51
284.94299599999999
  0
ARC
  5
177
  8
0
 62
     7
 10
69.918719999999993
 20
53.956969999999998
 30
0.0
 40
3.9333979999999999
 50
71.155439000000001
 51
79.919021999999998
  0
ARC
  5
178
  8
0
 62
     7
 10
70.232569999999996
 20
55.541947999999998
 30
0.0
 40
2.318168
 50
80.699338999999995
 51
89.584357999999995
  0
ARC
  5
179
  8
0
 62
     7
 10
70.250821000000002
 20
55.504006999999987
 30
0.0
 40
2.3560490000000001
 50
90.034874000000016
 51
102.148708
  0
ARC
  5
17A
  8
0
 62
     7
 10
70.484183999999999
 20
54.232881999999996
 30
0.0
 40
3.6480299999999999
 50
101.530342
 51
109.126516
  0
ARC
  5
17B
  8
0
 62
     7
 10
75.279848999999984
 20
71.854659999999996
 30
0.0
 40
16.781471
 50
255.891504
 51
257.06270599999999
  0
ARC
  5
17C
  8
0
 62
     7
 10
72.334950000000006
 20
59.120520999999997
 30
0.0
 40
3.7113119999999999
 50
257.35858899999999
 51
264.19949900000012
  0
ARC
  5
17D
  8
0
 62
     7
 10
72.153201999999993
 20
57.576852000000002
 30
0.0
 40
2.157321
 50
264.85832199999999
 51
269.89818500000001
  0
ARC
  5
17E
  8
0
 62
     7
 10
72.148534999999995
 20
57.464921999999987
 30
0.0
 40
2.0453879999999991
 50
270.02335499999998
 51
278.15153600000002
  0
ARC
  5
17F
  8
0
 62
     7
 10
71.988961000000003
 20
58.745012000000003
 30
0.0
 40
3.3352539999999991
 50
277.74706700000002
 51
281.36173100000002
  0
ARC
  5
180
  8
0
 62
     7
 10
71.110442000000006
 20
63.002414999999999
 30
0.0
 40
7.6823289999999993
 50
281.53016500000001
 51
284.92872
  0
LINE
  5
181
  8
0
 62
     7
 10
73.089500000000001
 20
55.5794
 30
0.0
 11
73.089500000000001
 21
57.67949999999999
 31
0.0
  0
ARC
  5
182
  8
0
 62
     7
 10
71.816827000000004
 20
53.947572999999998
 30
0.0
 40
3.9430079999999998
 50
71.169023999999993
 51
79.913636999999994
  0
ARC
  5
183
  8
0
 62
     7
 10
72.132676000000004
 20
55.541280999999998
 30
0.0
 40
2.3188349999999991
 50
80.700817999999998
 51
89.587531999999996
  0
ARC
  5
184
  8
0
 62
     7
 10
72.150796999999997
 20
55.506945999999992
 30
0.0
 40
2.353108999999999
 50
90.034768999999997
 51
102.156322
  0
ARC
  5
185
  8
0
 62
     7
 10
72.387082999999976
 20
54.223712999999996
 30
0.0
 40
3.657535999999999
 50
101.541693
 51
109.117527
  0
LINE
  5
186
  8
0
 62
     7
 10
73.089500000000001
 20
55.419499999999992
 30
0.0
 11
73.089500000000001
 21
55.5794
 31
0.0
  0
LINE
  5
187
  8
0
 62
     7
 10
73.089500000000001
 20
57.67949999999999
 30
0.0
 11
73.089500000000001
 21
57.860100000000003
 31
0.0
  0
LINE
  5
188
  8
0
 62
     7
 10
69.288899999999984
 20
55.419499999999992
 30
0.0
 11
69.288899999999984
 21
55.5794
 31
0.0
  0
LINE
  5
189
  8
0
 62
     7
 10
69.288899999999984
 20
57.67949999999999
 30
0.0
 11
69.288899999999984
 21
57.860100000000003
 31
0.0
  0
LINE
  5
18A
  8
0
 62
     7
 10
72.189700000000002
 20
57.999899999999997
 30
0.0
 11
71.1892
 21
57.999899999999997
 31
0.0
  0
LINE
  5
18B
  8
0
 62
     7
 10
71.1892
 20
57.999899999999997
 30
0.0
 11
70.189800000000005
 21
57.999899999999997
 31
0.0
  0
LINE
  5
18C
  8
0
 62
     7
 10
73.089500000000001
 20
55.419499999999992
 30
0.0
 11
73.029600000000002
 21
55.379600000000003
 31
0.0
  0
LINE
  5
18D
  8
0
 62
     7
 10
73.029600000000002
 20
55.379600000000003
 30
0.0
 11
69.349199999999996
 21
55.379600000000003
 31
0.0
  0
LINE
  5
18E
  8
0
 62
     7
 10
69.349199999999996
 20
55.379600000000003
 30
0.0
 11
69.288899999999984
 21
55.419499999999992
 31
0.0
  0
ARC
  5
18F
  8
0
 62
     7
 10
73.074777999999995
 20
57.833413
 30
0.0
 40
0.030459
 50
61.008843999999989
 51
90.187413000000006
  0
ARC
  5
190
  8
0
 62
     7
 10
72.935247000000004
 20
56.687233999999997
 30
0.0
 40
1.1848700000000001
 50
83.241947999999994
 51
88.786569999999998
  0
ARC
  5
191
  8
0
 62
     7
 10
72.437268000000003
 20
43.443184000000002
 30
0.0
 40
14.438133000000001
 50
87.923800999999997
 51
89.528661999999997
  0
ARC
  5
192
  8
0
 62
     7
 10
71.589468000000011
 20
-31.260321000000001
 30
0.0
 40
89.146389999999997
 50
89.378748999999999
 51
90.042068
  0
ARC
  5
193
  8
0
 62
     7
 10
71.614710000000002
 20
-368.62338399999999
 30
0.0
 40
426.50943799999988
 50
90.012176000000025
 51
90.304334999999995
  0
LINE
  5
194
  8
0
 62
     7
 10
69.349199999999996
 20
57.880000000000003
 30
0.0
 11
69.288899999999984
 21
57.860100000000003
 31
0.0
  0
LINE
  5
195
  8
0
 62
     7
 10
72.429500000000004
 20
57.880000000000003
 30
0.0
 11
72.429500000000004
 21
57.979900000000001
 31
0.0
  0
LINE
  5
196
  8
0
 62
     7
 10
72.429500000000004
 20
57.979900000000001
 30
0.0
 11
69.948999999999998
 21
57.979900000000001
 31
0.0
  0
LINE
  5
197
  8
0
 62
     7
 10
69.948999999999998
 20
57.880000000000003
 30
0.0
 11
69.948999999999998
 21
57.979900000000001
 31
0.0
  0
LINE
  5
198
  8
0
 62
     7
 10
70.189800000000005
 20
57.999899999999997
 30
0.0
 11
69.889399999999995
 21
58.240400000000001
 31
0.0
  0
LINE
  5
199
  8
0
 62
     7
 10
69.889399999999995
 20
58.240400000000001
 30
0.0
 11
69.869
 21
58.640000000000001
 31
0.0
  0
LINE
  5
19A
  8
0
 62
     7
 10
72.510400000000004
 20
58.640000000000001
 30
0.0
 11
72.489400000000003
 21
58.240400000000001
 31
0.0
  0
LINE
  5
19B
  8
0
 62
     7
 10
72.489400000000003
 20
58.240400000000001
 30
0.0
 11
72.189700000000002
 21
57.999899999999997
 31
0.0
  0
LINE
  5
19C
  8
0
 62
     7
 10
72.349500000000006
 20
58.980400000000003
 30
0.0
 11
70.029899999999998
 21
58.980400000000003
 31
0.0
  0
LINE
  5
19D
  8
0
 62
     7
 10
70.029899999999998
 20
58.980400000000003
 30
0.0
 11
69.869
 21
58.640000000000001
 31
0.0
  0
LINE
  5
19E
  8
0
 62
     7
 10
72.510400000000004
 20
58.640000000000001
 30
0.0
 11
72.349500000000006
 21
58.980400000000003
 31
0.0
  0
LINE
  5
19F
  8
0
 62
     7
 10
72.349500000000006
 20
60.580300000000001
 30
0.0
 11
70.029899999999998
 21
60.580300000000001
 31
0.0
  0
LINE
  5
1A0
  8
0
 62
     7
 10
70.029899999999998
 20
58.980400000000003
 30
0.0
 11
70.029899999999998
 21
60.580300000000001
 31
0.0
  0
LINE
  5
1A1
  8
0
 62
     7
 10
72.349500000000006
 20
58.980400000000003
 30
0.0
 11
72.349500000000006
 21
60.580300000000001
 31
0.0
  0
LINE
  5
1A2
  8
0
 62
     7
 10
70.029899999999998
 20
60.580300000000001
 30
0.0
 11
69.889399999999995
 21
60.820799999999998
 31
0.0
  0
LINE
  5
1A3
  8
0
 62
     7
 10
72.489400000000003
 20
60.820799999999998
 30
0.0
 11
72.349500000000006
 21
60.580300000000001
 31
0.0
  0
LINE
  5
1A4
  8
0
 62
     7
 10
69.889399999999995
 20
60.820799999999998
 30
0.0
 11
69.849100000000007
 21
60.920699999999989
 31
0.0
  0
LINE
  5
1A5
  8
0
 62
     7
 10
69.849100000000007
 20
60.920699999999989
 30
0.0
 11
69.849100000000007
 21
61.020600000000002
 31
0.0
  0
ARC
  5
1A6
  8
0
 62
     7
 10
72.022908000000001
 20
61.069637
 30
0.0
 40
0.528717
 50
331.92257600000011
 51
354.67893900000001
  0
LINE
  5
1A7
  8
0
 62
     7
 10
72.549300000000002
 20
61.020600000000002
 30
0.0
 11
72.549300000000002
 21
61.580800000000004
 31
0.0
  0
LINE
  5
1A8
  8
0
 62
     7
 10
72.549300000000002
 20
61.580800000000004
 30
0.0
 11
69.849100000000007
 21
61.580800000000004
 31
0.0
  0
LINE
  5
1A9
  8
0
 62
     7
 10
69.849100000000007
 20
61.020600000000002
 30
0.0
 11
69.849100000000007
 21
61.580800000000004
 31
0.0
  0
LINE
  5
1AA
  8
0
 62
     7
 10
100.42
 20
58.390599999999992
 30
0.0
 11
101.01300000000001
 21
56.178800000000003
 31
0.0
  0
LINE
  5
1AB
  8
0
 62
     7
 10
101.01300000000001
 20
56.178800000000003
 30
0.0
 11
101.605
 21
58.390599999999992
 31
0.0
  0
LINE
  5
1AC
  8
0
 62
     7
 10
101.605
 20
58.390599999999992
 30
0.0
 11
100.42
 21
58.390599999999992
 31
0.0
  0
LINE
  5
1AD
  8
0
 62
     7
 10
100.998
 20
119.066
 30
0.0
 11
100.998
 21
56.179499999999997
 31
0.0
  0
LINE
  5
1AE
  8
0
 62
     7
 10
101.71299999999999
 20
56.179499999999997
 30
0.0
 11
94.651799999999994
 21
56.179499999999997
 31
0.0
  0
ARC
  5
1AF
  8
0
 62
     7
 10
154.15445199999999
 20
92.948002000000002
 30
0.0
 40
1.012402
 50
40.201005000000002
 51
45.102596999999989
  0
ARC
  5
1B0
  8
0
 62
     7
 10
154.643507
 20
93.365619999999979
 30
0.0
 40
0.369324
 50
6.150949999999999
 51
39.689050000000002
  0
ARC
  5
1B1
  8
0
 62
     7
 10
154.025958
 20
93.279654000000008
 30
0.0
 40
0.9927159999999998
 50
359.144746
 51
7.2650550000000012
  0
ARC
  5
1B2
  8
0
 62
     7
 10
154.120935
 20
93.609668999999997
 30
0.0
 40
1.055413999999999
 50
315.13987700000001
 51
319.85494799999998
  0
ARC
  5
1B3
  8
0
 62
     7
 10
154.640703
 20
93.166449
 30
0.0
 40
0.372359
 50
320.4237819999999
 51
354.26644299999998
  0
ARC
  5
1B4
  8
0
 62
     7
 10
154.00582800000001
 20
93.251913999999985
 30
0.0
 40
1.0128269999999999
 50
353.043792
 51
0.770044
  0
ARC
  5
1B5
  8
0
 62
     7
 10
153.69896600000001
 20
90.564391999999984
 30
0.0
 40
1.272858
 50
12.671529
 51
23.182826000000009
  0
ARC
  5
1B6
  8
0
 62
     7
 10
152.465654
 20
90.254165999999984
 30
0.0
 40
2.5443859999999998
 50
4.8844969999999996
 51
13.395035999999999
  0
ARC
  5
1B7
  8
0
 62
     7
 10
150.84074100000001
 20
90.078346999999994
 30
0.0
 40
4.1785300000000003
 50
359.8265990000001
 51
5.389437
  0
ARC
  5
1B8
  8
0
 62
     7
 10
153.53218699999999
 20
90.567144999999996
 30
0.0
 40
1.2658259999999999
 50
156.8163909999999
 51
167.38459399999999
  0
ARC
  5
1B9
  8
0
 62
     7
 10
154.76432500000001
 20
90.257823999999999
 30
0.0
 40
2.5359869999999991
 50
166.64469600000001
 51
175.182198
  0
ARC
  5
1BA
  8
0
 62
     7
 10
156.427401
 20
90.079215000000005
 30
0.0
 40
4.208361
 50
174.660731
 51
180.18401299999999
  0
ARC
  5
1BB
  8
0
 62
     7
 10
153.08317299999999
 20
92.948002000000002
 30
0.0
 40
1.012402
 50
134.89738399999999
 51
139.79897500000001
  0
ARC
  5
1BC
  8
0
 62
     7
 10
152.59411800000001
 20
93.365619999999979
 30
0.0
 40
0.369324
 50
140.31093100000001
 51
173.849031
  0
ARC
  5
1BD
  8
0
 62
     7
 10
153.21166199999999
 20
93.279655000000005
 30
0.0
 40
0.992711
 50
172.734906
 51
180.85529399999999
  0
ARC
  5
1BE
  8
0
 62
     7
 10
153.11669000000001
 20
93.609668999999997
 30
0.0
 40
1.055413999999999
 50
220.145071
 51
224.860142
  0
ARC
  5
1BF
  8
0
 62
     7
 10
152.59692200000001
 20
93.166449
 30
0.0
 40
0.372359
 50
185.733577
 51
219.57623799999999
  0
ARC
  5
1C0
  8
0
 62
     7
 10
153.23179099999999
 20
93.251913000000002
 30
0.0
 40
1.0128209999999991
 50
179.229916
 51
186.9562479999999
  0
LINE
  5
1C1
  8
0
 62
     7
 10
152.21899999999999
 20
90.065700000000007
 30
0.0
 11
155.01900000000001
 21
90.065700000000007
 31
0.0
  0
LINE
  5
1C2
  8
0
 62
     7
 10
154.869
 20
91.0655
 30
0.0
 11
154.869
 21
92.865200000000016
 31
0.0
  0
LINE
  5
1C3
  8
0
 62
     7
 10
152.369
 20
91.0655
 30
0.0
 11
152.369
 21
92.865200000000016
 31
0.0
  0
LINE
  5
1C4
  8
0
 62
     7
 10
152.369
 20
91.0655
 30
0.0
 11
154.869
 21
91.0655
 31
0.0
  0
LINE
  5
1C5
  8
0
 62
     7
 10
152.369
 20
92.865200000000016
 30
0.0
 11
154.869
 21
92.865200000000016
 31
0.0
  0
ARC
  5
1C6
  8
0
 62
     7
 10
81.98474499999999
 20
94.280547999999996
 30
0.0
 40
0.607192
 50
325.81296200000003
 51
348.20515799999998
  0
ARC
  5
1C7
  8
0
 62
     7
 10
82.088099
 20
94.23225699999999
 30
0.0
 40
0.494894
 50
294.87448699999999
 51
323.71384699999999
  0
ARC
  5
1C8
  8
0
 62
     7
 10
81.920140999999987
 20
94.555913000000004
 30
0.0
 40
0.859327
 50
281.23254400000002
 51
295.957112
  0
ARC
  5
1C9
  8
0
 62
     7
 10
81.743818999999974
 20
95.295771000000002
 30
0.0
 40
1.6196159999999991
 50
277.1615220000001
 51
282.25235600000002
  0
ARC
  5
1CA
  8
0
 62
     7
 10
81.620654000000016
 20
96.271315999999999
 30
0.0
 40
2.6029049999999989
 50
273.08747899999997
 51
277.17443800000001
  0
ARC
  5
1CB
  8
0
 62
     7
 10
81.499112999999994
 20
98.512361000000013
 30
0.0
 40
4.8472429999999989
 50
269.76334100000003
 51
273.09529099999997
  0
ARC
  5
1CC
  8
0
 62
     7
 10
83.104877000000016
 20
94.155959999999979
 30
0.0
 40
0.574265
 50
337.22594600000002
 51
0.04718
  0
ARC
  5
1CD
  8
0
 62
     7
 10
83.253452999999993
 20
94.112658999999994
 30
0.0
 40
0.420878
 50
293.22978799999999
 51
334.83089899999999
  0
ARC
  5
1CE
  8
0
 62
     7
 10
83.139154000000005
 20
94.341449999999995
 30
0.0
 40
0.6763650000000001
 50
269.15076499999998
 51
294.483045
  0
ARC
  5
1CF
  8
0
 62
     7
 10
83.133780000000002
 20
94.288482000000002
 30
0.0
 40
0.62334
 50
223.297541
 51
269.57250299999998
  0
ARC
  5
1D0
  8
0
 62
     7
 10
83.019816000000006
 20
94.142112999999995
 30
0.0
 40
0.4409320000000001
 50
178.13886500000001
 51
219.60821799999999
  0
ARC
  5
1D1
  8
0
 62
     7
 10
80.974151000000006
 20
94.280702000000005
 30
0.0
 40
0.6079240000000001
 50
191.79527699999991
 51
214.15774099999999
  0
ARC
  5
1D2
  8
0
 62
     7
 10
80.869887000000006
 20
94.232089000000002
 30
0.0
 40
0.49469
 50
216.27954199999999
 51
245.13057900000001
  0
ARC
  5
1D3
  8
0
 62
     7
 10
81.037903999999983
 20
94.555768000000015
 30
0.0
 40
0.859168
 50
244.04263800000001
 51
258.77131700000001
  0
ARC
  5
1D4
  8
0
 62
     7
 10
81.214396999999991
 20
95.296443000000011
 30
0.0
 40
1.6202899999999989
 50
257.74979400000001
 51
262.83925900000003
  0
ARC
  5
1D5
  8
0
 62
     7
 10
81.337502999999998
 20
96.271485999999996
 30
0.0
 40
2.6030739999999999
 50
262.82598300000001
 51
266.91303099999999
  0
ARC
  5
1D6
  8
0
 62
     7
 10
81.459069999999997
 20
98.512831000000006
 30
0.0
 40
4.8477129999999988
 50
266.90488099999999
 51
270.23663500000009
  0
ARC
  5
1D7
  8
0
 62
     7
 10
79.853302999999997
 20
94.155959999999979
 30
0.0
 40
0.574264
 50
179.95277999999999
 51
202.77409399999999
  0
ARC
  5
1D8
  8
0
 62
     7
 10
79.704728000000003
 20
94.112658999999994
 30
0.0
 40
0.420878
 50
205.16912099999999
 51
246.77023199999999
  0
ARC
  5
1D9
  8
0
 62
     7
 10
79.819027000000006
 20
94.341449999999995
 30
0.0
 40
0.6763650000000001
 50
245.516975
 51
270.84925399999997
  0
ARC
  5
1DA
  8
0
 62
     7
 10
79.824393999999998
 20
94.288409999999999
 30
0.0
 40
0.6232680000000002
 50
270.42818299999999
 51
316.70533699999999
  0
ARC
  5
1DB
  8
0
 62
     7
 10
79.938478000000003
 20
94.142118000000025
 30
0.0
 40
0.440819
 50
320.37885799999998
 51
1.8609739999999999
  0
ARC
  5
1DC
  8
0
 62
     7
 10
81.984077999999997
 20
95.449795999999992
 30
0.0
 40
0.6078120000000001
 50
11.767507999999999
 51
34.161296999999998
  0
ARC
  5
1DD
  8
0
 62
     7
 10
82.08835400000001
 20
95.498522999999992
 30
0.0
 40
0.494503
 50
36.274496999999997
 51
65.137169
  0
ARC
  5
1DE
  8
0
 62
     7
 10
81.920456999999985
 20
95.174331000000009
 30
0.0
 40
0.859389
 50
64.068352000000004
 51
78.789781000000005
  0
ARC
  5
1DF
  8
0
 62
     7
 10
81.744943999999975
 20
94.436188999999999
 30
0.0
 40
1.617823
 50
77.774635000000004
 51
82.870663000000008
  0
ARC
  5
1E0
  8
0
 62
     7
 10
81.621131000000005
 20
93.454158999999976
 30
0.0
 40
2.607626999999999
 50
82.849186000000003
 51
86.928615000000008
  0
ARC
  5
1E1
  8
0
 62
     7
 10
81.499539999999996
 20
91.205247999999997
 30
0.0
 40
4.8598229999999996
 50
86.917780000000008
 51
90.241090000000014
  0
ARC
  5
1E2
  8
0
 62
     7
 10
83.104877000000016
 20
95.574227000000008
 30
0.0
 40
0.574265
 50
359.95281999999997
 51
22.774054
  0
ARC
  5
1E3
  8
0
 62
     7
 10
83.253452999999993
 20
95.617527999999993
 30
0.0
 40
0.420878
 50
25.169101000000001
 51
66.770212000000001
  0
ARC
  5
1E4
  8
0
 62
     7
 10
83.139154000000005
 20
95.388737000000006
 30
0.0
 40
0.6763650000000001
 50
65.51695500000001
 51
90.849234999999993
  0
ARC
  5
1E5
  8
0
 62
     7
 10
83.133773000000005
 20
95.441063000000014
 30
0.0
 40
0.6239819999999999
 50
90.426394000000002
 51
136.63891100000001
  0
ARC
  5
1E6
  8
0
 62
     7
 10
83.019863999999998
 20
95.588344000000006
 30
0.0
 40
0.440989
 50
140.39265499999999
 51
181.89601999999999
  0
ARC
  5
1E7
  8
0
 62
     7
 10
80.974817999999999
 20
95.449643000000009
 30
0.0
 40
0.608545
 50
145.867974
 51
168.232057
  0
ARC
  5
1E8
  8
0
 62
     7
 10
80.869631000000012
 20
95.498689999999996
 30
0.0
 40
0.494299
 50
114.857765
 51
143.732113
  0
ARC
  5
1E9
  8
0
 62
     7
 10
81.037587999999985
 20
95.174475999999999
 30
0.0
 40
0.8592299999999999
 50
101.206362
 51
115.93189699999991
  0
ARC
  5
1EA
  8
0
 62
     7
 10
81.213272000000003
 20
94.435518999999999
 30
0.0
 40
1.618495999999999
 50
97.128559999999979
 51
102.22322
  0
ARC
  5
1EB
  8
0
 62
     7
 10
81.337025999999994
 20
93.453989000000007
 30
0.0
 40
2.607796
 50
93.070876999999996
 51
97.150393999999977
  0
ARC
  5
1EC
  8
0
 62
     7
 10
81.458641999999998
 20
91.204777000000007
 30
0.0
 40
4.8602939999999997
 50
89.758932999999999
 51
93.082048
  0
ARC
  5
1ED
  8
0
 62
     7
 10
79.853302999999997
 20
95.574227000000008
 30
0.0
 40
0.574264
 50
157.22590600000001
 51
180.04722000000001
  0
ARC
  5
1EE
  8
0
 62
     7
 10
79.704728000000003
 20
95.617527999999993
 30
0.0
 40
0.420878
 50
113.22976800000001
 51
154.83087900000001
  0
ARC
  5
1EF
  8
0
 62
     7
 10
79.819027000000006
 20
95.388737000000006
 30
0.0
 40
0.6763650000000001
 50
89.150745999999998
 51
114.483025
  0
ARC
  5
1F0
  8
0
 62
     7
 10
79.824400999999995
 20
95.441134999999989
 30
0.0
 40
0.6239100000000001
 50
43.358213999999997
 51
89.572919999999996
  0
ARC
  5
1F1
  8
0
 62
     7
 10
79.938428999999999
 20
95.588340000000002
 30
0.0
 40
0.4408770000000001
 50
358.10413199999999
 51
39.620269
  0
LINE
  5
1F2
  8
0
 62
     7
 10
80.379099999999994
 20
94.156400000000005
 30
0.0
 11
80.379099999999994
 21
95.573800000000006
 31
0.0
  0
LINE
  5
1F3
  8
0
 62
     7
 10
82.579099999999997
 20
94.156400000000005
 30
0.0
 11
82.579099999999997
 21
95.573800000000006
 31
0.0
  0
LINE
  5
1F4
  8
0
 62
     7
 10
83.678799999999995
 20
94.156400000000005
 30
0.0
 11
83.678799999999995
 21
95.573800000000006
 31
0.0
  0
LINE
  5
1F5
  8
0
 62
     7
 10
79.278999999999996
 20
94.156400000000005
 30
0.0
 11
79.278999999999996
 21
95.573800000000006
 31
0.0
  0
LINE
  5
1F6
  8
0
 62
     7
 10
79.829099999999997
 20
93.665199999999984
 30
0.0
 11
83.129099999999994
 21
93.665199999999984
 31
0.0
  0
LINE
  5
1F7
  8
0
 62
     7
 10
79.829099999999997
 20
96.064999999999998
 30
0.0
 11
83.128799999999984
 21
96.064999999999998
 31
0.0
  0
ARC
  5
1F8
  8
0
 62
     7
 10
81.99795300000001
 20
92.931912999999994
 30
0.0
 40
1.0351539999999999
 50
40.302723
 51
45.100356000000012
  0
ARC
  5
1F9
  8
0
 62
     7
 10
82.503567000000004
 20
93.365384000000006
 30
0.0
 40
0.369191
 50
6.1900810000000002
 51
39.753850999999997
  0
ARC
  5
1FA
  8
0
 62
     7
 10
81.888194999999996
 20
93.279556999999997
 30
0.0
 40
0.9904110000000002
 50
359.148371
 51
7.2877159999999988
  0
ARC
  5
1FB
  8
0
 62
     7
 10
81.963034999999991
 20
93.627013000000005
 30
0.0
 40
1.0800449999999999
 50
315.14211899999998
 51
319.75327399999998
  0
ARC
  5
1FC
  8
0
 62
     7
 10
82.500750999999994
 20
93.166698999999994
 30
0.0
 40
0.372244
 50
320.359195
 51
354.226022
  0
ARC
  5
1FD
  8
0
 62
     7
 10
81.868972999999997
 20
93.251937999999996
 30
0.0
 40
1.009614999999999
 50
353.02016200000003
 51
0.771108
  0
ARC
  5
1FE
  8
0
 62
     7
 10
81.558307999999997
 20
90.564140000000009
 30
0.0
 40
1.2735009999999991
 50
12.676632
 51
23.182756999999999
  0
ARC
  5
1FF
  8
0
 62
     7
 10
80.335229999999996
 20
90.257102000000003
 30
0.0
 40
2.5343360000000001
 50
4.8373129999999991
 51
13.380925
  0
ARC
  5
200
  8
0
 62
     7
 10
78.680639999999997
 20
90.079005000000009
 30
0.0
 40
4.1982229999999996
 50
359.81842999999998
 51
5.355059999999999
  0
ARC
  5
201
  8
0
 62
     7
 10
81.399183999999991
 20
90.564140000000009
 30
0.0
 40
1.2735009999999991
 50
156.81722400000001
 51
167.32334800000001
  0
ARC
  5
202
  8
0
 62
     7
 10
82.622262000000006
 20
90.257102000000003
 30
0.0
 40
2.5343360000000001
 50
166.619055
 51
175.162668
  0
ARC
  5
203
  8
0
 62
     7
 10
84.276821999999996
 20
90.079006000000007
 30
0.0
 40
4.198192999999999
 50
174.64490000000001
 51
180.18161000000001
  0
ARC
  5
204
  8
0
 62
     7
 10
80.959193999999997
 20
92.931912999999994
 30
0.0
 40
1.0351539999999999
 50
134.89962499999999
 51
139.69725800000001
  0
ARC
  5
205
  8
0
 62
     7
 10
80.453580999999986
 20
93.365384000000006
 30
0.0
 40
0.369191
 50
140.246129
 51
173.809899
  0
ARC
  5
206
  8
0
 62
     7
 10
81.068946999999994
 20
93.279556999999997
 30
0.0
 40
0.9904059999999999
 50
172.712244
 51
180.85166899999999
  0
ARC
  5
207
  8
0
 62
     7
 10
80.994112000000001
 20
93.627013000000005
 30
0.0
 40
1.0800449999999999
 50
220.246746
 51
224.857901
  0
ARC
  5
208
  8
0
 62
     7
 10
80.456396999999996
 20
93.166698999999994
 30
0.0
 40
0.372244
 50
185.77399800000001
 51
219.64082500000001
  0
ARC
  5
209
  8
0
 62
     7
 10
81.088168999999979
 20
93.251937999999996
 30
0.0
 40
1.0096099999999999
 50
179.22885199999999
 51
186.97987800000001
  0
LINE
  5
20A
  8
0
 62
     7
 10
83.078699999999984
 20
98.705399999999997
 30
0.0
 11
83.078699999999984
 21
96.064999999999998
 31
0.0
  0
LINE
  5
20B
  8
0
 62
     7
 10
79.878500000000003
 20
98.705399999999997
 30
0.0
 11
79.878500000000003
 21
96.064999999999998
 31
0.0
  0
LINE
  5
20C
  8
0
 62
     7
 10
82.728599999999986
 20
90.065700000000007
 30
0.0
 11
82.728599999999986
 21
88.400700000000001
 31
0.0
  0
LINE
  5
20D
  8
0
 62
     7
 10
80.228499999999997
 20
90.065700000000007
 30
0.0
 11
80.228499999999997
 21
88.400700000000001
 31
0.0
  0
LINE
  5
20E
  8
0
 62
     7
 10
80.078699999999998
 20
90.065700000000007
 30
0.0
 11
82.878799999999984
 21
90.065700000000007
 31
0.0
  0
LINE
  5
20F
  8
0
 62
     7
 10
82.728599999999986
 20
91.0655
 30
0.0
 11
82.728599999999986
 21
92.865200000000016
 31
0.0
  0
LINE
  5
210
  8
0
 62
     7
 10
80.228499999999997
 20
91.0655
 30
0.0
 11
80.228499999999997
 21
92.865200000000016
 31
0.0
  0
LINE
  5
211
  8
0
 62
     7
 10
80.228499999999997
 20
91.0655
 30
0.0
 11
82.728599999999986
 21
91.0655
 31
0.0
  0
LINE
  5
212
  8
0
 62
     7
 10
80.228499999999997
 20
92.865200000000016
 30
0.0
 11
82.728599999999986
 21
92.865200000000016
 31
0.0
  0
ARC
  5
213
  8
0
 62
     7
 10
83.797854000000015
 20
118.332763
 30
0.0
 40
1.0351539999999999
 50
40.302723
 51
45.100356000000012
  0
ARC
  5
214
  8
0
 62
     7
 10
84.303467999999995
 20
118.766233
 30
0.0
 40
0.369191
 50
6.1900810000000002
 51
39.753850999999997
  0
ARC
  5
215
  8
0
 62
     7
 10
83.688096999999985
 20
118.680407
 30
0.0
 40
0.9904110000000002
 50
359.148371
 51
7.2877159999999988
  0
ARC
  5
216
  8
0
 62
     7
 10
83.762936999999994
 20
119.027863
 30
0.0
 40
1.0800449999999999
 50
315.14211899999998
 51
319.75327399999998
  0
ARC
  5
217
  8
0
 62
     7
 10
84.300651999999985
 20
118.567549
 30
0.0
 40
0.372244
 50
320.359195
 51
354.226022
  0
ARC
  5
218
  8
0
 62
     7
 10
83.668875
 20
118.652788
 30
0.0
 40
1.009614999999999
 50
353.02016200000003
 51
0.771108
  0
ARC
  5
219
  8
0
 62
     7
 10
83.358208999999988
 20
115.96499
 30
0.0
 40
1.2735009999999991
 50
12.676632
 51
23.182756999999999
  0
ARC
  5
21A
  8
0
 62
     7
 10
82.135131000000001
 20
115.657951
 30
0.0
 40
2.5343360000000001
 50
4.8373129999999991
 51
13.380925
  0
ARC
  5
21B
  8
0
 62
     7
 10
80.480540999999988
 20
115.479854
 30
0.0
 40
4.1982229999999996
 50
359.81842999999998
 51
5.355059999999999
  0
ARC
  5
21C
  8
0
 62
     7
 10
83.199084999999997
 20
115.96499
 30
0.0
 40
1.2735009999999991
 50
156.81722400000001
 51
167.32334800000001
  0
ARC
  5
21D
  8
0
 62
     7
 10
84.422162999999998
 20
115.657951
 30
0.0
 40
2.5343360000000001
 50
166.619055
 51
175.162668
  0
ARC
  5
21E
  8
0
 62
     7
 10
86.076723000000001
 20
115.479856
 30
0.0
 40
4.198192999999999
 50
174.64490000000001
 51
180.18161000000001
  0
ARC
  5
21F
  8
0
 62
     7
 10
82.759096
 20
118.332763
 30
0.0
 40
1.0351539999999999
 50
134.89962499999999
 51
139.69725800000001
  0
ARC
  5
220
  8
0
 62
     7
 10
82.253481999999991
 20
118.766233
 30
0.0
 40
0.369191
 50
140.246129
 51
173.809899
  0
ARC
  5
221
  8
0
 62
     7
 10
82.868848000000014
 20
118.680407
 30
0.0
 40
0.9904059999999999
 50
172.712244
 51
180.85166899999999
  0
ARC
  5
222
  8
0
 62
     7
 10
82.794013000000007
 20
119.027863
 30
0.0
 40
1.0800449999999999
 50
220.246746
 51
224.857901
  0
ARC
  5
223
  8
0
 62
     7
 10
82.256298000000001
 20
118.567549
 30
0.0
 40
0.372244
 50
185.77399800000001
 51
219.64082500000001
  0
ARC
  5
224
  8
0
 62
     7
 10
82.888069999999999
 20
118.652787
 30
0.0
 40
1.0096099999999999
 50
179.22885199999999
 51
186.97987800000001
  0
LINE
  5
225
  8
0
  6
AIGENLINE002
 62
     7
 10
81.478700000000003
 20
87.298900000000003
 30
0.0
 11
81.478700000000003
 21
137.93899999999999
 31
0.0
  0
LINE
  5
226
  8
0
  6
AIGENLINE002
 62
     7
 10
83.278599999999983
 20
100.10299999999999
 30
0.0
 11
83.278599999999983
 21
120.50700000000001
 31
0.0
  0
LINE
  5
227
  8
0
 62
     7
 10
84.528499999999994
 20
115.467
 30
0.0
 11
84.528499999999994
 21
102.98399999999999
 31
0.0
  0
LINE
  5
228
  8
0
 62
     7
 10
82.028400000000005
 20
115.467
 30
0.0
 11
82.028400000000005
 21
102.98399999999999
 31
0.0
  0
LINE
  5
229
  8
0
 62
     7
 10
81.878600000000006
 20
115.467
 30
0.0
 11
84.678700000000006
 21
115.467
 31
0.0
  0
LINE
  5
22A
  8
0
 62
     7
 10
84.528499999999994
 20
116.46599999999999
 30
0.0
 11
84.528499999999994
 21
118.26600000000001
 31
0.0
  0
LINE
  5
22B
  8
0
 62
     7
 10
82.028400000000005
 20
116.46599999999999
 30
0.0
 11
82.028400000000005
 21
118.26600000000001
 31
0.0
  0
LINE
  5
22C
  8
0
 62
     7
 10
82.028400000000005
 20
116.46599999999999
 30
0.0
 11
84.528499999999994
 21
116.46599999999999
 31
0.0
  0
LINE
  5
22D
  8
0
 62
     7
 10
82.028400000000005
 20
118.26600000000001
 30
0.0
 11
84.528499999999994
 21
118.26600000000001
 31
0.0
  0
ARC
  5
22E
  8
0
 62
     7
 10
80.197879
 20
118.332763
 30
0.0
 40
1.0351539999999999
 50
40.302723
 51
45.100356000000012
  0
ARC
  5
22F
  8
0
 62
     7
 10
80.703493000000009
 20
118.766233
 30
0.0
 40
0.369191
 50
6.1900810000000002
 51
39.753850999999997
  0
ARC
  5
230
  8
0
 62
     7
 10
80.088121999999984
 20
118.680407
 30
0.0
 40
0.9904110000000002
 50
359.148371
 51
7.2877159999999988
  0
ARC
  5
231
  8
0
 62
     7
 10
80.162961999999993
 20
119.027863
 30
0.0
 40
1.0800449999999999
 50
315.14211899999998
 51
319.75327399999998
  0
ARC
  5
232
  8
0
 62
     7
 10
80.700676999999999
 20
118.567549
 30
0.0
 40
0.372244
 50
320.359195
 51
354.226022
  0
ARC
  5
233
  8
0
 62
     7
 10
80.068899000000002
 20
118.652788
 30
0.0
 40
1.009614999999999
 50
353.02016200000003
 51
0.771108
  0
ARC
  5
234
  8
0
 62
     7
 10
79.758234000000002
 20
115.96499
 30
0.0
 40
1.2735009999999991
 50
12.676632
 51
23.182756999999999
  0
ARC
  5
235
  8
0
 62
     7
 10
78.535156000000001
 20
115.657951
 30
0.0
 40
2.5343360000000001
 50
4.8373129999999991
 51
13.380925
  0
ARC
  5
236
  8
0
 62
     7
 10
76.880566000000002
 20
115.479854
 30
0.0
 40
4.1982229999999996
 50
359.81842999999998
 51
5.355059999999999
  0
ARC
  5
237
  8
0
 62
     7
 10
79.599109999999996
 20
115.96499
 30
0.0
 40
1.2735009999999991
 50
156.81722400000001
 51
167.32334800000001
  0
ARC
  5
238
  8
0
 62
     7
 10
80.822187999999997
 20
115.657951
 30
0.0
 40
2.5343360000000001
 50
166.619055
 51
175.162668
  0
ARC
  5
239
  8
0
 62
     7
 10
82.476748000000001
 20
115.479856
 30
0.0
 40
4.198192999999999
 50
174.64490000000001
 51
180.18161000000001
  0
ARC
  5
23A
  8
0
 62
     7
 10
79.159120999999985
 20
118.332763
 30
0.0
 40
1.0351539999999999
 50
134.89962499999999
 51
139.69725800000001
  0
ARC
  5
23B
  8
0
 62
     7
 10
78.653506999999991
 20
118.766233
 30
0.0
 40
0.369191
 50
140.246129
 51
173.809899
  0
ARC
  5
23C
  8
0
 62
     7
 10
79.268872999999999
 20
118.680407
 30
0.0
 40
0.9904059999999999
 50
172.712244
 51
180.85166899999999
  0
ARC
  5
23D
  8
0
 62
     7
 10
79.194038000000006
 20
119.027863
 30
0.0
 40
1.0800449999999999
 50
220.246746
 51
224.857901
  0
ARC
  5
23E
  8
0
 62
     7
 10
78.656323
 20
118.567549
 30
0.0
 40
0.372244
 50
185.77399800000001
 51
219.64082500000001
  0
ARC
  5
23F
  8
0
 62
     7
 10
79.288094999999984
 20
118.652787
 30
0.0
 40
1.0096099999999999
 50
179.22885199999999
 51
186.97987800000001
  0
LINE
  5
240
  8
0
  6
AIGENLINE002
 62
     7
 10
79.678700000000006
 20
100.10299999999999
 30
0.0
 11
79.678700000000006
 21
120.50700000000001
 31
0.0
  0
LINE
  5
241
  8
0
 62
     7
 10
80.928599999999989
 20
115.467
 30
0.0
 11
80.928599999999989
 21
102.98399999999999
 31
0.0
  0
LINE
  5
242
  8
0
 62
     7
 10
78.428399999999996
 20
115.467
 30
0.0
 11
78.428399999999996
 21
102.98399999999999
 31
0.0
  0
LINE
  5
243
  8
0
 62
     7
 10
78.278599999999997
 20
115.467
 30
0.0
 11
81.078799999999987
 21
115.467
 31
0.0
  0
LINE
  5
244
  8
0
 62
     7
 10
80.928599999999989
 20
116.46599999999999
 30
0.0
 11
80.928599999999989
 21
118.26600000000001
 31
0.0
  0
LINE
  5
245
  8
0
 62
     7
 10
78.428399999999996
 20
116.46599999999999
 30
0.0
 11
78.428399999999996
 21
118.26600000000001
 31
0.0
  0
LINE
  5
246
  8
0
 62
     7
 10
78.428399999999996
 20
116.46599999999999
 30
0.0
 11
80.928599999999989
 21
116.46599999999999
 31
0.0
  0
LINE
  5
247
  8
0
 62
     7
 10
78.428399999999996
 20
118.26600000000001
 30
0.0
 11
80.928599999999989
 21
118.26600000000001
 31
0.0
  0
ARC
  5
248
  8
0
 62
     7
 10
51.997871999999987
 20
103.132217
 30
0.0
 40
1.0351539999999999
 50
40.302723
 51
45.100356000000012
  0
ARC
  5
249
  8
0
 62
     7
 10
52.503485999999988
 20
103.565687
 30
0.0
 40
0.369191
 50
6.1900810000000002
 51
39.753850999999997
  0
ARC
  5
24A
  8
0
 62
     7
 10
51.888114000000002
 20
103.47986
 30
0.0
 40
0.9904110000000002
 50
359.148371
 51
7.2877159999999988
  0
ARC
  5
24B
  8
0
 62
     7
 10
51.962954000000003
 20
103.82731699999999
 30
0.0
 40
1.0800449999999999
 50
315.14211899999998
 51
319.75327399999998
  0
ARC
  5
24C
  8
0
 62
     7
 10
52.500669999999992
 20
103.367002
 30
0.0
 40
0.372244
 50
320.359195
 51
354.226022
  0
ARC
  5
24D
  8
0
 62
     7
 10
51.868891999999988
 20
103.452241
 30
0.0
 40
1.009614999999999
 50
353.02016200000003
 51
0.771108
  0
ARC
  5
24E
  8
0
 62
     7
 10
51.558227000000002
 20
100.764444
 30
0.0
 40
1.2735009999999991
 50
12.676632
 51
23.182756999999999
  0
ARC
  5
24F
  8
0
 62
     7
 10
50.335149000000001
 20
100.45740499999999
 30
0.0
 40
2.5343360000000001
 50
4.8373129999999991
 51
13.380925
  0
ARC
  5
250
  8
0
 62
     7
 10
48.680559000000002
 20
100.279308
 30
0.0
 40
4.1982229999999996
 50
359.81842999999998
 51
5.355059999999999
  0
ARC
  5
251
  8
0
 62
     7
 10
51.399102999999997
 20
100.764444
 30
0.0
 40
1.2735009999999991
 50
156.81722400000001
 51
167.32334800000001
  0
ARC
  5
252
  8
0
 62
     7
 10
52.622181000000012
 20
100.45740499999999
 30
0.0
 40
2.5343360000000001
 50
166.619055
 51
175.162668
  0
ARC
  5
253
  8
0
 62
     7
 10
54.276741000000001
 20
100.279309
 30
0.0
 40
4.198192999999999
 50
174.64490000000001
 51
180.18161000000001
  0
ARC
  5
254
  8
0
 62
     7
 10
50.959113000000002
 20
103.132217
 30
0.0
 40
1.0351539999999999
 50
134.89962499999999
 51
139.69725800000001
  0
ARC
  5
255
  8
0
 62
     7
 10
50.453499000000001
 20
103.565687
 30
0.0
 40
0.369191
 50
140.246129
 51
173.809899
  0
ARC
  5
256
  8
0
 62
     7
 10
51.068866
 20
103.479861
 30
0.0
 40
0.9904059999999999
 50
172.712244
 51
180.85166899999999
  0
ARC
  5
257
  8
0
 62
     7
 10
50.994030999999993
 20
103.82731699999999
 30
0.0
 40
1.0800449999999999
 50
220.246746
 51
224.857901
  0
ARC
  5
258
  8
0
 62
     7
 10
50.456314999999996
 20
103.367002
 30
0.0
 40
0.372244
 50
185.77399800000001
 51
219.64082500000001
  0
ARC
  5
259
  8
0
 62
     7
 10
51.088087999999999
 20
103.452241
 30
0.0
 40
1.0096099999999999
 50
179.22885199999999
 51
186.97987800000001
  0
ARC
  5
25A
  8
0
 62
     7
 10
52.217298
 20
104.58933
 30
0.0
 40
0.6783900000000001
 50
325.08304700000002
 51
347.17365400000011
  0
ARC
  5
25B
  8
0
 62
     7
 10
52.301450000000003
 20
104.551706
 30
0.0
 40
0.5881070000000001
 50
296.89262300000001
 51
323.395781
  0
ARC
  5
25C
  8
0
 62
     7
 10
52.114329999999988
 20
104.885879
 30
0.0
 40
0.9709059999999999
 50
284.25095599999997
 51
297.8209930000001
  0
ARC
  5
25D
  8
0
 62
     7
 10
51.862008000000003
 20
105.800315
 30
0.0
 40
1.9194150000000001
 50
274.95778300000001
 51
284.831594
  0
ARC
  5
25E
  8
0
 62
     7
 10
51.630967999999989
 20
107.852107
 30
0.0
 40
3.9838480000000001
 50
272.48573299999998
 51
275.717985
  0
ARC
  5
25F
  8
0
 62
     7
 10
51.498213999999997
 20
110.97027300000001
 30
0.0
 40
7.104838
 50
269.842355
 51
272.46470499999998
  0
ARC
  5
260
  8
0
 62
     7
 10
53.653463000000002
 20
104.438086
 30
0.0
 40
0.625393
 50
337.10199699999998
 51
0.058945
  0
ARC
  5
261
  8
0
 62
     7
 10
53.783625999999991
 20
104.40281
 30
0.0
 40
0.492096
 50
295.82751500000001
 51
334.98843199999999
  0
ARC
  5
262
  8
0
 62
     7
 10
53.643642
 20
104.645043
 30
0.0
 40
0.7713899999999999
 50
281.93251299999997
 51
297.34807899999998
  0
ARC
  5
263
  8
0
 62
     7
 10
53.577061999999991
 20
104.905815
 30
0.0
 40
1.040354
 50
270.096203
 51
282.55069700000001
  0
ARC
  5
264
  8
0
 62
     7
 10
53.582659999999997
 20
104.71481799999999
 30
0.0
 40
0.8493639999999999
 50
229.92968200000001
 51
269.74019099999998
  0
ARC
  5
265
  8
0
 62
     7
 10
53.381622999999998
 20
104.43010700000001
 30
0.0
 40
0.5029360000000001
 50
179.01754199999999
 51
226.574805
  0
ARC
  5
266
  8
0
 62
     7
 10
50.740031999999992
 20
104.58933
 30
0.0
 40
0.6783900000000001
 50
192.82636600000001
 51
214.91697300000001
  0
ARC
  5
267
  8
0
 62
     7
 10
50.655879999999989
 20
104.551706
 30
0.0
 40
0.5881070000000001
 50
216.60423800000001
 51
243.10739699999999
  0
ARC
  5
268
  8
0
 62
     7
 10
50.843000000000004
 20
104.885879
 30
0.0
 40
0.9709059999999999
 50
242.17902699999999
 51
255.74906400000009
  0
ARC
  5
269
  8
0
 62
     7
 10
51.095322000000003
 20
105.800315
 30
0.0
 40
1.9194150000000001
 50
255.16842600000001
 51
265.042237
  0
ARC
  5
26A
  8
0
 62
     7
 10
51.326362000000003
 20
107.852107
 30
0.0
 40
3.9838480000000001
 50
264.28203500000001
 51
267.51428700000002
  0
ARC
  5
26B
  8
0
 62
     7
 10
51.459114999999997
 20
110.97027300000001
 30
0.0
 40
7.104838
 50
267.53531500000003
 51
270.15766400000001
  0
ARC
  5
26C
  8
0
 62
     7
 10
49.303865000000002
 20
104.438086
 30
0.0
 40
0.6253920000000001
 50
179.94101499999999
 51
202.898042
  0
ARC
  5
26D
  8
0
 62
     7
 10
49.173703000000003
 20
104.40281
 30
0.0
 40
0.492096
 50
205.01158799999999
 51
244.172505
  0
ARC
  5
26E
  8
0
 62
     7
 10
49.313687999999999
 20
104.645043
 30
0.0
 40
0.7713899999999999
 50
242.65194099999999
 51
258.06750699999998
  0
ARC
  5
26F
  8
0
 62
     7
 10
49.380268000000001
 20
104.905815
 30
0.0
 40
1.040354
 50
257.44932299999999
 51
269.903817
  0
ARC
  5
270
  8
0
 62
     7
 10
49.374670000000002
 20
104.71481799999999
 30
0.0
 40
0.8493639999999999
 50
270.25982800000003
 51
310.07033799999999
  0
ARC
  5
271
  8
0
 62
     7
 10
49.575705999999997
 20
104.43010700000001
 30
0.0
 40
0.5029370000000001
 50
313.42523399999999
 51
0.9824189999999999
  0
ARC
  5
272
  8
0
 62
     7
 10
52.217298
 20
105.94178599999999
 30
0.0
 40
0.6783900000000001
 50
12.826345999999999
 51
34.916952999999999
  0
ARC
  5
273
  8
0
 62
     7
 10
52.301450000000003
 20
105.97941
 30
0.0
 40
0.5881070000000001
 50
36.604219000000001
 51
63.107377
  0
ARC
  5
274
  8
0
 62
     7
 10
52.114329999999988
 20
105.64523699999999
 30
0.0
 40
0.9709059999999999
 50
62.179006999999991
 51
75.749043999999998
  0
ARC
  5
275
  8
0
 62
     7
 10
51.862008000000003
 20
104.730801
 30
0.0
 40
1.9194150000000001
 50
75.168406000000004
 51
85.042216999999994
  0
ARC
  5
276
  8
0
 62
     7
 10
51.630967999999989
 20
102.67900899999999
 30
0.0
 40
3.9838480000000001
 50
84.282015000000001
 51
87.514267000000004
  0
ARC
  5
277
  8
0
 62
     7
 10
51.498213999999997
 20
99.560843000000006
 30
0.0
 40
7.104838
 50
87.535294999999991
 51
90.157645000000016
  0
ARC
  5
278
  8
0
 62
     7
 10
53.653463000000002
 20
106.09303
 30
0.0
 40
0.625393
 50
359.94105500000001
 51
22.898002999999999
  0
ARC
  5
279
  8
0
 62
     7
 10
53.783625999999991
 20
106.12830599999999
 30
0.0
 40
0.492096
 50
25.011568
 51
64.172484999999995
  0
ARC
  5
27A
  8
0
 62
     7
 10
53.643642
 20
105.886073
 30
0.0
 40
0.7713899999999999
 50
62.651921000000002
 51
78.067486999999986
  0
ARC
  5
27B
  8
0
 62
     7
 10
53.577061999999991
 20
105.625302
 30
0.0
 40
1.040354
 50
77.449303
 51
89.903796999999997
  0
ARC
  5
27C
  8
0
 62
     7
 10
53.582659999999997
 20
105.816298
 30
0.0
 40
0.8493639999999999
 50
90.259808999999976
 51
130.07031799999999
  0
ARC
  5
27D
  8
0
 62
     7
 10
53.381622999999998
 20
106.101009
 30
0.0
 40
0.5029360000000001
 50
133.425195
 51
180.98245800000001
  0
ARC
  5
27E
  8
0
 62
     7
 10
50.740031999999992
 20
105.94178599999999
 30
0.0
 40
0.6783900000000001
 50
145.08302699999999
 51
167.17363399999999
  0
ARC
  5
27F
  8
0
 62
     7
 10
50.655879999999989
 20
105.97941
 30
0.0
 40
0.5881070000000001
 50
116.89260299999999
 51
143.39576199999999
  0
ARC
  5
280
  8
0
 62
     7
 10
50.843000000000004
 20
105.64523699999999
 30
0.0
 40
0.9709059999999999
 50
104.250936
 51
117.820973
  0
ARC
  5
281
  8
0
 62
     7
 10
51.095322000000003
 20
104.730801
 30
0.0
 40
1.9194150000000001
 50
94.957763000000014
 51
104.831574
  0
ARC
  5
282
  8
0
 62
     7
 10
51.326362000000003
 20
102.67900899999999
 30
0.0
 40
3.9838480000000001
 50
92.485713000000004
 51
95.717965000000007
  0
ARC
  5
283
  8
0
 62
     7
 10
51.459114999999997
 20
99.560843000000006
 30
0.0
 40
7.104838
 50
89.842336000000003
 51
92.464685000000003
  0
ARC
  5
284
  8
0
 62
     7
 10
49.303865000000002
 20
106.09303
 30
0.0
 40
0.6253920000000001
 50
157.101958
 51
180.05898499999989
  0
ARC
  5
285
  8
0
 62
     7
 10
49.173703000000003
 20
106.12830599999999
 30
0.0
 40
0.492096
 50
115.827495
 51
154.98841200000001
  0
ARC
  5
286
  8
0
 62
     7
 10
49.313687999999999
 20
105.886073
 30
0.0
 40
0.7713899999999999
 50
101.93249299999999
 51
117.34805900000001
  0
ARC
  5
287
  8
0
 62
     7
 10
49.380268000000001
 20
105.625302
 30
0.0
 40
1.040354
 50
90.096182999999996
 51
102.55067699999999
  0
ARC
  5
288
  8
0
 62
     7
 10
49.374670000000002
 20
105.816298
 30
0.0
 40
0.8493639999999999
 50
49.929662000000008
 51
89.740172000000015
  0
ARC
  5
289
  8
0
 62
     7
 10
49.575705999999997
 20
106.101009
 30
0.0
 40
0.5029370000000001
 50
359.01758100000012
 51
46.574765999999997
  0
LINE
  5
28A
  8
0
 62
     7
 10
116.819
 20
145.26599999999999
 30
0.0
 11
116.819
 21
141.86600000000001
 31
0.0
  0
LINE
  5
28B
  8
0
 62
     7
 10
120.819
 20
145.26599999999999
 30
0.0
 11
120.819
 21
141.86600000000001
 31
0.0
  0
LINE
  5
28C
  8
0
 62
     7
 10
150.41900000000001
 20
145.26599999999999
 30
0.0
 11
150.41900000000001
 21
136.465
 31
0.0
  0
LINE
  5
28D
  8
0
 62
     7
 10
154.41900000000001
 20
145.26599999999999
 30
0.0
 11
154.41900000000001
 21
136.465
 31
0.0
  0
LINE
  5
28E
  8
0
 62
     7
 10
104.54300000000001
 20
209.80500000000001
 30
0.0
 11
105.136
 21
207.59299999999999
 31
0.0
  0
LINE
  5
28F
  8
0
 62
     7
 10
105.136
 20
207.59299999999999
 30
0.0
 11
105.729
 21
209.80500000000001
 31
0.0
  0
LINE
  5
290
  8
0
 62
     7
 10
105.729
 20
209.80500000000001
 30
0.0
 11
104.54300000000001
 21
209.80500000000001
 31
0.0
  0
LINE
  5
291
  8
0
 62
     7
 10
105.714
 20
222.982
 30
0.0
 11
105.122
 21
225.19300000000001
 31
0.0
  0
LINE
  5
292
  8
0
 62
     7
 10
105.122
 20
225.19300000000001
 30
0.0
 11
104.529
 21
222.982
 31
0.0
  0
LINE
  5
293
  8
0
 62
     7
 10
104.529
 20
222.982
 30
0.0
 11
105.714
 21
222.982
 31
0.0
  0
LINE
  5
294
  8
0
 62
     7
 10
105.122
 20
207.59299999999999
 30
0.0
 11
105.122
 21
225.19300000000001
 31
0.0
  0
LINE
  5
295
  8
0
 62
     7
 10
90.327500000000001
 20
225.19300000000001
 30
0.0
 11
105.822
 21
225.19300000000001
 31
0.0
  0
LINE
  5
296
  8
0
 62
     7
 10
84.280000000000001
 20
207.59299999999999
 30
0.0
 11
105.822
 21
207.59299999999999
 31
0.0
  0
LINE
  5
297
  8
0
 62
     7
 10
165.898
 20
121.27800000000001
 30
0.0
 11
166.49000000000001
 21
119.066
 31
0.0
  0
LINE
  5
298
  8
0
 62
     7
 10
166.49000000000001
 20
119.066
 30
0.0
 11
167.083
 21
121.27800000000001
 31
0.0
  0
LINE
  5
299
  8
0
 62
     7
 10
167.083
 20
121.27800000000001
 30
0.0
 11
165.898
 21
121.27800000000001
 31
0.0
  0
LINE
  5
29A
  8
0
 62
     7
 10
167.06800000000001
 20
161.85499999999999
 30
0.0
 11
166.476
 21
164.066
 31
0.0
  0
LINE
  5
29B
  8
0
 62
     7
 10
166.476
 20
164.066
 30
0.0
 11
165.88300000000001
 21
161.85499999999999
 31
0.0
  0
LINE
  5
29C
  8
0
 62
     7
 10
165.88300000000001
 20
161.85499999999999
 30
0.0
 11
167.06800000000001
 21
161.85499999999999
 31
0.0
  0
LINE
  5
29D
  8
0
 62
     7
 10
166.476
 20
119.066
 30
0.0
 11
166.476
 21
164.066
 31
0.0
  0
LINE
  5
29E
  8
0
 62
     7
 10
140.983
 20
164.066
 30
0.0
 11
167.17599999999999
 21
164.066
 31
0.0
  0
LINE
  5
29F
  8
0
 62
     7
 10
159.119
 20
119.066
 30
0.0
 11
167.17599999999999
 21
119.066
 31
0.0
  0
LINE
  5
2A0
  8
0
 62
     7
 10
150.20699999999999
 20
168.81299999999999
 30
0.0
 11
152.41900000000001
 21
169.40600000000001
 31
0.0
  0
LINE
  5
2A1
  8
0
 62
     7
 10
152.41900000000001
 20
169.40600000000001
 30
0.0
 11
150.20699999999999
 21
169.99799999999999
 31
0.0
  0
LINE
  5
2A2
  8
0
 62
     7
 10
150.20699999999999
 20
169.99799999999999
 30
0.0
 11
150.20699999999999
 21
168.81299999999999
 31
0.0
  0
LINE
  5
2A3
  8
0
 62
     7
 10
121.03
 20
169.98400000000001
 30
0.0
 11
118.819
 21
169.39099999999999
 31
0.0
  0
LINE
  5
2A4
  8
0
 62
     7
 10
118.819
 20
169.39099999999999
 30
0.0
 11
121.03
 21
168.79900000000001
 31
0.0
  0
LINE
  5
2A5
  8
0
 62
     7
 10
121.03
 20
168.79900000000001
 30
0.0
 11
121.03
 21
169.98400000000001
 31
0.0
  0
LINE
  5
2A6
  8
0
 62
     7
 10
55.794499999999999
 20
63.04249999999999
 30
0.0
 11
37.113399999999999
 21
63.04249999999999
 31
0.0
  0
LINE
  5
2A7
  8
0
 62
     7
 10
152.41900000000001
 20
169.39099999999999
 30
0.0
 11
118.819
 21
169.39099999999999
 31
0.0
  0
LINE
  5
2A8
  8
0
 62
     7
 10
127.004
 20
141.86600000000001
 30
0.0
 11
121.871
 21
141.86600000000001
 31
0.0
  0
LINE
  5
2A9
  8
0
 62
     7
 10
152.41900000000001
 20
170.10599999999999
 30
0.0
 11
152.41900000000001
 21
150.642
 31
0.0
  0
LINE
  5
2AA
  8
0
 62
     7
 10
118.819
 20
170.09100000000001
 30
0.0
 11
118.819
 21
150.62799999999999
 31
0.0
  0
LINE
  5
2AB
  8
0
 62
     7
 10
60.959099999999992
 20
70.920500000000004
 30
0.0
 11
61.537700000000001
 21
73.1357
 31
0.0
  0
LINE
  5
2AC
  8
0
 62
     7
 10
61.537700000000001
 20
73.1357
 30
0.0
 11
59.929200000000002
 21
71.506900000000002
 31
0.0
  0
LINE
  5
2AD
  8
0
 62
     7
 10
59.929200000000002
 20
71.506900000000002
 30
0.0
 11
60.959099999999992
 21
70.920500000000004
 31
0.0
  0
LINE
  5
2AE
  8
0
 62
     7
 10
61.537700000000001
 20
73.1357
 30
0.0
 11
55.794499999999999
 21
63.04249999999999
 31
0.0
  0
LINE
  5
2AF
  8
0
 62
     7
 10
126.896
 20
139.655
 30
0.0
 11
126.304
 21
141.86600000000001
 31
0.0
  0
LINE
  5
2B0
  8
0
 62
     7
 10
126.304
 20
141.86600000000001
 30
0.0
 11
125.711
 21
139.655
 31
0.0
  0
LINE
  5
2B1
  8
0
 62
     7
 10
125.711
 20
139.655
 30
0.0
 11
126.896
 21
139.655
 31
0.0
  0
LINE
  5
2B2
  8
0
 62
     7
 10
125.726
 20
121.27800000000001
 30
0.0
 11
126.318
 21
119.066
 31
0.0
  0
LINE
  5
2B3
  8
0
 62
     7
 10
126.318
 20
119.066
 30
0.0
 11
126.911
 21
121.27800000000001
 31
0.0
  0
LINE
  5
2B4
  8
0
 62
     7
 10
126.911
 20
121.27800000000001
 30
0.0
 11
125.726
 21
121.27800000000001
 31
0.0
  0
LINE
  5
2B5
  8
0
 62
     7
 10
126.304
 20
141.86600000000001
 30
0.0
 11
126.304
 21
119.066
 31
0.0
  0
LINE
  5
2B6
  8
0
 62
     7
 10
145.71899999999999
 20
119.066
 30
0.0
 11
125.604
 21
119.066
 31
0.0
  0
LINE
  5
2B7
  8
0
 62
     7
 10
55.690100000000001
 20
148.81100000000001
 30
0.0
 11
53.4786
 21
148.21799999999999
 31
0.0
  0
LINE
  5
2B8
  8
0
 62
     7
 10
53.4786
 20
148.21799999999999
 30
0.0
 11
55.690100000000001
 21
147.626
 31
0.0
  0
LINE
  5
2B9
  8
0
 62
     7
 10
55.690100000000001
 20
147.626
 30
0.0
 11
55.690100000000001
 21
148.81100000000001
 31
0.0
  0
LINE
  5
2BA
  8
0
 62
     7
 10
47.266800000000003
 20
147.626
 30
0.0
 11
49.478400000000001
 21
148.21799999999999
 31
0.0
  0
LINE
  5
2BB
  8
0
 62
     7
 10
49.478400000000001
 20
148.21799999999999
 30
0.0
 11
47.266800000000003
 21
148.81100000000001
 31
0.0
  0
LINE
  5
2BC
  8
0
 62
     7
 10
47.266800000000003
 20
148.81100000000001
 30
0.0
 11
47.266800000000003
 21
147.626
 31
0.0
  0
LINE
  5
2BD
  8
0
 62
     7
 10
45.668500000000002
 20
148.21799999999999
 30
0.0
 11
61.754399999999997
 21
148.21799999999999
 31
0.0
  0
LINE
  5
2BE
  8
0
 62
     7
 10
101.59099999999999
 20
116.855
 30
0.0
 11
100.998
 21
119.066
 31
0.0
  0
LINE
  5
2BF
  8
0
 62
     7
 10
100.998
 20
119.066
 30
0.0
 11
100.40600000000001
 21
116.855
 31
0.0
  0
LINE
  5
2C0
  8
0
 62
     7
 10
100.40600000000001
 20
116.855
 30
0.0
 11
101.59099999999999
 21
116.855
 31
0.0
  0
LINE
  5
2C1
  8
0
 62
     7
 10
101.57599999999999
 20
134.255
 30
0.0
 11
100.98399999999999
 21
136.46600000000001
 31
0.0
  0
LINE
  5
2C2
  8
0
 62
     7
 10
100.98399999999999
 20
136.46600000000001
 30
0.0
 11
100.39100000000001
 21
134.255
 31
0.0
  0
LINE
  5
2C3
  8
0
 62
     7
 10
100.39100000000001
 20
134.255
 30
0.0
 11
101.57599999999999
 21
134.255
 31
0.0
  0
LINE
  5
2C4
  8
0
 62
     7
 10
100.40600000000001
 20
121.27800000000001
 30
0.0
 11
100.998
 21
119.066
 31
0.0
  0
LINE
  5
2C5
  8
0
 62
     7
 10
100.998
 20
119.066
 30
0.0
 11
101.59099999999999
 21
121.27800000000001
 31
0.0
  0
LINE
  5
2C6
  8
0
 62
     7
 10
101.59099999999999
 20
121.27800000000001
 30
0.0
 11
100.40600000000001
 21
121.27800000000001
 31
0.0
  0
LINE
  5
2C7
  8
0
 62
     7
 10
100.98399999999999
 20
136.46600000000001
 30
0.0
 11
100.98399999999999
 21
119.066
 31
0.0
  0
LINE
  5
2C8
  8
0
 62
     7
 10
101.684
 20
136.46600000000001
 30
0.0
 11
86.750500000000002
 21
136.46600000000001
 31
0.0
  0
LINE
  5
2C9
  8
0
 62
     7
 10
101.69799999999999
 20
119.066
 30
0.0
 11
88.178799999999995
 21
119.066
 31
0.0
  0
LINE
  5
2CA
  8
0
 62
     7
 10
71.009
 20
113.27800000000001
 30
0.0
 11
71.601600000000005
 21
111.066
 31
0.0
  0
LINE
  5
2CB
  8
0
 62
     7
 10
71.601600000000005
 20
111.066
 30
0.0
 11
72.194199999999995
 21
113.27800000000001
 31
0.0
  0
LINE
  5
2CC
  8
0
 62
     7
 10
72.194199999999995
 20
113.27800000000001
 30
0.0
 11
71.009
 21
113.27800000000001
 31
0.0
  0
LINE
  5
2CD
  8
0
 62
     7
 10
72.179699999999997
 20
116.855
 30
0.0
 11
71.587100000000007
 21
119.066
 31
0.0
  0
LINE
  5
2CE
  8
0
 62
     7
 10
71.587100000000007
 20
119.066
 30
0.0
 11
70.994600000000005
 21
116.855
 31
0.0
  0
LINE
  5
2CF
  8
0
 62
     7
 10
70.994600000000005
 20
116.855
 30
0.0
 11
72.179699999999997
 21
116.855
 31
0.0
  0
LINE
  5
2D0
  8
0
 62
     7
 10
71.587100000000007
 20
111.066
 30
0.0
 11
71.587100000000007
 21
119.066
 31
0.0
  0
LINE
  5
2D1
  8
0
 62
     7
 10
75.111500000000007
 20
111.066
 30
0.0
 11
70.819900000000004
 21
111.066
 31
0.0
  0
LINE
  5
2D2
  8
0
 62
     7
 10
74.711500000000001
 20
119.066
 30
0.0
 11
70.819900000000004
 21
119.066
 31
0.0
  0
LINE
  5
2D3
  8
0
 62
     7
 10
87.478800000000007
 20
141.268
 30
0.0
 11
87.478800000000007
 21
121.065
 31
0.0
  0
LINE
  5
2D4
  8
0
 62
     7
 10
75.478700000000003
 20
141.268
 30
0.0
 11
75.478700000000003
 21
121.065
 31
0.0
  0
LINE
  5
2D5
  8
0
 62
     7
 10
77.690299999999993
 20
140.661
 30
0.0
 11
75.478700000000003
 21
140.06899999999999
 31
0.0
  0
LINE
  5
2D6
  8
0
 62
     7
 10
75.478700000000003
 20
140.06899999999999
 30
0.0
 11
77.690299999999993
 21
139.476
 31
0.0
  0
LINE
  5
2D7
  8
0
 62
     7
 10
77.690299999999993
 20
139.476
 30
0.0
 11
77.690299999999993
 21
140.661
 31
0.0
  0
LINE
  5
2D8
  8
0
 62
     7
 10
85.267200000000003
 20
139.49100000000001
 30
0.0
 11
87.478800000000007
 21
140.083
 31
0.0
  0
LINE
  5
2D9
  8
0
 62
     7
 10
87.478800000000007
 20
140.083
 30
0.0
 11
85.267200000000003
 21
140.67599999999999
 31
0.0
  0
LINE
  5
2DA
  8
0
 62
     7
 10
85.267200000000003
 20
140.67599999999999
 30
0.0
 11
85.267200000000003
 21
139.49100000000001
 31
0.0
  0
LINE
  5
2DB
  8
0
 62
     7
 10
75.478700000000003
 20
140.06899999999999
 30
0.0
 11
87.478800000000007
 21
140.06899999999999
 31
0.0
  0
LINE
  5
2DC
  8
0
 62
     7
 10
57.178600000000003
 20
113.26600000000001
 30
0.0
 11
61.548099999999998
 21
113.26600000000001
 31
0.0
  0
LINE
  5
2DD
  8
0
 62
     7
 10
61.548099999999998
 20
119.066
 30
0.0
 11
58.178699999999999
 21
119.066
 31
0.0
  0
LINE
  5
2DE
  8
0
 62
     7
 10
61.440600000000003
 20
116.855
 30
0.0
 11
60.847999999999999
 21
119.066
 31
0.0
  0
LINE
  5
2DF
  8
0
 62
     7
 10
60.847999999999999
 20
119.066
 30
0.0
 11
60.255400000000002
 21
116.855
 31
0.0
  0
LINE
  5
2E0
  8
0
 62
     7
 10
60.255400000000002
 20
116.855
 30
0.0
 11
61.440600000000003
 21
116.855
 31
0.0
  0
LINE
  5
2E1
  8
0
 62
     7
 10
60.2699
 20
115.47799999999999
 30
0.0
 11
60.86249999999999
 21
113.26600000000001
 31
0.0
  0
LINE
  5
2E2
  8
0
 62
     7
 10
60.86249999999999
 20
113.26600000000001
 30
0.0
 11
61.454999999999998
 21
115.47799999999999
 31
0.0
  0
LINE
  5
2E3
  8
0
 62
     7
 10
61.454999999999998
 20
115.47799999999999
 30
0.0
 11
60.2699
 21
115.47799999999999
 31
0.0
  0
LINE
  5
2E4
  8
0
 62
     7
 10
60.847999999999999
 20
119.066
 30
0.0
 11
60.847999999999999
 21
103.812
 31
0.0
  0
LINE
  5
2E5
  8
0
 62
     7
 10
57.478700000000003
 20
126.312
 30
0.0
 11
57.478700000000003
 21
121.07899999999999
 31
0.0
  0
LINE
  5
2E6
  8
0
 62
     7
 10
45.4786
 20
126.297
 30
0.0
 11
45.4786
 21
121.065
 31
0.0
  0
LINE
  5
2E7
  8
0
 62
     7
 10
47.690199999999997
 20
125.691
 30
0.0
 11
45.4786
 21
125.098
 31
0.0
  0
LINE
  5
2E8
  8
0
 62
     7
 10
45.4786
 20
125.098
 30
0.0
 11
47.690199999999997
 21
124.506
 31
0.0
  0
LINE
  5
2E9
  8
0
 62
     7
 10
47.690199999999997
 20
124.506
 30
0.0
 11
47.690199999999997
 21
125.691
 31
0.0
  0
LINE
  5
2EA
  8
0
 62
     7
 10
55.267099999999999
 20
124.52
 30
0.0
 11
57.478700000000003
 21
125.113
 31
0.0
  0
LINE
  5
2EB
  8
0
 62
     7
 10
57.478700000000003
 20
125.113
 30
0.0
 11
55.267099999999999
 21
125.705
 31
0.0
  0
LINE
  5
2EC
  8
0
 62
     7
 10
55.267099999999999
 20
125.705
 30
0.0
 11
55.267099999999999
 21
124.52
 31
0.0
  0
LINE
  5
2ED
  8
0
 62
     7
 10
45.4786
 20
125.098
 30
0.0
 11
64.015600000000006
 21
125.098
 31
0.0
  0
LINE
  5
2EE
  8
0
 62
     7
 10
51.478700000000011
 20
240.50299999999999
 30
0.0
 11
51.478700000000011
 21
233.39500000000001
 31
0.0
  0
LINE
  5
2EF
  8
0
 62
     7
 10
81.478700000000003
 20
240.50299999999999
 30
0.0
 11
81.478700000000003
 21
234.149
 31
0.0
  0
LINE
  5
2F0
  8
0
 62
     7
 10
79.267200000000003
 20
239.22499999999999
 30
0.0
 11
81.478700000000003
 21
239.81800000000001
 31
0.0
  0
LINE
  5
2F1
  8
0
 62
     7
 10
81.478700000000003
 20
239.81800000000001
 30
0.0
 11
79.267200000000003
 21
240.41
 31
0.0
  0
LINE
  5
2F2
  8
0
 62
     7
 10
79.267200000000003
 20
240.41
 30
0.0
 11
79.267200000000003
 21
239.22499999999999
 31
0.0
  0
LINE
  5
2F3
  8
0
 62
     7
 10
55.598500000000001
 20
193.18899999999999
 30
0.0
 11
53.4786
 21
194.054
 31
0.0
  0
LINE
  5
2F4
  8
0
 62
     7
 10
53.4786
 20
194.054
 30
0.0
 11
54.882100000000001
 21
192.245
 31
0.0
  0
LINE
  5
2F5
  8
0
 62
     7
 10
54.882100000000001
 20
192.245
 30
0.0
 11
55.598500000000001
 21
193.18899999999999
 31
0.0
  0
LINE
  5
2F6
  8
0
 62
     7
 10
61.5777
 20
187.90599999999989
 30
0.0
 11
53.4786
 21
194.054
 31
0.0
  0
LINE
  5
2F7
  8
0
 62
     7
 10
53.690300000000001
 20
240.39599999999999
 30
0.0
 11
51.478700000000011
 21
239.803
 31
0.0
  0
LINE
  5
2F8
  8
0
 62
     7
 10
51.478700000000011
 20
239.803
 30
0.0
 11
53.690300000000001
 21
239.21100000000001
 31
0.0
  0
LINE
  5
2F9
  8
0
 62
     7
 10
53.690300000000001
 20
239.21100000000001
 30
0.0
 11
53.690300000000001
 21
240.39599999999999
 31
0.0
  0
LINE
  5
2FA
  8
0
 62
     7
 10
81.478700000000003
 20
239.803
 30
0.0
 11
51.478700000000011
 21
239.803
 31
0.0
  0
LINE
  5
2FB
  8
0
 62
     7
 10
148.79900000000001
 20
220.73500000000001
 30
0.0
 11
149.94399999999999
 21
222.71799999999999
 31
0.0
  0
LINE
  5
2FC
  8
0
 62
     7
 10
149.94399999999999
 20
222.71799999999999
 30
0.0
 11
147.96100000000001
 21
221.57400000000001
 31
0.0
  0
LINE
  5
2FD
  8
0
 62
     7
 10
147.96100000000001
 20
221.57400000000001
 30
0.0
 11
148.79900000000001
 21
220.73500000000001
 31
0.0
  0
LINE
  5
2FE
  8
0
 62
     7
 10
156.03899999999999
 20
229.65000000000001
 30
0.0
 11
154.89400000000001
 21
227.66800000000001
 31
0.0
  0
LINE
  5
2FF
  8
0
 62
     7
 10
154.89400000000001
 20
227.66800000000001
 30
0.0
 11
156.87700000000001
 21
228.81200000000001
 31
0.0
  0
LINE
  5
300
  8
0
 62
     7
 10
156.87700000000001
 20
228.81200000000001
 30
0.0
 11
156.03899999999999
 21
229.65000000000001
 31
0.0
  0
LINE
  5
301
  8
0
 62
     7
 10
118.79900000000001
 20
220.73500000000001
 30
0.0
 11
119.944
 21
222.71799999999999
 31
0.0
  0
LINE
  5
302
  8
0
 62
     7
 10
119.944
 20
222.71799999999999
 30
0.0
 11
117.961
 21
221.57400000000001
 31
0.0
  0
LINE
  5
303
  8
0
 62
     7
 10
117.961
 20
221.57400000000001
 30
0.0
 11
118.79900000000001
 21
220.73500000000001
 31
0.0
  0
LINE
  5
304
  8
0
 62
     7
 10
126.038
 20
229.65000000000001
 30
0.0
 11
124.89400000000001
 21
227.66800000000001
 31
0.0
  0
LINE
  5
305
  8
0
 62
     7
 10
124.89400000000001
 20
227.66800000000001
 30
0.0
 11
126.877
 21
228.81200000000001
 31
0.0
  0
LINE
  5
306
  8
0
 62
     7
 10
126.877
 20
228.81200000000001
 30
0.0
 11
126.038
 21
229.65000000000001
 31
0.0
  0
LINE
  5
307
  8
0
 62
     7
 10
127.36499999999999
 20
230.13900000000001
 30
0.0
 11
116.532
 21
219.30600000000001
 31
0.0
  0
ARC
  5
308
  8
0
 62
     7
 10
122.2847
 20
225.05856399999999
 30
0.0
 40
3.6368219999999991
 50
2.1187259999999992
 51
87.886904000000001
  0
ARC
  5
309
  8
0
 62
     7
 10
122.41862500000001
 20
225.19284500000001
 30
0.0
 40
3.500067
 50
89.997179999999986
 51
179.99715
  0
ARC
  5
30A
  8
0
 62
     7
 10
122.418796
 20
225.193018
 30
0.0
 40
3.5002390000000001
 50
179.99996999999999
 51
270.00002000000001
  0
ARC
  5
30B
  8
0
 62
     7
 10
122.28512600000001
 20
225.32669000000001
 30
0.0
 40
3.636368
 50
272.106652
 51
357.89335800000009
  0
LINE
  5
30C
  8
0
  6
AIGENLINE002
 62
     7
 10
122.419
 20
219.62200000000001
 30
0.0
 11
122.419
 21
230.869
 31
0.0
  0
LINE
  5
30D
  8
0
 62
     7
 10
127.36499999999999
 20
230.13900000000001
 30
0.0
 11
133.31399999999999
 21
230.13900000000001
 31
0.0
  0
LINE
  5
30E
  8
0
 62
     7
 10
157.36500000000001
 20
230.13900000000001
 30
0.0
 11
163.31399999999999
 21
230.13900000000001
 31
0.0
  0
LINE
  5
30F
  8
0
 62
     7
 10
157.36500000000001
 20
230.13900000000001
 30
0.0
 11
146.53200000000001
 21
219.30600000000001
 31
0.0
  0
LINE
  5
310
  8
0
  6
AIGENLINE002
 62
     7
 10
158.05600000000001
 20
225.19300000000001
 30
0.0
 11
117.32899999999999
 21
225.19300000000001
 31
0.0
  0
ARC
  5
311
  8
0
 62
     7
 10
152.28478100000001
 20
225.05856399999999
 30
0.0
 40
3.6368219999999991
 50
2.1187259999999992
 51
87.886904000000001
  0
ARC
  5
312
  8
0
 62
     7
 10
152.55252400000001
 20
225.05901499999999
 30
0.0
 40
3.636355
 50
92.106238000000019
 51
177.888092
  0
ARC
  5
313
  8
0
 62
     7
 10
152.55332200000001
 20
225.32746299999999
 30
0.0
 40
3.6371690000000001
 50
182.11838299999999
 51
267.88164599999999
  0
ARC
  5
314
  8
0
 62
     7
 10
152.28520700000001
 20
225.32669000000001
 30
0.0
 40
3.636368
 50
272.106652
 51
357.89335800000009
  0
LINE
  5
315
  8
0
  6
AIGENLINE002
 62
     7
 10
152.41900000000001
 20
219.62200000000001
 30
0.0
 11
152.41900000000001
 21
230.869
 31
0.0
  0
LINE
  5
316
  8
0
  6
AIGENLINE002
 62
     7
 10
89.215800000000002
 20
225.19300000000001
 30
0.0
 11
73.626300000000001
 21
225.19300000000001
 31
0.0
  0
ARC
  5
317
  8
0
 62
     7
 10
81.478744999999975
 20
225.193018
 30
0.0
 40
4.400104999999999
 50
0.00001
 51
89.999980000000008
  0
ARC
  5
318
  8
0
 62
     7
 10
81.478746999999998
 20
225.193018
 30
0.0
 40
4.400104999999999
 50
90.0
 51
179.99996999999999
  0
ARC
  5
319
  8
0
 62
     7
 10
81.478744999999975
 20
225.193018
 30
0.0
 40
4.4001029999999988
 50
179.99996999999999
 51
270.00002000000001
  0
ARC
  5
31A
  8
0
 62
     7
 10
81.478744999999975
 20
225.19301899999999
 30
0.0
 40
4.400104999999999
 50
270.00002000000001
 51
359.99999000000003
  0
ARC
  5
31B
  8
0
 62
     7
 10
81.299311999999986
 20
225.33581699999999
 30
0.0
 40
6.1810999999999989
 50
283.84985599999999
 51
358.67621000000008
  0
ARC
  5
31C
  8
0
 62
     7
 10
81.478744999999975
 20
225.193017
 30
0.0
 40
6.0000169999999988
 50
0.00001
 51
89.999980000000008
  0
ARC
  5
31D
  8
0
 62
     7
 10
81.478746999999998
 20
225.193017
 30
0.0
 40
6.0000169999999988
 50
90.0
 51
179.99996999999999
  0
ARC
  5
31E
  8
0
 62
     7
 10
81.665388000000007
 20
225.34151
 30
0.0
 40
6.1884399999999991
 50
181.37496400000001
 51
256.10146500000002
  0
LINE
  5
31F
  8
0
  6
AIGENLINE002
 62
     7
 10
81.478700000000003
 20
203.69200000000001
 30
0.0
 11
81.478700000000003
 21
233.27500000000001
 31
0.0
  0
LINE
  5
320
  8
0
 62
     7
 10
53.4786
 20
191.76400000000001
 30
0.0
 11
53.4786
 21
225.19300000000001
 31
0.0
  0
LINE
  5
321
  8
0
 62
     7
 10
49.478400000000001
 20
191.76400000000001
 30
0.0
 11
49.478400000000001
 21
225.19300000000001
 31
0.0
  0
ARC
  5
322
  8
0
 62
     7
 10
51.478664000000002
 20
191.76435599999999
 30
0.0
 40
2.0002349999999991
 50
179.99996999999999
 51
270.00002000000001
  0
ARC
  5
323
  8
0
 62
     7
 10
51.478491999999989
 20
191.764185
 30
0.0
 40
2.000062999999999
 50
270.004954
 51
0.004925
  0
ARC
  5
324
  8
0
 62
     7
 10
51.478664000000002
 20
225.193018
 30
0.0
 40
1.9998910000000001
 50
0.00001
 51
89.999980000000008
  0
ARC
  5
325
  8
0
 62
     7
 10
51.478493
 20
225.192846
 30
0.0
 40
2.000062999999999
 50
89.995064999999997
 51
179.995036
  0
ARC
  5
326
  8
0
 62
     7
 10
51.317816000000001
 20
225.306523
 30
0.0
 40
6.1619099999999989
 50
290.53457400000002
 51
358.94453399999998
  0
ARC
  5
327
  8
0
 62
     7
 10
51.478664000000002
 20
225.193017
 30
0.0
 40
6.0000169999999988
 50
0.00001
 51
89.999980000000008
  0
ARC
  5
328
  8
0
 62
     7
 10
51.478665999999997
 20
225.193017
 30
0.0
 40
6.0000169999999988
 50
90.0
 51
179.99996999999999
  0
ARC
  5
329
  8
0
 62
     7
 10
51.638573999999998
 20
225.305859
 30
0.0
 40
6.1609590000000001
 50
181.049476
 51
249.47145699999999
  0
LINE
  5
32A
  8
0
  6
AIGENLINE002
 62
     7
 10
43.461199999999991
 20
225.19300000000001
 30
0.0
 11
59.512999999999998
 21
225.19300000000001
 31
0.0
  0
LINE
  5
32B
  8
0
  6
AIGENLINE002
 62
     7
 10
51.478700000000011
 20
188.46899999999999
 30
0.0
 11
51.478700000000011
 21
232.69499999999999
 31
0.0
  0
ARC
  5
32C
  8
0
  6
AIGENLINE002
 62
     7
 10
66.478702999999996
 20
87.298924
 30
0.0
 40
15.000038
 50
179.99996999999999
 51
270.00002000000001
  0
ARC
  5
32D
  8
0
  6
AIGENLINE002
 62
     7
 10
66.478702999999996
 20
87.298929999999999
 30
0.0
 40
15.000043
 50
270.00002000000001
 51
359.99999000000003
  0
LINE
  5
32E
  8
0
  6
AIGENLINE002
 62
     7
 10
51.478700000000011
 20
87.298900000000003
 30
0.0
 11
51.478700000000011
 21
166.49100000000001
 31
0.0
  0
LINE
  5
32F
  8
0
  6
AIGENLINE002
 62
     7
 10
118.819
 20
145.26599999999999
 30
0.0
 11
118.819
 21
139.31299999999999
 31
0.0
  0
LINE
  5
330
  8
0
 62
     7
 10
116.819
 20
141.86600000000001
 30
0.0
 11
120.819
 21
141.86600000000001
 31
0.0
  0
LINE
  5
331
  8
0
  6
AIGENLINE002
 62
     7
 10
152.41900000000001
 20
145.26599999999999
 30
0.0
 11
152.41900000000001
 21
116.30200000000001
 31
0.0
  0
LINE
  5
332
  8
0
  6
AIGENLINE002
 62
     7
 10
151.21899999999999
 20
100.10299999999999
 30
0.0
 11
151.21899999999999
 21
120.767
 31
0.0
  0
LINE
  5
333
  8
0
 62
     7
 10
152.26900000000001
 20
109.17
 30
0.0
 11
152.26900000000001
 21
109.46599999999999
 31
0.0
  0
LINE
  5
334
  8
0
 62
     7
 10
152.26900000000001
 20
104.066
 30
0.0
 11
152.26900000000001
 21
107.36199999999999
 31
0.0
  0
LINE
  5
335
  8
0
 62
     7
 10
150.16900000000001
 20
104.21299999999999
 30
0.0
 11
150.16900000000001
 21
109.682
 31
0.0
  0
LINE
  5
336
  8
0
 62
     7
 10
152.21899999999999
 20
109.46599999999999
 30
0.0
 11
148.41900000000001
 21
109.86499999999999
 31
0.0
  0
LINE
  5
337
  8
0
 62
     7
 10
154.51900000000001
 20
104.066
 30
0.0
 11
154.51900000000001
 21
107.066
 31
0.0
  0
LINE
  5
338
  8
0
 62
     7
 10
152.71899999999999
 20
104.066
 30
0.0
 11
152.71899999999999
 21
107.066
 31
0.0
  0
LINE
  5
339
  8
0
 62
     7
 10
152.26900000000001
 20
111.066
 30
0.0
 11
152.26900000000001
 21
119.066
 31
0.0
  0
LINE
  5
33A
  8
0
 62
     7
 10
150.16900000000001
 20
111.066
 30
0.0
 11
150.16900000000001
 21
119.066
 31
0.0
  0
LINE
  5
33B
  8
0
  6
AIGENLINE002
 62
     7
 10
153.619
 20
69.304400000000001
 30
0.0
 11
153.619
 21
120.767
 31
0.0
  0
LINE
  5
33C
  8
0
 62
     7
 10
154.51900000000001
 20
111.066
 30
0.0
 11
154.51900000000001
 21
119.066
 31
0.0
  0
LINE
  5
33D
  8
0
 62
     7
 10
152.71899999999999
 20
111.066
 30
0.0
 11
152.71899999999999
 21
119.066
 31
0.0
  0
LINE
  5
33E
  8
0
 62
     7
 10
152.51900000000001
 20
111.066
 30
0.0
 11
152.51900000000001
 21
119.066
 31
0.0
  0
LINE
  5
33F
  8
0
 62
     7
 10
154.71899999999999
 20
111.066
 30
0.0
 11
154.71899999999999
 21
119.066
 31
0.0
  0
LINE
  5
340
  8
0
 62
     7
 10
156.81899999999999
 20
109.46599999999999
 30
0.0
 11
156.81899999999999
 21
111.066
 31
0.0
  0
LINE
  5
341
  8
0
 62
     7
 10
148.41900000000001
 20
109.86499999999999
 30
0.0
 11
148.41900000000001
 21
111.066
 31
0.0
  0
LINE
  5
342
  8
0
 62
     7
 10
154.869
 20
90.065700000000007
 30
0.0
 11
154.869
 21
72.298900000000003
 31
0.0
  0
LINE
  5
343
  8
0
 62
     7
 10
152.369
 20
90.065700000000007
 30
0.0
 11
152.369
 21
72.298900000000003
 31
0.0
  0
LINE
  5
344
  8
0
 62
     7
 10
152.369
 20
90.065700000000007
 30
0.0
 11
154.869
 21
90.065700000000007
 31
0.0
  0
LINE
  5
345
  8
0
 62
     7
 10
155.21899999999999
 20
96.065700000000007
 30
0.0
 11
155.21899999999999
 21
104.066
 31
0.0
  0
LINE
  5
346
  8
0
 62
     7
 10
152.01900000000001
 20
96.065700000000007
 30
0.0
 11
152.01900000000001
 21
104.066
 31
0.0
  0
LINE
  5
347
  8
0
 62
     7
 10
154.71899999999999
 20
104.066
 30
0.0
 11
154.71899999999999
 21
107.14
 31
0.0
  0
LINE
  5
348
  8
0
 62
     7
 10
152.51900000000001
 20
104.066
 30
0.0
 11
152.51900000000001
 21
107.15300000000001
 31
0.0
  0
LINE
  5
349
  8
0
 62
     7
 10
152.01900000000001
 20
104.066
 30
0.0
 11
155.21899999999999
 21
104.066
 31
0.0
  0
LINE
  5
34A
  8
0
 62
     7
 10
153.619
 20
107.066
 30
0.0
 11
153.619
 21
109.46599999999999
 31
0.0
  0
LINE
  5
34B
  8
0
 62
     7
 10
152.21899999999999
 20
109.46599999999999
 30
0.0
 11
156.81899999999999
 21
109.46599999999999
 31
0.0
  0
LINE
  5
34C
  8
0
 62
     7
 10
148.41900000000001
 20
110.66500000000001
 30
0.0
 11
156.81899999999999
 21
110.66500000000001
 31
0.0
  0
LINE
  5
34D
  8
0
 62
     7
 10
148.41900000000001
 20
111.066
 30
0.0
 11
156.81899999999999
 21
111.066
 31
0.0
  0
LINE
  5
34E
  8
0
 62
     7
 10
156.81899999999999
 20
129.86600000000001
 30
0.0
 11
156.81899999999999
 21
119.866
 31
0.0
  0
LINE
  5
34F
  8
0
 62
     7
 10
148.01900000000001
 20
129.86600000000001
 30
0.0
 11
148.01900000000001
 21
119.866
 31
0.0
  0
LINE
  5
350
  8
0
 62
     7
 10
148.01900000000001
 20
129.86600000000001
 30
0.0
 11
156.81899999999999
 21
129.86600000000001
 31
0.0
  0
LINE
  5
351
  8
0
 62
     7
 10
158.4189999999999
 20
119.066
 30
0.0
 11
158.4189999999999
 21
119.866
 31
0.0
  0
LINE
  5
352
  8
0
 62
     7
 10
146.41900000000001
 20
119.066
 30
0.0
 11
146.41900000000001
 21
119.866
 31
0.0
  0
LINE
  5
353
  8
0
 62
     7
 10
146.41900000000001
 20
119.066
 30
0.0
 11
158.4189999999999
 21
119.066
 31
0.0
  0
LINE
  5
354
  8
0
 62
     7
 10
146.41900000000001
 20
119.866
 30
0.0
 11
158.4189999999999
 21
119.866
 31
0.0
  0
LINE
  5
355
  8
0
 62
     7
 10
80.928599999999989
 20
104.066
 30
0.0
 11
82.028400000000005
 21
104.066
 31
0.0
  0
LINE
  5
356
  8
0
 62
     7
 10
80.928599999999989
 20
107.066
 30
0.0
 11
82.028400000000005
 21
107.066
 31
0.0
  0
LINE
  5
357
  8
0
 62
     7
 10
77.4786
 20
109.46599999999999
 30
0.0
 11
77.4786
 21
111.066
 31
0.0
  0
LINE
  5
358
  8
0
 62
     7
 10
85.478899999999996
 20
109.46599999999999
 30
0.0
 11
85.478899999999996
 21
111.066
 31
0.0
  0
LINE
  5
359
  8
0
 62
     7
 10
87.078800000000015
 20
109.46599999999999
 30
0.0
 11
87.078800000000015
 21
111.066
 31
0.0
  0
LINE
  5
35A
  8
0
 62
     7
 10
75.878699999999995
 20
109.46599999999999
 30
0.0
 11
75.878699999999995
 21
111.066
 31
0.0
  0
LINE
  5
35B
  8
0
 62
     7
 10
75.878699999999995
 20
109.46599999999999
 30
0.0
 11
78.428399999999996
 21
109.46599999999999
 31
0.0
  0
LINE
  5
35C
  8
0
 62
     7
 10
80.928599999999989
 20
109.46599999999999
 30
0.0
 11
82.028400000000005
 21
109.46599999999999
 31
0.0
  0
LINE
  5
35D
  8
0
 62
     7
 10
84.528499999999994
 20
109.46599999999999
 30
0.0
 11
87.078800000000015
 21
109.46599999999999
 31
0.0
  0
LINE
  5
35E
  8
0
 62
     7
 10
75.878699999999995
 20
110.66500000000001
 30
0.0
 11
78.428399999999996
 21
110.66500000000001
 31
0.0
  0
LINE
  5
35F
  8
0
 62
     7
 10
80.928599999999989
 20
110.66500000000001
 30
0.0
 11
82.028400000000005
 21
110.66500000000001
 31
0.0
  0
LINE
  5
360
  8
0
 62
     7
 10
84.528499999999994
 20
110.66500000000001
 30
0.0
 11
87.078800000000015
 21
110.66500000000001
 31
0.0
  0
LINE
  5
361
  8
0
 62
     7
 10
75.878699999999995
 20
111.066
 30
0.0
 11
78.428399999999996
 21
111.066
 31
0.0
  0
LINE
  5
362
  8
0
 62
     7
 10
80.928599999999989
 20
111.066
 30
0.0
 11
82.028400000000005
 21
111.066
 31
0.0
  0
LINE
  5
363
  8
0
 62
     7
 10
84.528499999999994
 20
111.066
 30
0.0
 11
87.078800000000015
 21
111.066
 31
0.0
  0
LINE
  5
364
  8
0
 62
     7
 10
85.878799999999998
 20
129.86600000000001
 30
0.0
 11
85.878799999999998
 21
119.866
 31
0.0
  0
LINE
  5
365
  8
0
 62
     7
 10
77.078599999999994
 20
129.86600000000001
 30
0.0
 11
77.078599999999994
 21
119.866
 31
0.0
  0
LINE
  5
366
  8
0
 62
     7
 10
77.078599999999994
 20
129.86600000000001
 30
0.0
 11
85.878799999999998
 21
129.86600000000001
 31
0.0
  0
LINE
  5
367
  8
0
 62
     7
 10
87.478800000000007
 20
119.066
 30
0.0
 11
87.478800000000007
 21
119.866
 31
0.0
  0
LINE
  5
368
  8
0
 62
     7
 10
75.478700000000003
 20
119.066
 30
0.0
 11
75.478700000000003
 21
119.866
 31
0.0
  0
LINE
  5
369
  8
0
 62
     7
 10
75.478700000000003
 20
119.066
 30
0.0
 11
87.478800000000007
 21
119.066
 31
0.0
  0
LINE
  5
36A
  8
0
 62
     7
 10
75.478700000000003
 20
119.866
 30
0.0
 11
87.478800000000007
 21
119.866
 31
0.0
  0
LINE
  5
36B
  8
0
 62
     7
 10
52.7286
 20
100.26600000000001
 30
0.0
 11
52.7286
 21
89.407700000000006
 31
0.0
  0
LINE
  5
36C
  8
0
 62
     7
 10
50.228400000000001
 20
100.26600000000001
 30
0.0
 11
50.228400000000001
 21
89.407700000000006
 31
0.0
  0
LINE
  5
36D
  8
0
 62
     7
 10
50.078600000000002
 20
100.26600000000001
 30
0.0
 11
52.878799999999998
 21
100.26600000000001
 31
0.0
  0
LINE
  5
36E
  8
0
 62
     7
 10
52.7286
 20
101.26600000000001
 30
0.0
 11
52.7286
 21
103.066
 31
0.0
  0
LINE
  5
36F
  8
0
 62
     7
 10
50.228400000000001
 20
101.26600000000001
 30
0.0
 11
50.228400000000001
 21
103.066
 31
0.0
  0
LINE
  5
370
  8
0
 62
     7
 10
50.228400000000001
 20
101.26600000000001
 30
0.0
 11
52.7286
 21
101.26600000000001
 31
0.0
  0
LINE
  5
371
  8
0
 62
     7
 10
50.228400000000001
 20
103.066
 30
0.0
 11
52.7286
 21
103.066
 31
0.0
  0
LINE
  5
372
  8
0
 62
     7
 10
50.078600000000002
 20
104.43899999999999
 30
0.0
 11
50.078600000000002
 21
106.092
 31
0.0
  0
LINE
  5
373
  8
0
 62
     7
 10
52.878799999999998
 20
104.43899999999999
 30
0.0
 11
52.878799999999998
 21
106.092
 31
0.0
  0
LINE
  5
374
  8
0
 62
     7
 10
54.278500000000001
 20
104.43899999999999
 30
0.0
 11
54.278500000000001
 21
106.092
 31
0.0
  0
LINE
  5
375
  8
0
 62
     7
 10
48.6785
 20
104.43899999999999
 30
0.0
 11
48.6785
 21
106.092
 31
0.0
  0
LINE
  5
376
  8
0
 62
     7
 10
49.378500000000003
 20
103.86499999999999
 30
0.0
 11
53.578800000000001
 21
103.86499999999999
 31
0.0
  0
LINE
  5
377
  8
0
 62
     7
 10
49.578699999999991
 20
106.666
 30
0.0
 11
49.578699999999991
 21
109.46599999999999
 31
0.0
  0
LINE
  5
378
  8
0
 62
     7
 10
53.378599999999999
 20
106.666
 30
0.0
 11
53.378599999999999
 21
109.46599999999999
 31
0.0
  0
LINE
  5
379
  8
0
 62
     7
 10
53.578499999999998
 20
106.666
 30
0.0
 11
53.578499999999998
 21
109.46599999999999
 31
0.0
  0
LINE
  5
37A
  8
0
 62
     7
 10
49.378500000000003
 20
106.666
 30
0.0
 11
49.378500000000003
 21
109.46599999999999
 31
0.0
  0
LINE
  5
37B
  8
0
 62
     7
 10
49.378500000000003
 20
106.666
 30
0.0
 11
53.578499999999998
 21
106.666
 31
0.0
  0
LINE
  5
37C
  8
0
 62
     7
 10
50.078600000000002
 20
109.46599999999999
 30
0.0
 11
50.078600000000002
 21
110.66500000000001
 31
0.0
  0
LINE
  5
37D
  8
0
 62
     7
 10
52.878799999999998
 20
109.46599999999999
 30
0.0
 11
52.878799999999998
 21
110.66500000000001
 31
0.0
  0
LINE
  5
37E
  8
0
 62
     7
 10
54.278500000000001
 20
109.46599999999999
 30
0.0
 11
54.278500000000001
 21
110.66500000000001
 31
0.0
  0
LINE
  5
37F
  8
0
 62
     7
 10
48.6785
 20
109.46599999999999
 30
0.0
 11
48.6785
 21
110.66500000000001
 31
0.0
  0
LINE
  5
380
  8
0
 62
     7
 10
48.6785
 20
109.46599999999999
 30
0.0
 11
54.278500000000001
 21
109.46599999999999
 31
0.0
  0
ARC
  5
381
  8
0
 62
     7
 10
53.097225999999999
 20
111.0035639999999
 30
0.0
 40
2.4659749999999989
 50
15.580291000000001
 51
66.546525000000003
  0
ARC
  5
382
  8
0
 62
     7
 10
49.861967999999997
 20
111.00142700000001
 30
0.0
 40
2.4686779999999988
 50
113.473429
 51
164.38569000000001
  0
LINE
  5
383
  8
0
 62
     7
 10
56.4786
 20
110.66500000000001
 30
0.0
 11
56.4786
 21
111.666
 31
0.0
  0
LINE
  5
384
  8
0
 62
     7
 10
46.478400000000001
 20
110.66500000000001
 30
0.0
 11
46.478400000000001
 21
111.666
 31
0.0
  0
LINE
  5
385
  8
0
 62
     7
 10
46.478400000000001
 20
110.66500000000001
 30
0.0
 11
56.4786
 21
110.66500000000001
 31
0.0
  0
LINE
  5
386
  8
0
 62
     7
 10
46.478400000000001
 20
111.666
 30
0.0
 11
56.4786
 21
111.666
 31
0.0
  0
LINE
  5
387
  8
0
 62
     7
 10
49.578699999999991
 20
113.26600000000001
 30
0.0
 11
49.578699999999991
 21
118.26600000000001
 31
0.0
  0
LINE
  5
388
  8
0
 62
     7
 10
53.378599999999999
 20
113.26600000000001
 30
0.0
 11
53.378599999999999
 21
118.26600000000001
 31
0.0
  0
LINE
  5
389
  8
0
 62
     7
 10
53.578499999999998
 20
113.26600000000001
 30
0.0
 11
53.578499999999998
 21
118.26600000000001
 31
0.0
  0
LINE
  5
38A
  8
0
 62
     7
 10
49.378500000000003
 20
113.26600000000001
 30
0.0
 11
49.378500000000003
 21
118.26600000000001
 31
0.0
  0
LINE
  5
38B
  8
0
 62
     7
 10
48.878599999999992
 20
113.26600000000001
 30
0.0
 11
54.078699999999991
 21
113.26600000000001
 31
0.0
  0
LINE
  5
38C
  8
0
 62
     7
 10
54.578600000000002
 20
118.26600000000001
 30
0.0
 11
54.778700000000001
 21
118.46599999999999
 31
0.0
  0
LINE
  5
38D
  8
0
 62
     7
 10
48.378399999999992
 20
118.26600000000001
 30
0.0
 11
48.178600000000003
 21
118.46599999999999
 31
0.0
  0
LINE
  5
38E
  8
0
 62
     7
 10
54.778700000000001
 20
118.46599999999999
 30
0.0
 11
48.178600000000003
 21
118.46599999999999
 31
0.0
  0
LINE
  5
38F
  8
0
 62
     7
 10
54.778700000000001
 20
118.46599999999999
 30
0.0
 11
54.778700000000001
 21
119.066
 31
0.0
  0
LINE
  5
390
  8
0
 62
     7
 10
48.178600000000003
 20
118.46599999999999
 30
0.0
 11
48.178600000000003
 21
119.066
 31
0.0
  0
LINE
  5
391
  8
0
 62
     7
 10
48.378399999999992
 20
118.26600000000001
 30
0.0
 11
54.578600000000002
 21
118.26600000000001
 31
0.0
  0
LINE
  5
392
  8
0
 62
     7
 10
49.478400000000001
 20
141.86600000000001
 30
0.0
 11
53.4786
 21
141.86600000000001
 31
0.0
  0
LINE
  5
393
  8
0
 62
     7
 10
53.4786
 20
162.066
 30
0.0
 11
53.4786
 21
119.866
 31
0.0
  0
LINE
  5
394
  8
0
 62
     7
 10
49.478400000000001
 20
162.066
 30
0.0
 11
49.478400000000001
 21
119.866
 31
0.0
  0
ARC
  5
395
  8
0
 62
     7
 10
51.478491999999989
 20
162.06623999999999
 30
0.0
 40
2.000062999999999
 50
359.99507499999999
 51
89.995045999999988
  0
ARC
  5
396
  8
0
 62
     7
 10
51.478664999999999
 20
162.066067
 30
0.0
 40
2.0002349999999991
 50
90.0
 51
179.99996999999999
  0
LINE
  5
397
  8
0
 62
     7
 10
57.478700000000003
 20
119.066
 30
0.0
 11
57.478700000000003
 21
119.866
 31
0.0
  0
LINE
  5
398
  8
0
 62
     7
 10
45.4786
 20
119.066
 30
0.0
 11
45.4786
 21
119.866
 31
0.0
  0
LINE
  5
399
  8
0
 62
     7
 10
45.4786
 20
119.066
 30
0.0
 11
57.478700000000003
 21
119.066
 31
0.0
  0
LINE
  5
39A
  8
0
 62
     7
 10
45.4786
 20
119.866
 30
0.0
 11
57.478700000000003
 21
119.866
 31
0.0
  0
TEXT
  5
39B
  8
_________2
 62
     7
 10
24.586400000000001
 20
0.707627
 30
0.0
 40
3.9357000000000002
  1
（社）日本水道協会認証品
 41
0.5
  0
TEXT
  5
39C
  8
_________2
 62
     7
 10
109.179
 20
24.226099999999999
 30
0.0
 40
3.9357000000000002
  1
パン 湯水混合栓
 41
0.5
  0
LINE
  5
39D
  8
_________2
 62
     7
 10
205.30099999999999
 20
127.411
 30
0.0
 11
183.55099999999999
 21
127.411
 31
0.0
  0
LINE
  5
39E
  8
_________2
 62
     7
 10
100.3
 20
-4.0910799999999998
 30
0.0
 11
100.3
 21
-21.071000000000002
 31
0.0
  0
LINE
  5
39F
  8
_________2
 62
     7
 10
100.3
 20
275.93099999999998
 30
0.0
 11
100.3
 21
258.911
 31
0.0
  0
LINE
  5
3A0
  8
_________2
 62
     7
 10
17.049199999999999
 20
127.411
 30
0.0
 11
-4.7012099999999988
 21
127.411
 31
0.0
  0
LINE
  5
3A1
  8
_________2
 62
     7
 10
76.740700000000004
 20
29.8047
 30
0.0
 11
74.554400000000001
 21
29.8047
 31
0.0
  0
LINE
  5
3A2
  8
_________2
 62
     7
 10
77.2333
 20
29.8047
 30
0.0
 11
76.981099999999984
 21
29.8047
 31
0.0
  0
LINE
  5
3A3
  8
_________2
 62
     7
 10
77.725999999999999
 20
29.8047
 30
0.0
 11
80.650899999999993
 21
29.8047
 31
0.0
  0
LINE
  5
3A4
  8
_________2
 62
     7
 10
77.2333
 20
29.8047
 30
0.0
 11
77.485500000000002
 21
29.8047
 31
0.0
  0
LINE
  5
3A5
  8
_________2
 62
     7
 10
70.837100000000007
 20
29.8047
 30
0.0
 11
68.650199999999998
 21
29.8047
 31
0.0
  0
LINE
  5
3A6
  8
_________2
 62
     7
 10
71.329099999999997
 20
29.8047
 30
0.0
 11
71.077600000000004
 21
29.8047
 31
0.0
  0
LINE
  5
3A7
  8
_________2
 62
     7
 10
71.329099999999997
 20
30.2974
 30
0.0
 11
71.329099999999997
 21
32.484400000000001
 31
0.0
  0
LINE
  5
3A8
  8
_________2
 62
     7
 10
71.329099999999997
 20
29.8047
 30
0.0
 11
71.329099999999997
 21
30.057300000000001
 31
0.0
  0
LINE
  5
3A9
  8
_________2
 62
     7
 10
71.821700000000007
 20
29.8047
 30
0.0
 11
74.008700000000005
 21
29.8047
 31
0.0
  0
LINE
  5
3AA
  8
_________2
 62
     7
 10
71.329099999999997
 20
29.8047
 30
0.0
 11
71.581299999999985
 21
29.8047
 31
0.0
  0
LINE
  5
3AB
  8
_________2
 62
     7
 10
71.329099999999997
 20
29.312799999999999
 30
0.0
 11
71.329099999999997
 21
27.126200000000001
 31
0.0
  0
LINE
  5
3AC
  8
_________2
 62
     7
 10
71.329099999999997
 20
29.8047
 30
0.0
 11
71.329099999999997
 21
29.5532
 31
0.0
  0
LINE
  5
3AD
  8
_________2
 62
     7
 10
75.040199999999999
 20
28.5852
 30
0.0
 11
80.218199999999996
 21
27.720400000000001
 31
0.0
  0
LINE
  5
3AE
  8
_________2
 62
     7
 10
75.040199999999999
 20
31.024699999999999
 30
0.0
 11
80.218199999999996
 21
31.8901
 31
0.0
  0
LINE
  5
3AF
  8
_________2
 62
     7
 10
80.218199999999996
 20
27.720400000000001
 30
0.0
 11
80.218199999999996
 21
31.8901
 31
0.0
  0
LINE
  5
3B0
  8
_________2
 62
     7
 10
75.040199999999999
 20
28.5852
 30
0.0
 11
75.040199999999999
 21
31.024699999999999
 31
0.0
  0
ARC
  5
3B1
  8
_________2
 62
     7
 10
71.282501999999994
 20
29.757801000000001
 30
0.0
 40
1.267714
 50
2.1220840000000001
 51
87.894083999999992
  0
ARC
  5
3B2
  8
_________2
 62
     7
 10
71.375640000000004
 20
29.758545999999999
 30
0.0
 40
1.2669680000000001
 50
92.105782999999988
 51
177.91037
  0
ARC
  5
3B3
  8
_________2
 62
     7
 10
71.376013999999998
 20
29.851671
 30
0.0
 40
1.2673680000000001
 50
182.12203600000001
 51
267.877993
  0
ARC
  5
3B4
  8
_________2
 62
     7
 10
71.282195999999999
 20
29.852347999999999
 30
0.0
 40
1.2680439999999991
 50
272.11916400000001
 51
357.84848499999998
  0
ARC
  5
3B5
  8
_________2
 62
     7
 10
71.248716999999985
 20
29.724731999999999
 30
0.0
 40
2.1668310000000002
 50
2.1161439999999989
 51
87.874379000000005
  0
ARC
  5
3B6
  8
_________2
 62
     7
 10
71.408756000000011
 20
29.726146
 30
0.0
 40
2.165392999999999
 50
92.108508999999998
 51
177.91986499999999
  0
ARC
  5
3B7
  8
_________2
 62
     7
 10
71.409094999999994
 20
29.884751999999999
 30
0.0
 40
2.1657829999999998
 50
182.117133
 51
267.88289700000001
  0
ARC
  5
3B8
  8
_________2
 62
     7
 10
71.249115000000003
 20
29.885429999999999
 30
0.0
 40
2.1664590000000001
 50
272.11546800000002
 51
357.86560400000002
  0
TEXT
  5
3B9
  8
_________2
 62
     7
 10
104.605
 20
1.6794899999999999
 30
0.0
 40
3.0923400000000001
  1
図番
 41
0.5
  0
LINE
  5
3BA
  8
_________2
 62
     7
 10
103.55
 20
5.9087199999999989
 30
0.0
 11
183.55099999999999
 21
5.9087199999999989
 31
0.0
  0
TEXT
  5
3BB
  8
_________2
 62
     7
 10
104.605
 20
11.6793
 30
0.0
 40
3.0923400000000001
  1
品番
 41
0.5
  0
TEXT
  5
3BC
  8
_________2
 62
     7
 10
104.605
 20
31.8184
 30
0.0
 40
3.0923400000000001
  1
名称
 41
0.5
  0
TEXT
  5
3BD
  8
_________2
 62
     7
 10
91.844758333333345
 20
26.822299999999998
 30
0.0
 40
3.6545800000000002
  1
mm
 41
0.5
 72
     1
 11
93.367500000000007
 21
26.822299999999998
 31
0.0
  0
TEXT
  5
3BE
  8
_________2
 62
     7
 10
85.642899999999983
 20
31.8184
 30
0.0
 40
3.0923400000000001
  1
単位
 41
0.5
  0
TEXT
  5
3BF
  8
_________2
 62
     7
 10
85.642899999999983
 20
19.410799999999998
 30
0.0
 40
3.0923400000000001
  1
尺度
 41
0.5
  0
TEXT
  5
3C0
  8
_________2
 62
     7
 10
90.548458666666676
 20
13.2182
 30
0.0
 40
3.6545800000000002
  1
1 ： 5
 41
0.5
 72
     1
 11
93.959400000000016
 21
13.2182
 31
0.0
  0
TEXT
  5
3C1
  8
_________2
 62
     7
 10
136.9905
 20
9.1082000000000001
 30
0.0
 40
3.9357000000000002
  1
ZU6224S
 41
0.5
 72
     1
 11
143.55000000000001
 21
9.1082000000000001
 31
0.0
  0
TEXT
  5
3C2
  8
_________2
 62
     7
 10
136.9905
 20
-0.8926299999999999
 30
0.0
 40
3.9357000000000002
  1
ZU6224S
 41
0.5
 72
     1
 11
143.55000000000001
 21
-0.8926299999999999
 31
0.0
  0
TEXT
  5
3C3
  8
_________2
 62
     7
 10
39.425000333333337
 20
13.603400000000001
 30
0.0
 40
3.6545800000000002
  1
早川
 41
0.5
 72
     1
 11
41.313200000000002
 21
13.603400000000001
 31
0.0
  0
TEXT
  5
3C4
  8
_________2
 62
     7
 10
20.851000333333339
 20
13.603400000000001
 30
0.0
 40
3.6545800000000002
  1
福田
 41
0.5
 72
     1
 11
22.7392
 21
13.603400000000001
 31
0.0
  0
TEXT
  5
3C5
  8
_________2
 62
     7
 10
67.785399999999996
 20
13.2182
 30
0.0
 40
3.6545800000000002
  1
15.12.21
 41
0.5
  0
TEXT
  5
3C6
  8
_________2
 62
     7
 10
66.592699999999994
 20
19.410799999999998
 30
0.0
 40
3.0923400000000001
  1
日付
 41
0.5
  0
TEXT
  5
3C7
  8
_________2
 62
     7
 10
29.638999999999999
 20
19.410799999999998
 30
0.0
 40
3.0923400000000001
  1
検図
 41
0.5
  0
TEXT
  5
3C8
  8
_________2
 62
     7
 10
18.020700000000001
 20
5.21143
 30
0.0
 40
3.0923400000000001
  1
備考
 41
0.5
  0
TEXT
  5
3C9
  8
_________2
 62
     7
 10
18.020700000000001
 20
19.410799999999998
 30
0.0
 40
3.0923400000000001
  1
製図
 41
0.5
  0
TEXT
  5
3CA
  8
_________2
 62
     7
 10
23.788165333333339
 20
27.936800000000002
 30
0.0
 40
4.4979399999999989
  1
セラトレーディング株式会社
 41
0.5
 72
     1
 11
41.180199999999999
 21
27.936800000000002
 31
0.0
  0
LINE
  5
3CB
  8
_________2
 62
     7
 10
183.55099999999999
 20
-4.0910799999999998
 30
0.0
 11
17.049199999999999
 21
-4.0910799999999998
 31
0.0
  0
LINE
  5
3CC
  8
_________2
 62
     7
 10
17.049199999999999
 20
-4.0910799999999998
 30
0.0
 11
17.049199999999999
 21
258.911
 31
0.0
  0
LINE
  5
3CD
  8
_________2
 62
     7
 10
17.049199999999999
 20
258.911
 30
0.0
 11
183.55099999999999
 21
258.911
 31
0.0
  0
LINE
  5
3CE
  8
_________2
 62
     7
 10
183.55099999999999
 20
258.911
 30
0.0
 11
183.55099999999999
 21
-4.0910799999999998
 31
0.0
  0
LINE
  5
3CF
  8
_________2
 62
     7
 10
65.549599999999998
 20
9.4092999999999982
 30
0.0
 11
65.549599999999998
 21
35.909100000000002
 31
0.0
  0
LINE
  5
3D0
  8
_________2
 62
     7
 10
84.549400000000006
 20
9.4092999999999982
 30
0.0
 11
84.549400000000006
 21
35.909100000000002
 31
0.0
  0
LINE
  5
3D1
  8
_________2
 62
     7
 10
103.55
 20
-4.0910799999999998
 30
0.0
 11
103.55
 21
35.909100000000002
 31
0.0
  0
LINE
  5
3D2
  8
_________2
 62
     7
 10
28.548999999999999
 20
9.4092999999999982
 30
0.0
 11
28.548999999999999
 21
23.409199999999998
 31
0.0
  0
LINE
  5
3D3
  8
_________2
 62
     7
 10
17.049199999999999
 20
9.4092999999999982
 30
0.0
 11
103.55
 21
9.4092999999999982
 31
0.0
  0
LINE
  5
3D4
  8
_________2
 62
     7
 10
17.049199999999999
 20
23.409199999999998
 30
0.0
 11
103.55
 21
23.409199999999998
 31
0.0
  0
LINE
  5
3D5
  8
_________2
 62
     7
 10
103.55
 20
15.9085
 30
0.0
 11
183.55099999999999
 21
15.9085
 31
0.0
  0
LINE
  5
3D6
  8
_________2
 62
     7
 10
17.049199999999999
 20
35.909100000000002
 30
0.0
 11
183.55099999999999
 21
35.909100000000002
 31
0.0
  0
ENDSEC
  0
EOF
