  0
SECTION
  2
HEADER
  9
$ACADVER
  1
AC1009
  9
$INSBASE
 10
0.0
 20
0.0
 30
0.0
  9
$EXTMIN
 10
-4.7012099999999988
 20
-21.070999999999991
 30
0.0
  9
$EXTMAX
 10
205.30099999999999
 20
275.93099999999993
 30
0.0
  9
$LIMMIN
 10
0.0
 20
0.0
  9
$LIMMAX
 10
12.0
 20
9.0
  9
$ORTHOMODE
 70
     0
  9
$REGENMODE
 70
     1
  9
$FILLMODE
 70
     1
  9
$QTEXTMODE
 70
     0
  9
$MIRRTEXT
 70
     1
  9
$DRAGMODE
 70
     2
  9
$LTSCALE
 40
1.0
  9
$OSMODE
 70
    37
  9
$ATTMODE
 70
     1
  9
$TEXTSIZE
 40
0.0
  9
$TRACEWID
 40
0.05
  9
$TEXTSTYLE
  7
STANDARD
  9
$CLAYER
  8
0
  9
$CELTYPE
  6
CONTINUOUS
  9
$CECOLOR
 62
   256
  9
$DIMSCALE
 40
1.0
  9
$DIMASZ
 40
0.18
  9
$DIMEXO
 40
0.0625
  9
$DIMDLI
 40
0.38
  9
$DIMRND
 40
0.0
  9
$DIMDLE
 40
0.0
  9
$DIMEXE
 40
0.18
  9
$DIMTP
 40
0.0
  9
$DIMTM
 40
0.0
  9
$DIMTXT
 40
0.18
  9
$DIMCEN
 40
0.09
  9
$DIMTSZ
 40
0.0
  9
$DIMTOL
 70
     0
  9
$DIMLIM
 70
     0
  9
$DIMTIH
 70
     1
  9
$DIMTOH
 70
     1
  9
$DIMSE1
 70
     0
  9
$DIMSE2
 70
     0
  9
$DIMTAD
 70
     0
  9
$DIMZIN
 70
     0
  9
$DIMBLK
  1

  9
$DIMASO
 70
     1
  9
$DIMSHO
 70
     1
  9
$DIMPOST
  1

  9
$DIMAPOST
  1

  9
$DIMALT
 70
     0
  9
$DIMALTD
 70
     2
  9
$DIMALTF
 40
25.399999999999999
  9
$DIMLFAC
 40
1.0
  9
$DIMTOFL
 70
     0
  9
$DIMTVP
 40
0.0
  9
$DIMTIX
 70
     0
  9
$DIMSOXD
 70
     0
  9
$DIMSAH
 70
     0
  9
$DIMBLK1
  1

  9
$DIMBLK2
  1

  9
$DIMSTYLE
  2
STANDARD
  9
$DIMCLRD
 70
     0
  9
$DIMCLRE
 70
     0
  9
$DIMCLRT
 70
     0
  9
$DIMTFAC
 40
1.0
  9
$DIMGAP
 40
0.09
  9
$LUNITS
 70
     2
  9
$LUPREC
 70
     4
  9
$SKETCHINC
 40
0.1
  9
$FILLETRAD
 40
0.0
  9
$AUNITS
 70
     0
  9
$AUPREC
 70
     0
  9
$MENU
  1
.
  9
$ELEVATION
 40
0.0
  9
$PELEVATION
 40
0.0
  9
$THICKNESS
 40
0.0
  9
$LIMCHECK
 70
     0
  9
$BLIPMODE
 70
     0
  9
$CHAMFERA
 40
0.0
  9
$CHAMFERB
 40
0.0
  9
$SKPOLY
 70
     0
  9
$TDCREATE
 40
2444972.375
  9
$TDUPDATE
 40
2456676.251059595
  9
$TDINDWG
 40
0.0000064236
  9
$TDUSRTIMER
 40
0.0000064236
  9
$USRTIMER
 70
     1
  9
$ANGBASE
 50
0.0
  9
$ANGDIR
 70
     0
  9
$PDMODE
 70
     0
  9
$PDSIZE
 40
0.0
  9
$PLINEWID
 40
0.0
  9
$COORDS
 70
     1
  9
$SPLFRAME
 70
     0
  9
$SPLINETYPE
 70
     6
  9
$SPLINESEGS
 70
     8
  9
$ATTDIA
 70
     0
  9
$ATTREQ
 70
     1
  9
$HANDLING
 70
     1
  9
$HANDSEED
  5
2AB
  9
$SURFTAB1
 70
     6
  9
$SURFTAB2
 70
     6
  9
$SURFTYPE
 70
     6
  9
$SURFU
 70
     6
  9
$SURFV
 70
     6
  9
$UCSNAME
  2

  9
$UCSORG
 10
0.0
 20
0.0
 30
0.0
  9
$UCSXDIR
 10
1.0
 20
0.0
 30
0.0
  9
$UCSYDIR
 10
0.0
 20
1.0
 30
0.0
  9
$PUCSNAME
  2

  9
$PUCSORG
 10
0.0
 20
0.0
 30
0.0
  9
$PUCSXDIR
 10
1.0
 20
0.0
 30
0.0
  9
$PUCSYDIR
 10
0.0
 20
1.0
 30
0.0
  9
$USERI1
 70
     0
  9
$USERI2
 70
     0
  9
$USERI3
 70
     0
  9
$USERI4
 70
     0
  9
$USERI5
 70
     0
  9
$USERR1
 40
0.0
  9
$USERR2
 40
0.0
  9
$USERR3
 40
0.0
  9
$USERR4
 40
0.0
  9
$USERR5
 40
0.0
  9
$WORLDVIEW
 70
     1
  9
$SHADEDGE
 70
     3
  9
$SHADEDIF
 70
    70
  9
$TILEMODE
 70
     1
  9
$MAXACTVP
 70
    48
  9
$PLIMCHECK
 70
     0
  9
$PEXTMIN
 10
1.0000000000000000E+020
 20
1.0000000000000000E+020
 30
1.0000000000000000E+020
  9
$PEXTMAX
 10
-1.0000000000000000E+020
 20
-1.0000000000000000E+020
 30
-1.0000000000000000E+020
  9
$PLIMMIN
 10
0.0
 20
0.0
  9
$PLIMMAX
 10
12.0
 20
9.0
  9
$UNITMODE
 70
     0
  9
$VISRETAIN
 70
     1
  9
$PLINEGEN
 70
     0
  9
$PSLTSCALE
 70
     1
  0
ENDSEC
  0
SECTION
  2
TABLES
  0
TABLE
  2
VPORT
 70
     2
  0
VPORT
  2
*ACTIVE
 70
     0
 10
0.0
 20
0.0
 11
1.0
 21
1.0
 12
202.006301769564
 22
127.42999999999989
 13
0.0
 23
0.0
 14
1.0
 24
1.0
 15
0.0
 25
0.0
 16
0.0
 26
0.0
 36
1.0
 17
0.0
 27
0.0
 37
0.0
 40
299.45318569463541
 41
2.2894736842105261
 42
50.0
 43
0.0
 44
0.0
 50
0.0
 51
0.0
 71
     0
 72
   100
 73
     1
 74
     1
 75
     0
 76
     0
 77
     0
 78
     0
  0
ENDTAB
  0
TABLE
  2
LTYPE
 70
     3
  0
LTYPE
  2
CONTINUOUS
 70
     0
  3
Solid line
 72
    65
 73
     0
 40
0.0
  0
LTYPE
  2
AIGENLINE001
 70
     0
  3
generate AI->DXF Converter
 72
    65
 73
     6
 40
7.4083750000000004
 49
3.5278
 49
-0.776115
 49
0.776115
 49
-0.776115
 49
0.776115
 49
-0.776115
  0
LTYPE
  2
AIGENLINE002
 70
     0
  3
generate AI->DXF Converter
 72
    65
 73
     4
 40
5.8561449999999988
 49
3.5278
 49
-0.776115
 49
0.776115
 49
-0.776115
  0
ENDTAB
  0
TABLE
  2
LAYER
 70
     3
  0
LAYER
  2
0
 70
     0
 62
     7
  6
CONTINUOUS
  0
LAYER
  2
_________4
 70
     0
 62
     7
  6
CONTINUOUS
  0
LAYER
  2
_________2
 70
     0
 62
     7
  6
CONTINUOUS
  0
ENDTAB
  0
TABLE
  2
STYLE
 70
     1
  0
STYLE
  2
STANDARD
 70
     0
 40
0.0
 41
0.0
 50
0.0
 71
     0
 42
0.0
  3
TXT
  4
EXTFONT.SHX
  0
ENDTAB
  0
TABLE
  2
VIEW
 70
     0
  0
ENDTAB
  0
TABLE
  2
UCS
 70
     0
  0
ENDTAB
  0
TABLE
  2
APPID
 70
     1
  0
APPID
  2
ACAD
 70
     0
  0
ENDTAB
  0
TABLE
  2
DIMSTYLE
 70
     1
  0
DIMSTYLE
  2
STANDARD
 70
     0
  3

  4

  5

  6

  7

 40
1.0
 41
0.18
 42
0.0625
 43
0.38
 44
0.18
 45
0.0
 46
0.0
 47
0.0
 48
0.0
140
0.18
141
0.09
142
0.0
143
25.399999999999999
144
1.0
145
0.0
146
1.0
147
0.09
 71
     0
 72
     0
 73
     1
 74
     1
 75
     0
 76
     0
 77
     0
 78
     0
170
     0
171
     2
172
     0
173
     0
174
     0
175
     0
176
     0
177
     0
178
     0
  0
ENDTAB
  0
ENDSEC
  0
SECTION
  2
BLOCKS
  0
BLOCK
  8
0
  2
$MODEL_SPACE
 70
     0
 10
0.0
 20
0.0
 30
0.0
  3
$MODEL_SPACE
  1

  0
ENDBLK
  5
1A
  8
0
  0
BLOCK
 67
     1
  8
0
  2
$PAPER_SPACE
 70
     0
 10
0.0
 20
0.0
 30
0.0
  3
$PAPER_SPACE
  1

  0
ENDBLK
  5
17
 67
     1
  8
0
  0
ENDSEC
  0
SECTION
  2
ENTITIES
  0
TEXT
  5
24
  8
0
 62
     7
 10
147.81587999999991
 20
246.12599999999989
 30
0.0
 40
3.0923400000000001
  1
%%c35
 41
0.5
 72
     2
 11
151.93899999999999
 21
246.12599999999989
 31
0.0
  0
TEXT
  5
25
  8
0
 62
     7
 10
77.324299999999994
 20
220.84099999999989
 30
0.0
 40
3.0923400000000001
  1
水
 41
0.5
  0
TEXT
  5
26
  8
0
 62
     7
 10
66.632535000000004
 20
209.85400000000001
 30
0.0
 40
3.0923400000000001
  1
45%%d
 41
0.5
 72
     1
 11
68.436400000000006
 21
209.85400000000001
 31
0.0
  0
TEXT
  5
27
  8
0
 62
     7
 10
46.881335
 20
209.85400000000001
 30
0.0
 40
3.0923400000000001
  1
45%%d
 41
0.5
 72
     1
 11
48.685200000000002
 21
209.85400000000001
 31
0.0
  0
TEXT
  5
28
  8
0
 62
     7
 10
38.97120799999999
 20
220.84099999999989
 30
0.0
 40
3.0923400000000001
  1
湯
 41
0.5
 72
     2
 11
40.414299999999997
 21
220.84099999999989
 31
0.0
  0
TEXT
  5
29
  8
0
 62
     7
 10
120.438986
 20
196.41
 30
0.0
 40
3.0923400000000001
  1
開
 41
0.5
 72
     2
 11
121.7789999999999
 21
196.41
 31
0.0
  0
TEXT
  5
2A
  8
0
 62
     7
 10
114.304986
 20
183.78200000000001
 30
0.0
 40
3.0923400000000001
  1
閉
 41
0.5
 72
     2
 11
115.6449999999999
 21
183.78200000000001
 31
0.0
  0
TEXT
  5
2B
  8
0
 62
     7
 10
134.72364599999989
 20
223.80699999999999
 30
0.0
 40
3.0923400000000001
  1
水栓取付穴
 41
0.5
 72
     1
 11
139.15600000000001
 21
223.80699999999999
 31
0.0
  0
TEXT
  5
2C
  8
0
 62
     7
 10
126.7349999999999
 20
50.195
 30
0.0
 40
3.865419999999999
  1
G 3/8
 41
0.5
  0
TEXT
  5
2D
  8
0
 62
     7
 10
126.5349999999999
 20
142.37214999999989
 30
0.0
 40
3.0923400000000001
  1
max.35
 50
90.0
 41
0.5
 72
     2
 11
126.5349999999999
 21
150.10299999999989
 31
0.0
  0
TEXT
  5
2E
  8
0
 62
     7
 10
106.0229649999999
 20
152.554
 30
0.0
 40
3.0923400000000001
  1
30%%d
 41
0.5
 72
     2
 11
109.37299999999991
 21
152.554
 31
0.0
  0
TEXT
  5
2F
  8
0
 62
     7
 10
137.09443999999999
 20
162.34
 30
0.0
 40
3.0923400000000001
  1
%%c54
 41
0.5
 72
     1
 11
139.15600000000001
 21
162.34
 31
0.0
  0
TEXT
  5
30
  8
0
 62
     7
 10
137.09443999999999
 20
195.7229999999999
 30
0.0
 40
3.0923400000000001
  1
%%c44
 41
0.5
 72
     1
 11
139.15600000000001
 21
195.7229999999999
 31
0.0
  0
TEXT
  5
31
  8
0
 62
     7
 10
123.50583
 20
157.06399999999999
 30
0.0
 40
3.0923400000000001
  1
115
 41
0.5
 72
     1
 11
125.05200000000001
 21
157.06399999999999
 31
0.0
  0
TEXT
  5
32
  8
0
 62
     7
 10
93.9375
 20
170.31813500000001
 30
0.0
 40
3.0923400000000001
  1
177
 50
90.0
 41
0.5
 72
     1
 11
93.9375
 21
172.12200000000001
 31
0.0
  0
TEXT
  5
33
  8
0
 62
     7
 10
116.565
 20
157.963525
 30
0.0
 40
3.0923400000000001
  1
55
 50
90.0
 41
0.5
 72
     1
 11
116.565
 21
159.25200000000001
 31
0.0
  0
TEXT
  5
34
  8
0
 62
     7
 10
99.725499999999997
 20
156.6133725
 30
0.0
 40
3.0923400000000001
  1
60
 50
90.0
 41
0.5
 72
     1
 11
99.725499999999997
 21
157.773
 31
0.0
  0
TEXT
  5
35
  8
0
 62
     7
 10
116.52799999999991
 20
102.50528749999989
 30
0.0
 40
3.0923400000000001
  1
370
 50
90.0
 41
0.5
 72
     1
 11
116.52799999999991
 21
104.4379999999999
 31
0.0
  0
TEXT
  5
36
  8
0
 62
     7
 10
160.42899999999989
 20
167.72813500000001
 30
0.0
 40
3.0923400000000001
  1
152
 50
90.0
 41
0.5
 72
     1
 11
160.42899999999989
 21
169.53200000000001
 31
0.0
  0
LINE
  5
37
  8
_________4
 62
     7
 10
53.895099999999999
 20
60.063200000000002
 30
0.0
 11
53.895099999999999
 21
57.4373
 31
0.0
  0
LINE
  5
38
  8
_________4
 62
     7
 10
55.270699999999998
 20
60.063200000000002
 30
0.0
 11
55.270699999999998
 21
57.4373
 31
0.0
  0
ARC
  5
39
  8
_________4
 62
     7
 10
57.260249000000002
 20
65.254649999999998
 30
0.0
 40
8.5108619999999995
 50
246.70920499999991
 51
248.35700399999999
  0
ARC
  5
3A
  8
_________4
 62
     7
 10
54.809016
 20
59.111169999999987
 30
0.0
 40
1.896471
 50
248.73670000000001
 51
258.21222899999998
  0
ARC
  5
3B
  8
_________4
 62
     7
 10
54.602957999999987
 20
58.202105000000003
 30
0.0
 40
0.9646139999999999
 50
259.16278199999988
 51
269.53432299999992
  0
ARC
  5
3C
  8
_________4
 62
     7
 10
54.59498
 20
58.143493999999997
 30
0.0
 40
0.9059709999999999
 50
270.00869599999987
 51
282.46940199999989
  0
ARC
  5
3D
  8
_________4
 62
     7
 10
54.472067000000003
 20
58.768690999999997
 30
0.0
 40
1.543032
 50
281.91324900000001
 51
292.81865800000003
  0
ARC
  5
3E
  8
_________4
 62
     7
 10
54.011695999999993
 20
59.944059000000003
 30
0.0
 40
2.805127999999999
 50
292.17554799999988
 51
296.66826700000001
  0
ARC
  5
3F
  8
_________4
 62
     7
 10
54.515799000000001
 20
58.947949999999999
 30
0.0
 40
1.346730999999999
 50
55.906326
 51
82.633775
  0
ARC
  5
40
  8
_________4
 62
     7
 10
54.594012999999997
 20
59.385486
 30
0.0
 40
0.9030329999999999
 50
83.996275999999995
 51
89.929920999999993
  0
ARC
  5
41
  8
_________4
 62
     7
 10
54.595911000000001
 20
59.369735999999989
 30
0.0
 40
0.9187829999999999
 50
90.049436999999983
 51
102.1910169999999
  0
ARC
  5
42
  8
_________4
 62
     7
 10
54.686060999999988
 20
58.903851000000003
 30
0.0
 40
1.3932370000000001
 50
101.76890400000001
 51
113.179952
  0
ARC
  5
43
  8
_________4
 62
     7
 10
54.913193999999997
 20
58.331957999999993
 30
0.0
 40
2.0084330000000001
 50
112.7146179999999
 51
120.459186
  0
LINE
  5
44
  8
_________4
 62
     7
 10
59.395499999999998
 20
60.063200000000002
 30
0.0
 11
59.395499999999998
 21
57.4373
 31
0.0
  0
LINE
  5
45
  8
_________4
 62
     7
 10
58.02089999999999
 20
60.063200000000002
 30
0.0
 11
58.02089999999999
 21
57.4373
 31
0.0
  0
ARC
  5
46
  8
_________4
 62
     7
 10
61.410637999999999
 20
65.318494999999984
 30
0.0
 40
8.5791979999999999
 50
246.72740999999999
 51
248.32287899999989
  0
ARC
  5
47
  8
_________4
 62
     7
 10
58.977548999999989
 20
59.223229000000011
 30
0.0
 40
2.0162869999999988
 50
248.59500800000001
 51
257.763261
  0
ARC
  5
48
  8
_________4
 62
     7
 10
58.706322
 20
58.041882999999991
 30
0.0
 40
0.8044279999999998
 50
258.808606
 51
269.25343700000002
  0
ARC
  5
49
  8
_________4
 62
     7
 10
58.695032999999988
 20
58.143075000000003
 30
0.0
 40
0.9055530000000001
 50
270.05111199999988
 51
282.20139799999993
  0
ARC
  5
4A
  8
_________4
 62
     7
 10
58.595511000000002
 20
58.678275999999997
 30
0.0
 40
1.449784
 50
281.57539500000001
 51
287.06493299999988
  0
ARC
  5
4B
  8
_________4
 62
     7
 10
58.347278000000003
 20
59.483618
 30
0.0
 40
2.2925149999999999
 50
287.089226
 51
291.46309600000001
  0
ARC
  5
4C
  8
_________4
 62
     7
 10
56.874769000000001
 20
63.192551999999999
 30
0.0
 40
6.2830550000000001
 50
291.584293
 51
293.6533609999999
  0
ARC
  5
4D
  8
_________4
 62
     7
 10
58.393141999999997
 20
58.349342000000007
 30
0.0
 40
1.9854839999999989
 50
59.677581000000011
 51
72.112421999999995
  0
ARC
  5
4E
  8
_________4
 62
     7
 10
58.671241000000002
 20
59.161904999999997
 30
0.0
 40
1.1268819999999991
 50
72.879016000000007
 51
88.749108000000007
  0
ARC
  5
4F
  8
_________4
 62
     7
 10
58.696567000000002
 20
59.520156000000007
 30
0.0
 40
0.768363
 50
90.054157999999987
 51
103.845017
  0
ARC
  5
50
  8
_________4
 62
     7
 10
58.839493999999988
 20
58.84496
 30
0.0
 40
1.458323
 50
102.94928400000001
 51
114.1689409999999
  0
ARC
  5
51
  8
_________4
 62
     7
 10
59.085467999999999
 20
58.237320999999987
 30
0.0
 40
2.113545999999999
 50
113.508207
 51
120.242947
  0
ARC
  5
52
  8
_________4
 62
     7
 10
53.952658999999997
 20
50.841681000000001
 30
0.0
 40
6.7260660000000003
 50
76.798683999999994
 51
78.699123999999998
  0
ARC
  5
53
  8
_________4
 62
     7
 10
56.959124000000003
 20
62.96153799999999
 30
0.0
 40
5.7623030000000002
 50
255.21587700000001
 51
261.42086899999993
  0
ARC
  5
54
  8
_________4
 62
     7
 10
56.445818999999993
 20
59.528376999999992
 30
0.0
 40
2.290988
 50
261.30629199999993
 51
269.38004399999988
  0
LINE
  5
55
  8
_________4
 62
     7
 10
56.421000000000006
 20
57.23749999999999
 30
0.0
 11
56.8703
 21
57.23749999999999
 31
0.0
  0
ARC
  5
56
  8
_________4
 62
     7
 10
56.869952000000012
 20
59.198349
 30
0.0
 40
1.9608259999999991
 50
270.00938500000001
 51
278.46042699999992
  0
ARC
  5
57
  8
_________4
 62
     7
 10
56.655869999999993
 20
60.854180999999997
 30
0.0
 40
3.6302759999999998
 50
277.9575319999999
 51
281.44536299999999
  0
ARC
  5
58
  8
_________4
 62
     7
 10
55.243840000000013
 20
67.714803000000003
 30
0.0
 40
10.634688000000001
 50
281.56698799999992
 51
283.46249799999998
  0
ARC
  5
59
  8
_________4
 62
     7
 10
59.138654000000002
 20
51.527440999999989
 30
0.0
 40
6.0146639999999989
 50
100.709577
 51
103.645709
  0
ARC
  5
5A
  8
_________4
 62
     7
 10
56.780988000000001
 20
56.408771999999999
 30
0.0
 40
3.8590659999999999
 50
71.257854000000009
 51
77.192154000000002
  0
ARC
  5
5B
  8
_________4
 62
     7
 10
56.540233999999991
 20
55.544510000000002
 30
0.0
 40
4.7553910000000004
 50
76.671986000000004
 51
85.669133000000016
  0
ARC
  5
5C
  8
_________4
 62
     7
 10
56.752720999999987
 20
58.003129000000001
 30
0.0
 40
2.287895999999999
 50
86.325652000000005
 51
92.682303000000019
  0
ARC
  5
5D
  8
_________4
 62
     7
 10
56.562393999999998
 20
58.87269100000001
 30
0.0
 40
1.418274
 50
86.634596999999999
 51
91.039574000000002
  0
ARC
  5
5E
  8
_________4
 62
     7
 10
56.576056000000008
 20
57.715823
 30
0.0
 40
2.5752090000000001
 50
90.876494999999991
 51
94.814526000000001
  0
ARC
  5
5F
  8
_________4
 62
     7
 10
56.773772999999991
 20
55.399892000000001
 30
0.0
 40
4.8995639999999989
 50
94.845420000000004
 51
107.86502
  0
LINE
  5
60
  8
_________4
 62
     7
 10
55.395400000000002
 20
60.464199999999998
 30
0.0
 11
56.645699999999998
 21
60.464199999999998
 31
0.0
  0
LINE
  5
61
  8
_________4
 62
     7
 10
57.895499999999998
 20
60.464199999999998
 30
0.0
 11
56.645699999999998
 21
60.464199999999998
 31
0.0
  0
LINE
  5
62
  8
_________4
 62
     7
 10
58.946300000000001
 20
57.187899999999999
 30
0.0
 11
56.645699999999998
 21
57.187899999999999
 31
0.0
  0
LINE
  5
63
  8
_________4
 62
     7
 10
56.645699999999998
 20
57.187899999999999
 30
0.0
 11
54.344999999999992
 21
57.187899999999999
 31
0.0
  0
LINE
  5
64
  8
_________4
 62
     7
 10
54.044899999999998
 20
57.387700000000002
 30
0.0
 11
54.344999999999992
 21
57.212699999999998
 31
0.0
  0
LINE
  5
65
  8
_________4
 62
     7
 10
54.344999999999992
 20
57.212699999999998
 30
0.0
 11
54.344999999999992
 21
57.187899999999999
 31
0.0
  0
LINE
  5
66
  8
_________4
 62
     7
 10
53.895099999999999
 20
57.4373
 30
0.0
 11
54.344999999999992
 21
57.212699999999998
 31
0.0
  0
LINE
  5
67
  8
_________4
 62
     7
 10
59.395499999999998
 20
57.4373
 30
0.0
 11
58.946300000000001
 21
57.187899999999999
 31
0.0
  0
LINE
  5
68
  8
_________4
 62
     7
 10
58.946300000000001
 20
60.313299999999998
 30
0.0
 11
54.344999999999992
 21
60.313299999999998
 31
0.0
  0
LINE
  5
69
  8
_________4
 62
     7
 10
58.196000000000012
 20
60.438000000000002
 30
0.0
 11
55.095300000000002
 21
60.438000000000002
 31
0.0
  0
ARC
  5
6A
  8
_________4
 62
     7
 10
55.647016999999998
 20
61.134818000000003
 30
0.0
 40
0.7162430000000001
 50
213.46767299999991
 51
249.434697
  0
ARC
  5
6B
  8
_________4
 62
     7
 10
55.477598
 20
60.997172999999997
 30
0.0
 40
0.499466
 50
198.54002199999999
 51
211.01267599999991
  0
LINE
  5
6C
  8
_________4
 62
     7
 10
55.004100000000001
 20
60.8384
 30
0.0
 11
54.970599999999997
 21
60.938299999999998
 31
0.0
  0
LINE
  5
6D
  8
_________4
 62
     7
 10
54.970599999999997
 20
60.938299999999998
 30
0.0
 11
54.970599999999997
 21
61.088500000000003
 31
0.0
  0
LINE
  5
6E
  8
_________4
 62
     7
 10
54.970599999999997
 20
61.088500000000003
 30
0.0
 11
55.020200000000003
 21
61.263500000000001
 31
0.0
  0
LINE
  5
6F
  8
_________4
 62
     7
 10
58.295900000000003
 20
61.263500000000001
 30
0.0
 11
58.271099999999997
 21
61.263500000000001
 31
0.0
  0
ARC
  5
70
  8
_________4
 62
     7
 10
-48.892473000000003
 20
45.982174999999991
 30
0.0
 40
108.272147
 50
8.0201609999999999
 51
8.1136999999999997
  0
LINE
  5
71
  8
_________4
 62
     7
 10
58.320700000000002
 20
61.088500000000003
 30
0.0
 11
58.320700000000002
 21
60.938299999999998
 31
0.0
  0
LINE
  5
72
  8
_________4
 62
     7
 10
58.320700000000002
 20
60.938299999999998
 30
0.0
 11
58.288299999999992
 21
60.8384
 31
0.0
  0
ARC
  5
73
  8
_________4
 62
     7
 10
57.219214999999998
 20
61.196257999999993
 30
0.0
 40
1.1273859999999989
 50
336.71280400000001
 51
341.49066599999998
  0
ARC
  5
74
  8
_________4
 62
     7
 10
57.816907999999991
 20
60.937950999999998
 30
0.0
 40
0.476266
 50
317.684552
 51
336.82979499999999
  0
ARC
  5
75
  8
_________4
 62
     7
 10
57.885731999999997
 20
60.894078
 30
0.0
 40
0.396082
 50
305.29823599999992
 51
315.67459700000001
  0
ARC
  5
76
  8
_________4
 62
     7
 10
57.693382999999997
 20
61.171579999999999
 30
0.0
 40
0.73372
 50
297.609959
 51
305.03562699999992
  0
ARC
  5
77
  8
_________4
 62
     7
 10
55.938425000000002
 20
64.523116999999999
 30
0.0
 40
4.5169300000000003
 50
296.02581499999991
 51
297.63329199999993
  0
LINE
  5
78
  8
_________4
 62
     7
 10
57.920299999999997
 20
60.464199999999998
 30
0.0
 11
57.895499999999998
 21
60.464199999999998
 31
0.0
  0
LINE
  5
79
  8
_________4
 62
     7
 10
58.095700000000001
 20
61.688600000000001
 30
0.0
 11
55.220100000000002
 21
61.688600000000001
 31
0.0
  0
LINE
  5
7A
  8
_________4
 62
     7
 10
58.095700000000001
 20
63.688800000000001
 30
0.0
 11
56.645699999999998
 21
63.688800000000001
 31
0.0
  0
LINE
  5
7B
  8
_________4
 62
     7
 10
56.645699999999998
 20
63.688800000000001
 30
0.0
 11
55.220100000000002
 21
63.688800000000001
 31
0.0
  0
LINE
  5
7C
  8
_________4
 62
     7
 10
54.970599999999997
 20
64.238699999999994
 30
0.0
 11
54.970599999999997
 21
64.11399999999999
 31
0.0
  0
LINE
  5
7D
  8
_________4
 62
     7
 10
54.970599999999997
 20
64.11399999999999
 30
0.0
 11
55.045400000000001
 21
63.988599999999991
 31
0.0
  0
LINE
  5
7E
  8
_________4
 62
     7
 10
58.34579999999999
 20
64.238699999999994
 30
0.0
 11
58.320700000000002
 21
64.11399999999999
 31
0.0
  0
LINE
  5
7F
  8
_________4
 62
     7
 10
58.320700000000002
 20
64.11399999999999
 30
0.0
 11
58.271099999999997
 21
63.988599999999991
 31
0.0
  0
LINE
  5
80
  8
_________4
 62
     7
 10
58.34579999999999
 20
64.939400000000006
 30
0.0
 11
54.970599999999997
 21
64.939400000000006
 31
0.0
  0
LINE
  5
81
  8
_________4
 62
     7
 10
58.34579999999999
 20
64.939400000000006
 30
0.0
 11
58.34579999999999
 21
64.238699999999994
 31
0.0
  0
LINE
  5
82
  8
_________4
 62
     7
 10
54.970599999999997
 20
64.939400000000006
 30
0.0
 11
54.970599999999997
 21
64.238699999999994
 31
0.0
  0
LINE
  5
83
  8
_________4
 62
     7
 10
54.344999999999992
 20
60.313299999999998
 30
0.0
 11
53.895099999999999
 21
60.063200000000002
 31
0.0
  0
LINE
  5
84
  8
_________4
 62
     7
 10
58.946300000000001
 20
60.313299999999998
 30
0.0
 11
59.395499999999998
 21
60.063200000000002
 31
0.0
  0
LINE
  5
85
  8
_________4
 62
     7
 10
58.271099999999997
 20
63.988599999999991
 30
0.0
 11
58.095700000000001
 21
63.688800000000001
 31
0.0
  0
LINE
  5
86
  8
_________4
 62
     7
 10
58.095700000000001
 20
61.688600000000001
 30
0.0
 11
58.271099999999997
 21
61.263500000000001
 31
0.0
  0
LINE
  5
87
  8
_________4
 62
     7
 10
55.045400000000001
 20
63.988599999999991
 30
0.0
 11
55.220100000000002
 21
63.688800000000001
 31
0.0
  0
LINE
  5
88
  8
_________4
 62
     7
 10
55.220100000000002
 20
61.688600000000001
 30
0.0
 11
55.020200000000003
 21
61.263500000000001
 31
0.0
  0
LINE
  5
89
  8
_________4
 62
     7
 10
58.095700000000001
 20
63.688800000000001
 30
0.0
 11
58.095700000000001
 21
61.688600000000001
 31
0.0
  0
LINE
  5
8A
  8
_________4
 62
     7
 10
55.220100000000002
 20
63.688800000000001
 30
0.0
 11
55.220100000000002
 21
61.688600000000001
 31
0.0
  0
LINE
  5
8B
  8
_________4
 62
     7
 10
58.196000000000012
 20
60.438000000000002
 30
0.0
 11
58.196000000000012
 21
60.313299999999998
 31
0.0
  0
LINE
  5
8C
  8
_________4
 62
     7
 10
55.095300000000002
 20
60.438000000000002
 30
0.0
 11
55.095300000000002
 21
60.313299999999998
 31
0.0
  0
LINE
  5
8D
  8
_________4
 62
     7
 10
59.395499999999998
 20
57.4373
 30
0.0
 11
58.946300000000001
 21
57.187899999999999
 31
0.0
  0
LINE
  5
8E
  8
_________4
 62
     7
 10
53.895099999999999
 20
57.4373
 30
0.0
 11
54.344999999999992
 21
57.187899999999999
 31
0.0
  0
ARC
  5
8F
  8
0
 62
     7
 10
59.070584999999987
 20
238.26778999999999
 30
0.0
 40
6.9231410000000002
 50
180.949791
 51
247.30534700000001
  0
ARC
  5
90
  8
0
 62
     7
 10
58.898415
 20
238.15303199999991
 30
0.0
 40
6.7500189999999991
 50
90.0
 51
179.99996999999991
  0
ARC
  5
91
  8
0
 62
     7
 10
58.898412999999998
 20
238.15303199999991
 30
0.0
 40
6.7500189999999991
 50
0.00001
 51
89.999980000000008
  0
ARC
  5
92
  8
0
 62
     7
 10
58.725442000000001
 20
238.268271
 30
0.0
 40
6.9239490000000004
 50
292.71141499999987
 51
359.04635599999989
  0
ARC
  5
93
  8
0
 62
     7
 10
59.025717000000007
 20
238.4602999999999
 30
0.0
 40
25.771304999999991
 50
225.280765
 51
269.71660099999991
  0
ARC
  5
94
  8
0
 62
     7
 10
58.773530999999998
 20
238.45406399999999
 30
0.0
 40
25.765056000000001
 50
270.27733899999998
 51
314.72220699999991
  0
LINE
  5
95
  8
0
 62
     7
 10
55.336199999999991
 20
64.939400000000006
 30
0.0
 11
55.336199999999991
 21
140.0629999999999
 31
0.0
  0
LINE
  5
96
  8
0
 62
     7
 10
57.960999999999999
 20
64.939400000000006
 30
0.0
 11
57.960999999999999
 21
133.4379999999999
 31
0.0
  0
LINE
  5
97
  8
0
 62
     7
 10
137.40600000000001
 20
139.6879999999999
 30
0.0
 11
137.90600000000001
 21
140.3249999999999
 31
0.0
  0
LINE
  5
98
  8
0
 62
     7
 10
133.40600000000001
 20
141.9379999999999
 30
0.0
 11
133.40600000000001
 21
140.0629999999999
 31
0.0
  0
LINE
  5
99
  8
0
 62
     7
 10
133.40600000000001
 20
140.0629999999999
 30
0.0
 11
144.15600000000001
 21
140.6879999999999
 31
0.0
  0
LINE
  5
9A
  8
0
 62
     7
 10
135.65599999999989
 20
133.93799999999999
 30
0.0
 11
136.15600000000001
 21
133.93799999999999
 31
0.0
  0
LINE
  5
9B
  8
0
 62
     7
 10
135.15600000000001
 20
133.4379999999999
 30
0.0
 11
135.15600000000001
 21
136.1879999999999
 31
0.0
  0
LINE
  5
9C
  8
0
 62
     7
 10
136.65599999999989
 20
133.4379999999999
 30
0.0
 11
136.65599999999989
 21
136.1879999999999
 31
0.0
  0
LINE
  5
9D
  8
0
 62
     7
 10
135.65599999999989
 20
133.4379999999999
 30
0.0
 11
135.65599999999989
 21
133.93799999999999
 31
0.0
  0
LINE
  5
9E
  8
0
 62
     7
 10
136.15600000000001
 20
133.4379999999999
 30
0.0
 11
136.15600000000001
 21
133.93799999999999
 31
0.0
  0
LINE
  5
9F
  8
0
 62
     7
 10
137.53100000000001
 20
133.4379999999999
 30
0.0
 11
137.53100000000001
 21
136.1879999999999
 31
0.0
  0
LINE
  5
A0
  8
0
 62
     7
 10
134.28100000000001
 20
133.4379999999999
 30
0.0
 11
134.28100000000001
 21
136.1879999999999
 31
0.0
  0
LINE
  5
A1
  8
0
 62
     7
 10
136.15600000000001
 20
133.4379999999999
 30
0.0
 11
137.53100000000001
 21
133.4379999999999
 31
0.0
  0
LINE
  5
A2
  8
0
 62
     7
 10
134.28100000000001
 20
133.4379999999999
 30
0.0
 11
135.65599999999989
 21
133.4379999999999
 31
0.0
  0
LINE
  5
A3
  8
0
 62
     7
 10
134.28100000000001
 20
136.1879999999999
 30
0.0
 11
137.53100000000001
 21
136.1879999999999
 31
0.0
  0
LINE
  5
A4
  8
0
 62
     7
 10
133.65600000000001
 20
139.6879999999999
 30
0.0
 11
133.40600000000001
 21
140.0629999999999
 31
0.0
  0
LINE
  5
A5
  8
0
 62
     7
 10
137.40600000000001
 20
139.6879999999999
 30
0.0
 11
137.40600000000001
 21
136.1879999999999
 31
0.0
  0
LINE
  5
A6
  8
0
 62
     7
 10
134.40600000000001
 20
139.6879999999999
 30
0.0
 11
134.40600000000001
 21
136.1879999999999
 31
0.0
  0
LINE
  5
A7
  8
0
 62
     7
 10
137.40600000000001
 20
139.6879999999999
 30
0.0
 11
133.65600000000001
 21
139.6879999999999
 31
0.0
  0
LINE
  5
A8
  8
0
 62
     7
 10
136.78100000000001
 20
150.6879999999999
 30
0.0
 11
136.78100000000001
 21
141.9379999999999
 31
0.0
  0
LINE
  5
A9
  8
0
 62
     7
 10
135.03100000000001
 20
150.6879999999999
 30
0.0
 11
135.03100000000001
 21
141.9379999999999
 31
0.0
  0
LINE
  5
AA
  8
0
 62
     7
 10
133.40600000000001
 20
141.43899999999999
 30
0.0
 11
144.15600000000001
 21
141.43899999999999
 31
0.0
  0
LINE
  5
AB
  8
0
 62
     7
 10
133.40600000000001
 20
141.9379999999999
 30
0.0
 11
144.15600000000001
 21
141.9379999999999
 31
0.0
  0
LINE
  5
AC
  8
0
  6
AIGENLINE002
 62
     7
 10
135.90600000000001
 20
153.679
 30
0.0
 11
135.90600000000001
 21
131.86000000000001
 31
0.0
  0
LINE
  5
AD
  8
0
 62
     7
 10
144.15600000000001
 20
141.9379999999999
 30
0.0
 11
144.15600000000001
 21
140.6879999999999
 31
0.0
  0
LINE
  5
AE
  8
0
 62
     7
 10
140.4679999999999
 20
64.939400000000006
 30
0.0
 11
140.4679999999999
 21
140.48500000000001
 31
0.0
  0
LINE
  5
AF
  8
0
 62
     7
 10
140.4679999999999
 20
141.9379999999999
 30
0.0
 11
140.4679999999999
 21
150.6879999999999
 31
0.0
  0
LINE
  5
B0
  8
0
 62
     7
 10
137.8429999999999
 20
150.6879999999999
 30
0.0
 11
137.8429999999999
 21
141.9379999999999
 31
0.0
  0
LINE
  5
B1
  8
0
 62
     7
 10
137.8429999999999
 20
140.24499999999989
 30
0.0
 11
137.8429999999999
 21
64.939400000000006
 31
0.0
  0
LINE
  5
B2
  8
0
  6
AIGENLINE002
 62
     7
 10
67.696200000000005
 20
238.15299999999999
 30
0.0
 11
50.38859999999999
 21
238.15299999999999
 31
0.0
  0
LINE
  5
B3
  8
0
  6
AIGENLINE002
 62
     7
 10
40.480299999999993
 20
219.73500000000001
 30
0.0
 11
42.223700000000001
 21
221.47799999999989
 31
0.0
  0
LINE
  5
B4
  8
0
  6
AIGENLINE002
 62
     7
 10
42.658099999999997
 20
221.9129999999999
 30
0.0
 11
58.898200000000003
 21
238.15299999999999
 31
0.0
  0
LINE
  5
B5
  8
0
  6
AIGENLINE001
 62
     7
 10
50.901400000000002
 20
232.45400000000001
 30
0.0
 11
42.19319999999999
 21
223.74600000000001
 31
0.0
  0
LINE
  5
B6
  8
0
  6
AIGENLINE001
 62
     7
 10
53.199300000000001
 20
230.15599999999989
 30
0.0
 11
44.491500000000002
 21
221.44800000000001
 31
0.0
  0
LINE
  5
B7
  8
0
  6
AIGENLINE001
 62
     7
 10
42.19319999999999
 20
223.74600000000001
 30
0.0
 11
44.491500000000002
 21
221.44800000000001
 31
0.0
  0
LINE
  5
B8
  8
0
 62
     7
 10
56.701300000000003
 20
213.33500000000001
 30
0.0
 11
58.898200000000003
 21
212.68899999999999
 31
0.0
  0
LINE
  5
B9
  8
0
 62
     7
 10
58.898200000000003
 20
212.68899999999999
 30
0.0
 11
56.673000000000002
 21
212.15000000000001
 31
0.0
  0
LINE
  5
BA
  8
0
 62
     7
 10
56.673000000000002
 20
212.15000000000001
 30
0.0
 11
56.701300000000003
 21
213.33500000000001
 31
0.0
  0
LINE
  5
BB
  8
0
 62
     7
 10
42.160999999999987
 20
218.2409999999999
 30
0.0
 11
40.892899999999997
 21
220.14699999999999
 31
0.0
  0
LINE
  5
BC
  8
0
 62
     7
 10
40.892899999999997
 20
220.14699999999999
 30
0.0
 11
42.944099999999999
 21
219.13
 31
0.0
  0
LINE
  5
BD
  8
0
 62
     7
 10
42.944099999999999
 20
219.13
 30
0.0
 11
42.160999999999987
 21
218.2409999999999
 31
0.0
  0
LINE
  5
BE
  8
0
  6
AIGENLINE002
 62
     7
 10
77.316199999999995
 20
219.73500000000001
 30
0.0
 11
75.572800000000001
 21
221.47799999999989
 31
0.0
  0
LINE
  5
BF
  8
0
  6
AIGENLINE002
 62
     7
 10
75.138400000000004
 20
221.9129999999999
 30
0.0
 11
58.898200000000003
 21
238.15299999999999
 31
0.0
  0
LINE
  5
C0
  8
0
  6
AIGENLINE001
 62
     7
 10
66.894999999999996
 20
232.45400000000001
 30
0.0
 11
75.603300000000004
 21
223.74600000000001
 31
0.0
  0
LINE
  5
C1
  8
0
  6
AIGENLINE001
 62
     7
 10
64.597200000000001
 20
230.15599999999989
 30
0.0
 11
73.305000000000007
 21
221.44800000000001
 31
0.0
  0
LINE
  5
C2
  8
0
  6
AIGENLINE001
 62
     7
 10
75.603300000000004
 20
223.74600000000001
 30
0.0
 11
73.305000000000007
 21
221.44800000000001
 31
0.0
  0
LINE
  5
C3
  8
0
  6
AIGENLINE002
 62
     7
 10
58.898400000000002
 20
205.48199999999991
 30
0.0
 11
58.898400000000002
 21
246.78200000000001
 31
0.0
  0
LINE
  5
C4
  8
0
 62
     7
 10
60.523099999999999
 20
229.40299999999991
 30
0.0
 11
61.398499999999999
 21
229.40299999999991
 31
0.0
  0
LINE
  5
C5
  8
0
 62
     7
 10
56.3979
 20
229.40299999999991
 30
0.0
 11
57.273400000000002
 21
229.40299999999991
 31
0.0
  0
LINE
  5
C6
  8
0
 62
     7
 10
61.398200000000003
 20
232.4079999999999
 30
0.0
 11
61.398200000000003
 21
209.4019999999999
 31
0.0
  0
ARC
  5
C7
  8
0
 62
     7
 10
62.925386000000003
 20
232.39405799999989
 30
0.0
 40
1.5272619999999999
 50
125.382615
 51
179.46570399999999
  0
LINE
  5
C8
  8
0
 62
     7
 10
56.398299999999992
 20
232.4079999999999
 30
0.0
 11
56.398299999999992
 21
209.4019999999999
 31
0.0
  0
ARC
  5
C9
  8
0
 62
     7
 10
54.871920000000003
 20
232.39473599999999
 30
0.0
 40
1.5264319999999989
 50
0.509144
 51
54.617295999999989
  0
ARC
  5
CA
  8
0
 62
     7
 10
58.359819999999992
 20
209.410505
 30
0.0
 40
1.9615439999999991
 50
180.233971
 51
221.68746899999999
  0
ARC
  5
CB
  8
0
 62
     7
 10
58.741411999999997
 20
209.70935399999991
 30
0.0
 40
2.4454569999999989
 50
220.9702969999999
 51
253.30226499999989
  0
ARC
  5
CC
  8
0
 62
     7
 10
58.889668000000007
 20
210.05397599999989
 30
0.0
 40
2.818473
 50
252.42836800000001
 51
270.17780299999993
  0
ARC
  5
CD
  8
0
 62
     7
 10
58.892263
 20
210.04770099999999
 30
0.0
 40
2.812190999999999
 50
270.1253220000001
 51
306.29297800000001
  0
ARC
  5
CE
  8
0
 62
     7
 10
59.176622999999992
 20
209.57550599999999
 30
0.0
 40
2.2638439999999989
 50
307.566259
 51
336.76352200000002
  0
ARC
  5
CF
  8
0
 62
     7
 10
59.475192000000007
 20
209.406023
 30
0.0
 40
1.9230020000000001
 50
337.89405599999998
 51
359.89488799999998
  0
LINE
  5
D0
  8
0
 62
     7
 10
57.273699999999998
 20
231.15299999999991
 30
0.0
 11
60.523099999999999
 21
231.15299999999991
 31
0.0
  0
LINE
  5
D1
  8
0
 62
     7
 10
60.523099999999999
 20
232.37200000000001
 30
0.0
 11
60.523099999999999
 21
216.15299999999991
 31
0.0
  0
ARC
  5
D2
  8
0
 62
     7
 10
61.291674999999998
 20
232.35907
 30
0.0
 40
0.768649
 50
113.2527
 51
179.05242999999999
  0
LINE
  5
D3
  8
0
 62
     7
 10
57.273400000000002
 20
232.37200000000001
 30
0.0
 11
57.273400000000002
 21
216.15299999999991
 31
0.0
  0
ARC
  5
D4
  8
0
 62
     7
 10
56.505290000000002
 20
232.35939300000001
 30
0.0
 40
0.7681620000000001
 50
0.9240389999999997
 51
66.770792
  0
ARC
  5
D5
  8
0
 62
     7
 10
58.898412999999998
 20
238.15303199999991
 30
0.0
 40
5.4997860000000003
 50
0.00001
 51
89.999980000000008
  0
ARC
  5
D6
  8
0
 62
     7
 10
58.898242000000003
 20
238.15286
 30
0.0
 40
5.4999580000000003
 50
89.998206000000025
 51
179.998176
  0
ARC
  5
D7
  8
0
 62
     7
 10
58.898412999999998
 20
238.15303199999991
 30
0.0
 40
5.5001290000000003
 50
179.99996999999991
 51
270.00002000000001
  0
ARC
  5
D8
  8
0
 62
     7
 10
58.898241000000013
 20
238.15286099999989
 30
0.0
 40
5.4999580000000003
 50
270.00181400000002
 51
0.001785
  0
LINE
  5
D9
  8
0
 62
     7
 10
60.523099999999999
 20
216.15299999999991
 30
0.0
 11
57.273400000000002
 21
216.15299999999991
 31
0.0
  0
LINE
  5
DA
  8
0
 62
     7
 10
62.460700000000003
 20
64.939400000000006
 30
0.0
 11
62.460700000000003
 21
140.0629999999999
 31
0.0
  0
LINE
  5
DB
  8
0
 62
     7
 10
59.835799999999992
 20
64.939400000000006
 30
0.0
 11
59.835799999999992
 21
133.4379999999999
 31
0.0
  0
LINE
  5
DC
  8
0
 62
     7
 10
62.460700000000003
 20
141.9379999999999
 30
0.0
 11
62.460700000000003
 21
150.68899999999999
 31
0.0
  0
LINE
  5
DD
  8
0
 62
     7
 10
59.835799999999992
 20
141.9379999999999
 30
0.0
 11
59.835799999999992
 21
150.68899999999999
 31
0.0
  0
LINE
  5
DE
  8
0
  6
AIGENLINE002
 62
     7
 10
56.648400000000002
 20
55.204599999999992
 30
0.0
 11
56.648400000000002
 21
153.22300000000001
 31
0.0
  0
LINE
  5
DF
  8
0
  6
AIGENLINE002
 62
     7
 10
61.148400000000002
 20
55.204599999999992
 30
0.0
 11
61.148400000000002
 21
153.22300000000001
 31
0.0
  0
LINE
  5
E0
  8
0
 62
     7
 10
63.901800000000001
 20
60.063200000000002
 30
0.0
 11
63.901800000000001
 21
57.4373
 31
0.0
  0
LINE
  5
E1
  8
0
 62
     7
 10
62.5261
 20
60.063200000000002
 30
0.0
 11
62.5261
 21
57.4373
 31
0.0
  0
ARC
  5
E2
  8
0
 62
     7
 10
60.53657900000001
 20
65.254649999999998
 30
0.0
 40
8.5108619999999995
 50
291.64301499999999
 51
293.29081500000001
  0
ARC
  5
E3
  8
0
 62
     7
 10
62.987811000000001
 20
59.111169999999987
 30
0.0
 40
1.896471
 50
281.78779100000003
 51
291.26332000000002
  0
ARC
  5
E4
  8
0
 62
     7
 10
63.19386999999999
 20
58.202105000000003
 30
0.0
 40
0.9646139999999999
 50
270.46569699999998
 51
280.83723800000001
  0
ARC
  5
E5
  8
0
 62
     7
 10
63.201846999999987
 20
58.143493999999997
 30
0.0
 40
0.9059709999999999
 50
257.530618
 51
269.99132400000002
  0
ARC
  5
E6
  8
0
 62
     7
 10
63.324759999999991
 20
58.768690999999997
 30
0.0
 40
1.543032
 50
247.18136200000001
 51
258.086771
  0
ARC
  5
E7
  8
0
 62
     7
 10
63.785131000000007
 20
59.944059000000003
 30
0.0
 40
2.805127999999999
 50
243.33175299999999
 51
247.8244709999999
  0
ARC
  5
E8
  8
0
 62
     7
 10
63.281029000000011
 20
58.947949999999999
 30
0.0
 40
1.346730999999999
 50
97.366204999999994
 51
124.0936549999999
  0
ARC
  5
E9
  8
0
 62
     7
 10
63.202813999999996
 20
59.385486
 30
0.0
 40
0.9030329999999999
 50
90.070059000000015
 51
96.003703999999999
  0
ARC
  5
EA
  8
0
 62
     7
 10
63.200916999999997
 20
59.369735999999989
 30
0.0
 40
0.9187829999999999
 50
77.808963000000006
 51
89.95054300000001
  0
ARC
  5
EB
  8
0
 62
     7
 10
63.110765999999998
 20
58.903851000000003
 30
0.0
 40
1.3932370000000001
 50
66.820028000000008
 51
78.231076000000002
  0
ARC
  5
EC
  8
0
 62
     7
 10
62.883633000000003
 20
58.331957999999993
 30
0.0
 40
2.0084330000000001
 50
59.540793999999998
 51
67.285362000000006
  0
LINE
  5
ED
  8
0
 62
     7
 10
59.7759
 20
60.063200000000002
 30
0.0
 11
59.7759
 21
57.4373
 31
0.0
  0
ARC
  5
EE
  8
0
 62
     7
 10
56.386189999999999
 20
65.318494999999984
 30
0.0
 40
8.5791979999999999
 50
291.67714099999989
 51
293.27260999999999
  0
ARC
  5
EF
  8
0
 62
     7
 10
58.819279000000002
 20
59.223229000000011
 30
0.0
 40
2.0162869999999988
 50
282.23675900000001
 51
291.405012
  0
ARC
  5
F0
  8
0
 62
     7
 10
59.090505000000007
 20
58.041882999999991
 30
0.0
 40
0.8044279999999998
 50
270.74658299999987
 51
281.19141400000001
  0
ARC
  5
F1
  8
0
 62
     7
 10
59.100780000000007
 20
58.126847999999988
 30
0.0
 40
0.8893260000000001
 50
266.09275700000001
 51
270.01329900000002
  0
ARC
  5
F2
  8
0
 62
     7
 10
59.103338000000001
 20
59.405305000000013
 30
0.0
 40
0.8832169999999999
 50
90.152542000000011
 51
96.603683000000004
  0
ARC
  5
F3
  8
0
 62
     7
 10
59.100259999999999
 20
59.520156000000007
 30
0.0
 40
0.768363
 50
76.154964000000007
 51
89.945821999999993
  0
ARC
  5
F4
  8
0
 62
     7
 10
58.957332999999991
 20
58.84496
 30
0.0
 40
1.458323
 50
65.831039000000004
 51
77.050696000000002
  0
ARC
  5
F5
  8
0
 62
     7
 10
58.711359999999992
 20
58.237320999999987
 30
0.0
 40
2.113545999999999
 50
59.757032999999993
 51
66.491772999999995
  0
ARC
  5
F6
  8
0
 62
     7
 10
63.844168999999987
 20
50.841681000000001
 30
0.0
 40
6.7260660000000003
 50
101.300856
 51
103.2012969999999
  0
ARC
  5
F7
  8
0
 62
     7
 10
60.837703000000012
 20
62.96153799999999
 30
0.0
 40
5.7623030000000002
 50
278.57915099999991
 51
284.78414299999997
  0
ARC
  5
F8
  8
0
 62
     7
 10
61.351008999999998
 20
59.528376999999992
 30
0.0
 40
2.290988
 50
270.61997599999989
 51
278.69372799999991
  0
LINE
  5
F9
  8
0
 62
     7
 10
61.375799999999991
 20
57.23749999999999
 30
0.0
 11
60.926600000000001
 21
57.23749999999999
 31
0.0
  0
ARC
  5
FA
  8
0
 62
     7
 10
60.926875000000003
 20
59.198349
 30
0.0
 40
1.9608259999999991
 50
261.53959300000002
 51
269.990634
  0
ARC
  5
FB
  8
0
 62
     7
 10
61.140957999999998
 20
60.854180999999997
 30
0.0
 40
3.6302759999999998
 50
258.55465699999991
 51
262.04248799999988
  0
ARC
  5
FC
  8
0
 62
     7
 10
62.552987000000002
 20
67.714803000000003
 30
0.0
 40
10.634688000000001
 50
256.53752200000002
 51
258.43303199999991
  0
ARC
  5
FD
  8
0
 62
     7
 10
58.658174000000002
 20
51.527440999999989
 30
0.0
 40
6.0146639999999989
 50
76.354271999999995
 51
79.290402999999998
  0
ARC
  5
FE
  8
0
 62
     7
 10
61.015839999999997
 20
56.408771999999999
 30
0.0
 40
3.8590659999999999
 50
102.80782600000001
 51
108.7421259999999
  0
ARC
  5
FF
  8
0
 62
     7
 10
61.256593000000002
 20
55.544510000000002
 30
0.0
 40
4.7553910000000004
 50
94.330847000000006
 51
103.3279939999999
  0
ARC
  5
100
  8
0
 62
     7
 10
61.04410699999999
 20
58.003129000000001
 30
0.0
 40
2.287895999999999
 50
87.317677000000003
 51
93.674328000000017
  0
ARC
  5
101
  8
0
 62
     7
 10
61.234432999999989
 20
58.87269100000001
 30
0.0
 40
1.418274
 50
88.960406000000006
 51
93.365382999999994
  0
ARC
  5
102
  8
0
 62
     7
 10
61.22077199999999
 20
57.715823
 30
0.0
 40
2.5752090000000001
 50
85.185453999999993
 51
89.123485000000002
  0
ARC
  5
103
  8
0
 62
     7
 10
61.023054999999999
 20
55.399892000000001
 30
0.0
 40
4.8995639999999989
 50
72.134959999999992
 51
85.154560000000004
  0
LINE
  5
104
  8
0
 62
     7
 10
62.401400000000002
 20
60.464199999999998
 30
0.0
 11
61.151200000000003
 21
60.464199999999998
 31
0.0
  0
LINE
  5
105
  8
0
 62
     7
 10
59.901299999999999
 20
60.464199999999998
 30
0.0
 11
61.151200000000003
 21
60.464199999999998
 31
0.0
  0
LINE
  5
106
  8
0
 62
     7
 10
58.946300000000001
 20
57.187899999999999
 30
0.0
 11
61.151200000000003
 21
57.187899999999999
 31
0.0
  0
LINE
  5
107
  8
0
 62
     7
 10
61.151200000000003
 20
57.187899999999999
 30
0.0
 11
63.451799999999999
 21
57.187899999999999
 31
0.0
  0
LINE
  5
108
  8
0
 62
     7
 10
63.751899999999992
 20
57.387700000000002
 30
0.0
 11
63.451799999999999
 21
57.212699999999998
 31
0.0
  0
LINE
  5
109
  8
0
 62
     7
 10
63.451799999999999
 20
57.212699999999998
 30
0.0
 11
63.451799999999999
 21
57.187899999999999
 31
0.0
  0
LINE
  5
10A
  8
0
 62
     7
 10
63.901800000000001
 20
57.4373
 30
0.0
 11
63.451799999999999
 21
57.212699999999998
 31
0.0
  0
LINE
  5
10B
  8
0
 62
     7
 10
58.946300000000001
 20
60.313299999999998
 30
0.0
 11
63.451799999999999
 21
60.313299999999998
 31
0.0
  0
LINE
  5
10C
  8
0
 62
     7
 10
59.600900000000003
 20
60.438000000000002
 30
0.0
 11
62.70150000000001
 21
60.438000000000002
 31
0.0
  0
ARC
  5
10D
  8
0
 62
     7
 10
62.149811
 20
61.134818000000003
 30
0.0
 40
0.7162430000000001
 50
290.56532299999998
 51
326.53234700000002
  0
ARC
  5
10E
  8
0
 62
     7
 10
62.319229999999997
 20
60.997172999999997
 30
0.0
 40
0.499466
 50
328.98734400000001
 51
341.45999799999993
  0
LINE
  5
10F
  8
0
 62
     7
 10
62.792799999999993
 20
60.8384
 30
0.0
 11
62.8262
 21
60.938299999999998
 31
0.0
  0
LINE
  5
110
  8
0
 62
     7
 10
62.8262
 20
60.938299999999998
 30
0.0
 11
62.8262
 21
61.088500000000003
 31
0.0
  0
LINE
  5
111
  8
0
 62
     7
 10
62.8262
 20
61.088500000000003
 30
0.0
 11
62.776600000000002
 21
61.263500000000001
 31
0.0
  0
LINE
  5
112
  8
0
 62
     7
 10
59.500999999999998
 20
61.263500000000001
 30
0.0
 11
59.525799999999997
 21
61.263500000000001
 31
0.0
  0
ARC
  5
113
  8
0
 62
     7
 10
166.689301
 20
45.982174999999991
 30
0.0
 40
108.272147
 50
171.88628
 51
171.97981899999991
  0
LINE
  5
114
  8
0
 62
     7
 10
59.476199999999999
 20
61.088500000000003
 30
0.0
 11
59.476199999999999
 21
60.938299999999998
 31
0.0
  0
LINE
  5
115
  8
0
 62
     7
 10
59.476199999999999
 20
60.938299999999998
 30
0.0
 11
59.508499999999991
 21
60.8384
 31
0.0
  0
ARC
  5
116
  8
0
 62
     7
 10
60.577612000000002
 20
61.196257999999993
 30
0.0
 40
1.1273859999999989
 50
198.509354
 51
203.287215
  0
ARC
  5
117
  8
0
 62
     7
 10
59.979919999999993
 20
60.937950999999998
 30
0.0
 40
0.476266
 50
203.1702249999999
 51
222.3154679999999
  0
ARC
  5
118
  8
0
 62
     7
 10
59.911095000000003
 20
60.894078
 30
0.0
 40
0.396082
 50
224.325423
 51
234.70178399999989
  0
ARC
  5
119
  8
0
 62
     7
 10
60.103444000000003
 20
61.171579999999999
 30
0.0
 40
0.73372
 50
234.964393
 51
242.390061
  0
ARC
  5
11A
  8
0
 62
     7
 10
61.858403000000003
 20
64.523116999999999
 30
0.0
 40
4.5169300000000003
 50
242.36672799999991
 51
243.9742049999999
  0
LINE
  5
11B
  8
0
 62
     7
 10
59.8765
 20
60.464199999999998
 30
0.0
 11
59.901299999999999
 21
60.464199999999998
 31
0.0
  0
LINE
  5
11C
  8
0
 62
     7
 10
59.701099999999997
 20
61.688600000000001
 30
0.0
 11
62.576799999999999
 21
61.688600000000001
 31
0.0
  0
LINE
  5
11D
  8
0
 62
     7
 10
59.701099999999997
 20
63.688800000000001
 30
0.0
 11
61.151200000000003
 21
63.688800000000001
 31
0.0
  0
LINE
  5
11E
  8
0
 62
     7
 10
61.151200000000003
 20
63.688800000000001
 30
0.0
 11
62.576799999999999
 21
63.688800000000001
 31
0.0
  0
LINE
  5
11F
  8
0
 62
     7
 10
62.8262
 20
64.238699999999994
 30
0.0
 11
62.8262
 21
64.11399999999999
 31
0.0
  0
LINE
  5
120
  8
0
 62
     7
 10
62.8262
 20
64.11399999999999
 30
0.0
 11
62.751399999999997
 21
63.988599999999991
 31
0.0
  0
LINE
  5
121
  8
0
 62
     7
 10
59.451000000000001
 20
64.238699999999994
 30
0.0
 11
59.476199999999999
 21
64.11399999999999
 31
0.0
  0
LINE
  5
122
  8
0
 62
     7
 10
59.476199999999999
 20
64.11399999999999
 30
0.0
 11
59.525799999999997
 21
63.988599999999991
 31
0.0
  0
LINE
  5
123
  8
0
 62
     7
 10
59.451000000000001
 20
64.939400000000006
 30
0.0
 11
62.8262
 21
64.939400000000006
 31
0.0
  0
LINE
  5
124
  8
0
 62
     7
 10
59.451000000000001
 20
64.939400000000006
 30
0.0
 11
59.451000000000001
 21
64.238699999999994
 31
0.0
  0
LINE
  5
125
  8
0
 62
     7
 10
62.8262
 20
64.939400000000006
 30
0.0
 11
62.8262
 21
64.238699999999994
 31
0.0
  0
LINE
  5
126
  8
0
 62
     7
 10
63.451799999999999
 20
60.313299999999998
 30
0.0
 11
63.901800000000001
 21
60.063200000000002
 31
0.0
  0
LINE
  5
127
  8
0
 62
     7
 10
59.525799999999997
 20
63.988599999999991
 30
0.0
 11
59.701099999999997
 21
63.688800000000001
 31
0.0
  0
LINE
  5
128
  8
0
 62
     7
 10
59.701099999999997
 20
61.688600000000001
 30
0.0
 11
59.525799999999997
 21
61.263500000000001
 31
0.0
  0
LINE
  5
129
  8
0
 62
     7
 10
62.751399999999997
 20
63.988599999999991
 30
0.0
 11
62.576799999999999
 21
63.688800000000001
 31
0.0
  0
LINE
  5
12A
  8
0
 62
     7
 10
62.576799999999999
 20
61.688600000000001
 30
0.0
 11
62.776600000000002
 21
61.263500000000001
 31
0.0
  0
LINE
  5
12B
  8
0
 62
     7
 10
59.701099999999997
 20
63.688800000000001
 30
0.0
 11
59.701099999999997
 21
61.688600000000001
 31
0.0
  0
LINE
  5
12C
  8
0
 62
     7
 10
62.576799999999999
 20
63.688800000000001
 30
0.0
 11
62.576799999999999
 21
61.688600000000001
 31
0.0
  0
LINE
  5
12D
  8
0
 62
     7
 10
59.600900000000003
 20
60.438000000000002
 30
0.0
 11
59.600900000000003
 21
60.313299999999998
 31
0.0
  0
LINE
  5
12E
  8
0
 62
     7
 10
62.70150000000001
 20
60.438000000000002
 30
0.0
 11
62.70150000000001
 21
60.313299999999998
 31
0.0
  0
LINE
  5
12F
  8
0
 62
     7
 10
63.901800000000001
 20
57.4373
 30
0.0
 11
63.451799999999999
 21
57.187899999999999
 31
0.0
  0
LINE
  5
130
  8
0
 62
     7
 10
57.960700000000003
 20
141.9379999999999
 30
0.0
 11
57.960700000000003
 21
150.68899999999999
 31
0.0
  0
LINE
  5
131
  8
0
 62
     7
 10
55.335799999999999
 20
141.9379999999999
 30
0.0
 11
55.335799999999999
 21
150.68899999999999
 31
0.0
  0
ARC
  5
132
  8
0
 62
     7
 10
58.898412999999998
 20
185.06343100000001
 30
0.0
 40
1.6250619999999989
 50
0.00001
 51
89.999980000000008
  0
ARC
  5
133
  8
0
 62
     7
 10
58.898414000000002
 20
185.06343100000001
 30
0.0
 40
1.6250619999999989
 50
90.0
 51
179.99996999999991
  0
ARC
  5
134
  8
0
 62
     7
 10
58.898412999999998
 20
185.06343100000001
 30
0.0
 40
1.6250619999999989
 50
179.99996999999991
 51
270.00002000000001
  0
ARC
  5
135
  8
0
 62
     7
 10
58.898412999999998
 20
185.06343100000001
 30
0.0
 40
1.6250619999999989
 50
270.00002000000001
 51
359.99998999999991
  0
LINE
  5
136
  8
0
 62
     7
 10
61.398200000000003
 20
165.6879999999999
 30
0.0
 11
61.398200000000003
 21
173.1879999999999
 31
0.0
  0
LINE
  5
137
  8
0
 62
     7
 10
56.398299999999992
 20
165.6879999999999
 30
0.0
 11
56.398299999999992
 21
173.1879999999999
 31
0.0
  0
ARC
  5
138
  8
0
 62
     7
 10
58.898412999999998
 20
173.188456
 30
0.0
 40
2.4997780000000001
 50
0.00001
 51
89.999980000000008
  0
ARC
  5
139
  8
0
 62
     7
 10
58.898242000000003
 20
173.18828400000001
 30
0.0
 40
2.4999500000000001
 50
89.996052000000006
 51
179.99602200000001
  0
ARC
  5
13A
  8
0
 62
     7
 10
60.443892000000012
 20
165.687127
 30
0.0
 40
0.579472
 50
0.129457
 51
31.978764999999999
  0
ARC
  5
13B
  8
0
 62
     7
 10
60.195942000000002
 20
165.55261299999989
 30
0.0
 40
0.8612049999999998
 50
30.833397000000001
 51
45.229658000000001
  0
ARC
  5
13C
  8
0
 62
     7
 10
59.893503000000003
 20
165.25993
 30
0.0
 40
1.2820180000000001
 50
44.845952000000011
 51
57.319092999999988
  0
ARC
  5
13D
  8
0
 62
     7
 10
59.478565000000003
 20
164.63926499999991
 30
0.0
 40
2.0285250000000001
 50
56.92041600000001
 51
70.695104000000001
  0
ARC
  5
13E
  8
0
 62
     7
 10
59.038258999999996
 20
163.5064889999999
 30
0.0
 40
3.24343
 50
69.969770999999994
 51
84.899399000000017
  0
ARC
  5
13F
  8
0
 62
     7
 10
58.901736999999997
 20
162.59983
 30
0.0
 40
4.1590049999999996
 50
84.136506000000026
 51
90.045768999999993
  0
ARC
  5
140
  8
0
 62
     7
 10
58.898055999999997
 20
162.75766100000001
 30
0.0
 40
4.0011729999999996
 50
89.994866999999999
 51
105.65344
  0
ARC
  5
141
  8
0
 62
     7
 10
58.559523999999989
 20
164.10378399999999
 30
0.0
 40
2.6138989999999991
 50
106.46959099999989
 51
118.172556
  0
ARC
  5
142
  8
0
 62
     7
 10
58.065159999999999
 20
165.059978
 30
0.0
 40
1.5376620000000001
 50
118.75572699999999
 51
134.73144599999989
  0
ARC
  5
143
  8
0
 62
     7
 10
57.587107999999994
 20
165.567733
 30
0.0
 40
0.8406870000000001
 50
135.9402979999999
 51
156.417351
  0
ARC
  5
144
  8
0
 62
     7
 10
57.35449899999999
 20
165.684259
 30
0.0
 40
0.581049
 50
157.771692
 51
179.588052
  0
ARC
  5
145
  8
0
 62
     7
 10
57.353521000000001
 20
165.689741
 30
0.0
 40
0.580057
 50
180.12888000000001
 51
211.95719299999999
  0
ARC
  5
146
  8
0
 62
     7
 10
57.601075999999999
 20
165.8240879999999
 30
0.0
 40
0.8613709999999999
 50
210.82361199999991
 51
225.21667899999991
  0
ARC
  5
147
  8
0
 62
     7
 10
57.903275000000001
 20
166.11670599999991
 30
0.0
 40
1.2819679999999991
 50
224.84278999999989
 51
237.3146109999999
  0
ARC
  5
148
  8
0
 62
     7
 10
58.316367999999997
 20
166.73400499999991
 30
0.0
 40
2.024648
 50
236.909325
 51
250.70914500000001
  0
ARC
  5
149
  8
0
 62
     7
 10
58.720396999999998
 20
167.76132899999999
 30
0.0
 40
3.1280489999999999
 50
249.940662
 51
261.19472000000002
  0
ARC
  5
14A
  8
0
 62
     7
 10
58.887073999999998
 20
168.64116200000001
 30
0.0
 40
4.0231399999999988
 50
260.767042
 51
270.16150699999992
  0
ARC
  5
14B
  8
0
 62
     7
 10
58.898758999999991
 20
168.62016299999999
 30
0.0
 40
4.0021250000000004
 50
269.99506700000001
 51
285.64758699999999
  0
ARC
  5
14C
  8
0
 62
     7
 10
59.238523000000001
 20
167.27060700000001
 30
0.0
 40
2.6112039999999999
 50
286.45574799999991
 51
298.17095399999999
  0
ARC
  5
14D
  8
0
 62
     7
 10
59.732308999999987
 20
166.316033
 30
0.0
 40
1.536664
 50
298.74384700000002
 51
314.73155400000002
  0
ARC
  5
14E
  8
0
 62
     7
 10
60.209429000000007
 20
165.80922100000001
 30
0.0
 40
0.8410149999999999
 50
315.93989900000003
 51
336.41384699999998
  0
ARC
  5
14F
  8
0
 62
     7
 10
60.441568999999987
 20
165.6926939999999
 30
0.0
 40
0.581809
 50
337.78348
 51
359.58071099999989
  0
ARC
  5
150
  8
0
 62
     7
 10
60.719355999999998
 20
165.687005
 30
0.0
 40
0.678836
 50
0.120802
 51
30.65066599999999
  0
ARC
  5
151
  8
0
 62
     7
 10
60.421170999999987
 20
165.5301509999999
 30
0.0
 40
1.0154700000000001
 50
29.687158
 51
48.318156000000002
  0
ARC
  5
152
  8
0
 62
     7
 10
60.007656999999988
 20
165.10606599999991
 30
0.0
 40
1.607405999999999
 50
47.36215399999999
 51
57.76720199999999
  0
ARC
  5
153
  8
0
 62
     7
 10
59.558801000000003
 20
164.411564
 30
0.0
 40
2.4342959999999989
 50
57.549193000000002
 51
71.146318999999991
  0
ARC
  5
154
  8
0
 62
     7
 10
59.065441999999997
 20
163.116422
 30
0.0
 40
3.819685999999999
 50
70.420895000000002
 51
84.026993999999988
  0
ARC
  5
155
  8
0
 62
     7
 10
58.904456999999987
 20
162.097477
 30
0.0
 40
4.850153999999999
 50
83.388122999999979
 51
90.071380000000005
  0
ARC
  5
156
  8
0
 62
     7
 10
58.898836000000003
 20
162.1744139999999
 30
0.0
 40
4.7732130000000002
 50
90.005054999999999
 51
103.8005779999999
  0
ARC
  5
157
  8
0
 62
     7
 10
58.593570999999997
 20
163.556431
 30
0.0
 40
3.3584369999999999
 50
104.367306
 51
115.0143579999999
  0
ARC
  5
158
  8
0
 62
     7
 10
58.081488
 20
164.6923129999999
 30
0.0
 40
2.1126290000000001
 50
115.45513800000001
 51
129.2529669999999
  0
ARC
  5
159
  8
0
 62
     7
 10
57.527766
 20
165.40195299999999
 30
0.0
 40
1.212915999999999
 50
130.20917299999991
 51
146.98605800000001
  0
ARC
  5
15A
  8
0
 62
     7
 10
57.143816000000001
 20
165.66866099999999
 30
0.0
 40
0.745786
 50
148.096431
 51
178.480557
  0
ARC
  5
15B
  8
0
 62
     7
 10
57.077624999999998
 20
165.68986199999989
 30
0.0
 40
0.679334
 50
180.12030699999991
 51
210.64004899999989
  0
ARC
  5
15C
  8
0
 62
     7
 10
57.375259
 20
165.84630000000001
 30
0.0
 40
1.0152849999999991
 50
209.67553100000001
 51
228.31329299999999
  0
ARC
  5
15D
  8
0
 62
     7
 10
57.78891999999999
 20
166.270387
 30
0.0
 40
1.607324
 50
227.35518799999991
 51
237.76255199999991
  0
ARC
  5
15E
  8
0
 62
     7
 10
58.237452000000012
 20
166.96426399999999
 30
0.0
 40
2.4335139999999988
 50
237.54467799999989
 51
251.14778899999999
  0
ARC
  5
15F
  8
0
 62
     7
 10
58.730683999999997
 20
168.2580669999999
 30
0.0
 40
3.8175989999999991
 50
250.41674
 51
264.03244899999999
  0
ARC
  5
160
  8
0
 62
     7
 10
58.892344999999999
 20
169.28075499999991
 30
0.0
 40
4.851856999999999
 50
263.38930199999987
 51
270.07167199999998
  0
ARC
  5
161
  8
0
 62
     7
 10
58.897993999999997
 20
169.19986900000001
 30
0.0
 40
4.7709669999999988
 50
270.00505399999997
 51
283.80440299999992
  0
ARC
  5
162
  8
0
 62
     7
 10
59.203718999999992
 20
167.81724299999999
 30
0.0
 40
3.355491999999999
 50
284.36807499999992
 51
295.02355699999993
  0
ARC
  5
163
  8
0
 62
     7
 10
59.715614000000002
 20
166.68287399999991
 30
0.0
 40
2.111133999999999
 50
295.457313
 51
309.26500099999993
  0
ARC
  5
164
  8
0
 62
     7
 10
60.266979000000013
 20
165.975942
 30
0.0
 40
1.2150190000000001
 50
310.23371200000003
 51
326.98392200000001
  0
ARC
  5
165
  8
0
 62
     7
 10
60.652090999999999
 20
165.70821399999991
 30
0.0
 40
0.746362
 50
328.10912500000001
 51
358.48151100000001
  0
LINE
  5
166
  8
0
 62
     7
 10
53.398299999999999
 20
180.4379999999999
 30
0.0
 11
53.398299999999999
 21
151.68799999999999
 31
0.0
  0
LINE
  5
167
  8
0
 62
     7
 10
64.398200000000003
 20
180.4379999999999
 30
0.0
 11
64.398200000000003
 21
151.68799999999999
 31
0.0
  0
LINE
  5
168
  8
0
 62
     7
 10
65.648399999999995
 20
150.6879999999999
 30
0.0
 11
65.648399999999995
 21
151.68799999999999
 31
0.0
  0
LINE
  5
169
  8
0
 62
     7
 10
52.148400000000002
 20
151.68799999999999
 30
0.0
 11
52.148400000000002
 21
150.6879999999999
 31
0.0
  0
LINE
  5
16A
  8
0
 62
     7
 10
52.148400000000002
 20
151.68799999999999
 30
0.0
 11
65.648399999999995
 21
151.68799999999999
 31
0.0
  0
LINE
  5
16B
  8
0
 62
     7
 10
52.148400000000002
 20
150.6879999999999
 30
0.0
 11
65.648399999999995
 21
150.6879999999999
 31
0.0
  0
ARC
  5
16C
  8
0
 62
     7
 10
58.750034999999997
 20
179.60828100000001
 30
0.0
 40
4.848126999999999
 50
164.07390000000001
 51
170.13314700000001
  0
ARC
  5
16D
  8
0
 62
     7
 10
58.920471999999997
 20
179.57943700000001
 30
0.0
 40
4.9771869999999998
 50
9.9454630000000002
 51
15.847451
  0
LINE
  5
16E
  8
0
 62
     7
 10
64.398200000000003
 20
180.9379999999999
 30
0.0
 11
64.398200000000003
 21
188.6879999999999
 31
0.0
  0
LINE
  5
16F
  8
0
 62
     7
 10
53.398299999999999
 20
180.4379999999999
 30
0.0
 11
64.398200000000003
 21
180.4379999999999
 31
0.0
  0
LINE
  5
170
  8
0
 62
     7
 10
53.398299999999999
 20
180.9379999999999
 30
0.0
 11
53.398299999999999
 21
188.6879999999999
 31
0.0
  0
LINE
  5
171
  8
0
 62
     7
 10
53.398299999999999
 20
180.9379999999999
 30
0.0
 11
64.398200000000003
 21
180.9379999999999
 31
0.0
  0
LINE
  5
172
  8
0
 62
     7
 10
53.398299999999999
 20
188.6879999999999
 30
0.0
 11
64.398200000000003
 21
188.6879999999999
 31
0.0
  0
LINE
  5
173
  8
0
 62
     7
 10
117.872
 20
148.477
 30
0.0
 11
117.2789999999999
 21
150.6879999999999
 31
0.0
  0
LINE
  5
174
  8
0
 62
     7
 10
117.2789999999999
 20
150.6879999999999
 30
0.0
 11
116.687
 21
148.477
 31
0.0
  0
LINE
  5
175
  8
0
 62
     7
 10
116.687
 20
148.477
 30
0.0
 11
117.872
 21
148.477
 31
0.0
  0
LINE
  5
176
  8
0
 62
     7
 10
116.70099999999999
 20
60.398800000000001
 30
0.0
 11
117.294
 21
58.1873
 31
0.0
  0
LINE
  5
177
  8
0
 62
     7
 10
117.294
 20
58.1873
 30
0.0
 11
117.886
 21
60.398800000000001
 31
0.0
  0
LINE
  5
178
  8
0
 62
     7
 10
117.886
 20
60.398800000000001
 30
0.0
 11
116.70099999999999
 21
60.398800000000001
 31
0.0
  0
LINE
  5
179
  8
0
 62
     7
 10
117.2789999999999
 20
150.6879999999999
 30
0.0
 11
117.2789999999999
 21
58.1873
 31
0.0
  0
LINE
  5
17A
  8
0
 62
     7
 10
94.110799999999998
 20
152.899
 30
0.0
 11
94.703299999999999
 21
150.6879999999999
 31
0.0
  0
LINE
  5
17B
  8
0
 62
     7
 10
94.703299999999999
 20
150.6879999999999
 30
0.0
 11
95.295900000000003
 21
152.899
 31
0.0
  0
LINE
  5
17C
  8
0
 62
     7
 10
95.295900000000003
 20
152.899
 30
0.0
 11
94.110799999999998
 21
152.899
 31
0.0
  0
LINE
  5
17D
  8
0
 62
     7
 10
61.095199999999991
 20
213.33500000000001
 30
0.0
 11
58.898200000000003
 21
212.68899999999999
 31
0.0
  0
LINE
  5
17E
  8
0
 62
     7
 10
58.898200000000003
 20
212.68899999999999
 30
0.0
 11
61.12339999999999
 21
212.15000000000001
 31
0.0
  0
LINE
  5
17F
  8
0
 62
     7
 10
61.12339999999999
 20
212.15000000000001
 30
0.0
 11
61.095199999999991
 21
213.33500000000001
 31
0.0
  0
LINE
  5
180
  8
0
 62
     7
 10
75.635499999999993
 20
218.2409999999999
 30
0.0
 11
76.903599999999997
 21
220.14699999999999
 31
0.0
  0
LINE
  5
181
  8
0
 62
     7
 10
76.903599999999997
 20
220.14699999999999
 30
0.0
 11
74.852400000000003
 21
219.13
 31
0.0
  0
LINE
  5
182
  8
0
 62
     7
 10
74.852400000000003
 20
219.13
 30
0.0
 11
75.635499999999993
 21
218.2409999999999
 31
0.0
  0
LINE
  5
183
  8
0
 62
     7
 10
95.281400000000005
 20
192.727
 30
0.0
 11
94.688900000000004
 21
194.9379999999999
 31
0.0
  0
LINE
  5
184
  8
0
 62
     7
 10
94.688900000000004
 20
194.9379999999999
 30
0.0
 11
94.096299999999985
 21
192.727
 31
0.0
  0
LINE
  5
185
  8
0
 62
     7
 10
94.096299999999985
 20
192.727
 30
0.0
 11
95.281400000000005
 21
192.727
 31
0.0
  0
LINE
  5
186
  8
0
 62
     7
 10
94.688900000000004
 20
150.6879999999999
 30
0.0
 11
94.688900000000004
 21
194.9379999999999
 31
0.0
  0
LINE
  5
187
  8
0
 62
     7
 10
116.687
 20
152.899
 30
0.0
 11
117.2789999999999
 21
150.6879999999999
 31
0.0
  0
LINE
  5
188
  8
0
 62
     7
 10
117.2789999999999
 20
150.6879999999999
 30
0.0
 11
117.872
 21
152.899
 31
0.0
  0
LINE
  5
189
  8
0
 62
     7
 10
117.872
 20
152.899
 30
0.0
 11
116.687
 21
152.899
 31
0.0
  0
LINE
  5
18A
  8
0
 62
     7
 10
117.857
 20
162.227
 30
0.0
 11
117.2649999999999
 21
164.4379999999999
 31
0.0
  0
LINE
  5
18B
  8
0
 62
     7
 10
117.2649999999999
 20
164.4379999999999
 30
0.0
 11
116.672
 21
162.227
 31
0.0
  0
LINE
  5
18C
  8
0
 62
     7
 10
116.672
 20
162.227
 30
0.0
 11
117.857
 21
162.227
 31
0.0
  0
LINE
  5
18D
  8
0
 62
     7
 10
117.2649999999999
 20
150.6879999999999
 30
0.0
 11
117.2649999999999
 21
164.4379999999999
 31
0.0
  0
LINE
  5
18E
  8
0
 62
     7
 10
99.898799999999994
 20
152.899
 30
0.0
 11
100.4909999999999
 21
150.6879999999999
 31
0.0
  0
LINE
  5
18F
  8
0
 62
     7
 10
100.4909999999999
 20
150.6879999999999
 30
0.0
 11
101.0839999999999
 21
152.899
 31
0.0
  0
LINE
  5
190
  8
0
 62
     7
 10
101.0839999999999
 20
152.899
 30
0.0
 11
99.898799999999994
 21
152.899
 31
0.0
  0
LINE
  5
191
  8
0
 62
     7
 10
101.069
 20
163.47599999999991
 30
0.0
 11
100.477
 21
165.6879999999999
 31
0.0
  0
LINE
  5
192
  8
0
 62
     7
 10
100.477
 20
165.6879999999999
 30
0.0
 11
99.88430000000001
 21
163.47599999999991
 31
0.0
  0
LINE
  5
193
  8
0
 62
     7
 10
99.88430000000001
 20
163.47599999999991
 30
0.0
 11
101.069
 21
163.47599999999991
 31
0.0
  0
LINE
  5
194
  8
0
 62
     7
 10
100.477
 20
150.6879999999999
 30
0.0
 11
100.477
 21
165.6879999999999
 31
0.0
  0
LINE
  5
195
  8
0
 62
     7
 10
135.71100000000001
 20
58.1873
 30
0.0
 11
116.57899999999989
 21
58.1873
 31
0.0
  0
LINE
  5
196
  8
0
 62
     7
 10
116.84
 20
194.9379999999999
 30
0.0
 11
94.003299999999996
 21
194.9379999999999
 31
0.0
  0
LINE
  5
197
  8
0
 62
     7
 10
131.70599999999999
 20
150.6879999999999
 30
0.0
 11
94.003299999999996
 21
150.6879999999999
 31
0.0
  0
LINE
  5
198
  8
0
 62
     7
 10
117.965
 20
164.4379999999999
 30
0.0
 11
113.271
 21
164.4379999999999
 31
0.0
  0
LINE
  5
199
  8
0
 62
     7
 10
109.706
 20
165.6879999999999
 30
0.0
 11
99.776799999999994
 21
165.6879999999999
 31
0.0
  0
LINE
  5
19A
  8
0
 62
     7
 10
144.65600000000001
 20
195.1279999999999
 30
0.0
 11
144.65600000000001
 21
189.38800000000001
 31
0.0
  0
LINE
  5
19B
  8
0
 62
     7
 10
133.65600000000001
 20
195.1279999999999
 30
0.0
 11
133.65600000000001
 21
189.38800000000001
 31
0.0
  0
LINE
  5
19C
  8
0
 62
     7
 10
135.86799999999991
 20
195.02099999999999
 30
0.0
 11
133.65600000000001
 21
194.428
 31
0.0
  0
LINE
  5
19D
  8
0
 62
     7
 10
133.65600000000001
 20
194.428
 30
0.0
 11
135.86799999999991
 21
193.83499999999989
 31
0.0
  0
LINE
  5
19E
  8
0
 62
     7
 10
135.86799999999991
 20
193.83499999999989
 30
0.0
 11
135.86799999999991
 21
195.02099999999999
 31
0.0
  0
LINE
  5
19F
  8
0
 62
     7
 10
142.44499999999999
 20
193.84999999999991
 30
0.0
 11
144.65600000000001
 21
194.44200000000001
 31
0.0
  0
LINE
  5
1A0
  8
0
 62
     7
 10
144.65600000000001
 20
194.44200000000001
 30
0.0
 11
142.44499999999999
 21
195.035
 31
0.0
  0
LINE
  5
1A1
  8
0
 62
     7
 10
142.44499999999999
 20
195.035
 30
0.0
 11
142.44499999999999
 21
193.84999999999991
 31
0.0
  0
LINE
  5
1A2
  8
0
 62
     7
 10
133.65600000000001
 20
194.428
 30
0.0
 11
144.65600000000001
 21
194.428
 31
0.0
  0
LINE
  5
1A3
  8
0
 62
     7
 10
161.98500000000001
 20
186.477
 30
0.0
 11
161.392
 21
188.6879999999999
 31
0.0
  0
LINE
  5
1A4
  8
0
 62
     7
 10
161.392
 20
188.6879999999999
 30
0.0
 11
160.80000000000001
 21
186.477
 31
0.0
  0
LINE
  5
1A5
  8
0
 62
     7
 10
160.80000000000001
 20
186.477
 30
0.0
 11
161.98500000000001
 21
186.477
 31
0.0
  0
LINE
  5
1A6
  8
0
 62
     7
 10
160.81399999999991
 20
152.899
 30
0.0
 11
161.40700000000001
 21
150.6879999999999
 31
0.0
  0
LINE
  5
1A7
  8
0
 62
     7
 10
161.40700000000001
 20
150.6879999999999
 30
0.0
 11
161.999
 21
152.899
 31
0.0
  0
LINE
  5
1A8
  8
0
 62
     7
 10
161.999
 20
152.899
 30
0.0
 11
160.81399999999991
 21
152.899
 31
0.0
  0
LINE
  5
1A9
  8
0
 62
     7
 10
161.392
 20
188.6879999999999
 30
0.0
 11
161.392
 21
150.6879999999999
 31
0.0
  0
LINE
  5
1AA
  8
0
 62
     7
 10
162.09200000000001
 20
188.6879999999999
 30
0.0
 11
145.35599999999991
 21
188.6879999999999
 31
0.0
  0
LINE
  5
1AB
  8
0
 62
     7
 10
162.09200000000001
 20
150.6879999999999
 30
0.0
 11
146.60599999999991
 21
150.6879999999999
 31
0.0
  0
LINE
  5
1AC
  8
0
 62
     7
 10
145.90600000000001
 20
161.58500000000001
 30
0.0
 11
145.90600000000001
 21
152.38800000000001
 31
0.0
  0
LINE
  5
1AD
  8
0
 62
     7
 10
132.40600000000001
 20
161.58500000000001
 30
0.0
 11
132.40600000000001
 21
152.38800000000001
 31
0.0
  0
LINE
  5
1AE
  8
0
 62
     7
 10
134.61699999999999
 20
161.477
 30
0.0
 11
132.40600000000001
 21
160.88499999999991
 31
0.0
  0
LINE
  5
1AF
  8
0
 62
     7
 10
132.40600000000001
 20
160.88499999999991
 30
0.0
 11
134.61699999999999
 21
160.292
 31
0.0
  0
LINE
  5
1B0
  8
0
 62
     7
 10
134.61699999999999
 20
160.292
 30
0.0
 11
134.61699999999999
 21
161.477
 31
0.0
  0
LINE
  5
1B1
  8
0
 62
     7
 10
143.6939999999999
 20
160.30600000000001
 30
0.0
 11
145.90600000000001
 21
160.899
 31
0.0
  0
LINE
  5
1B2
  8
0
 62
     7
 10
145.90600000000001
 20
160.899
 30
0.0
 11
143.6939999999999
 21
161.49199999999999
 31
0.0
  0
LINE
  5
1B3
  8
0
 62
     7
 10
143.6939999999999
 20
161.49199999999999
 30
0.0
 11
143.6939999999999
 21
160.30600000000001
 31
0.0
  0
LINE
  5
1B4
  8
0
 62
     7
 10
132.40600000000001
 20
160.88499999999991
 30
0.0
 11
145.90600000000001
 21
160.88499999999991
 31
0.0
  0
LINE
  5
1B5
  8
0
 62
     7
 10
128.09
 20
148.477
 30
0.0
 11
127.498
 21
150.6879999999999
 31
0.0
  0
LINE
  5
1B6
  8
0
 62
     7
 10
127.498
 20
150.6879999999999
 30
0.0
 11
126.905
 21
148.477
 31
0.0
  0
LINE
  5
1B7
  8
0
 62
     7
 10
126.905
 20
148.477
 30
0.0
 11
128.09
 21
148.477
 31
0.0
  0
LINE
  5
1B8
  8
0
 62
     7
 10
126.919
 20
144.15000000000001
 30
0.0
 11
127.512
 21
141.9379999999999
 31
0.0
  0
LINE
  5
1B9
  8
0
 62
     7
 10
127.512
 20
141.9379999999999
 30
0.0
 11
128.10499999999999
 21
144.15000000000001
 31
0.0
  0
LINE
  5
1BA
  8
0
 62
     7
 10
128.10499999999999
 20
144.15000000000001
 30
0.0
 11
126.919
 21
144.15000000000001
 31
0.0
  0
LINE
  5
1BB
  8
0
 62
     7
 10
127.498
 20
150.6879999999999
 30
0.0
 11
127.498
 21
141.9379999999999
 31
0.0
  0
LINE
  5
1BC
  8
0
 62
     7
 10
132.59999999999999
 20
141.9379999999999
 30
0.0
 11
126.7979999999999
 21
141.9379999999999
 31
0.0
  0
LINE
  5
1BD
  8
0
 62
     7
 10
136.9439999999999
 20
155.58799999999991
 30
0.0
 11
139.15600000000001
 21
156.18000000000001
 31
0.0
  0
LINE
  5
1BE
  8
0
 62
     7
 10
139.15600000000001
 20
156.18000000000001
 30
0.0
 11
136.9439999999999
 21
156.773
 31
0.0
  0
LINE
  5
1BF
  8
0
 62
     7
 10
136.9439999999999
 20
156.773
 30
0.0
 11
136.9439999999999
 21
155.58799999999991
 31
0.0
  0
LINE
  5
1C0
  8
0
 62
     7
 10
103.5239999999999
 20
158.30600000000001
 30
0.0
 11
105.64399999999991
 21
157.43999999999991
 31
0.0
  0
LINE
  5
1C1
  8
0
 62
     7
 10
105.64399999999991
 20
157.43999999999991
 30
0.0
 11
104.241
 21
159.25
 31
0.0
  0
LINE
  5
1C2
  8
0
 62
     7
 10
104.241
 20
159.25
 30
0.0
 11
103.5239999999999
 21
158.30600000000001
 31
0.0
  0
LINE
  5
1C3
  8
0
 62
     7
 10
112.617
 20
156.7579999999999
 30
0.0
 11
110.40600000000001
 21
156.166
 31
0.0
  0
LINE
  5
1C4
  8
0
 62
     7
 10
110.40600000000001
 20
156.166
 30
0.0
 11
112.617
 21
155.57299999999989
 31
0.0
  0
LINE
  5
1C5
  8
0
 62
     7
 10
112.617
 20
155.57299999999989
 30
0.0
 11
112.617
 21
156.7579999999999
 31
0.0
  0
LINE
  5
1C6
  8
0
 62
     7
 10
139.15600000000001
 20
156.166
 30
0.0
 11
110.40600000000001
 21
156.166
 31
0.0
  0
LINE
  5
1C7
  8
0
 62
     7
 10
110.40600000000001
 20
164.988
 30
0.0
 11
110.40600000000001
 21
155.46600000000001
 31
0.0
  0
ARC
  5
1C8
  8
0
 62
     7
 10
110.4802879999999
 20
165.84521599999991
 30
0.0
 40
9.6797160000000009
 50
219.53106
 51
269.55834499999997
  0
LINE
  5
1C9
  8
0
 62
     7
 10
105.26299999999991
 20
156.78100000000001
 30
0.0
 11
109.3429999999999
 21
163.84700000000001
 31
0.0
  0
LINE
  5
1CA
  8
0
 62
     7
 10
130.40599999999989
 20
170.6879999999999
 30
0.0
 11
130.40599999999989
 21
175.68899999999999
 31
0.0
  0
LINE
  5
1CB
  8
0
 62
     7
 10
133.65600000000001
 20
169.1879999999999
 30
0.0
 11
133.65600000000001
 21
151.68799999999999
 31
0.0
  0
LINE
  5
1CC
  8
0
 62
     7
 10
119.066
 20
170.6879999999999
 30
0.0
 11
132.15600000000001
 21
170.6879999999999
 31
0.0
  0
ARC
  5
1CD
  8
0
 62
     7
 10
132.09891099999999
 20
169.1311649999999
 30
0.0
 40
1.558219
 50
2.1024579999999999
 51
87.897531999999984
  0
LINE
  5
1CE
  8
0
 62
     7
 10
133.65600000000001
 20
180.4379999999999
 30
0.0
 11
133.65600000000001
 21
177.1879999999999
 31
0.0
  0
LINE
  5
1CF
  8
0
 62
     7
 10
119.066
 20
175.6879999999999
 30
0.0
 11
132.15600000000001
 21
175.6879999999999
 31
0.0
  0
ARC
  5
1D0
  8
0
 62
     7
 10
132.09890100000001
 20
177.2454129999999
 30
0.0
 40
1.5582290000000001
 50
272.10281700000002
 51
357.89719300000002
  0
LINE
  5
1D1
  8
0
 62
     7
 10
114.736
 20
168.1879999999999
 30
0.0
 11
112.5709999999999
 21
164.4379999999999
 31
0.0
  0
ARC
  5
1D2
  8
0
 62
     7
 10
119.124325
 20
165.58738299999999
 30
0.0
 40
5.101284999999999
 50
90.654988000000003
 51
149.34693100000001
  0
LINE
  5
1D3
  8
0
  6
AIGENLINE002
 62
     7
 10
119.066
 20
173.1879999999999
 30
0.0
 11
139.15600000000001
 21
173.1879999999999
 31
0.0
  0
LINE
  5
1D4
  8
0
  6
AIGENLINE002
 62
     7
 10
112.5709999999999
 20
169.4379999999999
 30
0.0
 11
109.8
 21
164.63900000000001
 31
0.0
  0
ARC
  5
1D5
  8
0
  6
AIGENLINE002
 62
     7
 10
119.15347800000001
 20
165.53691399999991
 30
0.0
 40
7.652042999999999
 50
90.654945999999995
 51
149.347936
  0
LINE
  5
1D6
  8
0
 62
     7
 10
110.40600000000001
 20
170.6879999999999
 30
0.0
 11
108.241
 21
166.9379999999999
 31
0.0
  0
ARC
  5
1D7
  8
0
 62
     7
 10
119.1826299999999
 20
165.4863489999999
 30
0.0
 40
10.202550999999991
 50
90.654930000000007
 51
149.3469879999999
  0
LINE
  5
1D8
  8
0
 62
     7
 10
108.241
 20
166.9379999999999
 30
0.0
 11
112.5709999999999
 21
164.4379999999999
 31
0.0
  0
LINE
  5
1D9
  8
0
 62
     7
 10
144.65600000000001
 20
180.4379999999999
 30
0.0
 11
144.65600000000001
 21
151.68799999999999
 31
0.0
  0
LINE
  5
1DA
  8
0
 62
     7
 10
145.90600000000001
 20
150.6879999999999
 30
0.0
 11
145.90600000000001
 21
151.68799999999999
 31
0.0
  0
LINE
  5
1DB
  8
0
 62
     7
 10
132.40600000000001
 20
151.68799999999999
 30
0.0
 11
132.40600000000001
 21
150.6879999999999
 31
0.0
  0
LINE
  5
1DC
  8
0
 62
     7
 10
132.40600000000001
 20
151.68799999999999
 30
0.0
 11
145.90600000000001
 21
151.68799999999999
 31
0.0
  0
LINE
  5
1DD
  8
0
 62
     7
 10
132.40600000000001
 20
150.6879999999999
 30
0.0
 11
145.90600000000001
 21
150.6879999999999
 31
0.0
  0
LINE
  5
1DE
  8
0
  6
AIGENLINE001
 62
     7
 10
145.29599999999999
 20
180.76599999999999
 30
0.0
 11
139.3549999999999
 21
180.89699999999999
 31
0.0
  0
LINE
  5
1DF
  8
0
  6
AIGENLINE001
 62
     7
 10
145.29599999999999
 20
180.76599999999999
 30
0.0
 11
147.49000000000001
 21
185.81
 31
0.0
  0
LINE
  5
1E0
  8
0
  6
AIGENLINE001
 62
     7
 10
134.31100000000001
 20
183.08999999999989
 30
0.0
 11
135.00999999999991
 21
184.69499999999991
 31
0.0
  0
LINE
  5
1E1
  8
0
  6
AIGENLINE001
 62
     7
 10
120.178
 20
191.964
 30
0.0
 11
134.62100000000001
 21
185.68199999999999
 31
0.0
  0
ARC
  5
1E2
  8
0
  6
AIGENLINE001
 62
     7
 10
134.28309899999991
 20
184.9790999999999
 30
0.0
 40
0.780083
 50
338.65384999999992
 51
64.326978999999994
  0
LINE
  5
1E3
  8
0
  6
AIGENLINE001
 62
     7
 10
136.904
 20
189.0509999999999
 30
0.0
 11
137.40299999999991
 21
190.197
 31
0.0
  0
LINE
  5
1E4
  8
0
  6
AIGENLINE001
 62
     7
 10
121.4739999999999
 20
194.94499999999991
 30
0.0
 11
135.91699999999989
 21
188.66200000000001
 31
0.0
  0
ARC
  5
1E5
  8
0
  6
AIGENLINE001
 62
     7
 10
136.20095499999999
 20
189.3896159999999
 30
0.0
 40
0.780708
 50
248.7073529999999
 51
334.30811999999997
  0
LINE
  5
1E6
  8
0
  6
AIGENLINE001
 62
     7
 10
120.178
 20
191.964
 30
0.0
 11
121.4739999999999
 21
194.94499999999991
 31
0.0
  0
LINE
  5
1E7
  8
0
  6
AIGENLINE001
 62
     7
 10
134.31100000000001
 20
183.08999999999989
 30
0.0
 11
139.3549999999999
 21
180.89699999999999
 31
0.0
  0
LINE
  5
1E8
  8
0
  6
AIGENLINE001
 62
     7
 10
137.40299999999991
 20
190.197
 30
0.0
 11
147.49000000000001
 21
185.81
 31
0.0
  0
ARC
  5
1E9
  8
0
 62
     7
 10
139.18813
 20
179.57033799999991
 30
0.0
 40
5.0322639999999987
 50
164.22284500000001
 51
170.05930499999991
  0
ARC
  5
1EA
  8
0
 62
     7
 10
139.13580200000001
 20
179.56605200000001
 30
0.0
 40
5.021329999999999
 50
10.012202
 51
36.810415999999989
  0
LINE
  5
1EB
  8
0
 62
     7
 10
144.65600000000001
 20
183.1879999999999
 30
0.0
 11
139.15600000000001
 21
180.9379999999999
 31
0.0
  0
LINE
  5
1EC
  8
0
 62
     7
 10
144.65600000000001
 20
183.1879999999999
 30
0.0
 11
144.65600000000001
 21
188.6879999999999
 31
0.0
  0
LINE
  5
1ED
  8
0
 62
     7
 10
133.65600000000001
 20
180.4379999999999
 30
0.0
 11
144.65600000000001
 21
180.4379999999999
 31
0.0
  0
LINE
  5
1EE
  8
0
 62
     7
 10
133.65600000000001
 20
180.9379999999999
 30
0.0
 11
133.65600000000001
 21
182.6879999999999
 31
0.0
  0
LINE
  5
1EF
  8
0
 62
     7
 10
117.15600000000001
 20
183.4379999999999
 30
0.0
 11
132.90600000000001
 21
183.4379999999999
 31
0.0
  0
ARC
  5
1F0
  8
0
 62
     7
 10
132.8770979999999
 20
182.65938700000001
 30
0.0
 40
0.779521
 50
2.130561999999999
 51
87.869427999999999
  0
LINE
  5
1F1
  8
0
 62
     7
 10
133.65600000000001
 20
187.43799999999999
 30
0.0
 11
133.65600000000001
 21
188.6879999999999
 31
0.0
  0
LINE
  5
1F2
  8
0
 62
     7
 10
117.15600000000001
 20
186.6879999999999
 30
0.0
 11
132.90600000000001
 21
186.6879999999999
 31
0.0
  0
ARC
  5
1F3
  8
0
 62
     7
 10
132.8770979999999
 20
187.46747500000001
 30
0.0
 40
0.779521
 50
272.13057199999997
 51
357.86943799999989
  0
LINE
  5
1F4
  8
0
 62
     7
 10
132.15600000000001
 20
183.4379999999999
 30
0.0
 11
132.15600000000001
 21
186.6879999999999
 31
0.0
  0
LINE
  5
1F5
  8
0
 62
     7
 10
117.15600000000001
 20
183.4379999999999
 30
0.0
 11
117.15600000000001
 21
186.6879999999999
 31
0.0
  0
LINE
  5
1F6
  8
0
  6
AIGENLINE002
 62
     7
 10
139.15600000000001
 20
55.121499999999997
 30
0.0
 11
139.15600000000001
 21
159.904
 31
0.0
  0
LINE
  5
1F7
  8
0
  6
AIGENLINE002
 62
     7
 10
139.15600000000001
 20
165.78899999999999
 30
0.0
 11
139.15600000000001
 21
191.22099999999989
 31
0.0
  0
LINE
  5
1F8
  8
0
 62
     7
 10
133.65600000000001
 20
180.9379999999999
 30
0.0
 11
139.15600000000001
 21
180.9379999999999
 31
0.0
  0
LINE
  5
1F9
  8
0
 62
     7
 10
133.65600000000001
 20
188.6879999999999
 30
0.0
 11
144.65600000000001
 21
188.6879999999999
 31
0.0
  0
LINE
  5
1FA
  8
0
  6
AIGENLINE002
 62
     7
 10
58.898400000000002
 20
131.33500000000001
 30
0.0
 11
58.898400000000002
 21
191.22099999999989
 31
0.0
  0
LINE
  5
1FB
  8
0
 62
     7
 10
146.26900000000001
 20
245.2649999999999
 30
0.0
 11
152.05600000000001
 21
245.2649999999999
 31
0.0
  0
LINE
  5
1FC
  8
0
 62
     7
 10
134.91800000000001
 20
233.077
 30
0.0
 11
136.06200000000001
 21
235.059
 31
0.0
  0
LINE
  5
1FD
  8
0
 62
     7
 10
136.06200000000001
 20
235.059
 30
0.0
 11
134.07900000000001
 21
233.91499999999999
 31
0.0
  0
LINE
  5
1FE
  8
0
 62
     7
 10
134.07900000000001
 20
233.91499999999999
 30
0.0
 11
134.91800000000001
 21
233.077
 31
0.0
  0
LINE
  5
1FF
  8
0
 62
     7
 10
143.39500000000001
 20
243.22900000000001
 30
0.0
 11
142.25
 21
241.24700000000001
 31
0.0
  0
LINE
  5
200
  8
0
 62
     7
 10
142.25
 20
241.24700000000001
 30
0.0
 11
144.233
 21
242.39099999999991
 31
0.0
  0
LINE
  5
201
  8
0
 62
     7
 10
144.233
 20
242.39099999999991
 30
0.0
 11
143.39500000000001
 21
243.22900000000001
 31
0.0
  0
LINE
  5
202
  8
0
 62
     7
 10
146.26900000000001
 20
245.2649999999999
 30
0.0
 11
132.08299999999991
 21
231.0799999999999
 31
0.0
  0
LINE
  5
203
  8
0
  6
AIGENLINE002
 62
     7
 10
139.15600000000001
 20
244.47399999999999
 30
0.0
 11
139.15600000000001
 21
231.322
 31
0.0
  0
ARC
  5
204
  8
0
 62
     7
 10
139.156037
 20
238.15286
 30
0.0
 40
4.3751269999999991
 50
0.002266
 51
90.002235999999996
  0
ARC
  5
205
  8
0
 62
     7
 10
139.15603899999991
 20
238.15320399999999
 30
0.0
 40
4.374782999999999
 50
90.002256000000017
 51
180.00226599999991
  0
ARC
  5
206
  8
0
 62
     7
 10
139.156037
 20
238.15286
 30
0.0
 40
4.3747809999999987
 50
179.997714
 51
269.99776400000002
  0
ARC
  5
207
  8
0
 62
     7
 10
139.156037
 20
238.15320600000001
 30
0.0
 40
4.3751269999999991
 50
269.99776400000002
 51
359.99773399999992
  0
LINE
  5
208
  8
0
  6
AIGENLINE002
 62
     7
 10
132.21700000000001
 20
238.15299999999999
 30
0.0
 11
145.93299999999999
 21
238.15299999999999
 31
0.0
  0
LINE
  5
209
  8
0
 62
     7
 10
58.898400000000002
 20
136.1879999999999
 30
0.0
 11
58.898400000000002
 21
133.4379999999999
 31
0.0
  0
LINE
  5
20A
  8
0
 62
     7
 10
57.398400000000002
 20
139.6879999999999
 30
0.0
 11
57.398400000000002
 21
133.4379999999999
 31
0.0
  0
LINE
  5
20B
  8
0
 62
     7
 10
60.398400000000002
 20
139.6879999999999
 30
0.0
 11
60.398400000000002
 21
133.4379999999999
 31
0.0
  0
LINE
  5
20C
  8
0
 62
     7
 10
57.398400000000002
 20
133.4379999999999
 30
0.0
 11
60.398400000000002
 21
133.4379999999999
 31
0.0
  0
LINE
  5
20D
  8
0
 62
     7
 10
57.398400000000002
 20
136.1879999999999
 30
0.0
 11
60.398400000000002
 21
136.1879999999999
 31
0.0
  0
LINE
  5
20E
  8
0
 62
     7
 10
60.398400000000002
 20
139.6879999999999
 30
0.0
 11
61.398200000000003
 21
140.0629999999999
 31
0.0
  0
LINE
  5
20F
  8
0
 62
     7
 10
56.398299999999992
 20
140.0629999999999
 30
0.0
 11
57.398400000000002
 21
139.6879999999999
 31
0.0
  0
LINE
  5
210
  8
0
 62
     7
 10
57.398400000000002
 20
139.6879999999999
 30
0.0
 11
60.398400000000002
 21
139.6879999999999
 31
0.0
  0
LINE
  5
211
  8
0
 62
     7
 10
52.398200000000003
 20
141.9379999999999
 30
0.0
 11
52.398200000000003
 21
140.0629999999999
 31
0.0
  0
LINE
  5
212
  8
0
 62
     7
 10
65.398300000000006
 20
141.9379999999999
 30
0.0
 11
65.398300000000006
 21
140.0629999999999
 31
0.0
  0
LINE
  5
213
  8
0
 62
     7
 10
52.398200000000003
 20
140.0629999999999
 30
0.0
 11
65.398300000000006
 21
140.0629999999999
 31
0.0
  0
LINE
  5
214
  8
0
 62
     7
 10
52.398200000000003
 20
141.43899999999999
 30
0.0
 11
65.398300000000006
 21
141.43899999999999
 31
0.0
  0
LINE
  5
215
  8
0
 62
     7
 10
52.398200000000003
 20
141.9379999999999
 30
0.0
 11
65.398300000000006
 21
141.9379999999999
 31
0.0
  0
LINE
  5
216
  8
0
 62
     7
 10
143.43000000000001
 20
49.761600000000001
 30
0.0
 11
141.21799999999999
 21
49.1691
 31
0.0
  0
LINE
  5
217
  8
0
 62
     7
 10
141.21799999999999
 20
49.1691
 30
0.0
 11
143.43000000000001
 21
48.577199999999998
 31
0.0
  0
LINE
  5
218
  8
0
 62
     7
 10
143.43000000000001
 20
48.577199999999998
 30
0.0
 11
143.43000000000001
 21
49.761600000000001
 31
0.0
  0
LINE
  5
219
  8
0
 62
     7
 10
134.8829999999999
 20
48.591000000000001
 30
0.0
 11
137.0929999999999
 21
49.183500000000002
 31
0.0
  0
LINE
  5
21A
  8
0
 62
     7
 10
137.0929999999999
 20
49.183500000000002
 30
0.0
 11
134.8829999999999
 21
49.7761
 31
0.0
  0
LINE
  5
21B
  8
0
 62
     7
 10
134.8829999999999
 20
49.7761
 30
0.0
 11
134.8829999999999
 21
48.591000000000001
 31
0.0
  0
LINE
  5
21C
  8
0
 62
     7
 10
126.583
 20
49.176600000000001
 30
0.0
 11
144.934
 21
49.176600000000001
 31
0.0
  0
LINE
  5
21D
  8
0
 62
     7
 10
139.15600000000001
 20
57.4373
 30
0.0
 11
139.15600000000001
 21
60.0625
 31
0.0
  0
LINE
  5
21E
  8
0
 62
     7
 10
136.78
 20
57.4373
 30
0.0
 11
136.78
 21
60.0625
 31
0.0
  0
ARC
  5
21F
  8
0
 62
     7
 10
142.404122
 20
79.88617099999999
 30
0.0
 40
23.142506999999998
 50
255.936249
 51
256.95002199999999
  0
ARC
  5
220
  8
0
 62
     7
 10
138.27504400000001
 20
62.191029999999998
 30
0.0
 40
4.9720930000000001
 50
257.25949700000001
 51
263.09643
  0
ARC
  5
221
  8
0
 62
     7
 10
137.99144599999991
 20
60.067021999999987
 30
0.0
 40
2.8295180000000002
 50
263.62774799999988
 51
269.79011099999991
  0
ARC
  5
222
  8
0
 62
     7
 10
137.97976
 20
59.758497999999989
 30
0.0
 40
2.5209749999999991
 50
270.03002299999991
 51
277.20703900000001
  0
ARC
  5
223
  8
0
 62
     7
 10
137.76788500000001
 20
61.553435
 30
0.0
 40
4.3283379999999987
 50
277.008714
 51
283.59966600000001
  0
ARC
  5
224
  8
0
 62
     7
 10
134.9857639999999
 20
73.62497900000001
 30
0.0
 40
16.716142999999992
 50
283.13919599999991
 51
284.445897
  0
ARC
  5
225
  8
0
 62
     7
 10
137.5369729999999
 20
55.328392000000001
 30
0.0
 40
5.0032759999999996
 50
71.121235999999996
 51
78.868915000000001
  0
ARC
  5
226
  8
0
 62
     7
 10
137.950053
 20
57.274599000000002
 30
0.0
 40
3.014079999999999
 50
79.431341000000003
 51
89.410163999999995
  0
ARC
  5
227
  8
0
 62
     7
 10
137.981426
 20
57.405654000000013
 30
0.0
 40
2.8828640000000001
 50
90.006844999999998
 51
100.852923
  0
ARC
  5
228
  8
0
 62
     7
 10
138.226145
 20
55.936703000000001
 30
0.0
 40
4.3717699999999988
 50
100.3779049999999
 51
109.3104749999999
  0
ARC
  5
229
  8
0
 62
     7
 10
144.733621
 20
79.702745999999991
 30
0.0
 40
22.953423999999998
 50
255.9361529999999
 51
256.95859000000002
  0
ARC
  5
22A
  8
0
 62
     7
 10
140.652536
 20
62.201421999999987
 30
0.0
 40
4.9826600000000001
 50
257.2639299999999
 51
263.08700699999991
  0
ARC
  5
22B
  8
0
 62
     7
 10
140.36638999999991
 20
60.058533999999987
 30
0.0
 40
2.8210309999999992
 50
263.617998
 51
269.78492499999987
  0
ARC
  5
22C
  8
0
 62
     7
 10
140.35448600000001
 20
59.760959999999997
 30
0.0
 40
2.523436999999999
 50
270.02984600000002
 51
277.20351699999992
  0
ARC
  5
22D
  8
0
 62
     7
 10
140.14250699999991
 20
61.556332999999988
 30
0.0
 40
4.3312460000000002
 50
277.00742700000001
 51
283.59563300000002
  0
ARC
  5
22E
  8
0
 62
     7
 10
137.29706100000001
 20
73.903072999999992
 30
0.0
 40
17.001439000000001
 50
283.13524999999993
 51
284.42132700000002
  0
LINE
  5
22F
  8
0
 62
     7
 10
141.53100000000001
 20
57.4373
 30
0.0
 11
141.53100000000001
 21
60.0625
 31
0.0
  0
ARC
  5
230
  8
0
 62
     7
 10
139.90660600000001
 20
55.305593999999992
 30
0.0
 40
5.0267169999999988
 50
71.143041000000011
 51
78.857030000000009
  0
ARC
  5
231
  8
0
 62
     7
 10
140.32500300000001
 20
57.271940000000001
 30
0.0
 40
3.016735999999999
 50
79.436267999999998
 51
89.415066000000024
  0
ARC
  5
232
  8
0
 62
     7
 10
140.35614599999991
 20
57.411301999999999
 30
0.0
 40
2.877216999999999
 50
90.006888999999987
 51
100.863602
  0
ARC
  5
233
  8
0
 62
     7
 10
140.60343999999989
 20
55.930267000000008
 30
0.0
 40
4.3784669999999988
 50
100.388957
 51
109.305924
  0
LINE
  5
234
  8
0
 62
     7
 10
141.53100000000001
 20
57.23749999999999
 30
0.0
 11
141.53100000000001
 21
57.4373
 31
0.0
  0
LINE
  5
235
  8
0
 62
     7
 10
141.53100000000001
 20
60.0625
 30
0.0
 11
141.53100000000001
 21
60.288499999999999
 31
0.0
  0
LINE
  5
236
  8
0
 62
     7
 10
136.78
 20
57.23749999999999
 30
0.0
 11
136.78
 21
57.4373
 31
0.0
  0
LINE
  5
237
  8
0
 62
     7
 10
136.78
 20
60.0625
 30
0.0
 11
136.78
 21
60.288499999999999
 31
0.0
  0
LINE
  5
238
  8
0
 62
     7
 10
140.40600000000001
 20
60.462800000000001
 30
0.0
 11
139.15600000000001
 21
60.462800000000001
 31
0.0
  0
LINE
  5
239
  8
0
 62
     7
 10
139.15600000000001
 20
60.462800000000001
 30
0.0
 11
137.90600000000001
 21
60.462800000000001
 31
0.0
  0
LINE
  5
23A
  8
0
 62
     7
 10
141.53100000000001
 20
57.23749999999999
 30
0.0
 11
141.45599999999999
 21
57.187899999999999
 31
0.0
  0
LINE
  5
23B
  8
0
 62
     7
 10
141.45599999999999
 20
57.187899999999999
 30
0.0
 11
136.85599999999991
 21
57.187899999999999
 31
0.0
  0
LINE
  5
23C
  8
0
 62
     7
 10
136.85599999999991
 20
57.187899999999999
 30
0.0
 11
136.78
 21
57.23749999999999
 31
0.0
  0
ARC
  5
23D
  8
0
 62
     7
 10
141.51277699999989
 20
60.254776999999997
 30
0.0
 40
0.038479
 50
61.269488000000003
 51
90.14337900000001
  0
ARC
  5
23E
  8
0
 62
     7
 10
141.35118799999989
 20
58.935737000000003
 30
0.0
 40
1.3670910000000001
 50
83.215862000000001
 51
88.382508000000001
  0
ARC
  5
23F
  8
0
 62
     7
 10
140.84328300000001
 20
46.717985999999989
 30
0.0
 40
13.595285000000001
 50
87.696236999999996
 51
89.304100000000005
  0
ARC
  5
240
  8
0
 62
     7
 10
139.9301649999999
 20
-14.968563
 30
0.0
 40
75.288551999999996
 50
89.179406999999998
 51
89.888685999999993
  0
ARC
  5
241
  8
0
 62
     7
 10
139.23187599999989
 20
-317.78532000000001
 30
0.0
 40
378.106111
 50
89.872012999999995
 51
90.360083999999986
  0
LINE
  5
242
  8
0
 62
     7
 10
136.85599999999991
 20
60.313299999999998
 30
0.0
 11
136.78
 21
60.288499999999999
 31
0.0
  0
LINE
  5
243
  8
0
 62
     7
 10
140.70599999999999
 20
60.313299999999998
 30
0.0
 11
140.70599999999999
 21
60.438000000000002
 31
0.0
  0
LINE
  5
244
  8
0
 62
     7
 10
140.70599999999999
 20
60.438000000000002
 30
0.0
 11
137.60599999999999
 21
60.438000000000002
 31
0.0
  0
LINE
  5
245
  8
0
 62
     7
 10
137.60599999999999
 20
60.313299999999998
 30
0.0
 11
137.60599999999999
 21
60.438000000000002
 31
0.0
  0
LINE
  5
246
  8
0
 62
     7
 10
137.90600000000001
 20
60.462800000000001
 30
0.0
 11
137.53100000000001
 21
60.763899999999992
 31
0.0
  0
LINE
  5
247
  8
0
 62
     7
 10
137.53100000000001
 20
60.763899999999992
 30
0.0
 11
137.50599999999989
 21
61.263500000000001
 31
0.0
  0
LINE
  5
248
  8
0
 62
     7
 10
140.80699999999999
 20
61.263500000000001
 30
0.0
 11
140.78100000000001
 21
60.763899999999992
 31
0.0
  0
LINE
  5
249
  8
0
 62
     7
 10
140.78100000000001
 20
60.763899999999992
 30
0.0
 11
140.40600000000001
 21
60.462800000000001
 31
0.0
  0
LINE
  5
24A
  8
0
 62
     7
 10
140.60599999999991
 20
61.688600000000001
 30
0.0
 11
137.70699999999999
 21
61.688600000000001
 31
0.0
  0
LINE
  5
24B
  8
0
 62
     7
 10
137.70699999999999
 20
61.688600000000001
 30
0.0
 11
137.50599999999989
 21
61.263500000000001
 31
0.0
  0
LINE
  5
24C
  8
0
 62
     7
 10
140.80699999999999
 20
61.263500000000001
 30
0.0
 11
140.60599999999991
 21
61.688600000000001
 31
0.0
  0
LINE
  5
24D
  8
0
 62
     7
 10
140.60599999999991
 20
63.688800000000001
 30
0.0
 11
137.70699999999999
 21
63.688800000000001
 31
0.0
  0
LINE
  5
24E
  8
0
 62
     7
 10
137.0929999999999
 20
48.787300000000002
 30
0.0
 11
137.0929999999999
 21
56.747599999999998
 31
0.0
  0
LINE
  5
24F
  8
0
 62
     7
 10
141.21799999999999
 20
48.787300000000002
 30
0.0
 11
141.21799999999999
 21
56.747599999999998
 31
0.0
  0
LINE
  5
250
  8
0
 62
     7
 10
137.70699999999999
 20
61.688600000000001
 30
0.0
 11
137.70699999999999
 21
63.688800000000001
 31
0.0
  0
LINE
  5
251
  8
0
 62
     7
 10
140.60599999999991
 20
61.688600000000001
 30
0.0
 11
140.60599999999991
 21
63.688800000000001
 31
0.0
  0
LINE
  5
252
  8
0
 62
     7
 10
137.70699999999999
 20
63.688800000000001
 30
0.0
 11
137.53100000000001
 21
63.9893
 31
0.0
  0
LINE
  5
253
  8
0
 62
     7
 10
140.78100000000001
 20
63.9893
 30
0.0
 11
140.60599999999991
 21
63.688800000000001
 31
0.0
  0
LINE
  5
254
  8
0
 62
     7
 10
137.53100000000001
 20
63.9893
 30
0.0
 11
137.48099999999991
 21
64.11399999999999
 31
0.0
  0
LINE
  5
255
  8
0
 62
     7
 10
137.48099999999991
 20
64.11399999999999
 30
0.0
 11
137.48099999999991
 21
64.238699999999994
 31
0.0
  0
ARC
  5
256
  8
0
 62
     7
 10
140.23826199999999
 20
64.297518000000011
 30
0.0
 40
0.620564
 50
339.65870099999989
 51
354.56034
  0
ARC
  5
257
  8
0
 62
     7
 10
140.16100599999999
 20
64.306430000000006
 30
0.0
 40
0.6963460000000001
 50
332.90463599999993
 51
341.18094600000001
  0
LINE
  5
258
  8
0
 62
     7
 10
140.85599999999999
 20
64.238699999999994
 30
0.0
 11
140.85599999999999
 21
64.939400000000006
 31
0.0
  0
LINE
  5
259
  8
0
 62
     7
 10
140.85599999999999
 20
64.939400000000006
 30
0.0
 11
137.48099999999991
 21
64.939400000000006
 31
0.0
  0
LINE
  5
25A
  8
0
 62
     7
 10
137.48099999999991
 20
64.238699999999994
 30
0.0
 11
137.48099999999991
 21
64.939400000000006
 31
0.0
  0
TEXT
  5
25B
  8
_________2
 62
     7
 10
24.586400000000001
 20
0.707627
 30
0.0
 40
3.9357000000000002
  1
（社）日本水道協会認証品
 41
0.5
  0
TEXT
  5
25C
  8
_________2
 62
     7
 10
109.179
 20
24.226099999999999
 30
0.0
 40
3.9357000000000002
  1
パン 湯水混合水栓
 41
0.5
  0
LINE
  5
25D
  8
_________2
 62
     7
 10
205.30099999999999
 20
127.411
 30
0.0
 11
183.55099999999999
 21
127.411
 31
0.0
  0
LINE
  5
25E
  8
_________2
 62
     7
 10
100.2999999999999
 20
-4.0910799999999998
 30
0.0
 11
100.2999999999999
 21
-21.070999999999991
 31
0.0
  0
LINE
  5
25F
  8
_________2
 62
     7
 10
100.2999999999999
 20
275.93099999999993
 30
0.0
 11
100.2999999999999
 21
258.911
 31
0.0
  0
LINE
  5
260
  8
_________2
 62
     7
 10
17.049199999999988
 20
127.411
 30
0.0
 11
-4.7012099999999988
 21
127.411
 31
0.0
  0
LINE
  5
261
  8
_________2
 62
     7
 10
76.740700000000004
 20
29.8047
 30
0.0
 11
74.554400000000001
 21
29.8047
 31
0.0
  0
LINE
  5
262
  8
_________2
 62
     7
 10
77.2333
 20
29.8047
 30
0.0
 11
76.981099999999984
 21
29.8047
 31
0.0
  0
LINE
  5
263
  8
_________2
 62
     7
 10
77.725999999999999
 20
29.8047
 30
0.0
 11
80.650899999999993
 21
29.8047
 31
0.0
  0
LINE
  5
264
  8
_________2
 62
     7
 10
77.2333
 20
29.8047
 30
0.0
 11
77.485500000000002
 21
29.8047
 31
0.0
  0
LINE
  5
265
  8
_________2
 62
     7
 10
70.837100000000007
 20
29.8047
 30
0.0
 11
68.650199999999998
 21
29.8047
 31
0.0
  0
LINE
  5
266
  8
_________2
 62
     7
 10
71.329099999999997
 20
29.8047
 30
0.0
 11
71.077600000000004
 21
29.8047
 31
0.0
  0
LINE
  5
267
  8
_________2
 62
     7
 10
71.329099999999997
 20
30.2974
 30
0.0
 11
71.329099999999997
 21
32.484400000000001
 31
0.0
  0
LINE
  5
268
  8
_________2
 62
     7
 10
71.329099999999997
 20
29.8047
 30
0.0
 11
71.329099999999997
 21
30.057300000000001
 31
0.0
  0
LINE
  5
269
  8
_________2
 62
     7
 10
71.821700000000007
 20
29.8047
 30
0.0
 11
74.008700000000005
 21
29.8047
 31
0.0
  0
LINE
  5
26A
  8
_________2
 62
     7
 10
71.329099999999997
 20
29.8047
 30
0.0
 11
71.581299999999985
 21
29.8047
 31
0.0
  0
LINE
  5
26B
  8
_________2
 62
     7
 10
71.329099999999997
 20
29.312799999999999
 30
0.0
 11
71.329099999999997
 21
27.126200000000001
 31
0.0
  0
LINE
  5
26C
  8
_________2
 62
     7
 10
71.329099999999997
 20
29.8047
 30
0.0
 11
71.329099999999997
 21
29.5532
 31
0.0
  0
LINE
  5
26D
  8
_________2
 62
     7
 10
75.040199999999999
 20
28.5852
 30
0.0
 11
80.218199999999996
 21
27.720400000000001
 31
0.0
  0
LINE
  5
26E
  8
_________2
 62
     7
 10
75.040199999999999
 20
31.024699999999999
 30
0.0
 11
80.218199999999996
 21
31.8901
 31
0.0
  0
LINE
  5
26F
  8
_________2
 62
     7
 10
80.218199999999996
 20
27.720400000000001
 30
0.0
 11
80.218199999999996
 21
31.8901
 31
0.0
  0
LINE
  5
270
  8
_________2
 62
     7
 10
75.040199999999999
 20
28.5852
 30
0.0
 11
75.040199999999999
 21
31.024699999999999
 31
0.0
  0
ARC
  5
271
  8
_________2
 62
     7
 10
71.282501999999994
 20
29.757801000000001
 30
0.0
 40
1.267714
 50
2.1220840000000001
 51
87.894083999999992
  0
ARC
  5
272
  8
_________2
 62
     7
 10
71.375640000000004
 20
29.758545999999999
 30
0.0
 40
1.2669680000000001
 50
92.105782999999988
 51
177.91037
  0
ARC
  5
273
  8
_________2
 62
     7
 10
71.376013999999998
 20
29.851671
 30
0.0
 40
1.2673680000000001
 50
182.12203600000001
 51
267.877993
  0
ARC
  5
274
  8
_________2
 62
     7
 10
71.282195999999999
 20
29.852347999999999
 30
0.0
 40
1.2680439999999991
 50
272.11916400000001
 51
357.84848499999993
  0
ARC
  5
275
  8
_________2
 62
     7
 10
71.248716999999985
 20
29.724731999999989
 30
0.0
 40
2.1668310000000002
 50
2.1161439999999989
 51
87.874379000000005
  0
ARC
  5
276
  8
_________2
 62
     7
 10
71.408756000000011
 20
29.726146
 30
0.0
 40
2.165392999999999
 50
92.108508999999998
 51
177.91986499999999
  0
ARC
  5
277
  8
_________2
 62
     7
 10
71.409094999999994
 20
29.884751999999999
 30
0.0
 40
2.1657829999999998
 50
182.117133
 51
267.88289700000001
  0
ARC
  5
278
  8
_________2
 62
     7
 10
71.249115000000003
 20
29.885429999999989
 30
0.0
 40
2.1664590000000001
 50
272.11546800000002
 51
357.86560400000002
  0
TEXT
  5
279
  8
_________2
 62
     7
 10
104.605
 20
1.6794899999999999
 30
0.0
 40
3.0923400000000001
  1
図番
 41
0.5
  0
LINE
  5
27A
  8
_________2
 62
     7
 10
103.55
 20
5.9087199999999989
 30
0.0
 11
183.55099999999999
 21
5.9087199999999989
 31
0.0
  0
TEXT
  5
27B
  8
_________2
 62
     7
 10
104.605
 20
11.679299999999991
 30
0.0
 40
3.0923400000000001
  1
品番
 41
0.5
  0
TEXT
  5
27C
  8
_________2
 62
     7
 10
104.605
 20
31.8184
 30
0.0
 40
3.0923400000000001
  1
名称
 41
0.5
  0
TEXT
  5
27D
  8
_________2
 62
     7
 10
91.844758333333345
 20
26.822299999999998
 30
0.0
 40
3.6545800000000002
  1
mm
 41
0.5
 72
     1
 11
93.367500000000007
 21
26.822299999999998
 31
0.0
  0
TEXT
  5
27E
  8
_________2
 62
     7
 10
85.642899999999983
 20
31.8184
 30
0.0
 40
3.0923400000000001
  1
単位
 41
0.5
  0
TEXT
  5
27F
  8
_________2
 62
     7
 10
85.642899999999983
 20
19.410799999999991
 30
0.0
 40
3.0923400000000001
  1
尺度
 41
0.5
  0
TEXT
  5
280
  8
_________2
 62
     7
 10
90.548458666666676
 20
13.218199999999991
 30
0.0
 40
3.6545800000000002
  1
1 ： 4
 41
0.5
 72
     1
 11
93.959400000000016
 21
13.218199999999991
 31
0.0
  0
TEXT
  5
281
  8
_________2
 62
     7
 10
137.97442499999991
 20
9.1082000000000001
 30
0.0
 40
3.9357000000000002
  1
ZU6242
 41
0.5
 72
     1
 11
143.55000000000001
 21
9.1082000000000001
 31
0.0
  0
TEXT
  5
282
  8
_________2
 62
     7
 10
137.97442499999991
 20
-0.8926299999999999
 30
0.0
 40
3.9357000000000002
  1
ZU6242
 41
0.5
 72
     1
 11
143.55000000000001
 21
-0.8926299999999999
 31
0.0
  0
TEXT
  5
283
  8
_________2
 62
     7
 10
39.42500033333333
 20
13.603400000000001
 30
0.0
 40
3.6545800000000002
  1
早川
 41
0.5
 72
     1
 11
41.313200000000002
 21
13.603400000000001
 31
0.0
  0
TEXT
  5
284
  8
_________2
 62
     7
 10
20.790090666666661
 20
13.603400000000001
 30
0.0
 40
3.6545800000000002
  1
菅原
 41
0.5
 72
     1
 11
22.73919999999999
 21
13.603400000000001
 31
0.0
  0
TEXT
  5
285
  8
_________2
 62
     7
 10
67.785399999999996
 20
13.218199999999991
 30
0.0
 40
3.6545800000000002
  1
14.01.14
 41
0.5
  0
TEXT
  5
286
  8
_________2
 62
     7
 10
66.592699999999994
 20
19.410799999999991
 30
0.0
 40
3.0923400000000001
  1
日付
 41
0.5
  0
TEXT
  5
287
  8
_________2
 62
     7
 10
29.638999999999999
 20
19.410799999999991
 30
0.0
 40
3.0923400000000001
  1
検図
 41
0.5
  0
TEXT
  5
288
  8
_________2
 62
     7
 10
18.020700000000001
 20
5.21143
 30
0.0
 40
3.0923400000000001
  1
備考
 41
0.5
  0
TEXT
  5
289
  8
_________2
 62
     7
 10
18.020700000000001
 20
19.410799999999991
 30
0.0
 40
3.0923400000000001
  1
製図
 41
0.5
  0
TEXT
  5
28A
  8
_________2
 62
     7
 10
23.788165333333328
 20
27.936800000000002
 30
0.0
 40
4.4979399999999989
  1
セラトレーディング株式会社
 41
0.5
 72
     1
 11
41.180199999999999
 21
27.936800000000002
 31
0.0
  0
LINE
  5
28B
  8
_________2
 62
     7
 10
183.55099999999999
 20
-4.0910799999999998
 30
0.0
 11
17.049199999999988
 21
-4.0910799999999998
 31
0.0
  0
LINE
  5
28C
  8
_________2
 62
     7
 10
17.049199999999988
 20
-4.0910799999999998
 30
0.0
 11
17.049199999999988
 21
258.911
 31
0.0
  0
LINE
  5
28D
  8
_________2
 62
     7
 10
17.049199999999988
 20
258.911
 30
0.0
 11
183.55099999999999
 21
258.911
 31
0.0
  0
LINE
  5
28E
  8
_________2
 62
     7
 10
183.55099999999999
 20
258.911
 30
0.0
 11
183.55099999999999
 21
-4.0910799999999998
 31
0.0
  0
LINE
  5
28F
  8
_________2
 62
     7
 10
65.549599999999998
 20
9.4092999999999982
 30
0.0
 11
65.549599999999998
 21
35.909100000000002
 31
0.0
  0
LINE
  5
290
  8
_________2
 62
     7
 10
84.549400000000006
 20
9.4092999999999982
 30
0.0
 11
84.549400000000006
 21
35.909100000000002
 31
0.0
  0
LINE
  5
291
  8
_________2
 62
     7
 10
103.55
 20
-4.0910799999999998
 30
0.0
 11
103.55
 21
35.909100000000002
 31
0.0
  0
LINE
  5
292
  8
_________2
 62
     7
 10
28.548999999999999
 20
9.4092999999999982
 30
0.0
 11
28.548999999999999
 21
23.409199999999998
 31
0.0
  0
LINE
  5
293
  8
_________2
 62
     7
 10
17.049199999999988
 20
9.4092999999999982
 30
0.0
 11
103.55
 21
9.4092999999999982
 31
0.0
  0
LINE
  5
294
  8
_________2
 62
     7
 10
17.049199999999988
 20
23.409199999999998
 30
0.0
 11
103.55
 21
23.409199999999998
 31
0.0
  0
LINE
  5
295
  8
_________2
 62
     7
 10
103.55
 20
15.9085
 30
0.0
 11
183.55099999999999
 21
15.9085
 31
0.0
  0
LINE
  5
296
  8
_________2
 62
     7
 10
17.049199999999988
 20
35.909100000000002
 30
0.0
 11
183.55099999999999
 21
35.909100000000002
 31
0.0
  0
ENDSEC
  0
EOF
