  0
SECTION
  2
HEADER
  9
$ACADVER
  1
AC1009
  9
$INSBASE
 10
0.0
 20
0.0
 30
0.0
  9
$EXTMIN
 10
-104.794
 20
0.176045
 30
0.0
  9
$EXTMAX
 10
315.209
 20
297.178
 30
0.0
  9
$LIMMIN
 10
0.0
 20
0.0
  9
$LIMMAX
 10
12.0
 20
9.0
  9
$ORTHOMODE
 70
     0
  9
$REGENMODE
 70
     1
  9
$FILLMODE
 70
     1
  9
$QTEXTMODE
 70
     0
  9
$MIRRTEXT
 70
     1
  9
$DRAGMODE
 70
     2
  9
$LTSCALE
 40
1.0
  9
$OSMODE
 70
    37
  9
$ATTMODE
 70
     1
  9
$TEXTSIZE
 40
0.0
  9
$TRACEWID
 40
0.05
  9
$TEXTSTYLE
  7
STANDARD
  9
$CLAYER
  8
0
  9
$CELTYPE
  6
CONTINUOUS
  9
$CECOLOR
 62
   256
  9
$DIMSCALE
 40
1.0
  9
$DIMASZ
 40
0.18
  9
$DIMEXO
 40
0.0625
  9
$DIMDLI
 40
0.38
  9
$DIMRND
 40
0.0
  9
$DIMDLE
 40
0.0
  9
$DIMEXE
 40
0.18
  9
$DIMTP
 40
0.0
  9
$DIMTM
 40
0.0
  9
$DIMTXT
 40
0.18
  9
$DIMCEN
 40
0.09
  9
$DIMTSZ
 40
0.0
  9
$DIMTOL
 70
     0
  9
$DIMLIM
 70
     0
  9
$DIMTIH
 70
     1
  9
$DIMTOH
 70
     1
  9
$DIMSE1
 70
     0
  9
$DIMSE2
 70
     0
  9
$DIMTAD
 70
     0
  9
$DIMZIN
 70
     0
  9
$DIMBLK
  1

  9
$DIMASO
 70
     1
  9
$DIMSHO
 70
     1
  9
$DIMPOST
  1

  9
$DIMAPOST
  1

  9
$DIMALT
 70
     0
  9
$DIMALTD
 70
     2
  9
$DIMALTF
 40
25.399999999999999
  9
$DIMLFAC
 40
1.0
  9
$DIMTOFL
 70
     0
  9
$DIMTVP
 40
0.0
  9
$DIMTIX
 70
     0
  9
$DIMSOXD
 70
     0
  9
$DIMSAH
 70
     0
  9
$DIMBLK1
  1

  9
$DIMBLK2
  1

  9
$DIMSTYLE
  2
STANDARD
  9
$DIMCLRD
 70
     0
  9
$DIMCLRE
 70
     0
  9
$DIMCLRT
 70
     0
  9
$DIMTFAC
 40
1.0
  9
$DIMGAP
 40
0.09
  9
$LUNITS
 70
     2
  9
$LUPREC
 70
     4
  9
$SKETCHINC
 40
0.1
  9
$FILLETRAD
 40
0.0
  9
$AUNITS
 70
     0
  9
$AUPREC
 70
     0
  9
$MENU
  1
.
  9
$ELEVATION
 40
0.0
  9
$PELEVATION
 40
0.0
  9
$THICKNESS
 40
0.0
  9
$LIMCHECK
 70
     0
  9
$BLIPMODE
 70
     0
  9
$CHAMFERA
 40
0.0
  9
$CHAMFERB
 40
0.0
  9
$SKPOLY
 70
     0
  9
$TDCREATE
 40
2444972.375
  9
$TDUPDATE
 40
2458521.2526420602
  9
$TDINDWG
 40
0.0000339815
  9
$TDUSRTIMER
 40
0.0000339815
  9
$USRTIMER
 70
     1
  9
$ANGBASE
 50
0.0
  9
$ANGDIR
 70
     0
  9
$PDMODE
 70
     0
  9
$PDSIZE
 40
0.0
  9
$PLINEWID
 40
0.0
  9
$COORDS
 70
     1
  9
$SPLFRAME
 70
     0
  9
$SPLINETYPE
 70
     6
  9
$SPLINESEGS
 70
     8
  9
$ATTDIA
 70
     1
  9
$ATTREQ
 70
     1
  9
$HANDLING
 70
     1
  9
$HANDSEED
  5
485
  9
$SURFTAB1
 70
     6
  9
$SURFTAB2
 70
     6
  9
$SURFTYPE
 70
     6
  9
$SURFU
 70
     6
  9
$SURFV
 70
     6
  9
$UCSNAME
  2

  9
$UCSORG
 10
0.0
 20
0.0
 30
0.0
  9
$UCSXDIR
 10
1.0
 20
0.0
 30
0.0
  9
$UCSYDIR
 10
0.0
 20
1.0
 30
0.0
  9
$PUCSNAME
  2

  9
$PUCSORG
 10
0.0
 20
0.0
 30
0.0
  9
$PUCSXDIR
 10
1.0
 20
0.0
 30
0.0
  9
$PUCSYDIR
 10
0.0
 20
1.0
 30
0.0
  9
$USERI1
 70
     0
  9
$USERI2
 70
     0
  9
$USERI3
 70
     0
  9
$USERI4
 70
     0
  9
$USERI5
 70
     0
  9
$USERR1
 40
0.0
  9
$USERR2
 40
0.0
  9
$USERR3
 40
0.0
  9
$USERR4
 40
0.0
  9
$USERR5
 40
0.0
  9
$WORLDVIEW
 70
     1
  9
$SHADEDGE
 70
     3
  9
$SHADEDIF
 70
    70
  9
$TILEMODE
 70
     1
  9
$MAXACTVP
 70
    48
  9
$PLIMCHECK
 70
     0
  9
$PEXTMIN
 10
1.0000000000000000E+020
 20
1.0000000000000000E+020
 30
1.0000000000000000E+020
  9
$PEXTMAX
 10
-1.0000000000000000E+020
 20
-1.0000000000000000E+020
 30
-1.0000000000000000E+020
  9
$PLIMMIN
 10
0.0
 20
0.0
  9
$PLIMMAX
 10
12.0
 20
9.0
  9
$UNITMODE
 70
     0
  9
$VISRETAIN
 70
     1
  9
$PLINEGEN
 70
     0
  9
$PSLTSCALE
 70
     1
  0
ENDSEC
  0
SECTION
  2
TABLES
  0
TABLE
  2
VPORT
 70
     1
  0
VPORT
  2
*ACTIVE
 70
     0
 10
0.0
 20
0.0
 11
1.0
 21
1.0
 12
195.84271114783351
 22
148.589
 13
0.0
 23
0.0
 14
1.0
 24
1.0
 15
0.0
 25
0.0
 16
0.0
 26
0.0
 36
1.0
 17
0.0
 27
0.0
 37
0.0
 40
281.11539623648741
 41
2.298642533936651
 42
50.0
 43
0.0
 44
0.0
 50
0.0
 51
0.0
 71
     0
 72
   100
 73
     1
 74
     1
 75
     0
 76
     0
 77
     0
 78
     0
  0
ENDTAB
  0
TABLE
  2
LTYPE
 70
     3
  0
LTYPE
  2
CONTINUOUS
 70
     0
  3
Solid line
 72
    65
 73
     0
 40
0.0
  0
LTYPE
  2
AIGENLINE001
 70
     0
  3
generate AI->DXF Converter
 72
    65
 73
     4
 40
5.8561449999999988
 49
3.5278
 49
-0.776115
 49
0.776115
 49
-0.776115
  0
LTYPE
  2
AIGENLINE002
 70
     0
  3
generate AI->DXF Converter
 72
    65
 73
     6
 40
7.4083750000000004
 49
3.5278
 49
-0.776115
 49
0.776115
 49
-0.776115
 49
0.776115
 49
-0.776115
  0
ENDTAB
  0
TABLE
  2
LAYER
 70
     4
  0
LAYER
  2
0
 70
     0
 62
     7
  6
CONTINUOUS
  0
LAYER
  2
____
 70
     0
 62
     7
  6
CONTINUOUS
  0
LAYER
  2
_________1
 70
     0
 62
     7
  6
CONTINUOUS
  0
LAYER
  2
_________2
 70
     0
 62
     7
  6
CONTINUOUS
  0
ENDTAB
  0
TABLE
  2
STYLE
 70
     1
  0
STYLE
  2
STANDARD
 70
     0
 40
0.0
 41
0.0
 50
0.0
 71
     0
 42
0.0
  3
TXT
  4
EXTFONT.SHX
  0
ENDTAB
  0
TABLE
  2
VIEW
 70
     0
  0
ENDTAB
  0
TABLE
  2
UCS
 70
     0
  0
ENDTAB
  0
TABLE
  2
APPID
 70
     3
  0
APPID
  2
ACAD
 70
     0
  0
APPID
  2
ACAD_NAV_VCDISPLAY
 70
     0
  0
APPID
  2
ACAD_MLEADERVER
 70
     0
  0
ENDTAB
  0
TABLE
  2
DIMSTYLE
 70
     1
  0
DIMSTYLE
  2
STANDARD
 70
     0
  3

  4

  5

  6

  7

 40
1.0
 41
0.18
 42
0.0625
 43
0.38
 44
0.18
 45
0.0
 46
0.0
 47
0.0
 48
0.0
140
0.18
141
0.09
142
0.0
143
25.399999999999999
144
1.0
145
0.0
146
1.0
147
0.09
 71
     0
 72
     0
 73
     1
 74
     1
 75
     0
 76
     0
 77
     0
 78
     0
170
     0
171
     2
172
     0
173
     0
174
     0
175
     0
176
     0
177
     0
178
     0
  0
ENDTAB
  0
ENDSEC
  0
SECTION
  2
BLOCKS
  0
BLOCK
  8
0
  2
$MODEL_SPACE
 70
     0
 10
0.0
 20
0.0
 30
0.0
  3
$MODEL_SPACE
  1

  0
ENDBLK
  5
1A
  8
0
  0
BLOCK
 67
     1
  8
0
  2
$PAPER_SPACE
 70
     0
 10
0.0
 20
0.0
 30
0.0
  3
$PAPER_SPACE
  1

  0
ENDBLK
  5
17
 67
     1
  8
0
  0
BLOCK
  8
_________1
  2
AIGNBL02010002
 70
     0
 10
0.0
 20
0.0
 30
0.0
  3
AIGNBL02010002
  1

  0
LINE
  5
27
  8
_________1
 62
     7
 10
83.374399999999994
 20
180.42599999999999
 30
0.0
 11
81.875299999999996
 21
178.697
 31
0.0
  0
LINE
  5
28
  8
_________1
 62
     7
 10
81.875299999999996
 20
178.697
 30
0.0
 11
84.0381
 21
179.44499999999999
 31
0.0
  0
LINE
  5
29
  8
_________1
 62
     7
 10
84.0381
 20
179.44499999999999
 30
0.0
 11
83.374399999999994
 21
180.42599999999999
 31
0.0
  0
LINE
  5
2A
  8
_________1
 62
     7
 10
81.875299999999996
 20
178.697
 30
0.0
 11
97.496799999999993
 21
189.26599999999999
 31
0.0
  0
ENDBLK
  5
2B
  8
_________1
  0
BLOCK
  8
_________1
  2
AIGNBL02010003
 70
     0
 10
0.0
 20
0.0
 30
0.0
  3
AIGNBL02010003
  1

  0
LINE
  5
2E
  8
_________1
 62
     7
 10
-28.678899999999999
 20
79.132999999999996
 30
0.0
 11
-25.678899999999999
 21
79.132999999999996
 31
0.0
  0
LINE
  5
2F
  8
_________1
 62
     7
 10
-27.178899999999999
 20
75.882800000000003
 30
0.0
 11
-27.178899999999999
 21
72.882800000000003
 31
0.0
  0
LINE
  5
30
  8
_________1
 62
     7
 10
-29.678999999999998
 20
76.383099999999999
 30
0.0
 11
-28.928999999999998
 21
75.882800000000003
 31
0.0
  0
LINE
  5
31
  8
_________1
 62
     7
 10
-25.428799999999999
 20
75.882800000000003
 30
0.0
 11
-24.679099999999998
 21
76.383099999999999
 31
0.0
  0
LINE
  5
32
  8
_________1
 62
     7
 10
-28.694400000000002
 20
72.882800000000003
 30
0.0
 11
-25.663399999999999
 21
72.882800000000003
 31
0.0
  0
LINE
  5
33
  8
_________1
 62
     7
 10
-28.928999999999998
 20
75.882800000000003
 30
0.0
 11
-25.428799999999999
 21
75.882800000000003
 31
0.0
  0
LINE
  5
34
  8
_________1
 62
     7
 10
-28.928999999999998
 20
75.882800000000003
 30
0.0
 11
-25.428799999999999
 21
75.882800000000003
 31
0.0
  0
LINE
  5
35
  8
_________1
 62
     7
 10
-25.678899999999999
 20
79.132999999999996
 30
0.0
 11
-25.678899999999999
 21
78.133200000000002
 31
0.0
  0
LINE
  5
36
  8
_________1
 62
     7
 10
-28.678899999999999
 20
79.132999999999996
 30
0.0
 11
-28.678899999999999
 21
78.133200000000002
 31
0.0
  0
LINE
  5
37
  8
_________1
 62
     7
 10
-25.663399999999999
 20
75.882800000000003
 30
0.0
 11
-25.663399999999999
 21
72.882800000000003
 31
0.0
  0
LINE
  5
38
  8
_________1
 62
     7
 10
-28.694400000000002
 20
75.882800000000003
 30
0.0
 11
-28.694400000000002
 21
72.882800000000003
 31
0.0
  0
LINE
  5
39
  8
_________1
 62
     7
 10
-28.912800000000001
 20
77.632999999999996
 30
0.0
 11
-28.912800000000001
 21
76.383099999999999
 31
0.0
  0
LINE
  5
3A
  8
_________1
 62
     7
 10
-32.413000000000011
 20
77.632999999999996
 30
0.0
 11
-32.413000000000011
 21
76.383099999999999
 31
0.0
  0
LINE
  5
3B
  8
_________1
 62
     7
 10
-25.4129
 20
77.632999999999996
 30
0.0
 11
-25.4129
 21
76.383099999999999
 31
0.0
  0
LINE
  5
3C
  8
_________1
 62
     7
 10
-35.9129
 20
77.632999999999996
 30
0.0
 11
-35.9129
 21
76.383099999999999
 31
0.0
  0
LINE
  5
3D
  8
_________1
 62
     7
 10
-24.163
 20
77.632999999999996
 30
0.0
 11
-24.163
 21
76.383099999999999
 31
0.0
  0
LINE
  5
3E
  8
_________1
 62
     7
 10
-37.163200000000003
 20
77.632999999999996
 30
0.0
 11
-37.163200000000003
 21
76.383099999999999
 31
0.0
  0
LINE
  5
3F
  8
_________1
 62
     7
 10
-37.163200000000003
 20
76.383099999999999
 30
0.0
 11
-24.163
 21
76.383099999999999
 31
0.0
  0
LINE
  5
40
  8
_________1
 62
     7
 10
-24.163
 20
78.133200000000002
 30
0.0
 11
-24.163
 21
77.632999999999996
 31
0.0
  0
LINE
  5
41
  8
_________1
 62
     7
 10
-37.163200000000003
 20
78.133200000000002
 30
0.0
 11
-37.163200000000003
 21
77.632999999999996
 31
0.0
  0
LINE
  5
42
  8
_________1
 62
     7
 10
-37.163200000000003
 20
78.133200000000002
 30
0.0
 11
-24.163
 21
78.133200000000002
 31
0.0
  0
LINE
  5
43
  8
_________1
 62
     7
 10
-37.163200000000003
 20
77.632999999999996
 30
0.0
 11
-24.163
 21
77.632999999999996
 31
0.0
  0
ENDBLK
  5
44
  8
_________1
  0
BLOCK
  8
_________1
  2
AIGNBL02010004
 70
     0
 10
0.0
 20
0.0
 30
0.0
  3
AIGNBL02010004
  1

  0
LINE
  5
47
  8
_________1
  6
AIGENLINE001
 62
     7
 10
-7.7232599999999998
 20
142.053
 30
0.0
 11
-14.601100000000001
 21
127.304
 31
0.0
  0
LINE
  5
48
  8
_________1
  6
AIGENLINE002
 62
     7
 10
-14.5997
 20
131.15199999999999
 30
0.0
 11
-9.8585499999999993
 21
141.31999999999999
 31
0.0
  0
LINE
  5
49
  8
_________1
  6
AIGENLINE002
 62
     7
 10
-9.8585499999999993
 20
141.31999999999999
 30
0.0
 11
-6.9129699999999987
 21
139.946
 31
0.0
  0
LINE
  5
4A
  8
_________1
  6
AIGENLINE002
 62
     7
 10
-6.9129699999999987
 20
139.946
 30
0.0
 11
-11.6541
 21
129.77799999999999
 31
0.0
  0
ENDBLK
  5
4B
  8
_________1
  0
BLOCK
  8
_________1
  2
AIGNBL02010005
 70
     0
 10
0.0
 20
0.0
 30
0.0
  3
AIGNBL02010005
  1

  0
LINE
  5
4E
  8
_________1
 62
     7
 10
-48.847999999999999
 20
182.173
 30
0.0
 11
-49.440199999999997
 21
184.38300000000001
 31
0.0
  0
LINE
  5
4F
  8
_________1
 62
     7
 10
-49.440199999999997
 20
184.38300000000001
 30
0.0
 11
-50.032600000000002
 21
182.173
 31
0.0
  0
LINE
  5
50
  8
_________1
 62
     7
 10
-50.032600000000002
 20
182.173
 30
0.0
 11
-48.847999999999999
 21
182.173
 31
0.0
  0
LINE
  5
51
  8
_________1
 62
     7
 10
-50.032400000000003
 20
87.843599999999995
 30
0.0
 11
-49.440199999999997
 21
85.632499999999993
 31
0.0
  0
LINE
  5
52
  8
_________1
 62
     7
 10
-49.440199999999997
 20
85.632499999999993
 30
0.0
 11
-48.847799999999999
 21
87.843599999999995
 31
0.0
  0
LINE
  5
53
  8
_________1
 62
     7
 10
-48.847799999999999
 20
87.843599999999995
 30
0.0
 11
-50.032400000000003
 21
87.843599999999995
 31
0.0
  0
LINE
  5
54
  8
_________1
 62
     7
 10
-49.440199999999997
 20
184.38300000000001
 30
0.0
 11
-49.440199999999997
 21
85.632499999999993
 31
0.0
  0
ENDBLK
  5
55
  8
_________1
  0
BLOCK
  8
_________1
  2
AIGNBL02010006
 70
     0
 10
0.0
 20
0.0
 30
0.0
  3
AIGNBL02010006
  1

  0
LINE
  5
58
  8
_________1
 62
     7
 10
-19.197099999999999
 20
120.245
 30
0.0
 11
-20.012499999999999
 21
122.383
 31
0.0
  0
LINE
  5
59
  8
_________1
 62
     7
 10
-20.012499999999999
 20
122.383
 30
0.0
 11
-20.375499999999999
 21
120.124
 31
0.0
  0
LINE
  5
5A
  8
_________1
 62
     7
 10
-20.375499999999999
 20
120.124
 30
0.0
 11
-19.197099999999999
 21
120.245
 31
0.0
  0
LINE
  5
5B
  8
_________1
 62
     7
 10
-20.012499999999999
 20
122.383
 30
0.0
 11
-18.787400000000002
 21
110.485
 31
0.0
  0
LINE
  5
5C
  8
_________1
 62
     7
 10
-1.409049999999999
 20
120.173
 30
0.0
 11
-2.001269999999999
 21
122.383
 31
0.0
  0
LINE
  5
5D
  8
_________1
 62
     7
 10
-2.001269999999999
 20
122.383
 30
0.0
 11
-2.593659999999999
 21
120.173
 31
0.0
  0
LINE
  5
5E
  8
_________1
 62
     7
 10
-2.593659999999999
 20
120.173
 30
0.0
 11
-1.409049999999999
 21
120.173
 31
0.0
  0
LINE
  5
5F
  8
_________1
 62
     7
 10
-2.59348
 20
87.843599999999995
 30
0.0
 11
-2.001269999999999
 21
85.632499999999993
 31
0.0
  0
LINE
  5
60
  8
_________1
 62
     7
 10
-2.001269999999999
 20
85.632499999999993
 30
0.0
 11
-1.408879999999999
 21
87.843599999999995
 31
0.0
  0
LINE
  5
61
  8
_________1
 62
     7
 10
-1.408879999999999
 20
87.843599999999995
 30
0.0
 11
-2.59348
 21
87.843599999999995
 31
0.0
  0
LINE
  5
62
  8
_________1
 62
     7
 10
-2.001269999999999
 20
122.383
 30
0.0
 11
-2.001269999999999
 21
85.632499999999993
 31
0.0
  0
ENDBLK
  5
63
  8
_________1
  0
BLOCK
  8
_________1
  2
AIGNBL02010007
 70
     0
 10
0.0
 20
0.0
 30
0.0
  3
AIGNBL02010007
  1

  0
LINE
  5
66
  8
_________1
 62
     7
 10
6.8202999999999987
 20
138.423
 30
0.0
 11
6.2280800000000003
 21
140.63300000000001
 31
0.0
  0
LINE
  5
67
  8
_________1
 62
     7
 10
6.2280800000000003
 20
140.63300000000001
 30
0.0
 11
5.635699999999999
 21
138.423
 31
0.0
  0
LINE
  5
68
  8
_________1
 62
     7
 10
5.635699999999999
 20
138.423
 30
0.0
 11
6.8202999999999987
 21
138.423
 31
0.0
  0
LINE
  5
69
  8
_________1
 62
     7
 10
38.240099999999998
 20
87.843599999999995
 30
0.0
 11
38.832000000000001
 21
85.632499999999993
 31
0.0
  0
LINE
  5
6A
  8
_________1
 62
     7
 10
38.832000000000001
 20
85.632499999999993
 30
0.0
 11
39.424500000000002
 21
87.843599999999995
 31
0.0
  0
LINE
  5
6B
  8
_________1
 62
     7
 10
39.424500000000002
 20
87.843599999999995
 30
0.0
 11
38.240099999999998
 21
87.843599999999995
 31
0.0
  0
LINE
  5
6C
  8
_________1
 62
     7
 10
5.6358699999999988
 20
87.843599999999995
 30
0.0
 11
6.2280800000000003
 21
85.632499999999993
 31
0.0
  0
LINE
  5
6D
  8
_________1
 62
     7
 10
6.2280800000000003
 20
85.632499999999993
 30
0.0
 11
6.8204699999999994
 21
87.843599999999995
 31
0.0
  0
LINE
  5
6E
  8
_________1
 62
     7
 10
6.8204699999999994
 20
87.843599999999995
 30
0.0
 11
5.6358699999999988
 21
87.843599999999995
 31
0.0
  0
LINE
  5
6F
  8
_________1
 62
     7
 10
6.2280800000000003
 20
140.63300000000001
 30
0.0
 11
6.2280800000000003
 21
85.632499999999993
 31
0.0
  0
ENDBLK
  5
70
  8
_________1
  0
BLOCK
  8
_________1
  2
AIGNBL02010008
 70
     0
 10
0.0
 20
0.0
 30
0.0
  3
AIGNBL02010008
  1

  0
LINE
  5
73
  8
_________1
 62
     7
 10
26.9543
 20
157.89599999999999
 30
0.0
 11
24.7439
 21
157.304
 31
0.0
  0
LINE
  5
74
  8
_________1
 62
     7
 10
24.7439
 20
157.304
 30
0.0
 11
26.9543
 21
156.71100000000001
 31
0.0
  0
LINE
  5
75
  8
_________1
 62
     7
 10
26.9543
 20
156.71100000000001
 30
0.0
 11
26.9543
 21
157.89599999999999
 31
0.0
  0
LINE
  5
76
  8
_________1
 62
     7
 10
67.533299999999997
 20
146.452
 30
0.0
 11
69.744299999999996
 21
147.0439999999999
 31
0.0
  0
LINE
  5
77
  8
_________1
 62
     7
 10
69.744299999999996
 20
147.0439999999999
 30
0.0
 11
67.533299999999997
 21
147.637
 31
0.0
  0
LINE
  5
78
  8
_________1
 62
     7
 10
67.533299999999997
 20
147.637
 30
0.0
 11
67.533299999999997
 21
146.452
 31
0.0
  0
LINE
  5
79
  8
_________1
 62
     7
 10
67.533600000000007
 20
156.71100000000001
 30
0.0
 11
69.744699999999995
 21
157.304
 31
0.0
  0
LINE
  5
7A
  8
_________1
 62
     7
 10
69.744699999999995
 20
157.304
 30
0.0
 11
67.533600000000007
 21
157.89599999999999
 31
0.0
  0
LINE
  5
7B
  8
_________1
 62
     7
 10
67.533600000000007
 20
157.89599999999999
 30
0.0
 11
67.533600000000007
 21
156.71100000000001
 31
0.0
  0
LINE
  5
7C
  8
_________1
 62
     7
 10
24.7439
 20
157.304
 30
0.0
 11
69.744299999999996
 21
157.304
 31
0.0
  0
ENDBLK
  5
7D
  8
_________1
  0
BLOCK
  8
_________1
  2
AIGNBL02010009
 70
     0
 10
0.0
 20
0.0
 30
0.0
  3
AIGNBL02010009
  1

  0
LINE
  5
80
  8
_________1
 62
     7
 10
64.454999999999998
 20
93.993099999999984
 30
0.0
 11
62.244
 21
93.401300000000006
 31
0.0
  0
LINE
  5
81
  8
_________1
 62
     7
 10
62.244
 20
93.401300000000006
 30
0.0
 11
64.454999999999998
 21
92.808700000000002
 31
0.0
  0
LINE
  5
82
  8
_________1
 62
     7
 10
64.454999999999998
 20
92.808700000000002
 30
0.0
 11
64.454999999999998
 21
93.993099999999984
 31
0.0
  0
LINE
  5
83
  8
_________1
 62
     7
 10
75.033600000000007
 20
92.809399999999997
 30
0.0
 11
77.244699999999995
 21
93.401300000000006
 31
0.0
  0
LINE
  5
84
  8
_________1
 62
     7
 10
77.244699999999995
 20
93.401300000000006
 30
0.0
 11
75.033600000000007
 21
93.993799999999979
 31
0.0
  0
LINE
  5
85
  8
_________1
 62
     7
 10
75.033600000000007
 20
93.993799999999979
 30
0.0
 11
75.033600000000007
 21
92.809399999999997
 31
0.0
  0
LINE
  5
86
  8
_________1
 62
     7
 10
62.244300000000003
 20
93.401300000000006
 30
0.0
 11
77.244399999999999
 21
93.401300000000006
 31
0.0
  0
ENDBLK
  5
87
  8
_________1
  0
BLOCK
  8
_________1
  2
AIGNBL0201000A
 70
     0
 10
0.0
 20
0.0
 30
0.0
  3
AIGNBL0201000A
  1

  0
LINE
  5
8A
  8
_________1
 62
     7
 10
71.954700000000003
 20
147.637
 30
0.0
 11
69.744299999999996
 21
147.0439999999999
 31
0.0
  0
LINE
  5
8B
  8
_________1
 62
     7
 10
69.744299999999996
 20
147.0439999999999
 30
0.0
 11
71.954700000000003
 21
146.452
 31
0.0
  0
LINE
  5
8C
  8
_________1
 62
     7
 10
71.954700000000003
 20
146.452
 30
0.0
 11
71.954700000000003
 21
147.637
 31
0.0
  0
LINE
  5
8D
  8
_________1
 62
     7
 10
54.454599999999999
 20
147.636
 30
0.0
 11
52.244199999999999
 21
147.0439999999999
 31
0.0
  0
LINE
  5
8E
  8
_________1
 62
     7
 10
52.244199999999999
 20
147.0439999999999
 30
0.0
 11
54.454599999999999
 21
146.452
 31
0.0
  0
LINE
  5
8F
  8
_________1
 62
     7
 10
54.454599999999999
 20
146.452
 30
0.0
 11
54.454599999999999
 21
147.636
 31
0.0
  0
LINE
  5
90
  8
_________1
 62
     7
 10
85.034099999999995
 20
146.452
 30
0.0
 11
87.244500000000002
 21
147.0439999999999
 31
0.0
  0
LINE
  5
91
  8
_________1
 62
     7
 10
87.244500000000002
 20
147.0439999999999
 30
0.0
 11
85.034099999999995
 21
147.637
 31
0.0
  0
LINE
  5
92
  8
_________1
 62
     7
 10
85.034099999999995
 20
147.637
 30
0.0
 11
85.034099999999995
 21
146.452
 31
0.0
  0
LINE
  5
93
  8
_________1
 62
     7
 10
52.244199999999999
 20
147.0439999999999
 30
0.0
 11
87.244500000000002
 21
147.0439999999999
 31
0.0
  0
ENDBLK
  5
94
  8
_________1
  0
BLOCK
  8
_________1
  2
AIGNBL0201000B
 70
     0
 10
0.0
 20
0.0
 30
0.0
  3
AIGNBL0201000B
  1

  0
LINE
  5
97
  8
_________1
 62
     7
 10
-28.452500000000001
 20
150.857
 30
0.0
 11
-30.6629
 21
150.26499999999999
 31
0.0
  0
LINE
  5
98
  8
_________1
 62
     7
 10
-30.6629
 20
150.26499999999999
 30
0.0
 11
-28.452500000000001
 21
149.672
 31
0.0
  0
LINE
  5
99
  8
_________1
 62
     7
 10
-28.452500000000001
 20
149.672
 30
0.0
 11
-28.452500000000001
 21
150.857
 31
0.0
  0
LINE
  5
9A
  8
_________1
 62
     7
 10
-17.3736
 20
149.673
 30
0.0
 11
-15.163
 21
150.26499999999999
 31
0.0
  0
LINE
  5
9B
  8
_________1
 62
     7
 10
-15.163
 20
150.26499999999999
 30
0.0
 11
-17.3736
 21
150.857
 31
0.0
  0
LINE
  5
9C
  8
_________1
 62
     7
 10
-17.3736
 20
150.857
 30
0.0
 11
-17.3736
 21
149.673
 31
0.0
  0
LINE
  5
9D
  8
_________1
 62
     7
 10
-30.6629
 20
150.26499999999999
 30
0.0
 11
-15.163
 21
150.26499999999999
 31
0.0
  0
ENDBLK
  5
9E
  8
_________1
  0
BLOCK
  8
_________1
  2
AIGNBL0201000C
 70
     0
 10
0.0
 20
0.0
 30
0.0
  3
AIGNBL0201000C
  1

  0
LINE
  5
A1
  8
_________1
 62
     7
 10
-14.2493
 20
232.33699999999999
 30
0.0
 11
-12.143700000000001
 21
233.233
 31
0.0
  0
LINE
  5
A2
  8
_________1
 62
     7
 10
-12.143700000000001
 20
233.233
 30
0.0
 11
-13.519500000000001
 21
231.404
 31
0.0
  0
LINE
  5
A3
  8
_________1
 62
     7
 10
-13.519500000000001
 20
231.404
 30
0.0
 11
-14.2493
 21
232.33699999999999
 31
0.0
  0
LINE
  5
A4
  8
_________1
 62
     7
 10
-47.075499999999998
 20
232.33799999999999
 30
0.0
 11
-49.181100000000001
 21
233.233
 31
0.0
  0
LINE
  5
A5
  8
_________1
 62
     7
 10
-49.181100000000001
 20
233.233
 30
0.0
 11
-47.805300000000003
 21
231.405
 31
0.0
  0
LINE
  5
A6
  8
_________1
 62
     7
 10
-47.805300000000003
 20
231.405
 30
0.0
 11
-47.075499999999998
 21
232.33799999999999
 31
0.0
  0
LINE
  5
A7
  8
_________1
 62
     7
 10
-25.7026
 20
174.41399999999999
 30
0.0
 11
-27.913
 21
173.821
 31
0.0
  0
LINE
  5
A8
  8
_________1
 62
     7
 10
-27.913
 20
173.821
 30
0.0
 11
-25.7026
 21
173.22900000000001
 31
0.0
  0
LINE
  5
A9
  8
_________1
 62
     7
 10
-25.7026
 20
173.22900000000001
 30
0.0
 11
-25.7026
 21
174.41399999999999
 31
0.0
  0
LINE
  5
AA
  8
_________1
 62
     7
 10
-35.623399999999997
 20
173.26599999999999
 30
0.0
 11
-33.412799999999997
 21
173.858
 31
0.0
  0
LINE
  5
AB
  8
_________1
 62
     7
 10
-33.412799999999997
 20
173.858
 30
0.0
 11
-35.623399999999997
 21
174.45099999999999
 31
0.0
  0
LINE
  5
AC
  8
_________1
 62
     7
 10
-35.623399999999997
 20
174.45099999999999
 30
0.0
 11
-35.623399999999997
 21
173.26599999999999
 31
0.0
  0
LINE
  5
AD
  8
_________1
 62
     7
 10
-37.388100000000001
 20
173.858
 30
0.0
 11
-19.529699999999998
 21
173.858
 31
0.0
  0
ENDBLK
  5
AE
  8
_________1
  0
BLOCK
  8
_________1
  2
AIGNBL0201000D
 70
     0
 10
0.0
 20
0.0
 30
0.0
  3
AIGNBL0201000D
  1

  0
LINE
  5
B1
  8
_________1
 62
     7
 10
-28.452500000000001
 20
163.84800000000001
 30
0.0
 11
-30.6629
 21
163.256
 31
0.0
  0
LINE
  5
B2
  8
_________1
 62
     7
 10
-30.6629
 20
163.256
 30
0.0
 11
-28.452500000000001
 21
162.66399999999999
 31
0.0
  0
LINE
  5
B3
  8
_________1
 62
     7
 10
-28.452500000000001
 20
162.66399999999999
 30
0.0
 11
-28.452500000000001
 21
163.84800000000001
 31
0.0
  0
LINE
  5
B4
  8
_________1
 62
     7
 10
-9.1235300000000006
 20
162.66399999999999
 30
0.0
 11
-6.9129699999999987
 21
163.256
 31
0.0
  0
LINE
  5
B5
  8
_________1
 62
     7
 10
-6.9129699999999987
 20
163.256
 30
0.0
 11
-9.1235300000000006
 21
163.84899999999999
 31
0.0
  0
LINE
  5
B6
  8
_________1
 62
     7
 10
-9.1235300000000006
 20
163.84899999999999
 30
0.0
 11
-9.1235300000000006
 21
162.66399999999999
 31
0.0
  0
LINE
  5
B7
  8
_________1
 62
     7
 10
-30.6629
 20
163.256
 30
0.0
 11
-6.9129699999999987
 21
163.256
 31
0.0
  0
ENDBLK
  5
B8
  8
_________1
  0
BLOCK
  8
_________1
  2
AIGNBL0201000E
 70
     0
 10
0.0
 20
0.0
 30
0.0
  3
AIGNBL0201000E
  1

  0
LINE
  5
BB
  8
_________1
 62
     7
 10
-33.9527
 20
93.280699999999996
 30
0.0
 11
-36.1631
 21
92.688100000000006
 31
0.0
  0
LINE
  5
BC
  8
_________1
 62
     7
 10
-36.1631
 20
92.688100000000006
 30
0.0
 11
-33.9527
 21
92.096299999999999
 31
0.0
  0
LINE
  5
BD
  8
_________1
 62
     7
 10
-33.9527
 20
92.096299999999999
 30
0.0
 11
-33.9527
 21
93.280699999999996
 31
0.0
  0
LINE
  5
BE
  8
_________1
 62
     7
 10
-27.373699999999999
 20
92.096299999999999
 30
0.0
 11
-25.1631
 21
92.688100000000006
 31
0.0
  0
LINE
  5
BF
  8
_________1
 62
     7
 10
-25.1631
 20
92.688100000000006
 30
0.0
 11
-27.373699999999999
 21
93.280699999999996
 31
0.0
  0
LINE
  5
C0
  8
_________1
 62
     7
 10
-27.373699999999999
 20
93.280699999999996
 30
0.0
 11
-27.373699999999999
 21
92.096299999999999
 31
0.0
  0
LINE
  5
C1
  8
_________1
 62
     7
 10
-36.1631
 20
92.688100000000006
 30
0.0
 11
-25.1631
 21
92.688100000000006
 31
0.0
  0
ENDBLK
  5
C2
  8
_________1
  0
BLOCK
  8
_________1
  2
AIGNBL0201000F
 70
     0
 10
0.0
 20
0.0
 30
0.0
  3
AIGNBL0201000F
  1

  0
LINE
  5
C5
  8
_________1
 62
     7
 10
101.81699999999999
 20
135.25
 30
0.0
 11
101.22499999999999
 21
137.46100000000001
 31
0.0
  0
LINE
  5
C6
  8
_________1
 62
     7
 10
101.22499999999999
 20
137.46100000000001
 30
0.0
 11
100.633
 21
135.25
 31
0.0
  0
LINE
  5
C7
  8
_________1
 62
     7
 10
100.633
 20
135.25
 30
0.0
 11
101.81699999999999
 21
135.25
 31
0.0
  0
LINE
  5
C8
  8
_________1
 62
     7
 10
100.633
 20
87.843599999999995
 30
0.0
 11
101.22499999999999
 21
85.632499999999993
 31
0.0
  0
LINE
  5
C9
  8
_________1
 62
     7
 10
101.22499999999999
 20
85.632499999999993
 30
0.0
 11
101.81699999999999
 21
87.843599999999995
 31
0.0
  0
LINE
  5
CA
  8
_________1
 62
     7
 10
101.81699999999999
 20
87.843599999999995
 30
0.0
 11
100.633
 21
87.843599999999995
 31
0.0
  0
LINE
  5
CB
  8
_________1
 62
     7
 10
101.22499999999999
 20
137.46100000000001
 30
0.0
 11
101.22499999999999
 21
85.632499999999993
 31
0.0
  0
ENDBLK
  5
CC
  8
_________1
  0
BLOCK
  8
_________1
  2
AIGNBL02010010
 70
     0
 10
0.0
 20
0.0
 30
0.0
  3
AIGNBL02010010
  1

  0
LINE
  5
CF
  8
_________1
 62
     7
 10
59.885399999999997
 20
35.233199999999997
 30
0.0
 11
57.674399999999999
 21
34.640700000000002
 31
0.0
  0
LINE
  5
D0
  8
_________1
 62
     7
 10
57.674399999999999
 20
34.640700000000002
 30
0.0
 11
59.885399999999997
 21
34.0488
 31
0.0
  0
LINE
  5
D1
  8
_________1
 62
     7
 10
59.885399999999997
 20
34.0488
 30
0.0
 11
59.885399999999997
 21
35.233199999999997
 31
0.0
  0
LINE
  5
D2
  8
_________1
 62
     7
 10
51.338799999999999
 20
34.062600000000003
 30
0.0
 11
53.549199999999992
 21
34.655099999999997
 31
0.0
  0
LINE
  5
D3
  8
_________1
 62
     7
 10
53.549199999999992
 20
34.655099999999997
 30
0.0
 11
51.338799999999999
 21
35.247700000000002
 31
0.0
  0
LINE
  5
D4
  8
_________1
 62
     7
 10
51.338799999999999
 20
35.247700000000002
 30
0.0
 11
51.338799999999999
 21
34.062600000000003
 31
0.0
  0
LINE
  5
D5
  8
_________1
 62
     7
 10
42.87169999999999
 20
34.648200000000003
 30
0.0
 11
61.390300000000003
 21
34.648200000000003
 31
0.0
  0
ENDBLK
  5
D6
  8
_________1
  0
BLOCK
  8
_________1
  2
AIGNBL02010011
 70
     0
 10
0.0
 20
0.0
 30
0.0
  3
AIGNBL02010011
  1

  0
LINE
  5
D9
  8
_________1
 62
     7
 10
39.424500000000002
 20
145.922
 30
0.0
 11
38.832000000000001
 21
148.1329999999999
 31
0.0
  0
LINE
  5
DA
  8
_________1
 62
     7
 10
38.832000000000001
 20
148.1329999999999
 30
0.0
 11
38.239400000000003
 21
145.922
 31
0.0
  0
LINE
  5
DB
  8
_________1
 62
     7
 10
38.239400000000003
 20
145.922
 30
0.0
 11
39.424500000000002
 21
145.922
 31
0.0
  0
LINE
  5
DC
  8
_________1
 62
     7
 10
39.424500000000002
 20
83.421400000000006
 30
0.0
 11
38.832000000000001
 21
85.632499999999993
 31
0.0
  0
LINE
  5
DD
  8
_________1
 62
     7
 10
38.832000000000001
 20
85.632499999999993
 30
0.0
 11
38.239400000000003
 21
83.421400000000006
 31
0.0
  0
LINE
  5
DE
  8
_________1
 62
     7
 10
38.239400000000003
 20
83.421400000000006
 30
0.0
 11
39.424500000000002
 21
83.421400000000006
 31
0.0
  0
LINE
  5
DF
  8
_________1
 62
     7
 10
38.253900000000002
 20
44.958799999999989
 30
0.0
 11
38.846499999999999
 21
42.747
 31
0.0
  0
LINE
  5
E0
  8
_________1
 62
     7
 10
38.846499999999999
 20
42.747
 30
0.0
 11
39.439
 21
44.958799999999989
 31
0.0
  0
LINE
  5
E1
  8
_________1
 62
     7
 10
39.439
 20
44.958799999999989
 30
0.0
 11
38.253900000000002
 21
44.958799999999989
 31
0.0
  0
LINE
  5
E2
  8
_________1
 62
     7
 10
38.832000000000001
 20
148.1329999999999
 30
0.0
 11
38.832000000000001
 21
42.747
 31
0.0
  0
ENDBLK
  5
E3
  8
_________1
  0
BLOCK
  8
_________1
  2
AIGNBL02010012
 70
     0
 10
0.0
 20
0.0
 30
0.0
  3
AIGNBL02010012
  1

  0
LINE
  5
E6
  8
_________1
 62
     7
 10
58.100499999999997
 20
83.421400000000006
 30
0.0
 11
57.508000000000003
 21
85.632499999999993
 31
0.0
  0
LINE
  5
E7
  8
_________1
 62
     7
 10
57.508000000000003
 20
85.632499999999993
 30
0.0
 11
56.915399999999991
 21
83.421400000000006
 31
0.0
  0
LINE
  5
E8
  8
_________1
 62
     7
 10
56.915399999999991
 20
83.421400000000006
 30
0.0
 11
58.100499999999997
 21
83.421400000000006
 31
0.0
  0
LINE
  5
E9
  8
_________1
 62
     7
 10
56.929900000000004
 20
80.344300000000004
 30
0.0
 11
57.522399999999998
 21
78.133200000000002
 31
0.0
  0
LINE
  5
EA
  8
_________1
 62
     7
 10
57.522399999999998
 20
78.133200000000002
 30
0.0
 11
58.115000000000002
 21
80.344300000000004
 31
0.0
  0
LINE
  5
EB
  8
_________1
 62
     7
 10
58.115000000000002
 20
80.344300000000004
 30
0.0
 11
56.929900000000004
 21
80.344300000000004
 31
0.0
  0
LINE
  5
EC
  8
_________1
 62
     7
 10
57.508000000000003
 20
85.632499999999993
 30
0.0
 11
57.508000000000003
 21
78.133200000000002
 31
0.0
  0
ENDBLK
  5
ED
  8
_________1
  0
BLOCK
  8
_________1
  2
AIGNBL02010013
 70
     0
 10
0.0
 20
0.0
 30
0.0
  3
AIGNBL02010013
  1

  0
LINE
  5
F0
  8
_________1
 62
     7
 10
65.506100000000004
 20
249.655
 30
0.0
 11
66.650599999999997
 21
251.63800000000001
 31
0.0
  0
LINE
  5
F1
  8
_________1
 62
     7
 10
66.650599999999997
 20
251.63800000000001
 30
0.0
 11
64.667599999999993
 21
250.49299999999999
 31
0.0
  0
LINE
  5
F2
  8
_________1
 62
     7
 10
64.667599999999993
 20
250.49299999999999
 30
0.0
 11
65.506100000000004
 21
249.655
 31
0.0
  0
LINE
  5
F3
  8
_________1
 62
     7
 10
73.983199999999997
 20
259.80799999999999
 30
0.0
 11
72.838000000000008
 21
257.82499999999999
 31
0.0
  0
LINE
  5
F4
  8
_________1
 62
     7
 10
72.838000000000008
 20
257.82499999999999
 30
0.0
 11
74.821100000000001
 21
258.97000000000003
 31
0.0
  0
LINE
  5
F5
  8
_________1
 62
     7
 10
74.821100000000001
 20
258.97000000000003
 30
0.0
 11
73.983199999999997
 21
259.80799999999999
 31
0.0
  0
LINE
  5
F6
  8
_________1
 62
     7
 10
76.857100000000003
 20
261.84399999999999
 30
0.0
 11
62.671500000000002
 21
247.65899999999999
 31
0.0
  0
ENDBLK
  5
F7
  8
_________1
  0
BLOCK
  8
_________2
  2
AIGNBL03010002
 70
     0
 10
0.0
 20
0.0
 30
0.0
  3
AIGNBL03010002
  1

  0
LINE
  5
FA
  8
_________2
 62
     7
 10
186.649
 20
51.052199999999999
 30
0.0
 11
184.46299999999999
 21
51.052199999999999
 31
0.0
  0
LINE
  5
FB
  8
_________2
 62
     7
 10
187.142
 20
51.052199999999999
 30
0.0
 11
186.88900000000001
 21
51.052199999999999
 31
0.0
  0
LINE
  5
FC
  8
_________2
 62
     7
 10
187.63399999999999
 20
51.052199999999999
 30
0.0
 11
190.559
 21
51.052199999999999
 31
0.0
  0
LINE
  5
FD
  8
_________2
 62
     7
 10
187.142
 20
51.052199999999999
 30
0.0
 11
187.39400000000001
 21
51.052199999999999
 31
0.0
  0
LINE
  5
FE
  8
_________2
 62
     7
 10
180.745
 20
51.052199999999999
 30
0.0
 11
178.55799999999999
 21
51.052199999999999
 31
0.0
  0
LINE
  5
FF
  8
_________2
 62
     7
 10
181.23699999999999
 20
51.052199999999999
 30
0.0
 11
180.98599999999999
 21
51.052199999999999
 31
0.0
  0
LINE
  5
100
  8
_________2
 62
     7
 10
181.23699999999999
 20
51.544800000000002
 30
0.0
 11
181.23699999999999
 21
53.7318
 31
0.0
  0
LINE
  5
101
  8
_________2
 62
     7
 10
181.23699999999999
 20
51.052199999999999
 30
0.0
 11
181.23699999999999
 21
51.304299999999998
 31
0.0
  0
LINE
  5
102
  8
_________2
 62
     7
 10
181.72999999999999
 20
51.052199999999999
 30
0.0
 11
183.917
 21
51.052199999999999
 31
0.0
  0
LINE
  5
103
  8
_________2
 62
     7
 10
181.23699999999999
 20
51.052199999999999
 30
0.0
 11
181.489
 21
51.052199999999999
 31
0.0
  0
LINE
  5
104
  8
_________2
 62
     7
 10
181.23699999999999
 20
50.560200000000002
 30
0.0
 11
181.23699999999999
 21
48.373199999999997
 31
0.0
  0
LINE
  5
105
  8
_________2
 62
     7
 10
181.23699999999999
 20
51.052199999999999
 30
0.0
 11
181.23699999999999
 21
50.800699999999999
 31
0.0
  0
LINE
  5
106
  8
_________2
 62
     7
 10
184.94799999999989
 20
49.832599999999999
 30
0.0
 11
190.12599999999989
 21
48.9679
 31
0.0
  0
LINE
  5
107
  8
_________2
 62
     7
 10
184.94799999999989
 20
52.271700000000003
 30
0.0
 11
190.12599999999989
 21
53.137099999999997
 31
0.0
  0
LINE
  5
108
  8
_________2
 62
     7
 10
190.12599999999989
 20
48.9679
 30
0.0
 11
190.12599999999989
 21
53.137099999999997
 31
0.0
  0
LINE
  5
109
  8
_________2
 62
     7
 10
184.94799999999989
 20
49.832599999999999
 30
0.0
 11
184.94799999999989
 21
52.271700000000003
 31
0.0
  0
ARC
  5
10A
  8
_________2
 62
     7
 10
181.190651
 20
51.004810999999989
 30
0.0
 40
1.2677780000000001
 50
2.1403449999999991
 51
87.892005999999995
  0
ARC
  5
10B
  8
_________2
 62
     7
 10
181.28420199999999
 20
51.005241999999988
 30
0.0
 40
1.2673579999999991
 50
92.121564999999975
 51
177.87840600000001
  0
ARC
  5
10C
  8
_________2
 62
     7
 10
181.28381400000001
 20
51.098689
 30
0.0
 40
1.2669559999999991
 50
182.10473099999999
 51
267.89529900000002
  0
ARC
  5
10D
  8
_________2
 62
     7
 10
181.19038399999999
 20
51.099775000000001
 30
0.0
 40
1.268054
 50
272.11960599999998
 51
357.84804300000002
  0
ARC
  5
10E
  8
_________2
 62
     7
 10
181.23728399999999
 20
51.05215900000001
 30
0.0
 40
2.0849849999999992
 50
0.00001
 51
89.999980000000008
  0
ARC
  5
10F
  8
_________2
 62
     7
 10
181.317331
 20
50.972827000000002
 30
0.0
 40
2.1657969999999991
 50
92.118111999999996
 51
177.90079600000001
  0
ARC
  5
110
  8
_________2
 62
     7
 10
181.31728799999999
 20
51.132162999999998
 30
0.0
 40
2.1657779999999991
 50
182.11700400000001
 51
267.88302499999998
  0
ARC
  5
111
  8
_________2
 62
     7
 10
181.15730300000001
 20
51.132855999999997
 30
0.0
 40
2.166469999999999
 50
272.115725
 51
357.86534699999999
  0
ENDBLK
  5
112
  8
_________2
  0
ENDSEC
  0
SECTION
  2
ENTITIES
  0
TEXT
  5
113
  8
____
 62
     7
 10
94.044499999999999
 20
196.83427
 30
0.0
 40
3.0923400000000001
  1
W.L
 50
90.0
 41
0.5
 72
     2
 11
94.044499999999999
 21
200.44200000000001
 31
0.0
  0
TEXT
  5
114
  8
____
 62
     7
 10
110.62369757142849
 20
189.96700000000001
 30
0.0
 40
3.0923400000000001
  1
100mm以上スペースを設けてください。
 41
0.5
 72
     2
 11
143.77799999999999
 21
189.96700000000001
 31
0.0
  0
TEXT
  5
115
  8
____
 62
     7
 10
-9.6352760000000011
 20
35.667299999999997
 30
0.0
 40
3.0923400000000001
  1
水側
 41
0.5
 72
     2
 11
-6.3367800000000001
 21
35.667299999999997
 31
0.0
  0
TEXT
  5
116
  8
____
 62
     7
 10
-61.7913
 20
35.667299999999997
 30
0.0
 40
3.0923400000000001
  1
湯側
 41
0.5
  0
TEXT
  5
117
  8
____
 62
     7
 10
78.521079999999998
 20
262.5440000000001
 30
0.0
 40
3.0923400000000001
  1
%%c35
 41
0.5
 72
     2
 11
82.644199999999984
 21
262.5440000000001
 31
0.0
  0
TEXT
  5
118
  8
____
 62
     7
 10
65.311945999999992
 20
240.386
 30
0.0
 40
3.0923400000000001
  1
水栓取付穴
 41
0.5
 72
     1
 11
69.744299999999996
 21
240.386
 31
0.0
  0
TEXT
  5
119
  8
____
 62
     7
 10
-6.4094699999999989
 20
136.34299999999999
 30
0.0
 40
3.0923400000000001
  1
開
 41
0.5
  0
TEXT
  5
11A
  8
____
 62
     7
 10
-20.629614
 20
143.179
 30
0.0
 40
3.0923400000000001
  1
閉
 41
0.5
 72
     2
 11
-19.2896
 21
143.179
 31
0.0
  0
TEXT
  5
11B
  8
____
 62
     7
 10
49.673808000000001
 20
133.48500000000001
 30
0.0
 40
3.0923400000000001
  1
水
 41
0.5
 72
     2
 11
51.116900000000001
 21
133.48500000000001
 31
0.0
  0
TEXT
  5
11C
  8
____
 62
     7
 10
88.087199999999996
 20
133.48500000000001
 30
0.0
 40
3.0923400000000001
  1
湯
 41
0.5
  0
TEXT
  5
11D
  8
____
 62
     7
 10
42.87169999999999
 20
35.348300000000002
 30
0.0
 40
3.0923400000000001
  1
PF 3/8
 41
0.5
  0
TEXT
  5
11E
  8
____
 62
     7
 10
56.807899999999997
 20
78.146322500000011
 30
0.0
 40
3.0923400000000001
  1
max.30
 50
90.0
 41
0.5
 72
     1
 11
56.807899999999997
 21
81.882900000000006
 31
0.0
  0
TEXT
  5
11F
  8
____
 62
     7
 10
38.0809
 20
114.9502875
 30
0.0
 40
3.0923400000000001
  1
250
 50
90.0
 41
0.5
 72
     1
 11
38.0809
 21
116.883
 31
0.0
  0
TEXT
  5
120
  8
____
 62
     7
 10
38.0809
 20
62.2573875
 30
0.0
 40
3.0923400000000001
  1
370
 50
90.0
 41
0.5
 72
     1
 11
38.0809
 21
64.190100000000001
 31
0.0
  0
TEXT
  5
121
  8
____
 62
     7
 10
-23.652819999999998
 20
174.55799999999999
 30
0.0
 40
3.0923400000000001
  1
%%c22
 41
0.5
 72
     2
 11
-19.529699999999998
 21
174.55799999999999
 31
0.0
  0
TEXT
  5
122
  8
____
 62
     7
 10
-20.968934000000001
 20
107.182
 30
0.0
 40
3.0923400000000001
  1
メーカーロゴ
 41
0.5
 72
     1
 11
-15.505800000000001
 21
107.182
 31
0.0
  0
TEXT
  5
123
  8
____
 62
     7
 10
-32.724460000000001
 20
93.388199999999998
 30
0.0
 40
3.0923400000000001
  1
%%c44
 41
0.5
 72
     1
 11
-30.6629
 21
93.388199999999998
 31
0.0
  0
TEXT
  5
124
  8
____
 62
     7
 10
67.811587500000002
 20
94.101299999999995
 30
0.0
 40
3.0923400000000001
  1
%%c60
 41
0.5
 72
     1
 11
69.744299999999996
 21
94.101299999999995
 31
0.0
  0
TEXT
  5
125
  8
____
 62
     7
 10
77.334972500000006
 20
147.745
 30
0.0
 40
3.0923400000000001
  1
70
 41
0.5
 72
     1
 11
78.494600000000005
 21
147.745
 31
0.0
  0
TEXT
  5
126
  8
____
 62
     7
 10
-24.201475000000009
 20
150.965
 30
0.0
 40
3.0923400000000001
  1
62
 41
0.5
 72
     1
 11
-22.913
 21
150.965
 31
0.0
  0
TEXT
  5
127
  8
____
 62
     7
 10
-20.076374999999999
 20
163.95599999999999
 30
0.0
 40
3.0923400000000001
  1
95
 41
0.5
 72
     1
 11
-18.7879
 21
163.95599999999999
 31
0.0
  0
TEXT
  5
128
  8
____
 62
     7
 10
-25.189
 20
223.232
 30
0.0
 40
3.0923400000000001
  1
スパウト回転360%%d
 41
0.5
  0
TEXT
  5
129
  8
____
 62
     7
 10
45.568882499999987
 20
158.00399999999999
 30
0.0
 40
3.0923400000000001
  1
180
 41
0.5
 72
     1
 11
47.243899999999989
 21
158.00399999999999
 31
0.0
  0
TEXT
  5
12A
  8
____
 62
     7
 10
59.834472500000011
 20
147.745
 30
0.0
 40
3.0923400000000001
  1
70
 41
0.5
 72
     1
 11
60.994100000000003
 21
147.745
 31
0.0
  0
TEXT
  5
12B
  8
____
 62
     7
 10
-50.1402
 20
132.94644
 30
0.0
 40
3.0923400000000001
  1
395
 50
90.0
 41
0.5
 72
     1
 11
-50.1402
 21
135.00800000000001
 31
0.0
  0
TEXT
  5
12C
  8
____
 62
     7
 10
-2.7013199999999991
 20
102.20413499999999
 30
0.0
 40
3.0923400000000001
  1
147
 50
90.0
 41
0.5
 72
     1
 11
-2.7013199999999991
 21
104.008
 31
0.0
  0
TEXT
  5
12D
  8
____
 62
     7
 10
5.528039999999999
 20
111.2002875
 30
0.0
 40
3.0923400000000001
  1
220
 50
90.0
 41
0.5
 72
     1
 11
5.528039999999999
 21
113.133
 31
0.0
  0
TEXT
  5
12E
  8
____
 62
     7
 10
100.52500000000001
 20
109.8719825
 30
0.0
 40
3.0923400000000001
  1
210
 50
90.0
 41
0.5
 72
     1
 11
100.52500000000001
 21
111.547
 31
0.0
  0
LINE
  5
12F
  8
_________1
 62
     7
 10
97.496799999999993
 20
189.26599999999999
 30
0.0
 11
143.77799999999999
 21
189.26599999999999
 31
0.0
  0
INSERT
  5
130
  8
_________1
 62
     7
  2
AIGNBL02010002
 10
0.0
 20
0.0
 30
0.0
  0
LINE
  5
131
  8
_________1
 62
     7
 10
71.954499999999996
 20
179.28899999999999
 30
0.0
 11
69.744299999999996
 21
178.697
 31
0.0
  0
LINE
  5
132
  8
_________1
 62
     7
 10
69.744299999999996
 20
178.697
 30
0.0
 11
71.954499999999996
 21
178.10499999999999
 31
0.0
  0
LINE
  5
133
  8
_________1
 62
     7
 10
71.954499999999996
 20
178.10499999999999
 30
0.0
 11
71.954499999999996
 21
179.28899999999999
 31
0.0
  0
LINE
  5
134
  8
_________1
 62
     7
 10
92.534099999999995
 20
178.10499999999999
 30
0.0
 11
94.744500000000002
 21
178.697
 31
0.0
  0
LINE
  5
135
  8
_________1
 62
     7
 10
94.744500000000002
 20
178.697
 30
0.0
 11
92.534099999999995
 21
179.28899999999999
 31
0.0
  0
LINE
  5
136
  8
_________1
 62
     7
 10
92.534099999999995
 20
179.28899999999999
 30
0.0
 11
92.534099999999995
 21
178.10499999999999
 31
0.0
  0
LINE
  5
137
  8
_________1
 62
     7
 10
69.744299999999996
 20
178.697
 30
0.0
 11
94.744500000000002
 21
178.697
 31
0.0
  0
LINE
  5
138
  8
_________1
  6
AIGENLINE002
 62
     7
 10
94.744500000000002
 20
200.44200000000001
 30
0.0
 11
94.744500000000002
 21
33.486899999999999
 31
0.0
  0
LINE
  5
139
  8
_________1
 62
     7
 10
69.744299999999996
 20
179.39699999999999
 30
0.0
 11
69.744299999999996
 21
164.38300000000001
 31
0.0
  0
LINE
  5
13A
  8
_________1
 62
     7
 10
-13.2181
 20
34.967300000000002
 30
0.0
 11
-6.3367800000000001
 21
34.967300000000002
 31
0.0
  0
LINE
  5
13B
  8
_________1
 62
     7
 10
-19.084399999999999
 20
40.162500000000001
 30
0.0
 11
-19.999400000000001
 21
41.747900000000001
 31
0.0
  0
LINE
  5
13C
  8
_________1
 62
     7
 10
-19.999400000000001
 20
41.747900000000001
 30
0.0
 11
-18.414000000000001
 21
40.832900000000002
 31
0.0
  0
LINE
  5
13D
  8
_________1
 62
     7
 10
-18.414000000000001
 20
40.832900000000002
 30
0.0
 11
-19.084399999999999
 21
40.162500000000001
 31
0.0
  0
LINE
  5
13E
  8
_________1
 62
     7
 10
-13.2181
 20
34.967300000000002
 30
0.0
 11
-19.999400000000001
 21
41.747900000000001
 31
0.0
  0
LINE
  5
13F
  8
_________1
 62
     7
 10
-54.909999999999989
 20
34.967300000000002
 30
0.0
 11
-61.7913
 21
34.967300000000002
 31
0.0
  0
LINE
  5
140
  8
_________1
 62
     7
 10
-49.043700000000001
 20
40.162500000000001
 30
0.0
 11
-48.128599999999999
 21
41.747900000000001
 31
0.0
  0
LINE
  5
141
  8
_________1
 62
     7
 10
-48.128599999999999
 20
41.747900000000001
 30
0.0
 11
-49.714100000000002
 21
40.832900000000002
 31
0.0
  0
LINE
  5
142
  8
_________1
 62
     7
 10
-49.714100000000002
 20
40.832900000000002
 30
0.0
 11
-49.043700000000001
 21
40.162500000000001
 31
0.0
  0
LINE
  5
143
  8
_________1
 62
     7
 10
-54.909999999999989
 20
34.967300000000002
 30
0.0
 11
-48.128599999999999
 21
41.747900000000001
 31
0.0
  0
LINE
  5
144
  8
_________1
 62
     7
 10
66.181399999999996
 20
78.132499999999993
 30
0.0
 11
66.181399999999996
 21
85.632499999999993
 31
0.0
  0
LINE
  5
145
  8
_________1
 62
     7
 10
68.805899999999994
 20
79.132999999999996
 30
0.0
 11
68.805899999999994
 21
85.632499999999993
 31
0.0
  0
LINE
  5
146
  8
_________1
 62
     7
 10
86.629199999999983
 20
41.996699999999997
 30
0.0
 11
86.179299999999984
 21
41.747199999999992
 31
0.0
  0
LINE
  5
147
  8
_________1
 62
     7
 10
81.128699999999995
 20
41.996699999999997
 30
0.0
 11
81.577999999999989
 21
41.747199999999992
 31
0.0
  0
LINE
  5
148
  8
_________1
 62
     7
 10
85.428899999999985
 20
44.997399999999999
 30
0.0
 11
85.428899999999985
 21
44.872700000000002
 31
0.0
  0
LINE
  5
149
  8
_________1
 62
     7
 10
82.328299999999984
 20
44.997399999999999
 30
0.0
 11
82.328299999999984
 21
44.872700000000002
 31
0.0
  0
LINE
  5
14A
  8
_________1
 62
     7
 10
85.304199999999994
 20
48.24819999999999
 30
0.0
 11
85.304199999999994
 21
46.247899999999987
 31
0.0
  0
LINE
  5
14B
  8
_________1
 62
     7
 10
82.428600000000003
 20
48.24819999999999
 30
0.0
 11
82.428600000000003
 21
46.247899999999987
 31
0.0
  0
LINE
  5
14C
  8
_________1
 62
     7
 10
85.304199999999994
 20
46.247899999999987
 30
0.0
 11
85.503999999999991
 21
45.822799999999987
 31
0.0
  0
LINE
  5
14D
  8
_________1
 62
     7
 10
85.478899999999996
 20
48.547899999999998
 30
0.0
 11
85.304199999999994
 21
48.24819999999999
 31
0.0
  0
LINE
  5
14E
  8
_________1
 62
     7
 10
82.428600000000003
 20
46.247899999999987
 30
0.0
 11
82.253200000000007
 21
45.822799999999987
 31
0.0
  0
LINE
  5
14F
  8
_________1
 62
     7
 10
82.253200000000007
 20
48.547899999999998
 30
0.0
 11
82.428600000000003
 21
48.24819999999999
 31
0.0
  0
LINE
  5
150
  8
_________1
 62
     7
 10
81.577999999999989
 20
44.872700000000002
 30
0.0
 11
81.128699999999995
 21
44.622500000000002
 31
0.0
  0
LINE
  5
151
  8
_________1
 62
     7
 10
86.179299999999984
 20
44.872700000000002
 30
0.0
 11
86.629199999999983
 21
44.622500000000002
 31
0.0
  0
LINE
  5
152
  8
_________1
 62
     7
 10
85.553600000000003
 20
49.498800000000003
 30
0.0
 11
85.553600000000003
 21
48.798000000000002
 31
0.0
  0
LINE
  5
153
  8
_________1
 62
     7
 10
82.178399999999996
 20
49.498800000000003
 30
0.0
 11
82.178399999999996
 21
48.798000000000002
 31
0.0
  0
LINE
  5
154
  8
_________1
 62
     7
 10
82.178399999999996
 20
49.498800000000003
 30
0.0
 11
85.553600000000003
 21
49.498800000000003
 31
0.0
  0
LINE
  5
155
  8
_________1
 62
     7
 10
82.203599999999994
 20
48.67329999999999
 30
0.0
 11
82.253200000000007
 21
48.547899999999998
 31
0.0
  0
LINE
  5
156
  8
_________1
 62
     7
 10
82.178399999999996
 20
48.798000000000002
 30
0.0
 11
82.203599999999994
 21
48.67329999999999
 31
0.0
  0
LINE
  5
157
  8
_________1
 62
     7
 10
85.553600000000003
 20
48.67329999999999
 30
0.0
 11
85.478899999999996
 21
48.547899999999998
 31
0.0
  0
LINE
  5
158
  8
_________1
 62
     7
 10
85.553600000000003
 20
48.798000000000002
 30
0.0
 11
85.553600000000003
 21
48.67329999999999
 31
0.0
  0
LINE
  5
159
  8
_________1
 62
     7
 10
83.878600000000006
 20
48.24819999999999
 30
0.0
 11
85.304199999999994
 21
48.24819999999999
 31
0.0
  0
LINE
  5
15A
  8
_________1
 62
     7
 10
82.428600000000003
 20
48.24819999999999
 30
0.0
 11
83.878600000000006
 21
48.24819999999999
 31
0.0
  0
LINE
  5
15B
  8
_________1
 62
     7
 10
82.428600000000003
 20
46.247899999999987
 30
0.0
 11
85.304199999999994
 21
46.247899999999987
 31
0.0
  0
LINE
  5
15C
  8
_________1
 62
     7
 10
82.603899999999996
 20
45.023499999999991
 30
0.0
 11
82.628699999999995
 21
45.023499999999991
 31
0.0
  0
ARC
  5
15D
  8
_________1
 62
     7
 10
87.125144999999989
 20
54.097283999999988
 30
0.0
 40
10.137758
 50
242.79826199999999
 51
243.51404199999999
  0
ARC
  5
15E
  8
_________1
 62
     7
 10
82.782542000000007
 20
45.650100000000002
 30
0.0
 40
0.6397000000000001
 50
234.340416
 51
242.879075
  0
ARC
  5
15F
  8
_________1
 62
     7
 10
82.699145999999985
 20
45.526905999999997
 30
0.0
 40
0.4910060000000001
 50
225.53074100000001
 51
233.866649
  0
ARC
  5
160
  8
_________1
 62
     7
 10
82.713553000000005
 20
45.500857000000003
 30
0.0
 40
0.4833510000000001
 50
203.23388600000001
 51
222.14699300000001
  0
ARC
  5
161
  8
_________1
 62
     7
 10
83.372830000000008
 20
45.781705000000002
 30
0.0
 40
1.199954
 50
198.66450699999999
 51
203.13821799999999
  0
LINE
  5
162
  8
_________1
 62
     7
 10
82.203599999999994
 20
45.497599999999998
 30
0.0
 11
82.236000000000004
 21
45.397699999999993
 31
0.0
  0
LINE
  5
163
  8
_________1
 62
     7
 10
82.203599999999994
 20
45.647799999999989
 30
0.0
 11
82.203599999999994
 21
45.497599999999998
 31
0.0
  0
ARC
  5
164
  8
_________1
 62
     7
 10
160.365466
 20
34.659008
 30
0.0
 40
78.930545999999993
 50
171.86889400000001
 51
171.99720500000001
  0
LINE
  5
165
  8
_________1
 62
     7
 10
82.228399999999993
 20
45.822799999999987
 30
0.0
 11
82.253200000000007
 21
45.822799999999987
 31
0.0
  0
LINE
  5
166
  8
_________1
 62
     7
 10
85.553600000000003
 20
45.647799999999989
 30
0.0
 11
85.503999999999991
 21
45.822799999999987
 31
0.0
  0
LINE
  5
167
  8
_________1
 62
     7
 10
85.553600000000003
 20
45.497599999999998
 30
0.0
 11
85.553600000000003
 21
45.647799999999989
 31
0.0
  0
LINE
  5
168
  8
_________1
 62
     7
 10
85.520200000000003
 20
45.397699999999993
 30
0.0
 11
85.553600000000003
 21
45.497599999999998
 31
0.0
  0
ARC
  5
169
  8
_________1
 62
     7
 10
85.041931000000005
 20
45.558673999999989
 30
0.0
 40
0.5046490000000001
 50
329.05255899999997
 51
341.39716499999997
  0
ARC
  5
16A
  8
_________1
 62
     7
 10
84.873244999999983
 20
45.699181000000003
 30
0.0
 40
0.722365
 50
290.72246799999999
 51
326.37411100000003
  0
LINE
  5
16B
  8
_________1
 62
     7
 10
82.328299999999984
 20
44.997399999999999
 30
0.0
 11
85.428899999999985
 21
44.997399999999999
 31
0.0
  0
LINE
  5
16C
  8
_________1
 62
     7
 10
81.577999999999989
 20
44.872700000000002
 30
0.0
 11
86.179299999999984
 21
44.872700000000002
 31
0.0
  0
LINE
  5
16D
  8
_________1
 62
     7
 10
81.128699999999995
 20
41.996699999999997
 30
0.0
 11
81.577999999999989
 21
41.747199999999992
 31
0.0
  0
LINE
  5
16E
  8
_________1
 62
     7
 10
86.629199999999983
 20
41.996699999999997
 30
0.0
 11
86.179299999999984
 21
41.771999999999998
 31
0.0
  0
LINE
  5
16F
  8
_________1
 62
     7
 10
86.179299999999984
 20
41.771999999999998
 30
0.0
 11
86.179299999999984
 21
41.747199999999992
 31
0.0
  0
LINE
  5
170
  8
_________1
 62
     7
 10
86.479299999999995
 20
41.947099999999992
 30
0.0
 11
86.179299999999984
 21
41.771999999999998
 31
0.0
  0
LINE
  5
171
  8
_________1
 62
     7
 10
83.878600000000006
 20
41.747199999999992
 30
0.0
 11
86.179299999999984
 21
41.747199999999992
 31
0.0
  0
LINE
  5
172
  8
_________1
 62
     7
 10
81.577999999999989
 20
41.747199999999992
 30
0.0
 11
83.878600000000006
 21
41.747199999999992
 31
0.0
  0
LINE
  5
173
  8
_________1
 62
     7
 10
82.628699999999995
 20
45.023499999999991
 30
0.0
 11
83.878600000000006
 21
45.023499999999991
 31
0.0
  0
LINE
  5
174
  8
_________1
 62
     7
 10
85.128799999999998
 20
45.023499999999991
 30
0.0
 11
83.878600000000006
 21
45.023499999999991
 31
0.0
  0
ARC
  5
175
  8
_________1
 62
     7
 10
83.757487999999995
 20
40.002016999999988
 30
0.0
 40
4.8566900000000004
 50
72.058612000000011
 51
85.196087000000006
  0
ARC
  5
176
  8
_________1
 62
     7
 10
83.960856000000007
 20
42.388950000000001
 30
0.0
 40
2.4611119999999991
 50
85.260300999999984
 51
89.372129999999984
  0
ARC
  5
177
  8
_________1
 62
     7
 10
83.960851000000005
 20
43.388999999999989
 30
0.0
 40
1.461163999999999
 50
88.942242000000007
 51
93.226404000000002
  0
ARC
  5
178
  8
_________1
 62
     7
 10
83.769632999999985
 20
42.639363000000003
 30
0.0
 40
2.211171999999999
 50
87.174924000000004
 51
93.757938000000024
  0
ARC
  5
179
  8
_________1
 62
     7
 10
83.972245999999984
 20
40.17562199999999
 30
0.0
 40
4.6830720000000001
 50
94.255888999999996
 51
103.389358
  0
ARC
  5
17A
  8
_________1
 62
     7
 10
83.744369999999975
 20
40.972951000000002
 30
0.0
 40
3.8548249999999991
 50
102.838708
 51
108.780646
  0
ARC
  5
17B
  8
_________1
 62
     7
 10
81.379662999999994
 20
36.032972000000001
 30
0.0
 40
6.068630999999999
 50
76.418272999999999
 51
79.329596999999993
  0
ARC
  5
17C
  8
_________1
 62
     7
 10
85.023893999999999
 20
51.079990000000002
 30
0.0
 40
9.413397999999999
 50
256.36471299999999
 51
258.50461300000001
  0
ARC
  5
17D
  8
_________1
 62
     7
 10
83.917532999999992
 20
45.703497999999989
 30
0.0
 40
3.9242879999999989
 50
258.6899049999999
 51
261.91535599999997
  0
ARC
  5
17E
  8
_________1
 62
     7
 10
83.663274999999999
 20
43.879244999999997
 30
0.0
 40
2.0824139999999991
 50
261.78260999999998
 51
269.744621
  0
LINE
  5
17F
  8
_________1
 62
     7
 10
84.103200000000001
 20
41.796899999999987
 30
0.0
 11
83.653999999999996
 21
41.796899999999987
 31
0.0
  0
ARC
  5
180
  8
_________1
 62
     7
 10
84.068415999999985
 20
44.210396000000003
 30
0.0
 40
2.413794999999999
 50
270.82656700000001
 51
278.48724900000002
  0
ARC
  5
181
  8
_________1
 62
     7
 10
83.550586999999979
 20
47.603885999999989
 30
0.0
 40
5.8465590000000001
 50
278.59813500000001
 51
284.71653400000002
  0
ARC
  5
182
  8
_________1
 62
     7
 10
86.350757999999999
 20
36.449478999999997
 30
0.0
 40
5.6546580000000004
 50
101.1883
 51
103.446589
  0
ARC
  5
183
  8
_________1
 62
     7
 10
81.503887999999989
 20
42.925877
 30
0.0
 40
1.9691439999999989
 50
59.499339999999989
 51
66.730772000000002
  0
ARC
  5
184
  8
_________1
 62
     7
 10
81.696808000000004
 20
43.444117999999989
 30
0.0
 40
1.4171100000000001
 50
65.618611000000001
 51
77.161043000000006
  0
ARC
  5
185
  8
_________1
 62
     7
 10
81.826277000000005
 20
44.057203999999992
 30
0.0
 40
0.790647
 50
76.43617900000001
 51
89.844281999999993
  0
ARC
  5
186
  8
_________1
 62
     7
 10
81.849454000000009
 20
43.740993000000003
 30
0.0
 40
1.1070539999999991
 50
91.088385000000002
 51
107.252442
  0
ARC
  5
187
  8
_________1
 62
     7
 10
82.126941000000002
 20
42.91921099999999
 30
0.0
 40
1.974275
 50
107.869906
 51
120.372035
  0
ARC
  5
188
  8
_________1
 62
     7
 10
83.483242999999987
 20
47.381323999999999
 30
0.0
 40
5.8769279999999986
 50
246.38193799999999
 51
248.592646
  0
ARC
  5
189
  8
_________1
 62
     7
 10
82.172054000000003
 20
44.023178999999992
 30
0.0
 40
2.2718919999999989
 50
248.46699100000001
 51
252.878365
  0
ARC
  5
18A
  8
_________1
 62
     7
 10
81.909272999999999
 20
43.159120999999999
 30
0.0
 40
1.3687670000000001
 50
252.74256399999999
 51
258.56519200000002
  0
ARC
  5
18B
  8
_________1
 62
     7
 10
81.827654999999993
 20
42.678046999999999
 30
0.0
 40
0.8811959999999999
 50
257.56531200000001
 51
270.05007499999999
  0
ARC
  5
18C
  8
_________1
 62
     7
 10
81.819048999999993
 20
42.595063000000003
 30
0.0
 40
0.798266
 50
270.673023
 51
281.20397200000002
  0
ARC
  5
18D
  8
_________1
 62
     7
 10
81.545372999999984
 20
43.777025999999999
 30
0.0
 40
2.0112540000000001
 50
282.30942099999999
 51
291.49976200000009
  0
ARC
  5
18E
  8
_________1
 62
     7
 10
79.843548999999996
 20
48.141114000000002
 30
0.0
 40
6.6954169999999991
 50
291.36270300000001
 51
293.40657399999998
  0
LINE
  5
18F
  8
_________1
 62
     7
 10
82.503299999999996
 20
44.622500000000002
 30
0.0
 11
82.503299999999996
 21
41.996699999999997
 31
0.0
  0
LINE
  5
190
  8
_________1
 62
     7
 10
81.128699999999995
 20
44.622500000000002
 30
0.0
 11
81.128699999999995
 21
41.996699999999997
 31
0.0
  0
ARC
  5
191
  8
_________1
 62
     7
 10
85.636783999999977
 20
42.940883999999997
 30
0.0
 40
1.9526490000000001
 50
59.453415
 51
67.416469000000006
  0
ARC
  5
192
  8
_________1
 62
     7
 10
85.838913000000005
 20
43.468195000000001
 30
0.0
 40
1.388239
 50
66.761310999999992
 51
78.216138999999998
  0
ARC
  5
193
  8
_________1
 62
     7
 10
85.929883000000004
 20
43.940841999999989
 30
0.0
 40
0.9070059999999999
 50
77.744191999999998
 51
90.046419999999998
  0
ARC
  5
194
  8
_________1
 62
     7
 10
85.929355999999999
 20
43.937806000000002
 30
0.0
 40
0.9100419999999999
 50
90.013041999999984
 51
95.901539
  0
ARC
  5
195
  8
_________1
 62
     7
 10
86.007801999999998
 20
43.509830000000001
 30
0.0
 40
1.3442459999999989
 50
97.352017000000018
 51
124.131135
  0
ARC
  5
196
  8
_________1
 62
     7
 10
86.447952999999998
 20
44.363273
 30
0.0
 40
2.6509230000000001
 50
243.22057100000001
 51
247.98058199999991
  0
ARC
  5
197
  8
_________1
 62
     7
 10
86.063927000000007
 20
43.364446999999998
 30
0.0
 40
1.581081999999999
 50
247.31136599999999
 51
257.94846999999999
  0
ARC
  5
198
  8
_________1
 62
     7
 10
85.934607999999997
 20
42.750661999999998
 30
0.0
 40
0.9538260000000001
 50
257.84727199999998
 51
269.67204100000009
  0
ARC
  5
199
  8
_________1
 62
     7
 10
85.919027999999983
 20
42.782594000000003
 30
0.0
 40
0.985795
 50
270.58823999999998
 51
280.74291299999999
  0
ARC
  5
19A
  8
_________1
 62
     7
 10
85.701154999999986
 20
43.720911999999991
 30
0.0
 40
1.948672
 50
281.89407399999999
 51
291.105706
  0
ARC
  5
19B
  8
_________1
 62
     7
 10
82.646330000000006
 20
51.296832999999992
 30
0.0
 40
10.117127999999999
 50
291.796018
 51
293.18340499999999
  0
LINE
  5
19C
  8
_________1
 62
     7
 10
85.253600000000006
 20
44.622500000000002
 30
0.0
 11
85.253600000000006
 21
41.996699999999997
 31
0.0
  0
LINE
  5
19D
  8
_________1
 62
     7
 10
86.629199999999983
 20
44.622500000000002
 30
0.0
 11
86.629199999999983
 21
41.996699999999997
 31
0.0
  0
LINE
  5
19E
  8
_________1
  6
AIGENLINE001
 62
     7
 10
71.994
 20
62.286999999999992
 30
0.0
 11
71.994
 21
88.166799999999995
 31
0.0
  0
LINE
  5
19F
  8
_________1
 62
     7
 10
70.681399999999996
 20
79.132999999999996
 30
0.0
 11
70.681399999999996
 21
85.632499999999993
 31
0.0
  0
LINE
  5
1A0
  8
_________1
 62
     7
 10
73.306200000000004
 20
78.132499999999993
 30
0.0
 11
73.306200000000004
 21
85.632499999999993
 31
0.0
  0
LINE
  5
1A1
  8
_________1
 62
     7
 10
70.681399999999996
 20
65.659099999999995
 30
0.0
 11
70.681399999999996
 21
72.882800000000003
 31
0.0
  0
LINE
  5
1A2
  8
_________1
 62
     7
 10
73.306200000000004
 20
65.659099999999995
 30
0.0
 11
73.306200000000004
 21
76.383099999999999
 31
0.0
  0
LINE
  5
1A3
  8
_________1
  6
AIGENLINE001
 62
     7
 10
83.875900000000016
 20
76.227400000000003
 30
0.0
 11
83.875900000000016
 21
40.535200000000003
 31
0.0
  0
LINE
  5
1A4
  8
_________1
 62
     7
 10
82.563299999999998
 20
72.558300000000003
 30
0.0
 11
82.563299999999998
 21
49.498800000000003
 31
0.0
  0
LINE
  5
1A5
  8
_________1
 62
     7
 10
85.188400000000001
 20
49.498800000000003
 30
0.0
 11
85.188400000000001
 21
72.558300000000003
 31
0.0
  0
LINE
  5
1A6
  8
_________1
  6
AIGENLINE001
 62
     7
 10
71.994
 20
62.286999999999992
 30
0.0
 11
83.875900000000016
 21
76.227400000000003
 31
0.0
  0
LINE
  5
1A7
  8
_________1
 62
     7
 10
52.858400000000003
 20
41.996699999999997
 30
0.0
 11
53.308399999999999
 21
41.747199999999992
 31
0.0
  0
LINE
  5
1A8
  8
_________1
 62
     7
 10
58.358899999999998
 20
41.996699999999997
 30
0.0
 11
57.909700000000001
 21
41.747199999999992
 31
0.0
  0
LINE
  5
1A9
  8
_________1
 62
     7
 10
54.058700000000002
 20
44.997399999999999
 30
0.0
 11
54.058700000000002
 21
44.872700000000002
 31
0.0
  0
LINE
  5
1AA
  8
_________1
 62
     7
 10
57.159300000000002
 20
44.997399999999999
 30
0.0
 11
57.159300000000002
 21
44.872700000000002
 31
0.0
  0
LINE
  5
1AB
  8
_________1
 62
     7
 10
54.183399999999999
 20
48.24819999999999
 30
0.0
 11
54.183399999999999
 21
46.247899999999987
 31
0.0
  0
LINE
  5
1AC
  8
_________1
 62
     7
 10
57.059399999999997
 20
48.24819999999999
 30
0.0
 11
57.059399999999997
 21
46.247899999999987
 31
0.0
  0
LINE
  5
1AD
  8
_________1
 62
     7
 10
54.183399999999999
 20
46.247899999999987
 30
0.0
 11
53.983600000000003
 21
45.822799999999987
 31
0.0
  0
LINE
  5
1AE
  8
_________1
 62
     7
 10
54.009099999999989
 20
48.547899999999998
 30
0.0
 11
54.183399999999999
 21
48.24819999999999
 31
0.0
  0
LINE
  5
1AF
  8
_________1
 62
     7
 10
57.059399999999997
 20
46.247899999999987
 30
0.0
 11
57.234400000000001
 21
45.822799999999987
 31
0.0
  0
LINE
  5
1B0
  8
_________1
 62
     7
 10
57.234400000000001
 20
48.547899999999998
 30
0.0
 11
57.059399999999997
 21
48.24819999999999
 31
0.0
  0
LINE
  5
1B1
  8
_________1
 62
     7
 10
57.909700000000001
 20
44.872700000000002
 30
0.0
 11
58.358899999999998
 21
44.622500000000002
 31
0.0
  0
LINE
  5
1B2
  8
_________1
 62
     7
 10
53.308399999999999
 20
44.872700000000002
 30
0.0
 11
52.858400000000003
 21
44.622500000000002
 31
0.0
  0
LINE
  5
1B3
  8
_________1
 62
     7
 10
53.93399999999999
 20
49.498800000000003
 30
0.0
 11
53.93399999999999
 21
48.798000000000002
 31
0.0
  0
LINE
  5
1B4
  8
_________1
 62
     7
 10
57.309499999999993
 20
49.498800000000003
 30
0.0
 11
57.309499999999993
 21
48.798000000000002
 31
0.0
  0
LINE
  5
1B5
  8
_________1
 62
     7
 10
57.309499999999993
 20
49.498800000000003
 30
0.0
 11
53.93399999999999
 21
49.498800000000003
 31
0.0
  0
LINE
  5
1B6
  8
_________1
 62
     7
 10
57.283999999999999
 20
48.67329999999999
 30
0.0
 11
57.234400000000001
 21
48.547899999999998
 31
0.0
  0
LINE
  5
1B7
  8
_________1
 62
     7
 10
57.309499999999993
 20
48.798000000000002
 30
0.0
 11
57.283999999999999
 21
48.67329999999999
 31
0.0
  0
LINE
  5
1B8
  8
_________1
 62
     7
 10
53.93399999999999
 20
48.67329999999999
 30
0.0
 11
54.009099999999989
 21
48.547899999999998
 31
0.0
  0
LINE
  5
1B9
  8
_________1
 62
     7
 10
53.93399999999999
 20
48.798000000000002
 30
0.0
 11
53.93399999999999
 21
48.67329999999999
 31
0.0
  0
LINE
  5
1BA
  8
_________1
 62
     7
 10
55.609000000000002
 20
48.24819999999999
 30
0.0
 11
54.183399999999999
 21
48.24819999999999
 31
0.0
  0
LINE
  5
1BB
  8
_________1
 62
     7
 10
57.059399999999997
 20
48.24819999999999
 30
0.0
 11
55.609000000000002
 21
48.24819999999999
 31
0.0
  0
LINE
  5
1BC
  8
_________1
 62
     7
 10
57.059399999999997
 20
46.247899999999987
 30
0.0
 11
54.183399999999999
 21
46.247899999999987
 31
0.0
  0
LINE
  5
1BD
  8
_________1
 62
     7
 10
56.88369999999999
 20
45.023499999999991
 30
0.0
 11
56.858899999999998
 21
45.023499999999991
 31
0.0
  0
ARC
  5
1BE
  8
_________1
 62
     7
 10
54.301017000000002
 20
50.283172
 30
0.0
 40
5.8595169999999994
 50
296.15294899999998
 51
297.3943680000001
  0
ARC
  5
1BF
  8
_________1
 62
     7
 10
56.578122
 20
45.855277000000001
 30
0.0
 40
0.8805770000000001
 50
298.408008
 51
304.58910300000002
  0
ARC
  5
1C0
  8
_________1
 62
     7
 10
56.85030600000001
 20
45.454011000000001
 30
0.0
 40
0.395739
 50
305.12754000000001
 51
315.47510999999997
  0
ARC
  5
1C1
  8
_________1
 62
     7
 10
56.782431999999993
 20
45.495496000000003
 30
0.0
 40
0.4735630000000001
 50
317.655709
 51
336.96345200000002
  0
ARC
  5
1C2
  8
_________1
 62
     7
 10
56.132325999999992
 20
45.77501199999999
 30
0.0
 40
1.1812089999999991
 50
336.82628499999998
 51
341.37102999999991
  0
LINE
  5
1C3
  8
_________1
 62
     7
 10
57.283999999999999
 20
45.497599999999998
 30
0.0
 11
57.251600000000003
 21
45.397699999999993
 31
0.0
  0
LINE
  5
1C4
  8
_________1
 62
     7
 10
57.283999999999999
 20
45.647799999999989
 30
0.0
 11
57.283999999999999
 21
45.497599999999998
 31
0.0
  0
ARC
  5
1C5
  8
_________1
 62
     7
 10
43.635939
 20
43.802691999999993
 30
0.0
 40
13.77225
 50
7.6992449999999986
 51
8.4346169999999994
  0
LINE
  5
1C6
  8
_________1
 62
     7
 10
57.2592
 20
45.822799999999987
 30
0.0
 11
57.234400000000001
 21
45.822799999999987
 31
0.0
  0
LINE
  5
1C7
  8
_________1
 62
     7
 10
53.93399999999999
 20
45.647799999999989
 30
0.0
 11
53.983600000000003
 21
45.822799999999987
 31
0.0
  0
LINE
  5
1C8
  8
_________1
 62
     7
 10
53.93399999999999
 20
45.497599999999998
 30
0.0
 11
53.93399999999999
 21
45.647799999999989
 31
0.0
  0
LINE
  5
1C9
  8
_________1
 62
     7
 10
53.96779999999999
 20
45.397699999999993
 30
0.0
 11
53.93399999999999
 21
45.497599999999998
 31
0.0
  0
ARC
  5
1CA
  8
_________1
 62
     7
 10
54.42234899999999
 20
45.547738000000003
 30
0.0
 40
0.478712
 50
198.26702299999999
 51
211.28329299999999
  0
ARC
  5
1CB
  8
_________1
 62
     7
 10
54.614004000000001
 20
45.698270000000001
 30
0.0
 40
0.721257
 50
213.59759299999999
 51
249.305868
  0
LINE
  5
1CC
  8
_________1
 62
     7
 10
57.159300000000002
 20
44.997399999999999
 30
0.0
 11
54.058700000000002
 21
44.997399999999999
 31
0.0
  0
LINE
  5
1CD
  8
_________1
 62
     7
 10
57.909700000000001
 20
44.872700000000002
 30
0.0
 11
53.308399999999999
 21
44.872700000000002
 31
0.0
  0
LINE
  5
1CE
  8
_________1
 62
     7
 10
58.358899999999998
 20
41.996699999999997
 30
0.0
 11
57.909700000000001
 21
41.747199999999992
 31
0.0
  0
LINE
  5
1CF
  8
_________1
 62
     7
 10
52.858400000000003
 20
41.996699999999997
 30
0.0
 11
53.308399999999999
 21
41.771999999999998
 31
0.0
  0
LINE
  5
1D0
  8
_________1
 62
     7
 10
53.308399999999999
 20
41.771999999999998
 30
0.0
 11
53.308399999999999
 21
41.747199999999992
 31
0.0
  0
LINE
  5
1D1
  8
_________1
 62
     7
 10
53.008600000000001
 20
41.947099999999992
 30
0.0
 11
53.308399999999999
 21
41.771999999999998
 31
0.0
  0
LINE
  5
1D2
  8
_________1
 62
     7
 10
55.609000000000002
 20
41.747199999999992
 30
0.0
 11
53.308399999999999
 21
41.747199999999992
 31
0.0
  0
LINE
  5
1D3
  8
_________1
 62
     7
 10
57.909700000000001
 20
41.747199999999992
 30
0.0
 11
55.609000000000002
 21
41.747199999999992
 31
0.0
  0
LINE
  5
1D4
  8
_________1
 62
     7
 10
56.858899999999998
 20
45.023499999999991
 30
0.0
 11
55.609000000000002
 21
45.023499999999991
 31
0.0
  0
LINE
  5
1D5
  8
_________1
 62
     7
 10
54.359099999999991
 20
45.023499999999991
 30
0.0
 11
55.609000000000002
 21
45.023499999999991
 31
0.0
  0
ARC
  5
1D6
  8
_________1
 62
     7
 10
55.741703999999999
 20
39.94690700000001
 30
0.0
 40
4.9125800000000002
 50
94.884434999999996
 51
107.867835
  0
ARC
  5
1D7
  8
_________1
 62
     7
 10
55.527842000000007
 20
42.365017999999999
 30
0.0
 40
2.485050999999999
 50
90.638471000000024
 51
94.718610999999996
  0
ARC
  5
1D8
  8
_________1
 62
     7
 10
55.527169999999998
 20
43.405116
 30
0.0
 40
1.4450510000000001
 50
86.753081999999992
 51
91.071370999999999
  0
ARC
  5
1D9
  8
_________1
 62
     7
 10
55.717987999999991
 20
42.638184000000003
 30
0.0
 40
2.2123490000000001
 50
86.243793999999994
 51
92.823304000000022
  0
ARC
  5
1DA
  8
_________1
 62
     7
 10
55.503103000000003
 20
40.096491999999998
 30
0.0
 40
4.7629000000000001
 50
76.687320999999983
 51
85.667393000000004
  0
ARC
  5
1DB
  8
_________1
 62
     7
 10
55.728131999999988
 20
40.919519999999999
 30
0.0
 40
3.910282
 50
71.261506999999995
 51
77.119100000000003
  0
ARC
  5
1DC
  8
_________1
 62
     7
 10
58.268391000000001
 20
35.294753
 30
0.0
 40
6.8238219999999989
 50
100.846388
 51
103.43262799999999
  0
ARC
  5
1DD
  8
_________1
 62
     7
 10
54.338793000000003
 20
51.651105999999999
 30
0.0
 40
9.9979610000000001
 50
281.544805
 51
283.56150200000002
  0
ARC
  5
1DE
  8
_________1
 62
     7
 10
55.582127
 20
45.633103999999989
 30
0.0
 40
3.8529029999999991
 50
278.054776
 51
281.34000300000002
  0
ARC
  5
1DF
  8
_________1
 62
     7
 10
55.829926
 20
43.804037000000001
 30
0.0
 40
2.007188999999999
 50
270.10594500000002
 51
278.36686300000002
  0
LINE
  5
1E0
  8
_________1
 62
     7
 10
55.384399999999999
 20
41.796899999999987
 30
0.0
 11
55.83359999999999
 21
41.796899999999987
 31
0.0
  0
ARC
  5
1E1
  8
_________1
 62
     7
 10
55.417822000000001
 20
44.188628000000001
 30
0.0
 40
2.3920099999999991
 50
261.47698000000003
 51
269.19929400000001
  0
ARC
  5
1E2
  8
_________1
 62
     7
 10
56.005600000000001
 20
47.934510000000003
 30
0.0
 40
6.1836919999999989
 50
255.45041800000001
 51
261.2349529999999
  0
ARC
  5
1E3
  8
_________1
 62
     7
 10
53.096274999999999
 20
36.261975
 30
0.0
 40
5.8465429999999987
 50
76.590454000000008
 51
78.774616000000009
  0
ARC
  5
1E4
  8
_________1
 62
     7
 10
58.05083299999999
 20
42.79095499999999
 30
0.0
 40
2.1194749999999991
 50
113.485916
 51
120.212144
  0
ARC
  5
1E5
  8
_________1
 62
     7
 10
57.795411999999999
 20
43.431511999999998
 30
0.0
 40
1.430345999999999
 50
102.892518
 51
114.327787
  0
ARC
  5
1E6
  8
_________1
 62
     7
 10
57.659636999999996
 20
44.074334
 30
0.0
 40
0.773513
 50
90.006500000000003
 51
103.712998
  0
ARC
  5
1E7
  8
_________1
 62
     7
 10
57.639792999999997
 20
43.751143999999996
 30
0.0
 40
1.096881999999999
 50
72.670932999999991
 51
88.967965000000007
  0
ARC
  5
1E8
  8
_________1
 62
     7
 10
57.381466000000003
 20
42.965612
 30
0.0
 40
1.923743999999999
 50
59.463070000000002
 51
72.29495
  0
ARC
  5
1E9
  8
_________1
 62
     7
 10
56.132959999999997
 20
47.071116000000004
 30
0.0
 40
5.5411970000000004
 50
291.34039300000001
 51
293.68506200000002
  0
ARC
  5
1EA
  8
_________1
 62
     7
 10
57.277617000000014
 20
44.127200000000002
 30
0.0
 40
2.382585999999999
 50
287.26551599999999
 51
291.464022
  0
ARC
  5
1EB
  8
_________1
 62
     7
 10
57.597535000000001
 20
43.085483000000004
 30
0.0
 40
1.292864
 50
281.26374499999997
 51
287.428539
  0
ARC
  5
1EC
  8
_________1
 62
     7
 10
57.659605999999997
 20
42.684620999999993
 30
0.0
 40
0.8877690000000001
 50
269.99634800000001
 51
282.388305
  0
ARC
  5
1ED
  8
_________1
 62
     7
 10
57.666891
 20
42.575497999999989
 30
0.0
 40
0.7786810000000001
 50
258.66321899999991
 51
269.45982600000002
  0
ARC
  5
1EE
  8
_________1
 62
     7
 10
57.958483999999999
 20
43.829284999999999
 30
0.0
 40
2.0657009999999989
 50
248.62162599999991
 51
257.56923
  0
ARC
  5
1EF
  8
_________1
 62
     7
 10
59.746339999999996
 20
48.399025000000002
 30
0.0
 40
6.9727319999999997
 50
246.66421800000001
 51
248.629412
  0
LINE
  5
1F0
  8
_________1
 62
     7
 10
56.984299999999998
 20
44.622500000000002
 30
0.0
 11
56.984299999999998
 21
41.996699999999997
 31
0.0
  0
LINE
  5
1F1
  8
_________1
 62
     7
 10
58.358899999999998
 20
44.622500000000002
 30
0.0
 11
58.358899999999998
 21
41.996699999999997
 31
0.0
  0
ARC
  5
1F2
  8
_________1
 62
     7
 10
53.816581999999997
 20
43.00941199999999
 30
0.0
 40
1.8762249999999989
 50
112.421054
 51
120.709022
  0
ARC
  5
1F3
  8
_________1
 62
     7
 10
53.631811999999989
 20
43.520674
 30
0.0
 40
1.333356999999999
 50
101.518749
 51
113.46094100000001
  0
ARC
  5
1F4
  8
_________1
 62
     7
 10
53.558672999999992
 20
43.93540999999999
 30
0.0
 40
0.912438
 50
90.011954999999986
 51
102.219031
  0
ARC
  5
1F5
  8
_________1
 62
     7
 10
53.564667999999998
 20
44.055318
 30
0.0
 40
0.792553
 50
83.659904999999995
 51
90.447181
  0
ARC
  5
1F6
  8
_________1
 62
     7
 10
53.475878999999999
 20
43.498494000000001
 30
0.0
 40
1.3560410000000001
 50
55.987456000000002
 51
82.529353
  0
ARC
  5
1F7
  8
_________1
 62
     7
 10
53.039391000000002
 20
44.364663
 30
0.0
 40
2.6524469999999991
 50
292.02080699999999
 51
296.77807999999999
  0
ARC
  5
1F8
  8
_________1
 62
     7
 10
53.40343
 20
43.430359000000003
 30
0.0
 40
1.649859
 50
282.27386100000001
 51
292.46634299999999
  0
ARC
  5
1F9
  8
_________1
 62
     7
 10
53.556328999999998
 20
42.723612000000003
 30
0.0
 40
0.9267629999999998
 50
270.13314000000003
 51
282.32578699999999
  0
ARC
  5
1FA
  8
_________1
 62
     7
 10
53.566612999999997
 20
42.758904000000001
 30
0.0
 40
0.962087
 50
259.13071200000002
 51
269.51579500000003
  0
ARC
  5
1FB
  8
_________1
 62
     7
 10
53.781080000000003
 20
43.704234999999997
 30
0.0
 40
1.9311720000000001
 50
248.86546200000001
 51
258.17058700000001
  0
ARC
  5
1FC
  8
_________1
 62
     7
 10
56.15883199999999
 20
49.64837
 30
0.0
 40
8.3331359999999997
 50
246.66809699999999
 51
248.352521
  0
LINE
  5
1FD
  8
_________1
 62
     7
 10
54.234400000000001
 20
44.622500000000002
 30
0.0
 11
54.234400000000001
 21
41.996699999999997
 31
0.0
  0
LINE
  5
1FE
  8
_________1
 62
     7
 10
52.858400000000003
 20
44.622500000000002
 30
0.0
 11
52.858400000000003
 21
41.996699999999997
 31
0.0
  0
LINE
  5
1FF
  8
_________1
  6
AIGENLINE001
 62
     7
 10
67.494
 20
62.286999999999992
 30
0.0
 11
67.494
 21
88.166799999999995
 31
0.0
  0
LINE
  5
200
  8
_________1
 62
     7
 10
68.806600000000003
 20
65.659099999999995
 30
0.0
 11
68.806600000000003
 21
72.882800000000003
 31
0.0
  0
LINE
  5
201
  8
_________1
 62
     7
 10
66.181399999999996
 20
65.659099999999995
 30
0.0
 11
66.181399999999996
 21
76.383099999999999
 31
0.0
  0
LINE
  5
202
  8
_________1
  6
AIGENLINE001
 62
     7
 10
55.611800000000002
 20
76.227400000000003
 30
0.0
 11
55.611800000000002
 21
40.535200000000003
 31
0.0
  0
LINE
  5
203
  8
_________1
 62
     7
 10
56.924399999999999
 20
72.558300000000003
 30
0.0
 11
56.924399999999999
 21
49.498800000000003
 31
0.0
  0
LINE
  5
204
  8
_________1
 62
     7
 10
54.299199999999999
 20
49.498800000000003
 30
0.0
 11
54.299199999999999
 21
72.558300000000003
 31
0.0
  0
LINE
  5
205
  8
_________1
  6
AIGENLINE001
 62
     7
 10
67.494
 20
62.286999999999992
 30
0.0
 11
55.611800000000002
 21
76.227400000000003
 31
0.0
  0
LINE
  5
206
  8
_________1
  6
AIGENLINE001
 62
     7
 10
69.744
 20
91.878500000000003
 30
0.0
 11
69.744
 21
67.178399999999996
 31
0.0
  0
LINE
  5
207
  8
_________1
 62
     7
 10
63.243400000000001
 20
77.632999999999996
 30
0.0
 11
76.243899999999996
 21
77.632999999999996
 31
0.0
  0
LINE
  5
208
  8
_________1
 62
     7
 10
63.243400000000001
 20
78.133200000000002
 30
0.0
 11
76.243899999999996
 21
78.133200000000002
 31
0.0
  0
LINE
  5
209
  8
_________1
 62
     7
 10
63.243400000000001
 20
78.133200000000002
 30
0.0
 11
63.243400000000001
 21
77.632999999999996
 31
0.0
  0
LINE
  5
20A
  8
_________1
 62
     7
 10
76.243899999999996
 20
78.133200000000002
 30
0.0
 11
76.243899999999996
 21
77.632999999999996
 31
0.0
  0
LINE
  5
20B
  8
_________1
 62
     7
 10
63.243400000000001
 20
76.383099999999999
 30
0.0
 11
76.243899999999996
 21
76.383099999999999
 31
0.0
  0
LINE
  5
20C
  8
_________1
 62
     7
 10
63.243400000000001
 20
77.632999999999996
 30
0.0
 11
63.243400000000001
 21
76.383099999999999
 31
0.0
  0
LINE
  5
20D
  8
_________1
 62
     7
 10
76.243899999999996
 20
77.632999999999996
 30
0.0
 11
76.243899999999996
 21
76.383099999999999
 31
0.0
  0
LINE
  5
20E
  8
_________1
 62
     7
 10
64.494
 20
77.632999999999996
 30
0.0
 11
64.494
 21
76.383099999999999
 31
0.0
  0
LINE
  5
20F
  8
_________1
 62
     7
 10
74.994
 20
77.632999999999996
 30
0.0
 11
74.994
 21
76.383099999999999
 31
0.0
  0
LINE
  5
210
  8
_________1
 62
     7
 10
67.993899999999996
 20
77.632999999999996
 30
0.0
 11
67.993899999999996
 21
76.383099999999999
 31
0.0
  0
LINE
  5
211
  8
_________1
 62
     7
 10
71.494100000000003
 20
77.632999999999996
 30
0.0
 11
71.494100000000003
 21
76.383099999999999
 31
0.0
  0
LINE
  5
212
  8
_________1
 62
     7
 10
68.228499999999997
 20
75.882800000000003
 30
0.0
 11
68.228499999999997
 21
72.882800000000003
 31
0.0
  0
LINE
  5
213
  8
_________1
 62
     7
 10
71.259500000000003
 20
75.882800000000003
 30
0.0
 11
71.259500000000003
 21
72.882800000000003
 31
0.0
  0
LINE
  5
214
  8
_________1
 62
     7
 10
68.244
 20
79.132999999999996
 30
0.0
 11
68.244
 21
78.133200000000002
 31
0.0
  0
LINE
  5
215
  8
_________1
 62
     7
 10
71.244
 20
79.132999999999996
 30
0.0
 11
71.244
 21
78.133200000000002
 31
0.0
  0
LINE
  5
216
  8
_________1
 62
     7
 10
67.993899999999996
 20
75.882800000000003
 30
0.0
 11
71.494100000000003
 21
75.882800000000003
 31
0.0
  0
LINE
  5
217
  8
_________1
 62
     7
 10
67.993899999999996
 20
75.882800000000003
 30
0.0
 11
71.494100000000003
 21
75.882800000000003
 31
0.0
  0
LINE
  5
218
  8
_________1
 62
     7
 10
68.228499999999997
 20
72.882800000000003
 30
0.0
 11
71.259500000000003
 21
72.882800000000003
 31
0.0
  0
LINE
  5
219
  8
_________1
 62
     7
 10
71.494100000000003
 20
75.882800000000003
 30
0.0
 11
72.243799999999993
 21
76.383099999999999
 31
0.0
  0
LINE
  5
21A
  8
_________1
 62
     7
 10
67.243899999999996
 20
76.383099999999999
 30
0.0
 11
67.993899999999996
 21
75.882800000000003
 31
0.0
  0
LINE
  5
21B
  8
_________1
 62
     7
 10
69.744
 20
75.882800000000003
 30
0.0
 11
69.744
 21
72.882800000000003
 31
0.0
  0
LINE
  5
21C
  8
_________1
 62
     7
 10
68.244
 20
79.132999999999996
 30
0.0
 11
71.244
 21
79.132999999999996
 31
0.0
  0
LINE
  5
21D
  8
_________1
 62
     7
 10
-35.537399999999998
 20
65.659800000000004
 30
0.0
 11
-35.537399999999998
 21
76.383099999999999
 31
0.0
  0
LINE
  5
21E
  8
_________1
 62
     7
 10
-32.912599999999998
 20
65.659800000000004
 30
0.0
 11
-32.912599999999998
 21
76.383099999999999
 31
0.0
  0
LINE
  5
21F
  8
_________1
 62
     7
 10
-32.912599999999998
 20
78.133200000000002
 30
0.0
 11
-32.912599999999998
 21
85.633200000000002
 31
0.0
  0
LINE
  5
220
  8
_________1
 62
     7
 10
-35.537399999999998
 20
78.133200000000002
 30
0.0
 11
-35.537399999999998
 21
85.633200000000002
 31
0.0
  0
LINE
  5
221
  8
_________1
 62
     7
 10
-19.662800000000001
 20
122.383
 30
0.0
 11
-20.412800000000001
 21
122.383
 31
0.0
  0
LINE
  5
222
  8
_________1
 62
     7
 10
-20.412800000000001
 20
122.383
 30
0.0
 11
-20.412800000000001
 21
126.383
 31
0.0
  0
LINE
  5
223
  8
_________1
 62
     7
 10
-20.412800000000001
 20
126.383
 30
0.0
 11
-19.662800000000001
 21
126.383
 31
0.0
  0
LINE
  5
224
  8
_________1
 62
     7
 10
-19.662800000000001
 20
126.383
 30
0.0
 11
-19.662800000000001
 21
122.383
 31
0.0
  0
LINE
  5
225
  8
_________1
 62
     7
 10
28.194199999999999
 20
148.1329999999999
 30
0.0
 11
39.531999999999996
 21
148.1329999999999
 31
0.0
  0
ARC
  5
226
  8
_________1
 62
     7
 10
-30.751401000000001
 20
254.973973
 30
0.0
 40
28.616804999999999
 50
270.17129899999998
 51
310.559484
  0
ARC
  5
227
  8
_________1
 62
     7
 10
-30.562249999999999
 20
255.00284099999999
 30
0.0
 40
28.645733
 50
229.46067700000009
 51
269.79279400000001
  0
ARC
  5
228
  8
_________1
 62
     7
 10
-16.850282
 20
254.79403099999999
 30
0.0
 40
1.6884410000000001
 50
272.11207000000002
 51
357.881866
  0
ARC
  5
229
  8
_________1
 62
     7
 10
-16.726051999999999
 20
254.793452
 30
0.0
 40
1.687854999999999
 50
182.09921900000001
 51
267.89473599999991
  0
ARC
  5
22A
  8
_________1
 62
     7
 10
-16.725322999999999
 20
254.669251
 30
0.0
 40
1.688602999999999
 50
92.129071999999979
 51
177.88304600000001
  0
ARC
  5
22B
  8
_________1
 62
     7
 10
-16.85005
 20
254.669633
 30
0.0
 40
1.688194
 50
2.104468999999999
 51
87.895520999999988
  0
LINE
  5
22C
  8
_________1
 62
     7
 10
-27.913
 20
249.232
 30
0.0
 11
-21.412800000000001
 21
249.232
 31
0.0
  0
LINE
  5
22D
  8
_________1
 62
     7
 10
-20.9129
 20
249.232
 30
0.0
 11
-13.162800000000001
 21
249.232
 31
0.0
  0
LINE
  5
22E
  8
_________1
 62
     7
 10
-30.6629
 20
260.23200000000003
 30
0.0
 11
-21.412800000000001
 21
260.23200000000003
 31
0.0
  0
LINE
  5
22F
  8
_________1
 62
     7
 10
-20.9129
 20
260.23200000000003
 30
0.0
 11
-13.162800000000001
 21
260.23200000000003
 31
0.0
  0
ARC
  5
230
  8
_________1
 62
     7
 10
-30.543402
 20
254.79986099999999
 30
0.0
 40
5.620063
 50
180.695685
 51
239.29440600000001
  0
ARC
  5
231
  8
_________1
 62
     7
 10
-30.662921000000001
 20
254.73162500000001
 30
0.0
 40
5.5001309999999988
 50
90.0
 51
179.99996999999999
  0
ARC
  5
232
  8
_________1
 62
     7
 10
-30.662922999999999
 20
254.73162500000001
 30
0.0
 40
5.5001309999999988
 50
0.00001
 51
89.999980000000008
  0
ARC
  5
233
  8
_________1
 62
     7
 10
-30.775521000000001
 20
254.79589899999999
 30
0.0
 40
5.6130969999999989
 50
300.661609
 51
359.34391699999998
  0
ARC
  5
234
  8
_________1
 62
     7
 10
-30.694641000000001
 20
254.77222399999999
 30
0.0
 40
7.551391999999999
 50
291.90707099999997
 51
312.79757300000011
  0
ARC
  5
235
  8
_________1
 62
     7
 10
-30.468755999999999
 20
254.86152100000001
 30
0.0
 40
7.695282999999999
 50
180.967206
 51
247.503671
  0
ARC
  5
236
  8
_________1
 62
     7
 10
-30.662834
 20
254.73171099999999
 30
0.0
 40
7.5001079999999991
 50
90.000657999999987
 51
180.00066799999999
  0
ARC
  5
237
  8
_________1
 62
     7
 10
-30.693210000000001
 20
254.65444299999999
 30
0.0
 40
7.5774359999999987
 50
47.39919699999998
 51
89.770968000000011
  0
INSERT
  5
238
  8
_________1
 62
     7
  2
AIGNBL02010003
 10
0.0
 20
0.0
 30
0.0
  0
INSERT
  5
239
  8
_________1
 62
     7
  2
AIGNBL02010004
 10
0.0
 20
0.0
 30
0.0
  0
ARC
  5
23A
  8
_________1
 62
     7
 10
-21.410852999999999
 20
254.70370500000001
 30
0.0
 40
5.1530500000000004
 50
84.454637000000005
 51
90.021433000000016
  0
ARC
  5
23B
  8
_________1
 62
     7
 10
-21.410852999999999
 20
254.75971899999999
 30
0.0
 40
5.1530500000000004
 50
269.978567
 51
275.54536300000001
  0
ARC
  5
23C
  8
_________1
 62
     7
 10
-21.410852999999999
 20
122.35487500000001
 30
0.0
 40
5.1530500000000004
 50
84.454637000000005
 51
90.021433000000016
  0
ARC
  5
23D
  8
_________1
 62
     7
 10
-21.413402000000001
 20
122.390135
 30
0.0
 40
5.1321240000000001
 50
270.00693100000001
 51
299.50558599999999
  0
ARC
  5
23E
  8
_________1
 62
     7
 10
-19.711335999999999
 20
129.18130199999999
 30
0.0
 40
1.299447999999999
 50
272.13146699999999
 51
357.88432999999998
  0
ARC
  5
23F
  8
_________1
 62
     7
 10
-13.864438
 20
129.181297
 30
0.0
 40
1.2994429999999999
 50
182.115455
 51
267.86878899999999
  0
ARC
  5
240
  8
_________1
 62
     7
 10
-23.864578999999999
 20
129.181297
 30
0.0
 40
1.2994429999999999
 50
182.115455
 51
267.86878899999999
  0
ARC
  5
241
  8
_________1
 62
     7
 10
-23.913074999999999
 20
115.633121
 30
0.0
 40
1.2500610000000001
 50
89.992105000000009
 51
179.992075
  0
ARC
  5
242
  8
_________1
 62
     7
 10
47.244275000000002
 20
159.13306299999999
 30
0.0
 40
25.250302000000001
 50
90.0
 51
179.99996999999999
  0
ARC
  5
243
  8
_________1
 62
     7
 10
47.24409399999999
 20
159.13323500000001
 30
0.0
 40
25.250129999999999
 50
359.999619
 51
89.999589000000014
  0
ARC
  5
244
  8
_________1
 62
     7
 10
47.243929999999999
 20
159.13306399999999
 30
0.0
 40
19.750171999999999
 50
90.0
 51
179.99996999999999
  0
ARC
  5
245
  8
_________1
 62
     7
 10
47.243922999999988
 20
159.13306399999999
 30
0.0
 40
19.750171999999999
 50
0.00001
 51
89.999980000000008
  0
ARC
  5
246
  8
_________1
  6
AIGENLINE001
 62
     7
 10
47.244016999999999
 20
159.133149
 30
0.0
 40
22.500150999999999
 50
90.000219000000001
 51
180.00022899999999
  0
ARC
  5
247
  8
_________1
  6
AIGENLINE001
 62
     7
 10
47.244008999999998
 20
159.13297700000001
 30
0.0
 40
22.500323000000002
 50
0.000229
 51
90.000198999999995
  0
LINE
  5
248
  8
_________1
 62
     7
 10
-33.412799999999997
 20
254.732
 30
0.0
 11
-33.412799999999997
 21
209.732
 31
0.0
  0
LINE
  5
249
  8
_________1
 62
     7
 10
-27.913
 20
254.732
 30
0.0
 11
-27.913
 21
209.732
 31
0.0
  0
ARC
  5
24A
  8
_________1
 62
     7
 10
-30.663008000000001
 20
209.73141899999999
 30
0.0
 40
2.7499790000000002
 50
270.00181400000002
 51
0.001785
  0
ARC
  5
24B
  8
_________1
 62
     7
 10
-30.662835999999999
 20
209.73141799999999
 30
0.0
 40
2.749978
 50
179.998176
 51
269.99822499999999
  0
ARC
  5
24C
  8
_________1
 62
     7
 10
-30.662835000000001
 20
254.73171199999999
 30
0.0
 40
2.7499790000000002
 50
90.001793999999975
 51
180.00180399999999
  0
ARC
  5
24D
  8
_________1
 62
     7
 10
-30.663008000000001
 20
254.73171199999999
 30
0.0
 40
2.7499790000000002
 50
359.99821500000002
 51
89.998186000000004
  0
LINE
  5
24E
  8
_________1
 62
     7
 10
-33.412799999999997
 20
181.6329999999999
 30
0.0
 11
-33.412799999999997
 21
136.38300000000001
 31
0.0
  0
LINE
  5
24F
  8
_________1
 62
     7
 10
-27.913
 20
181.6329999999999
 30
0.0
 11
-27.913
 21
136.38300000000001
 31
0.0
  0
LINE
  5
250
  8
_________1
  6
AIGENLINE001
 62
     7
 10
-16.7881
 20
257.024
 30
0.0
 11
-16.7881
 21
252.37200000000001
 31
0.0
  0
LINE
  5
251
  8
_________1
 62
     7
 10
-21.412800000000001
 20
260.23200000000003
 30
0.0
 11
-21.412800000000001
 21
249.232
 31
0.0
  0
LINE
  5
252
  8
_________1
 62
     7
 10
-20.9129
 20
260.23200000000003
 30
0.0
 11
-20.9129
 21
249.232
 31
0.0
  0
LINE
  5
253
  8
_________1
 62
     7
 10
-13.162800000000001
 20
260.23200000000003
 30
0.0
 11
-13.162800000000001
 21
249.232
 31
0.0
  0
LINE
  5
254
  8
_________1
  6
AIGENLINE001
 62
     7
 10
-16.7881
 20
146.19999999999999
 30
0.0
 11
-16.7881
 21
122.383
 31
0.0
  0
LINE
  5
255
  8
_________1
 62
     7
 10
-18.412800000000001
 20
144.63300000000001
 30
0.0
 11
-18.412800000000001
 21
129.13300000000001
 31
0.0
  0
LINE
  5
256
  8
_________1
 62
     7
 10
-15.163
 20
144.63300000000001
 30
0.0
 11
-15.163
 21
129.13300000000001
 31
0.0
  0
LINE
  5
257
  8
_________1
 62
     7
 10
-18.412800000000001
 20
129.6329999999999
 30
0.0
 11
-15.163
 21
129.6329999999999
 31
0.0
  0
ARC
  5
258
  8
_________1
 62
     7
 10
-30.662835000000001
 20
181.633386
 30
0.0
 40
2.7499790000000002
 50
90.001793999999975
 51
180.00180399999999
  0
ARC
  5
259
  8
_________1
 62
     7
 10
-30.663008000000001
 20
181.633386
 30
0.0
 40
2.7499790000000002
 50
359.99821500000002
 51
89.998186000000004
  0
ARC
  5
25A
  8
_________1
 62
     7
 10
-37.412939999999999
 20
88.382417000000004
 30
0.0
 40
1.249889
 50
270.00002000000001
 51
359.99999000000003
  0
INSERT
  5
25B
  8
_________1
 62
     7
  2
AIGNBL02010005
 10
0.0
 20
0.0
 30
0.0
  0
INSERT
  5
25C
  8
_________1
 62
     7
  2
AIGNBL02010006
 10
0.0
 20
0.0
 30
0.0
  0
INSERT
  5
25D
  8
_________1
 62
     7
  2
AIGNBL02010007
 10
0.0
 20
0.0
 30
0.0
  0
LINE
  5
25E
  8
_________1
 62
     7
 10
-15.163
 20
150.965
 30
0.0
 11
-15.163
 21
145.333
 31
0.0
  0
LINE
  5
25F
  8
_________1
 62
     7
 10
-6.9129699999999987
 20
163.95599999999999
 30
0.0
 11
-6.9129699999999987
 21
140.31200000000001
 31
0.0
  0
LINE
  5
260
  8
_________1
  6
AIGENLINE001
 62
     7
 10
-30.6629
 20
264.27199999999999
 30
0.0
 11
-30.6629
 21
203.72300000000001
 31
0.0
  0
LINE
  5
261
  8
_________1
  6
AIGENLINE001
 62
     7
 10
-30.6629
 20
186.19999999999999
 30
0.0
 11
-30.6629
 21
97.352099999999993
 31
0.0
  0
LINE
  5
262
  8
_________1
  6
AIGENLINE001
 62
     7
 10
-34.225200000000001
 20
87.927700000000002
 30
0.0
 11
-34.225200000000001
 21
62.213299999999997
 31
0.0
  0
LINE
  5
263
  8
_________1
  6
AIGENLINE001
 62
     7
 10
-30.6629
 20
91.879199999999997
 30
0.0
 11
-30.6629
 21
74.276700000000005
 31
0.0
  0
LINE
  5
264
  8
_________1
 62
     7
 10
-20.9129
 20
122.383
 30
0.0
 11
-18.412800000000001
 21
116.883
 31
0.0
  0
LINE
  5
265
  8
_________1
 62
     7
 10
-20.9129
 20
127.883
 30
0.0
 11
-20.9129
 21
122.383
 31
0.0
  0
LINE
  5
266
  8
_________1
 62
     7
 10
-21.412800000000001
 20
127.883
 30
0.0
 11
-21.412800000000001
 21
116.883
 31
0.0
  0
LINE
  5
267
  8
_________1
 62
     7
 10
-13.162800000000001
 20
127.883
 30
0.0
 11
-13.162800000000001
 21
116.883
 31
0.0
  0
LINE
  5
268
  8
_________1
 62
     7
 10
-36.1631
 20
136.38300000000001
 30
0.0
 11
-36.1631
 21
88.382400000000004
 31
0.0
  0
ARC
  5
269
  8
_________1
 62
     7
 10
-23.913076
 20
88.382587999999998
 30
0.0
 40
1.2500610000000001
 50
180.00790499999999
 51
270.00791500000003
  0
LINE
  5
26A
  8
_________1
 62
     7
 10
-25.1631
 20
136.38300000000001
 30
0.0
 11
-25.1631
 21
129.13300000000001
 31
0.0
  0
LINE
  5
26B
  8
_________1
 62
     7
 10
-25.1631
 20
115.633
 30
0.0
 11
-25.1631
 21
88.382400000000004
 31
0.0
  0
LINE
  5
26C
  8
_________1
 62
     7
 10
-23.1629
 20
87.132499999999993
 30
0.0
 11
-23.1629
 21
85.632499999999993
 31
0.0
  0
LINE
  5
26D
  8
_________1
 62
     7
 10
-38.1629
 20
87.132499999999993
 30
0.0
 11
-38.1629
 21
85.632499999999993
 31
0.0
  0
LINE
  5
26E
  8
_________1
 62
     7
 10
-18.412800000000001
 20
144.63300000000001
 30
0.0
 11
-15.163
 21
144.63300000000001
 31
0.0
  0
LINE
  5
26F
  8
_________1
 62
     7
 10
-23.9129
 20
116.883
 30
0.0
 11
-21.412800000000001
 21
116.883
 31
0.0
  0
LINE
  5
270
  8
_________1
 62
     7
 10
-18.412800000000001
 20
116.883
 30
0.0
 11
-13.162800000000001
 21
116.883
 31
0.0
  0
LINE
  5
271
  8
_________1
 62
     7
 10
-23.9129
 20
127.883
 30
0.0
 11
-21.412800000000001
 21
127.883
 31
0.0
  0
LINE
  5
272
  8
_________1
 62
     7
 10
-20.9129
 20
127.883
 30
0.0
 11
-19.663
 21
127.883
 31
0.0
  0
LINE
  5
273
  8
_________1
 62
     7
 10
-13.912800000000001
 20
127.883
 30
0.0
 11
-13.162800000000001
 21
127.883
 31
0.0
  0
LINE
  5
274
  8
_________1
 62
     7
 10
-36.1631
 20
130.88300000000001
 30
0.0
 11
-25.1631
 21
130.88300000000001
 31
0.0
  0
LINE
  5
275
  8
_________1
 62
     7
 10
64.244200000000006
 20
130.88300000000001
 30
0.0
 11
68.119299999999996
 21
130.88300000000001
 31
0.0
  0
LINE
  5
276
  8
_________1
 62
     7
 10
71.369399999999999
 20
130.88300000000001
 30
0.0
 11
75.244500000000002
 21
130.88300000000001
 31
0.0
  0
LINE
  5
277
  8
_________1
 62
     7
 10
-36.1631
 20
136.38300000000001
 30
0.0
 11
-25.1631
 21
136.38300000000001
 31
0.0
  0
LINE
  5
278
  8
_________1
  6
AIGENLINE001
 62
     7
 10
-40.332700000000003
 20
254.732
 30
0.0
 11
-11.547000000000001
 21
254.732
 31
0.0
  0
LINE
  5
279
  8
_________1
  6
AIGENLINE001
 62
     7
 10
-30.6629
 20
122.383
 30
0.0
 11
-11.7058
 21
122.383
 31
0.0
  0
LINE
  5
27A
  8
_________1
 62
     7
 10
-36.1631
 20
104.883
 30
0.0
 11
-25.1631
 21
104.883
 31
0.0
  0
LINE
  5
27B
  8
_________1
 62
     7
 10
64.244200000000006
 20
104.883
 30
0.0
 11
75.244500000000002
 21
104.883
 31
0.0
  0
LINE
  5
27C
  8
_________1
 62
     7
 10
-36.1631
 20
88.632499999999979
 30
0.0
 11
-25.1631
 21
88.632499999999979
 31
0.0
  0
LINE
  5
27D
  8
_________1
 62
     7
 10
-38.1629
 20
87.132499999999993
 30
0.0
 11
-23.1629
 21
87.132499999999993
 31
0.0
  0
INSERT
  5
27E
  8
_________1
 62
     7
  2
AIGNBL02010008
 10
0.0
 20
0.0
 30
0.0
  0
LINE
  5
27F
  8
_________1
 62
     7
 10
38.131900000000002
 20
85.632499999999993
 30
0.0
 11
61.5443
 21
85.632499999999993
 31
0.0
  0
LINE
  5
280
  8
_________1
 62
     7
 10
77.944400000000002
 20
85.632499999999993
 30
0.0
 11
101.925
 21
85.632499999999993
 31
0.0
  0
LINE
  5
281
  8
_________1
 62
     7
 10
86.806999999999988
 20
137.46100000000001
 30
0.0
 11
101.925
 21
137.46100000000001
 31
0.0
  0
INSERT
  5
282
  8
_________1
 62
     7
  2
AIGNBL02010009
 10
0.0
 20
0.0
 30
0.0
  0
INSERT
  5
283
  8
_________1
 62
     7
  2
AIGNBL0201000A
 10
0.0
 20
0.0
 30
0.0
  0
INSERT
  5
284
  8
_________1
 62
     7
  2
AIGNBL0201000B
 10
0.0
 20
0.0
 30
0.0
  0
INSERT
  5
285
  8
_________1
 62
     7
  2
AIGNBL0201000C
 10
0.0
 20
0.0
 30
0.0
  0
INSERT
  5
286
  8
_________1
 62
     7
  2
AIGNBL0201000D
 10
0.0
 20
0.0
 30
0.0
  0
LINE
  5
287
  8
_________1
 62
     7
 10
-11.005800000000001
 20
122.383
 30
0.0
 11
-1.30122
 21
122.383
 31
0.0
  0
LINE
  5
288
  8
_________1
 62
     7
 10
-7.6230099999999998
 20
140.63300000000001
 30
0.0
 11
6.9281300000000003
 21
140.63300000000001
 31
0.0
  0
INSERT
  5
289
  8
_________1
 62
     7
  2
AIGNBL0201000E
 10
0.0
 20
0.0
 30
0.0
  0
LINE
  5
28A
  8
_________1
 62
     7
 10
-50.1402
 20
184.38300000000001
 30
0.0
 11
-32.501199999999997
 21
184.38300000000001
 31
0.0
  0
LINE
  5
28B
  8
_________1
 62
     7
 10
-50.1402
 20
85.632499999999993
 30
0.0
 11
-38.863
 21
85.632499999999993
 31
0.0
  0
LINE
  5
28C
  8
_________1
 62
     7
 10
-22.462900000000001
 20
85.632499999999993
 30
0.0
 11
6.9281300000000003
 21
85.632499999999993
 31
0.0
  0
LINE
  5
28D
  8
_________1
 62
     7
 10
-38.1629
 20
85.632499999999993
 30
0.0
 11
-23.1629
 21
85.632499999999993
 31
0.0
  0
LINE
  5
28E
  8
_________1
 62
     7
 10
66.994100000000003
 20
159.13300000000001
 30
0.0
 11
66.994100000000003
 21
136.38300000000001
 31
0.0
  0
LINE
  5
28F
  8
_________1
 62
     7
 10
72.494200000000006
 20
159.13300000000001
 30
0.0
 11
72.494200000000006
 21
136.38300000000001
 31
0.0
  0
LINE
  5
290
  8
_________1
  6
AIGENLINE001
 62
     7
 10
24.7439
 20
159.13300000000001
 30
0.0
 11
24.7439
 21
145.17599999999999
 31
0.0
  0
LINE
  5
291
  8
_________1
 62
     7
 10
21.994
 20
159.13300000000001
 30
0.0
 11
21.994
 21
148.1329999999999
 31
0.0
  0
LINE
  5
292
  8
_________1
 62
     7
 10
27.4941
 20
159.13300000000001
 30
0.0
 11
27.4941
 21
148.1329999999999
 31
0.0
  0
LINE
  5
293
  8
_________1
  6
AIGENLINE002
 62
     7
 10
75.343999999999994
 20
125.316
 30
0.0
 11
87.236599999999996
 21
136.22999999999999
 31
0.0
  0
LINE
  5
294
  8
_________1
  6
AIGENLINE002
 62
     7
 10
87.236599999999996
 20
136.22999999999999
 30
0.0
 11
85.039299999999997
 21
138.624
 31
0.0
  0
LINE
  5
295
  8
_________1
  6
AIGENLINE002
 62
     7
 10
85.039299999999997
 20
138.624
 30
0.0
 11
73.146699999999996
 21
127.70999999999999
 31
0.0
  0
LINE
  5
296
  8
_________1
  6
AIGENLINE002
 62
     7
 10
76.185000000000002
 20
126.08799999999999
 30
0.0
 11
73.987300000000005
 21
128.482
 31
0.0
  0
LINE
  5
297
  8
_________1
  6
AIGENLINE001
 62
     7
 10
87.055000000000007
 20
138.268
 30
0.0
 11
69.744299999999996
 21
122.383
 31
0.0
  0
LINE
  5
298
  8
_________1
  6
AIGENLINE002
 62
     7
 10
64.144599999999997
 20
125.316
 30
0.0
 11
52.252099999999999
 21
136.22999999999999
 31
0.0
  0
LINE
  5
299
  8
_________1
  6
AIGENLINE002
 62
     7
 10
52.252099999999999
 20
136.22999999999999
 30
0.0
 11
54.4497
 21
138.624
 31
0.0
  0
LINE
  5
29A
  8
_________1
  6
AIGENLINE002
 62
     7
 10
54.4497
 20
138.624
 30
0.0
 11
66.342299999999994
 21
127.70999999999999
 31
0.0
  0
LINE
  5
29B
  8
_________1
  6
AIGENLINE002
 62
     7
 10
63.304000000000002
 20
126.08799999999999
 30
0.0
 11
65.501300000000001
 21
128.482
 31
0.0
  0
ARC
  5
29C
  8
_________1
 62
     7
 10
72.648729000000003
 20
128.51019299999999
 30
0.0
 40
1.279466999999999
 50
180.821484
 51
244.04418000000001
  0
ARC
  5
29D
  8
_________1
 62
     7
 10
66.839934
 20
128.51019299999999
 30
0.0
 40
1.279466999999999
 50
295.95585799999998
 51
359.178517
  0
ARC
  5
29E
  8
_________1
 62
     7
 10
69.744502999999995
 20
122.38314099999999
 30
0.0
 40
5.4999580000000003
 50
269.99822499999999
 51
359.99819600000001
  0
ARC
  5
29F
  8
_________1
 62
     7
 10
69.744158999999996
 20
122.383139
 30
0.0
 40
5.4999570000000002
 50
180.00180399999999
 51
270.00181400000002
  0
ARC
  5
2A0
  8
_________1
 62
     7
 10
69.744161000000005
 20
122.382794
 30
0.0
 40
5.4999580000000003
 50
89.998206000000025
 51
179.998176
  0
ARC
  5
2A1
  8
_________1
 62
     7
 10
69.744502999999995
 20
122.382794
 30
0.0
 40
5.4999580000000003
 50
0.001804
 51
90.001774999999995
  0
ARC
  5
2A2
  8
_________1
 62
     7
 10
62.994312999999998
 20
88.382417000000004
 30
0.0
 40
1.249889
 50
270.00002000000001
 51
359.99999000000003
  0
LINE
  5
2A3
  8
_________1
  6
AIGENLINE001
 62
     7
 10
52.433999999999997
 20
138.268
 30
0.0
 11
69.744299999999996
 21
122.383
 31
0.0
  0
LINE
  5
2A4
  8
_________1
  6
AIGENLINE001
 62
     7
 10
69.744299999999996
 20
159.13300000000001
 30
0.0
 11
69.744299999999996
 21
98.035600000000002
 31
0.0
  0
LINE
  5
2A5
  8
_________1
 62
     7
 10
68.119299999999996
 20
144.63300000000001
 30
0.0
 11
68.119299999999996
 21
128.49199999999999
 31
0.0
  0
LINE
  5
2A6
  8
_________1
 62
     7
 10
71.369399999999999
 20
144.63300000000001
 30
0.0
 11
71.369399999999999
 21
128.49199999999999
 31
0.0
  0
LINE
  5
2A7
  8
_________1
 62
     7
 10
52.244199999999999
 20
147.745
 30
0.0
 11
52.244199999999999
 21
136.93000000000001
 31
0.0
  0
INSERT
  5
2A8
  8
_________1
 62
     7
  2
AIGNBL0201000F
 10
0.0
 20
0.0
 30
0.0
  0
LINE
  5
2A9
  8
_________1
 62
     7
 10
62.244300000000003
 20
94.101299999999995
 30
0.0
 11
62.244300000000003
 21
87.832599999999999
 31
0.0
  0
LINE
  5
2AA
  8
_________1
 62
     7
 10
77.244399999999999
 20
94.101299999999995
 30
0.0
 11
77.244399999999999
 21
87.832599999999999
 31
0.0
  0
LINE
  5
2AB
  8
_________1
 62
     7
 10
87.244500000000002
 20
147.745
 30
0.0
 11
87.244500000000002
 21
136.93000000000001
 31
0.0
  0
LINE
  5
2AC
  8
_________1
 62
     7
 10
64.244200000000006
 20
136.38300000000001
 30
0.0
 11
64.244200000000006
 21
88.382400000000004
 31
0.0
  0
ARC
  5
2AD
  8
_________1
 62
     7
 10
76.494349999999997
 20
88.382416000000006
 30
0.0
 40
1.249887999999999
 50
179.99996999999999
 51
270.00002000000001
  0
LINE
  5
2AE
  8
_________1
 62
     7
 10
75.244500000000002
 20
136.38300000000001
 30
0.0
 11
75.244500000000002
 21
88.382400000000004
 31
0.0
  0
LINE
  5
2AF
  8
_________1
 62
     7
 10
77.244399999999999
 20
87.132499999999993
 30
0.0
 11
77.244399999999999
 21
85.632499999999993
 31
0.0
  0
LINE
  5
2B0
  8
_________1
 62
     7
 10
62.244300000000003
 20
87.132499999999993
 30
0.0
 11
62.244300000000003
 21
85.632499999999993
 31
0.0
  0
LINE
  5
2B1
  8
_________1
 62
     7
 10
68.119299999999996
 20
144.63300000000001
 30
0.0
 11
71.369399999999999
 21
144.63300000000001
 31
0.0
  0
LINE
  5
2B2
  8
_________1
 62
     7
 10
68.119299999999996
 20
129.6329999999999
 30
0.0
 11
71.369399999999999
 21
129.6329999999999
 31
0.0
  0
LINE
  5
2B3
  8
_________1
 62
     7
 10
64.244200000000006
 20
136.38300000000001
 30
0.0
 11
68.119299999999996
 21
136.38300000000001
 31
0.0
  0
LINE
  5
2B4
  8
_________1
 62
     7
 10
71.369399999999999
 20
136.38300000000001
 30
0.0
 11
75.244500000000002
 21
136.38300000000001
 31
0.0
  0
LINE
  5
2B5
  8
_________1
  6
AIGENLINE001
 62
     7
 10
62.7986
 20
122.383
 30
0.0
 11
76.481899999999996
 21
122.383
 31
0.0
  0
LINE
  5
2B6
  8
_________1
 62
     7
 10
64.244200000000006
 20
88.632499999999979
 30
0.0
 11
75.244500000000002
 21
88.632499999999979
 31
0.0
  0
LINE
  5
2B7
  8
_________1
 62
     7
 10
62.244300000000003
 20
87.132499999999993
 30
0.0
 11
77.244399999999999
 21
87.132499999999993
 31
0.0
  0
LINE
  5
2B8
  8
_________1
 62
     7
 10
-33.412799999999997
 20
153.38300000000001
 30
0.0
 11
-27.913
 21
153.38300000000001
 31
0.0
  0
LINE
  5
2B9
  8
_________1
 62
     7
 10
-33.412799999999997
 20
153.13300000000001
 30
0.0
 11
-27.913
 21
153.13300000000001
 31
0.0
  0
LINE
  5
2BA
  8
_________1
 62
     7
 10
-33.412799999999997
 20
148.1329999999999
 30
0.0
 11
-27.913
 21
148.1329999999999
 31
0.0
  0
LINE
  5
2BB
  8
_________1
 62
     7
 10
21.994
 20
153.38300000000001
 30
0.0
 11
27.4941
 21
153.38300000000001
 31
0.0
  0
LINE
  5
2BC
  8
_________1
 62
     7
 10
21.994
 20
153.13300000000001
 30
0.0
 11
27.4941
 21
153.13300000000001
 31
0.0
  0
LINE
  5
2BD
  8
_________1
 62
     7
 10
21.994
 20
148.1329999999999
 30
0.0
 11
27.4941
 21
148.1329999999999
 31
0.0
  0
LINE
  5
2BE
  8
_________1
 62
     7
 10
62.244300000000003
 20
85.632499999999993
 30
0.0
 11
77.244399999999999
 21
85.632499999999993
 31
0.0
  0
LINE
  5
2BF
  8
_________1
  6
AIGENLINE001
 62
     7
 10
-34.225200000000001
 20
62.213299999999997
 30
0.0
 11
-47.044499999999999
 21
76.227400000000003
 31
0.0
  0
LINE
  5
2C0
  8
_________1
 62
     7
 10
-48.356999999999999
 20
49.499400000000001
 30
0.0
 11
-48.356999999999999
 21
72.558300000000003
 31
0.0
  0
LINE
  5
2C1
  8
_________1
 62
     7
 10
-45.731900000000003
 20
72.558300000000003
 30
0.0
 11
-45.731900000000003
 21
49.499400000000001
 31
0.0
  0
LINE
  5
2C2
  8
_________1
  6
AIGENLINE001
 62
     7
 10
-47.044499999999999
 20
76.227400000000003
 30
0.0
 11
-47.044499999999999
 21
40.535200000000003
 31
0.0
  0
LINE
  5
2C3
  8
_________1
 62
     7
 10
-49.797800000000002
 20
44.623199999999997
 30
0.0
 11
-49.797800000000002
 21
41.997399999999999
 31
0.0
  0
LINE
  5
2C4
  8
_________1
 62
     7
 10
-48.422199999999997
 20
44.623199999999997
 30
0.0
 11
-48.422199999999997
 21
41.997399999999999
 31
0.0
  0
ARC
  5
2C5
  8
_________1
 62
     7
 10
-46.215410999999989
 20
50.340384
 30
0.0
 40
9.0796229999999998
 50
246.76199
 51
248.30654899999999
  0
ARC
  5
2C6
  8
_________1
 62
     7
 10
-48.884216000000002
 20
43.669831999999992
 30
0.0
 40
1.895068
 50
248.73221699999999
 51
258.21482400000002
  0
ARC
  5
2C7
  8
_________1
 62
     7
 10
-49.089903999999997
 20
42.762123000000003
 30
0.0
 40
0.9646139999999999
 50
259.16278199999999
 51
269.53432299999997
  0
ARC
  5
2C8
  8
_________1
 62
     7
 10
-49.098822999999989
 20
42.712122999999998
 30
0.0
 40
0.914583
 50
270.06759299999999
 51
282.410505
  0
ARC
  5
2C9
  8
_________1
 62
     7
 10
-49.220795000000003
 20
43.328709000000003
 30
0.0
 40
1.543032
 50
281.91324900000001
 51
292.81865800000003
  0
ARC
  5
2CA
  8
_________1
 62
     7
 10
-49.681165999999997
 20
44.504077000000002
 30
0.0
 40
2.805127999999999
 50
292.17554799999999
 51
296.66826700000001
  0
ARC
  5
2CB
  8
_________1
 62
     7
 10
-49.177062999999997
 20
43.507967999999998
 30
0.0
 40
1.346730999999999
 50
55.906326
 51
82.633775
  0
ARC
  5
2CC
  8
_________1
 62
     7
 10
-49.098849000000001
 20
43.945503999999993
 30
0.0
 40
0.9030329999999999
 50
83.996275999999995
 51
89.929920999999993
  0
ARC
  5
2CD
  8
_________1
 62
     7
 10
-49.097852000000003
 20
43.937925999999997
 30
0.0
 40
0.9106099999999999
 50
89.993185999999994
 51
102.244112
  0
ARC
  5
2CE
  8
_________1
 62
     7
 10
-49.005516999999998
 20
43.458877999999999
 30
0.0
 40
1.39839
 50
101.778644
 51
113.390214
  0
ARC
  5
2CF
  8
_________1
 62
     7
 10
-48.776330999999999
 20
42.88552
 30
0.0
 40
2.0156900000000002
 50
112.899422
 51
120.44792
  0
LINE
  5
2D0
  8
_________1
 62
     7
 10
-44.2973
 20
44.623199999999997
 30
0.0
 11
-44.2973
 21
41.997399999999999
 31
0.0
  0
LINE
  5
2D1
  8
_________1
 62
     7
 10
-45.671900000000001
 20
44.623199999999997
 30
0.0
 11
-45.671900000000001
 21
41.997399999999999
 31
0.0
  0
ARC
  5
2D2
  8
_________1
 62
     7
 10
-42.353475000000003
 20
49.712721999999999
 30
0.0
 40
8.3987449999999981
 50
246.727058
 51
248.39627400000001
  0
ARC
  5
2D3
  8
_________1
 62
     7
 10
-44.71805599999999
 20
43.773254000000001
 30
0.0
 40
2.0059399999999998
 50
248.72905600000001
 51
257.77933400000001
  0
ARC
  5
2D4
  8
_________1
 62
     7
 10
-44.986556
 20
42.601739000000002
 30
0.0
 40
0.804267
 50
258.80755299999998
 51
269.25448999999998
  0
ARC
  5
2D5
  8
_________1
 62
     7
 10
-44.997828999999989
 20
42.703093000000003
 30
0.0
 40
0.9055530000000001
 50
270.05111199999999
 51
282.20139799999998
  0
ARC
  5
2D6
  8
_________1
 62
     7
 10
-45.097351000000003
 20
43.238294000000003
 30
0.0
 40
1.449784
 50
281.57539500000001
 51
287.064933
  0
ARC
  5
2D7
  8
_________1
 62
     7
 10
-45.344582999999993
 20
44.04057499999999
 30
0.0
 40
2.2892939999999991
 50
287.08778999999998
 51
291.46785999999997
  0
ARC
  5
2D8
  8
_________1
 62
     7
 10
-46.812162000000001
 20
47.738694000000002
 30
0.0
 40
6.2679650000000002
 50
291.580556
 51
293.65458699999999
  0
ARC
  5
2D9
  8
_________1
 62
     7
 10
-45.299683999999999
 20
42.909421000000002
 30
0.0
 40
1.9854130000000001
 50
59.677578999999987
 51
72.113010000000003
  0
ARC
  5
2DA
  8
_________1
 62
     7
 10
-45.021597999999997
 20
43.722103999999987
 30
0.0
 40
1.1267009999999991
 50
72.877708999999996
 51
88.750097999999994
  0
ARC
  5
2DB
  8
_________1
 62
     7
 10
-44.996295000000003
 20
44.080174
 30
0.0
 40
0.768363
 50
90.054157999999987
 51
103.845017
  0
ARC
  5
2DC
  8
_________1
 62
     7
 10
-44.853367999999989
 20
43.404978
 30
0.0
 40
1.458323
 50
102.94928400000001
 51
114.168941
  0
ARC
  5
2DD
  8
_________1
 62
     7
 10
-44.608789999999999
 20
42.800091999999999
 30
0.0
 40
2.110465
 50
113.50328500000001
 51
120.24786899999999
  0
ARC
  5
2DE
  8
_________1
 62
     7
 10
-49.740203000000001
 20
35.401699000000001
 30
0.0
 40
6.7260660000000003
 50
76.798683999999994
 51
78.699123999999998
  0
ARC
  5
2DF
  8
_________1
 62
     7
 10
-46.720647999999997
 20
47.584868
 30
0.0
 40
5.826859999999999
 50
255.25028399999999
 51
261.38646199999999
  0
ARC
  5
2E0
  8
_________1
 62
     7
 10
-47.247042999999991
 20
44.088394999999998
 30
0.0
 40
2.290988
 50
261.30629199999998
 51
269.380044
  0
LINE
  5
2E1
  8
_________1
 62
     7
 10
-47.271799999999992
 20
41.797499999999999
 30
0.0
 11
-46.822600000000001
 21
41.797499999999999
 31
0.0
  0
ARC
  5
2E2
  8
_________1
 62
     7
 10
-46.82414
 20
43.774979999999999
 30
0.0
 40
1.977439999999999
 50
270.04495100000003
 51
278.42486100000002
  0
ARC
  5
2E3
  8
_________1
 62
     7
 10
-47.036991999999991
 20
45.414199000000004
 30
0.0
 40
3.6302759999999998
 50
277.95753200000001
 51
281.44536299999999
  0
ARC
  5
2E4
  8
_________1
 62
     7
 10
-48.457766999999997
 20
52.31421799999999
 30
0.0
 40
10.675039
 50
281.57057099999992
 51
283.45891499999999
  0
ARC
  5
2E5
  8
_________1
 62
     7
 10
-44.554208000000003
 20
36.08745900000001
 30
0.0
 40
6.0146639999999989
 50
100.709577
 51
103.645709
  0
ARC
  5
2E6
  8
_________1
 62
     7
 10
-46.912194999999997
 20
40.967840000000002
 30
0.0
 40
3.8600690000000002
 50
71.257870999999994
 51
77.190651000000003
  0
ARC
  5
2E7
  8
_________1
 62
     7
 10
-47.152979999999992
 20
40.102043999999999
 30
0.0
 40
4.7578949999999987
 50
76.67477199999999
 51
85.667164
  0
ARC
  5
2E8
  8
_________1
 62
     7
 10
-46.94014099999999
 20
42.563146999999987
 30
0.0
 40
2.287895999999999
 50
86.325652000000005
 51
92.682303000000019
  0
ARC
  5
2E9
  8
_________1
 62
     7
 10
-47.130467999999993
 20
43.432709000000003
 30
0.0
 40
1.418274
 50
86.634596999999999
 51
91.039574000000002
  0
ARC
  5
2EA
  8
_________1
 62
     7
 10
-47.116805999999997
 20
42.275841
 30
0.0
 40
2.5752090000000001
 50
90.876494999999991
 51
94.814526000000001
  0
ARC
  5
2EB
  8
_________1
 62
     7
 10
-46.919578999999999
 20
39.962350999999998
 30
0.0
 40
4.8970900000000004
 50
94.842116999999988
 51
107.868323
  0
LINE
  5
2EC
  8
_________1
 62
     7
 10
-48.29740000000001
 20
45.024199999999993
 30
0.0
 11
-47.047199999999997
 21
45.024199999999993
 31
0.0
  0
LINE
  5
2ED
  8
_________1
 62
     7
 10
-45.7973
 20
45.024199999999993
 30
0.0
 11
-47.047199999999997
 21
45.024199999999993
 31
0.0
  0
LINE
  5
2EE
  8
_________1
 62
     7
 10
-44.746600000000001
 20
41.747900000000001
 30
0.0
 11
-47.047199999999997
 21
41.747900000000001
 31
0.0
  0
LINE
  5
2EF
  8
_________1
 62
     7
 10
-47.047199999999997
 20
41.747900000000001
 30
0.0
 11
-49.347900000000003
 21
41.747900000000001
 31
0.0
  0
LINE
  5
2F0
  8
_________1
 62
     7
 10
-49.6479
 20
41.947699999999998
 30
0.0
 11
-49.347900000000003
 21
41.7727
 31
0.0
  0
LINE
  5
2F1
  8
_________1
 62
     7
 10
-49.347900000000003
 20
41.7727
 30
0.0
 11
-49.347900000000003
 21
41.747900000000001
 31
0.0
  0
LINE
  5
2F2
  8
_________1
 62
     7
 10
-49.797800000000002
 20
41.997399999999999
 30
0.0
 11
-49.347900000000003
 21
41.7727
 31
0.0
  0
LINE
  5
2F3
  8
_________1
 62
     7
 10
-44.2973
 20
41.997399999999999
 30
0.0
 11
-44.746600000000001
 21
41.747900000000001
 31
0.0
  0
LINE
  5
2F4
  8
_________1
 62
     7
 10
-44.746600000000001
 20
44.8733
 30
0.0
 11
-49.347900000000003
 21
44.8733
 31
0.0
  0
LINE
  5
2F5
  8
_________1
 62
     7
 10
-45.496899999999997
 20
44.998100000000001
 30
0.0
 11
-48.597499999999997
 21
44.998100000000001
 31
0.0
  0
ARC
  5
2F6
  8
_________1
 62
     7
 10
-48.044173999999998
 20
45.696932999999987
 30
0.0
 40
0.718794
 50
213.533672
 51
249.36869799999999
  0
ARC
  5
2F7
  8
_________1
 62
     7
 10
-48.215263999999998
 20
45.557191000000003
 30
0.0
 40
0.499466
 50
198.54002199999999
 51
211.01267599999991
  0
LINE
  5
2F8
  8
_________1
 62
     7
 10
-48.688800000000001
 20
45.398400000000002
 30
0.0
 11
-48.722200000000001
 21
45.4983
 31
0.0
  0
LINE
  5
2F9
  8
_________1
 62
     7
 10
-48.722200000000001
 20
45.4983
 30
0.0
 11
-48.722200000000001
 21
45.648499999999991
 31
0.0
  0
LINE
  5
2FA
  8
_________1
 62
     7
 10
-48.722200000000001
 20
45.648499999999991
 30
0.0
 11
-48.672600000000003
 21
45.823500000000003
 31
0.0
  0
LINE
  5
2FB
  8
_________1
 62
     7
 10
-45.396999999999991
 20
45.823500000000003
 30
0.0
 11
-45.421799999999998
 21
45.823500000000003
 31
0.0
  0
ARC
  5
2FC
  8
_________1
 62
     7
 10
-152.58533499999999
 20
30.542193000000001
 30
0.0
 40
108.272147
 50
8.0201609999999999
 51
8.1136999999999997
  0
LINE
  5
2FD
  8
_________1
 62
     7
 10
-45.372199999999999
 20
45.648499999999991
 30
0.0
 11
-45.372199999999999
 21
45.4983
 31
0.0
  0
LINE
  5
2FE
  8
_________1
 62
     7
 10
-45.372199999999999
 20
45.4983
 30
0.0
 11
-45.404600000000002
 21
45.398400000000002
 31
0.0
  0
ARC
  5
2FF
  8
_________1
 62
     7
 10
-46.473646999999993
 20
45.756275999999993
 30
0.0
 40
1.1273859999999989
 50
336.71280400000001
 51
341.49066599999998
  0
ARC
  5
300
  8
_________1
 62
     7
 10
-45.875954
 20
45.497968999999991
 30
0.0
 40
0.476266
 50
317.684552
 51
336.82979499999999
  0
ARC
  5
301
  8
_________1
 62
     7
 10
-45.807130000000001
 20
45.454096
 30
0.0
 40
0.396082
 50
305.29823599999997
 51
315.67459700000001
  0
ARC
  5
302
  8
_________1
 62
     7
 10
-45.999479000000001
 20
45.731597999999991
 30
0.0
 40
0.73372
 50
297.609959
 51
305.03562699999998
  0
ARC
  5
303
  8
_________1
 62
     7
 10
-47.778278999999998
 20
49.130274
 30
0.0
 40
4.5697499999999991
 50
296.03510599999998
 51
297.62400100000002
  0
LINE
  5
304
  8
_________1
 62
     7
 10
-45.772500000000001
 20
45.024199999999993
 30
0.0
 11
-45.7973
 21
45.024199999999993
 31
0.0
  0
LINE
  5
305
  8
_________1
 62
     7
 10
-45.597200000000001
 20
46.248600000000003
 30
0.0
 11
-48.472799999999999
 21
46.248600000000003
 31
0.0
  0
LINE
  5
306
  8
_________1
 62
     7
 10
-45.597200000000001
 20
48.248899999999992
 30
0.0
 11
-47.047199999999997
 21
48.248899999999992
 31
0.0
  0
LINE
  5
307
  8
_________1
 62
     7
 10
-47.047199999999997
 20
48.248899999999992
 30
0.0
 11
-48.472799999999999
 21
48.248899999999992
 31
0.0
  0
LINE
  5
308
  8
_________1
 62
     7
 10
-48.722200000000001
 20
48.798699999999997
 30
0.0
 11
-48.722200000000001
 21
48.673999999999992
 31
0.0
  0
LINE
  5
309
  8
_________1
 62
     7
 10
-48.722200000000001
 20
48.673999999999992
 30
0.0
 11
-48.647500000000001
 21
48.5486
 31
0.0
  0
LINE
  5
30A
  8
_________1
 62
     7
 10
-45.346999999999987
 20
48.798699999999997
 30
0.0
 11
-45.372199999999999
 21
48.673999999999992
 31
0.0
  0
LINE
  5
30B
  8
_________1
 62
     7
 10
-45.372199999999999
 20
48.673999999999992
 30
0.0
 11
-45.421799999999998
 21
48.5486
 31
0.0
  0
LINE
  5
30C
  8
_________1
 62
     7
 10
-45.346999999999987
 20
49.499400000000001
 30
0.0
 11
-48.722200000000001
 21
49.499400000000001
 31
0.0
  0
LINE
  5
30D
  8
_________1
 62
     7
 10
-45.346999999999987
 20
49.499400000000001
 30
0.0
 11
-45.346999999999987
 21
48.798699999999997
 31
0.0
  0
LINE
  5
30E
  8
_________1
 62
     7
 10
-48.722200000000001
 20
49.499400000000001
 30
0.0
 11
-48.722200000000001
 21
48.798699999999997
 31
0.0
  0
LINE
  5
30F
  8
_________1
 62
     7
 10
-49.347900000000003
 20
44.8733
 30
0.0
 11
-49.797800000000002
 21
44.623199999999997
 31
0.0
  0
LINE
  5
310
  8
_________1
 62
     7
 10
-44.746600000000001
 20
44.8733
 30
0.0
 11
-44.2973
 21
44.623199999999997
 31
0.0
  0
LINE
  5
311
  8
_________1
 62
     7
 10
-45.421799999999998
 20
48.5486
 30
0.0
 11
-45.597200000000001
 21
48.248899999999992
 31
0.0
  0
LINE
  5
312
  8
_________1
 62
     7
 10
-45.597200000000001
 20
46.248600000000003
 30
0.0
 11
-45.421799999999998
 21
45.823500000000003
 31
0.0
  0
LINE
  5
313
  8
_________1
 62
     7
 10
-48.647500000000001
 20
48.5486
 30
0.0
 11
-48.472799999999999
 21
48.248899999999992
 31
0.0
  0
LINE
  5
314
  8
_________1
 62
     7
 10
-48.472799999999999
 20
46.248600000000003
 30
0.0
 11
-48.672600000000003
 21
45.823500000000003
 31
0.0
  0
LINE
  5
315
  8
_________1
 62
     7
 10
-45.597200000000001
 20
48.248899999999992
 30
0.0
 11
-45.597200000000001
 21
46.248600000000003
 31
0.0
  0
LINE
  5
316
  8
_________1
 62
     7
 10
-48.472799999999999
 20
48.248899999999992
 30
0.0
 11
-48.472799999999999
 21
46.248600000000003
 31
0.0
  0
LINE
  5
317
  8
_________1
 62
     7
 10
-45.496899999999997
 20
44.998100000000001
 30
0.0
 11
-45.496899999999997
 21
44.8733
 31
0.0
  0
LINE
  5
318
  8
_________1
 62
     7
 10
-48.597499999999997
 20
44.998100000000001
 30
0.0
 11
-48.597499999999997
 21
44.8733
 31
0.0
  0
LINE
  5
319
  8
_________1
 62
     7
 10
-44.2973
 20
41.997399999999999
 30
0.0
 11
-44.746600000000001
 21
41.747900000000001
 31
0.0
  0
LINE
  5
31A
  8
_________1
 62
     7
 10
-49.797800000000002
 20
41.997399999999999
 30
0.0
 11
-49.347900000000003
 21
41.747900000000001
 31
0.0
  0
LINE
  5
31B
  8
_________1
  6
AIGENLINE001
 62
     7
 10
-34.225200000000001
 20
62.213299999999997
 30
0.0
 11
-21.405899999999999
 21
76.227400000000003
 31
0.0
  0
LINE
  5
31C
  8
_________1
 62
     7
 10
-26.303799999999999
 20
85.631799999999998
 30
0.0
 11
-26.303799999999999
 21
79.132999999999996
 31
0.0
  0
LINE
  5
31D
  8
_________1
 62
     7
 10
-28.053899999999999
 20
85.631799999999998
 30
0.0
 11
-28.053899999999999
 21
79.132999999999996
 31
0.0
  0
LINE
  5
31E
  8
_________1
  6
AIGENLINE001
 62
     7
 10
-27.178899999999999
 20
86.779700000000005
 30
0.0
 11
-27.178899999999999
 21
71.724599999999995
 31
0.0
  0
LINE
  5
31F
  8
_________1
 62
     7
 10
-20.093299999999999
 20
49.499400000000001
 30
0.0
 11
-20.093299999999999
 21
72.558300000000003
 31
0.0
  0
LINE
  5
320
  8
_________1
 62
     7
 10
-22.718499999999999
 20
72.558300000000003
 30
0.0
 11
-22.718499999999999
 21
49.499400000000001
 31
0.0
  0
LINE
  5
321
  8
_________1
  6
AIGENLINE001
 62
     7
 10
-21.405899999999999
 20
76.227400000000003
 30
0.0
 11
-21.405899999999999
 21
40.535200000000003
 31
0.0
  0
INSERT
  5
322
  8
_________1
 62
     7
  2
AIGNBL02010010
 10
0.0
 20
0.0
 30
0.0
  0
LINE
  5
323
  8
_________1
 62
     7
 10
53.549199999999992
 20
34.258899999999997
 30
0.0
 11
53.549199999999992
 21
41.047899999999998
 31
0.0
  0
LINE
  5
324
  8
_________1
 62
     7
 10
57.674399999999999
 20
34.258899999999997
 30
0.0
 11
57.674399999999999
 21
41.047899999999998
 31
0.0
  0
LINE
  5
325
  8
_________1
 62
     7
 10
-18.6526
 20
44.623199999999997
 30
0.0
 11
-18.6526
 21
41.997399999999999
 31
0.0
  0
LINE
  5
326
  8
_________1
 62
     7
 10
-20.028199999999998
 20
44.623199999999997
 30
0.0
 11
-20.028199999999998
 21
41.997399999999999
 31
0.0
  0
ARC
  5
327
  8
_________1
 62
     7
 10
-22.234935
 20
50.340384
 30
0.0
 40
9.0796229999999998
 50
291.69347099999999
 51
293.23802999999998
  0
ARC
  5
328
  8
_________1
 62
     7
 10
-19.566130000000001
 20
43.669831999999992
 30
0.0
 40
1.895068
 50
281.78519599999998
 51
291.26780300000001
  0
ARC
  5
329
  8
_________1
 62
     7
 10
-19.360441999999999
 20
42.762123000000003
 30
0.0
 40
0.9646139999999999
 50
270.46569699999998
 51
280.83723800000001
  0
ARC
  5
32A
  8
_________1
 62
     7
 10
-19.351523
 20
42.712122999999998
 30
0.0
 40
0.914583
 50
257.58951500000001
 51
269.93242700000002
  0
ARC
  5
32B
  8
_________1
 62
     7
 10
-19.229551000000001
 20
43.328709000000003
 30
0.0
 40
1.543032
 50
247.18136200000001
 51
258.086771
  0
ARC
  5
32C
  8
_________1
 62
     7
 10
-18.769179999999999
 20
44.504077000000002
 30
0.0
 40
2.805127999999999
 50
243.33175299999999
 51
247.82447099999999
  0
ARC
  5
32D
  8
_________1
 62
     7
 10
-19.273282999999999
 20
43.507967999999998
 30
0.0
 40
1.346730999999999
 50
97.366204999999994
 51
124.093655
  0
ARC
  5
32E
  8
_________1
 62
     7
 10
-19.351496999999998
 20
43.945503999999993
 30
0.0
 40
0.9030329999999999
 50
90.070059000000015
 51
96.003703999999999
  0
ARC
  5
32F
  8
_________1
 62
     7
 10
-19.352499000000002
 20
43.937876999999993
 30
0.0
 40
0.91066
 50
77.756203999999997
 51
90.006457999999995
  0
ARC
  5
330
  8
_________1
 62
     7
 10
-19.444828999999999
 20
43.458877999999999
 30
0.0
 40
1.39839
 50
66.609766000000008
 51
78.221337000000005
  0
ARC
  5
331
  8
_________1
 62
     7
 10
-19.674015000000001
 20
42.88552
 30
0.0
 40
2.0156900000000002
 50
59.552059999999997
 51
67.100557999999992
  0
LINE
  5
332
  8
_________1
 62
     7
 10
-24.152999999999999
 20
44.623199999999997
 30
0.0
 11
-24.152999999999999
 21
41.997399999999999
 31
0.0
  0
LINE
  5
333
  8
_________1
 62
     7
 10
-22.778400000000001
 20
44.623199999999997
 30
0.0
 11
-22.778400000000001
 21
41.997399999999999
 31
0.0
  0
ARC
  5
334
  8
_________1
 62
     7
 10
-26.096871
 20
49.712721999999999
 30
0.0
 40
8.3987449999999981
 50
291.603746
 51
293.27296100000001
  0
ARC
  5
335
  8
_________1
 62
     7
 10
-23.732289999999999
 20
43.773254000000001
 30
0.0
 40
2.0059399999999998
 50
282.220686
 51
291.27096399999999
  0
ARC
  5
336
  8
_________1
 62
     7
 10
-23.463806000000002
 20
42.601900999999991
 30
0.0
 40
0.8044279999999998
 50
270.74658299999999
 51
281.19141400000001
  0
ARC
  5
337
  8
_________1
 62
     7
 10
-23.452517
 20
42.703093000000003
 30
0.0
 40
0.9055530000000001
 50
257.79862100000003
 51
269.94890800000002
  0
ARC
  5
338
  8
_________1
 62
     7
 10
-23.353279000000001
 20
43.237180999999993
 30
0.0
 40
1.448637
 50
252.9329109999999
 51
258.42680100000001
  0
ARC
  5
339
  8
_________1
 62
     7
 10
-23.105370000000001
 20
44.041777000000003
 30
0.0
 40
2.290559
 50
248.53388899999999
 51
252.911665
  0
ARC
  5
33A
  8
_________1
 62
     7
 10
-21.635840999999999
 20
47.744174999999998
 30
0.0
 40
6.2739250000000002
 50
246.34591800000001
 51
248.417933
  0
ARC
  5
33B
  8
_________1
 62
     7
 10
-23.150625999999999
 20
42.909359000000002
 30
0.0
 40
1.9854839999999989
 50
107.887558
 51
120.322399
  0
ARC
  5
33C
  8
_________1
 62
     7
 10
-23.428754000000001
 20
43.722107000000001
 30
0.0
 40
1.1266969999999989
 50
91.249560000000002
 51
107.122277
  0
ARC
  5
33D
  8
_________1
 62
     7
 10
-23.454051
 20
44.080174
 30
0.0
 40
0.768363
 50
76.154964000000007
 51
89.945821999999993
  0
ARC
  5
33E
  8
_________1
 62
     7
 10
-23.596978
 20
43.404978
 30
0.0
 40
1.458323
 50
65.831039000000004
 51
77.050696000000002
  0
ARC
  5
33F
  8
_________1
 62
     7
 10
-23.841556000000001
 20
42.800091999999999
 30
0.0
 40
2.110465
 50
59.752110999999999
 51
66.496694999999988
  0
ARC
  5
340
  8
_________1
 62
     7
 10
-18.710142999999999
 20
35.401699000000001
 30
0.0
 40
6.7260660000000003
 50
101.300856
 51
103.201297
  0
ARC
  5
341
  8
_________1
 62
     7
 10
-21.729697999999999
 20
47.584868
 30
0.0
 40
5.826859999999999
 50
278.61355800000001
 51
284.74973599999998
  0
ARC
  5
342
  8
_________1
 62
     7
 10
-21.203302999999998
 20
44.088394999999998
 30
0.0
 40
2.290988
 50
270.61997600000001
 51
278.69372800000002
  0
LINE
  5
343
  8
_________1
 62
     7
 10
-21.1785
 20
41.797499999999999
 30
0.0
 11
-21.627800000000001
 21
41.797499999999999
 31
0.0
  0
ARC
  5
344
  8
_________1
 62
     7
 10
-21.626206
 20
43.774979999999999
 30
0.0
 40
1.977439999999999
 50
261.57515799999999
 51
269.95506899999998
  0
ARC
  5
345
  8
_________1
 62
     7
 10
-21.413191999999999
 20
45.415247999999998
 30
0.0
 40
3.6313379999999991
 50
258.55536000000001
 51
262.04225500000001
  0
ARC
  5
346
  8
_________1
 62
     7
 10
-19.991457
 20
52.319124000000002
 30
0.0
 40
10.680071
 50
256.54137400000002
 51
258.42880000000002
  0
ARC
  5
347
  8
_________1
 62
     7
 10
-23.896138000000001
 20
36.08745900000001
 30
0.0
 40
6.0146639999999989
 50
76.354271999999995
 51
79.290402999999998
  0
ARC
  5
348
  8
_________1
 62
     7
 10
-21.538150999999999
 20
40.967840000000002
 30
0.0
 40
3.8600690000000002
 50
102.80932900000001
 51
108.742109
  0
ARC
  5
349
  8
_________1
 62
     7
 10
-21.297366
 20
40.102043999999999
 30
0.0
 40
4.7578949999999987
 50
94.332815999999994
 51
103.325208
  0
ARC
  5
34A
  8
_________1
 62
     7
 10
-21.510204999999999
 20
42.563146999999987
 30
0.0
 40
2.287895999999999
 50
87.317677000000003
 51
93.674328000000017
  0
ARC
  5
34B
  8
_________1
 62
     7
 10
-21.319877999999999
 20
43.432709000000003
 30
0.0
 40
1.418274
 50
88.960406000000006
 51
93.365382999999994
  0
ARC
  5
34C
  8
_________1
 62
     7
 10
-21.333539999999999
 20
42.275841
 30
0.0
 40
2.5752090000000001
 50
85.185453999999993
 51
89.123485000000002
  0
ARC
  5
34D
  8
_________1
 62
     7
 10
-21.530818
 20
39.962094
 30
0.0
 40
4.8973509999999996
 50
72.132006000000004
 51
85.157514000000006
  0
LINE
  5
34E
  8
_________1
 62
     7
 10
-20.152899999999999
 20
45.024199999999993
 30
0.0
 11
-21.403099999999998
 21
45.024199999999993
 31
0.0
  0
LINE
  5
34F
  8
_________1
 62
     7
 10
-22.652999999999999
 20
45.024199999999993
 30
0.0
 11
-21.403099999999998
 21
45.024199999999993
 31
0.0
  0
LINE
  5
350
  8
_________1
 62
     7
 10
-23.703800000000001
 20
41.747900000000001
 30
0.0
 11
-21.403099999999998
 21
41.747900000000001
 31
0.0
  0
LINE
  5
351
  8
_________1
 62
     7
 10
-21.403099999999998
 20
41.747900000000001
 30
0.0
 11
-19.102499999999999
 21
41.747900000000001
 31
0.0
  0
LINE
  5
352
  8
_________1
 62
     7
 10
-18.802399999999999
 20
41.947699999999998
 30
0.0
 11
-19.102499999999999
 21
41.7727
 31
0.0
  0
LINE
  5
353
  8
_________1
 62
     7
 10
-19.102499999999999
 20
41.7727
 30
0.0
 11
-19.102499999999999
 21
41.747900000000001
 31
0.0
  0
LINE
  5
354
  8
_________1
 62
     7
 10
-18.6526
 20
41.997399999999999
 30
0.0
 11
-19.102499999999999
 21
41.7727
 31
0.0
  0
LINE
  5
355
  8
_________1
 62
     7
 10
-24.152999999999999
 20
41.997399999999999
 30
0.0
 11
-23.703800000000001
 21
41.747900000000001
 31
0.0
  0
LINE
  5
356
  8
_________1
 62
     7
 10
-23.703800000000001
 20
44.8733
 30
0.0
 11
-19.102499999999999
 21
44.8733
 31
0.0
  0
LINE
  5
357
  8
_________1
 62
     7
 10
-22.953399999999998
 20
44.998100000000001
 30
0.0
 11
-19.852799999999998
 21
44.998100000000001
 31
0.0
  0
ARC
  5
358
  8
_________1
 62
     7
 10
-20.406172000000002
 20
45.696932999999987
 30
0.0
 40
0.718794
 50
290.63132100000001
 51
326.46634799999998
  0
ARC
  5
359
  8
_________1
 62
     7
 10
-20.235081000000001
 20
45.557191000000003
 30
0.0
 40
0.499466
 50
328.98734400000001
 51
341.45999799999998
  0
LINE
  5
35A
  8
_________1
 62
     7
 10
-19.761500000000002
 20
45.398400000000002
 30
0.0
 11
-19.728100000000001
 21
45.4983
 31
0.0
  0
LINE
  5
35B
  8
_________1
 62
     7
 10
-19.728100000000001
 20
45.4983
 30
0.0
 11
-19.728100000000001
 21
45.648499999999991
 31
0.0
  0
LINE
  5
35C
  8
_________1
 62
     7
 10
-19.728100000000001
 20
45.648499999999991
 30
0.0
 11
-19.777699999999999
 21
45.823500000000003
 31
0.0
  0
LINE
  5
35D
  8
_________1
 62
     7
 10
-23.0533
 20
45.823500000000003
 30
0.0
 11
-23.028500000000001
 21
45.823500000000003
 31
0.0
  0
ARC
  5
35E
  8
_________1
 62
     7
 10
6.7840499999999988
 20
41.505318999999993
 30
0.0
 40
30.148250000000001
 50
171.765085
 51
172.10101399999999
  0
LINE
  5
35F
  8
_________1
 62
     7
 10
-23.078199999999999
 20
45.648499999999991
 30
0.0
 11
-23.078199999999999
 21
45.4983
 31
0.0
  0
LINE
  5
360
  8
_________1
 62
     7
 10
-23.078199999999999
 20
45.4983
 30
0.0
 11
-23.0458
 21
45.398400000000002
 31
0.0
  0
ARC
  5
361
  8
_________1
 62
     7
 10
-21.975262000000001
 20
45.75676099999999
 30
0.0
 40
1.1289029999999991
 50
198.50954899999991
 51
203.280889
  0
ARC
  5
362
  8
_________1
 62
     7
 10
-22.574107000000001
 20
45.498170000000002
 30
0.0
 40
0.476612
 50
203.178696
 51
222.310272
  0
ARC
  5
363
  8
_________1
 62
     7
 10
-22.643215999999999
 20
45.454096
 30
0.0
 40
0.396082
 50
224.325423
 51
234.701784
  0
ARC
  5
364
  8
_________1
 62
     7
 10
-22.451578000000001
 20
45.730429999999998
 30
0.0
 40
0.732355
 50
234.9574640000001
 51
242.39698999999999
  0
ARC
  5
365
  8
_________1
 62
     7
 10
-20.684090000000001
 20
49.106502999999996
 30
0.0
 40
4.5431140000000001
 50
242.37136000000001
 51
243.969572
  0
LINE
  5
366
  8
_________1
 62
     7
 10
-22.677800000000001
 20
45.024199999999993
 30
0.0
 11
-22.652999999999999
 21
45.024199999999993
 31
0.0
  0
LINE
  5
367
  8
_________1
 62
     7
 10
-22.853200000000001
 20
46.248600000000003
 30
0.0
 11
-19.977499999999999
 21
46.248600000000003
 31
0.0
  0
LINE
  5
368
  8
_________1
 62
     7
 10
-22.853200000000001
 20
48.248899999999992
 30
0.0
 11
-21.403099999999998
 21
48.248899999999992
 31
0.0
  0
LINE
  5
369
  8
_________1
 62
     7
 10
-21.403099999999998
 20
48.248899999999992
 30
0.0
 11
-19.977499999999999
 21
48.248899999999992
 31
0.0
  0
LINE
  5
36A
  8
_________1
 62
     7
 10
-19.728100000000001
 20
48.798699999999997
 30
0.0
 11
-19.728100000000001
 21
48.673999999999992
 31
0.0
  0
LINE
  5
36B
  8
_________1
 62
     7
 10
-19.728100000000001
 20
48.673999999999992
 30
0.0
 11
-19.802900000000001
 21
48.5486
 31
0.0
  0
LINE
  5
36C
  8
_________1
 62
     7
 10
-23.103300000000001
 20
48.798699999999997
 30
0.0
 11
-23.078199999999999
 21
48.673999999999992
 31
0.0
  0
LINE
  5
36D
  8
_________1
 62
     7
 10
-23.078199999999999
 20
48.673999999999992
 30
0.0
 11
-23.028500000000001
 21
48.5486
 31
0.0
  0
LINE
  5
36E
  8
_________1
 62
     7
 10
-23.103300000000001
 20
49.499400000000001
 30
0.0
 11
-19.728100000000001
 21
49.499400000000001
 31
0.0
  0
LINE
  5
36F
  8
_________1
 62
     7
 10
-23.103300000000001
 20
49.499400000000001
 30
0.0
 11
-23.103300000000001
 21
48.798699999999997
 31
0.0
  0
LINE
  5
370
  8
_________1
 62
     7
 10
-19.728100000000001
 20
49.499400000000001
 30
0.0
 11
-19.728100000000001
 21
48.798699999999997
 31
0.0
  0
LINE
  5
371
  8
_________1
 62
     7
 10
-19.102499999999999
 20
44.8733
 30
0.0
 11
-18.6526
 21
44.623199999999997
 31
0.0
  0
LINE
  5
372
  8
_________1
 62
     7
 10
-23.703800000000001
 20
44.8733
 30
0.0
 11
-24.152999999999999
 21
44.623199999999997
 31
0.0
  0
LINE
  5
373
  8
_________1
 62
     7
 10
-23.028500000000001
 20
48.5486
 30
0.0
 11
-22.853200000000001
 21
48.248899999999992
 31
0.0
  0
LINE
  5
374
  8
_________1
 62
     7
 10
-22.853200000000001
 20
46.248600000000003
 30
0.0
 11
-23.028500000000001
 21
45.823500000000003
 31
0.0
  0
LINE
  5
375
  8
_________1
 62
     7
 10
-19.802900000000001
 20
48.5486
 30
0.0
 11
-19.977499999999999
 21
48.248899999999992
 31
0.0
  0
LINE
  5
376
  8
_________1
 62
     7
 10
-19.977499999999999
 20
46.248600000000003
 30
0.0
 11
-19.777699999999999
 21
45.823500000000003
 31
0.0
  0
LINE
  5
377
  8
_________1
 62
     7
 10
-22.853200000000001
 20
48.248899999999992
 30
0.0
 11
-22.853200000000001
 21
46.248600000000003
 31
0.0
  0
LINE
  5
378
  8
_________1
 62
     7
 10
-19.977499999999999
 20
48.248899999999992
 30
0.0
 11
-19.977499999999999
 21
46.248600000000003
 31
0.0
  0
LINE
  5
379
  8
_________1
 62
     7
 10
-22.953399999999998
 20
44.998100000000001
 30
0.0
 11
-22.953399999999998
 21
44.8733
 31
0.0
  0
LINE
  5
37A
  8
_________1
 62
     7
 10
-19.852799999999998
 20
44.998100000000001
 30
0.0
 11
-19.852799999999998
 21
44.8733
 31
0.0
  0
LINE
  5
37B
  8
_________1
 62
     7
 10
-24.152999999999999
 20
41.997399999999999
 30
0.0
 11
-23.703800000000001
 21
41.747900000000001
 31
0.0
  0
LINE
  5
37C
  8
_________1
 62
     7
 10
-18.6526
 20
41.997399999999999
 30
0.0
 11
-19.102499999999999
 21
41.747900000000001
 31
0.0
  0
INSERT
  5
37D
  8
_________1
 62
     7
  2
AIGNBL02010011
 10
0.0
 20
0.0
 30
0.0
  0
LINE
  5
37E
  8
_________1
 62
     7
 10
52.1584
 20
42.747
 30
0.0
 11
38.131900000000002
 21
42.747
 31
0.0
  0
INSERT
  5
37F
  8
_________1
 62
     7
  2
AIGNBL02010012
 10
0.0
 20
0.0
 30
0.0
  0
LINE
  5
380
  8
_________1
 62
     7
 10
62.488199999999999
 20
78.133200000000002
 30
0.0
 11
56.807899999999997
 21
78.133200000000002
 31
0.0
  0
LINE
  5
381
  8
_________1
 62
     7
 10
76.857100000000003
 20
261.84399999999999
 30
0.0
 11
82.644199999999984
 21
261.84399999999999
 31
0.0
  0
INSERT
  5
382
  8
_________1
 62
     7
  2
AIGNBL02010013
 10
0.0
 20
0.0
 30
0.0
  0
LINE
  5
383
  8
_________1
  6
AIGENLINE001
 62
     7
 10
69.744299999999996
 20
261.05200000000002
 30
0.0
 11
69.744299999999996
 21
247.90000000000001
 31
0.0
  0
ARC
  5
384
  8
_________1
 62
     7
 10
69.744502999999995
 20
254.73145299999999
 30
0.0
 40
4.3751269999999991
 50
0.002266
 51
90.002235999999996
  0
ARC
  5
385
  8
_________1
 62
     7
 10
69.744505000000004
 20
254.731798
 30
0.0
 40
4.374782999999999
 50
90.002256000000017
 51
180.00226599999999
  0
ARC
  5
386
  8
_________1
 62
     7
 10
69.744502999999995
 20
254.73145299999999
 30
0.0
 40
4.3747809999999987
 50
179.997714
 51
269.99776400000002
  0
ARC
  5
387
  8
_________1
 62
     7
 10
69.744502999999995
 20
254.731799
 30
0.0
 40
4.3751269999999991
 50
269.99776400000002
 51
359.99773399999998
  0
LINE
  5
388
  8
_________1
  6
AIGENLINE001
 62
     7
 10
62.805900000000001
 20
254.732
 30
0.0
 11
76.521600000000007
 21
254.732
 31
0.0
  0
TEXT
  5
389
  8
_________2
 62
     7
 10
169.50999999999999
 20
118.48
 30
0.0
 40
3.9357000000000002
  1
※快適にお使いいただくためには、0.2～0.3MPa程度の圧力をおすすめします。
 41
0.5
  0
TEXT
  5
38A
  8
_________2
 62
     7
 10
169.50999999999999
 20
124.56
 30
0.0
 40
3.9357000000000002
  1
0.5MPa（流動圧）
 41
0.5
  0
TEXT
  5
38B
  8
_________2
 62
     7
 10
129.49600000000001
 20
132.18199999999999
 30
0.0
 40
3.9357000000000002
  1
給水圧力
 41
0.5
  0
TEXT
  5
38C
  8
_________2
 62
     7
 10
129.49600000000001
 20
139.94399999999999
 30
0.0
 40
3.9357000000000002
  1
用途
 41
0.5
  0
TEXT
  5
38D
  8
_________2
 62
     7
 10
169.50999999999999
 20
139.94399999999999
 30
0.0
 40
3.9357000000000002
  1
一般住宅用（屋内用）
 41
0.5
  0
LINE
  5
38E
  8
_________2
 62
     7
 10
145.64099999999999
 20
137.83600000000001
 30
0.0
 11
145.64099999999999
 21
116.5
 31
0.0
  0
LINE
  5
38F
  8
_________2
 62
     7
 10
166.97200000000001
 20
145.59899999999999
 30
0.0
 11
166.97200000000001
 21
61.980800000000002
 31
0.0
  0
LINE
  5
390
  8
_________2
 62
     7
 10
290.16199999999998
 20
145.59899999999999
 30
0.0
 11
126.95699999999999
 21
145.59899999999999
 31
0.0
  0
LINE
  5
391
  8
_________2
 62
     7
 10
126.95699999999999
 20
145.59899999999999
 30
0.0
 11
126.95699999999999
 21
61.980800000000002
 31
0.0
  0
LINE
  5
392
  8
_________2
 62
     7
 10
126.95699999999999
 20
61.980800000000002
 30
0.0
 11
290.16199999999998
 21
61.980800000000002
 31
0.0
  0
LINE
  5
393
  8
_________2
 62
     7
 10
290.16199999999998
 20
61.980800000000002
 30
0.0
 11
290.16199999999998
 21
145.59899999999999
 31
0.0
  0
TEXT
  5
394
  8
_________2
 62
     7
 10
147.41499999999999
 20
132.18199999999999
 30
0.0
 40
3.9357000000000002
  1
最低必要水圧
 41
0.5
  0
TEXT
  5
395
  8
_________2
 62
     7
 10
169.50999999999999
 20
132.18199999999999
 30
0.0
 40
3.9357000000000002
  1
0.1MPa（流動圧）
 41
0.5
  0
LINE
  5
396
  8
_________2
 62
     7
 10
126.95699999999999
 20
137.83600000000001
 30
0.0
 11
290.16199999999998
 21
137.83600000000001
 31
0.0
  0
TEXT
  5
397
  8
_________2
 62
     7
 10
129.49600000000001
 20
110.845
 30
0.0
 40
3.9357000000000002
  1
使用可能水質
 41
0.5
  0
TEXT
  5
398
  8
_________2
 62
     7
 10
169.50999999999999
 20
110.845
 30
0.0
 40
3.9357000000000002
  1
水道水
 41
0.5
  0
LINE
  5
399
  8
_________2
 62
     7
 10
126.95699999999999
 20
116.5
 30
0.0
 11
290.16199999999998
 21
116.5
 31
0.0
  0
TEXT
  5
39A
  8
_________2
 62
     7
 10
147.41499999999999
 20
124.56
 30
0.0
 40
3.9357000000000002
  1
最高水圧
 41
0.5
  0
LINE
  5
39B
  8
_________2
 62
     7
 10
145.64099999999999
 20
130.07400000000001
 30
0.0
 11
290.16199999999998
 21
130.07400000000001
 31
0.0
  0
TEXT
  5
39C
  8
_________2
 62
     7
 10
129.49600000000001
 20
103.223
 30
0.0
 40
3.9357000000000002
  1
使用環境温度
 41
0.5
  0
TEXT
  5
39D
  8
_________2
 62
     7
 10
129.49600000000001
 20
89.649199999999993
 30
0.0
 40
3.9357000000000002
  1
最高給湯温度
 41
0.5
  0
TEXT
  5
39E
  8
_________2
 62
     7
 10
129.49600000000001
 20
75.946600000000004
 30
0.0
 40
3.9357000000000002
  1
特記事項
 41
0.5
  0
TEXT
  5
39F
  8
_________2
 62
     7
 10
169.50999999999999
 20
97.142999999999986
 30
0.0
 40
3.9357000000000002
  1
※寒冷地仕様ではありません、凍結が予想される場合は凍結予防をしてください。
 41
0.5
  0
TEXT
  5
3A0
  8
_________2
 62
     7
 10
169.50999999999999
 20
103.223
 30
0.0
 40
3.9357000000000002
  1
1～40℃
 41
0.5
  0
LINE
  5
3A1
  8
_________2
 62
     7
 10
126.95699999999999
 20
108.73699999999999
 30
0.0
 11
290.16199999999998
 21
108.73699999999999
 31
0.0
  0
TEXT
  5
3A2
  8
_________2
 62
     7
 10
169.50999999999999
 20
83.568899999999985
 30
0.0
 40
3.9357000000000002
  1
※安全のため給湯温度は60℃以下でのご使用をおすすめします。
 41
0.5
  0
TEXT
  5
3A3
  8
_________2
 62
     7
 10
169.50999999999999
 20
89.649199999999993
 30
0.0
 40
3.9357000000000002
  1
80℃
 41
0.5
  0
TEXT
  5
3A4
  8
_________2
 62
     7
 10
169.50999999999999
 20
63.786000000000001
 30
0.0
 40
3.9357000000000002
  1
（3）フレキホース寸法公差\U+00B120。
 41
0.5
  0
TEXT
  5
3A5
  8
_________2
 62
     7
 10
169.50999999999999
 20
69.866299999999995
 30
0.0
 40
3.9357000000000002
  1
（2）湯水を逆に配管しないでください。
 41
0.5
  0
TEXT
  5
3A6
  8
_________2
 62
     7
 10
169.50999999999999
 20
75.946600000000004
 30
0.0
 40
3.9357000000000002
  1
（1）水圧は湯水ほぼ同圧、且つ湯圧が水圧より高くならないように設定してください。
 41
0.5
  0
LINE
  5
3A7
  8
_________2
 62
     7
 10
126.95699999999999
 20
95.1631
 30
0.0
 11
290.16199999999998
 21
95.1631
 31
0.0
  0
LINE
  5
3A8
  8
_________2
 62
     7
 10
126.95699999999999
 20
81.588999999999999
 30
0.0
 11
290.16199999999998
 21
81.588999999999999
 31
0.0
  0
TEXT
  5
3A9
  8
_________2
 62
     7
 10
200.4570586666666
 20
34.465299999999999
 30
0.0
 40
3.6545800000000002
  1
1 ： 4
 41
0.5
 72
     1
 11
203.86799999999999
 21
34.465299999999999
 31
0.0
  0
TEXT
  5
3AA
  8
_________2
 62
     7
 10
247.88242500000001
 20
30.3553
 30
0.0
 40
3.9357000000000002
  1
ZU6586
 41
0.5
 72
     1
 11
253.458
 21
30.3553
 31
0.0
  0
TEXT
  5
3AB
  8
_________2
 62
     7
 10
149.3328003333333
 20
34.850499999999997
 30
0.0
 40
3.6545800000000002
  1
井田
 41
0.5
 72
     1
 11
151.221
 21
34.850499999999997
 31
0.0
  0
TEXT
  5
3AC
  8
_________2
 62
     7
 10
130.69789066666669
 20
34.850499999999997
 30
0.0
 40
3.6545800000000002
  1
恋塚
 41
0.5
 72
     1
 11
132.64699999999999
 21
34.850499999999997
 31
0.0
  0
TEXT
  5
3AD
  8
_________2
 62
     7
 10
177.69399999999999
 20
34.465299999999999
 30
0.0
 40
3.6545800000000002
  1
19.02.04
 41
0.5
  0
TEXT
  5
3AE
  8
_________2
 62
     7
 10
290.64778333333328
 20
12.808299999999999
 30
0.0
 40
3.3734599999999988
  1
A3
 41
0.5
 72
     2
 11
293.459
 21
12.808299999999999
 31
0.0
  0
TEXT
  5
3AF
  8
_________2
 62
     7
 10
134.495
 20
21.954699999999999
 30
0.0
 40
3.9357000000000002
  1
（社）日本水道協会認証品
 41
0.5
  0
LINE
  5
3B0
  8
_________2
 62
     7
 10
315.209
 20
148.65899999999999
 30
0.0
 11
293.459
 21
148.65899999999999
 31
0.0
  0
LINE
  5
3B1
  8
_________2
 62
     7
 10
105.20699999999999
 20
17.156300000000002
 30
0.0
 11
105.20699999999999
 21
0.176045
 31
0.0
  0
LINE
  5
3B2
  8
_________2
 62
     7
 10
105.20699999999999
 20
297.178
 30
0.0
 11
105.20699999999999
 21
280.15800000000002
 31
0.0
  0
LINE
  5
3B3
  8
_________2
 62
     7
 10
-83.043899999999994
 20
148.65899999999999
 30
0.0
 11
-104.794
 21
148.65899999999999
 31
0.0
  0
INSERT
  5
3B4
  8
_________2
 62
     7
  2
AIGNBL03010002
 10
0.0
 20
0.0
 30
0.0
  0
TEXT
  5
3B5
  8
_________2
 62
     7
 10
214.51300000000001
 20
22.9269
 30
0.0
 40
3.0923400000000001
  1
図番
 41
0.5
  0
LINE
  5
3B6
  8
_________2
 62
     7
 10
213.458
 20
27.156099999999999
 30
0.0
 11
293.459
 21
27.156099999999999
 31
0.0
  0
TEXT
  5
3B7
  8
_________2
 62
     7
 10
214.51300000000001
 20
32.926699999999997
 30
0.0
 40
3.0923400000000001
  1
品番
 41
0.5
  0
TEXT
  5
3B8
  8
_________2
 62
     7
 10
214.51300000000001
 20
53.0655
 30
0.0
 40
3.0923400000000001
  1
名称
 41
0.5
  0
TEXT
  5
3B9
  8
_________2
 62
     7
 10
201.75325833333329
 20
48.069400000000002
 30
0.0
 40
3.6545800000000002
  1
mm
 41
0.5
 72
     1
 11
203.27600000000001
 21
48.069400000000002
 31
0.0
  0
TEXT
  5
3BA
  8
_________2
 62
     7
 10
195.55099999999999
 20
53.0655
 30
0.0
 40
3.0923400000000001
  1
単位
 41
0.5
  0
TEXT
  5
3BB
  8
_________2
 62
     7
 10
195.55099999999999
 20
40.658200000000001
 30
0.0
 40
3.0923400000000001
  1
尺度
 41
0.5
  0
TEXT
  5
3BC
  8
_________2
 62
     7
 10
247.88242500000001
 20
20.354800000000001
 30
0.0
 40
3.9357000000000002
  1
ZU6586
 41
0.5
 72
     1
 11
253.458
 21
20.354800000000001
 31
0.0
  0
TEXT
  5
3BD
  8
_________2
 62
     7
 10
219.08699999999999
 20
45.473100000000002
 30
0.0
 40
3.9357000000000002
  1
パンスタイル 湯水混合水栓
 41
0.5
  0
TEXT
  5
3BE
  8
_________2
 62
     7
 10
176.501
 20
40.658200000000001
 30
0.0
 40
3.0923400000000001
  1
日付
 41
0.5
  0
TEXT
  5
3BF
  8
_________2
 62
     7
 10
139.547
 20
40.658200000000001
 30
0.0
 40
3.0923400000000001
  1
検図
 41
0.5
  0
TEXT
  5
3C0
  8
_________2
 62
     7
 10
127.929
 20
26.4588
 30
0.0
 40
3.0923400000000001
  1
備考
 41
0.5
  0
TEXT
  5
3C1
  8
_________2
 62
     7
 10
127.929
 20
40.658200000000001
 30
0.0
 40
3.0923400000000001
  1
製図
 41
0.5
  0
TEXT
  5
3C2
  8
_________2
 62
     7
 10
133.69596533333331
 20
49.184199999999997
 30
0.0
 40
4.4979399999999989
  1
セラトレーディング株式会社
 41
0.5
 72
     1
 11
151.08799999999999
 21
49.184199999999997
 31
0.0
  0
LINE
  5
3C3
  8
_________2
 62
     7
 10
293.459
 20
17.156300000000002
 30
0.0
 11
-83.043899999999994
 21
17.156300000000002
 31
0.0
  0
LINE
  5
3C4
  8
_________2
 62
     7
 10
-83.043899999999994
 20
17.156300000000002
 30
0.0
 11
-83.043899999999994
 21
280.15800000000002
 31
0.0
  0
LINE
  5
3C5
  8
_________2
 62
     7
 10
-83.043899999999994
 20
280.15800000000002
 30
0.0
 11
293.459
 21
280.15800000000002
 31
0.0
  0
LINE
  5
3C6
  8
_________2
 62
     7
 10
293.459
 20
280.15800000000002
 30
0.0
 11
293.459
 21
17.156300000000002
 31
0.0
  0
LINE
  5
3C7
  8
_________2
 62
     7
 10
175.458
 20
30.656400000000001
 30
0.0
 11
175.458
 21
57.156199999999998
 31
0.0
  0
LINE
  5
3C8
  8
_________2
 62
     7
 10
194.458
 20
30.656400000000001
 30
0.0
 11
194.458
 21
57.156199999999998
 31
0.0
  0
LINE
  5
3C9
  8
_________2
 62
     7
 10
126.95699999999999
 20
17.156300000000002
 30
0.0
 11
126.95699999999999
 21
57.156199999999998
 31
0.0
  0
LINE
  5
3CA
  8
_________2
 62
     7
 10
213.458
 20
17.156300000000002
 30
0.0
 11
213.458
 21
57.156199999999998
 31
0.0
  0
LINE
  5
3CB
  8
_________2
 62
     7
 10
138.45699999999999
 20
30.656400000000001
 30
0.0
 11
138.45699999999999
 21
44.65659999999999
 31
0.0
  0
LINE
  5
3CC
  8
_________2
 62
     7
 10
126.95699999999999
 20
30.656400000000001
 30
0.0
 11
213.458
 21
30.656400000000001
 31
0.0
  0
LINE
  5
3CD
  8
_________2
 62
     7
 10
126.95699999999999
 20
44.65659999999999
 30
0.0
 11
213.458
 21
44.65659999999999
 31
0.0
  0
LINE
  5
3CE
  8
_________2
 62
     7
 10
213.458
 20
37.15590000000001
 30
0.0
 11
293.459
 21
37.15590000000001
 31
0.0
  0
LINE
  5
3CF
  8
_________2
 62
     7
 10
126.95699999999999
 20
57.156199999999998
 30
0.0
 11
293.459
 21
57.156199999999998
 31
0.0
  0
ENDSEC
  0
EOF
