  0
SECTION
  2
HEADER
  9
$ACADVER
  1
AC1009
  9
$INSBASE
 10
0.0
 20
0.0
 30
0.0
  9
$EXTMIN
 10
-104.794
 20
0.176045
 30
0.0
  9
$EXTMAX
 10
315.209
 20
297.178
 30
0.0
  9
$LIMMIN
 10
0.0
 20
0.0
  9
$LIMMAX
 10
12.0
 20
9.0
  9
$ORTHOMODE
 70
     0
  9
$REGENMODE
 70
     1
  9
$FILLMODE
 70
     1
  9
$QTEXTMODE
 70
     0
  9
$MIRRTEXT
 70
     1
  9
$DRAGMODE
 70
     2
  9
$LTSCALE
 40
1.0
  9
$OSMODE
 70
    37
  9
$ATTMODE
 70
     1
  9
$TEXTSIZE
 40
0.0
  9
$TRACEWID
 40
0.05
  9
$TEXTSTYLE
  7
STANDARD
  9
$CLAYER
  8
0
  9
$CELTYPE
  6
CONTINUOUS
  9
$CECOLOR
 62
   256
  9
$DIMSCALE
 40
1.0
  9
$DIMASZ
 40
0.18
  9
$DIMEXO
 40
0.0625
  9
$DIMDLI
 40
0.38
  9
$DIMRND
 40
0.0
  9
$DIMDLE
 40
0.0
  9
$DIMEXE
 40
0.18
  9
$DIMTP
 40
0.0
  9
$DIMTM
 40
0.0
  9
$DIMTXT
 40
0.18
  9
$DIMCEN
 40
0.09
  9
$DIMTSZ
 40
0.0
  9
$DIMTOL
 70
     0
  9
$DIMLIM
 70
     0
  9
$DIMTIH
 70
     1
  9
$DIMTOH
 70
     1
  9
$DIMSE1
 70
     0
  9
$DIMSE2
 70
     0
  9
$DIMTAD
 70
     0
  9
$DIMZIN
 70
     0
  9
$DIMBLK
  1

  9
$DIMASO
 70
     1
  9
$DIMSHO
 70
     1
  9
$DIMPOST
  1

  9
$DIMAPOST
  1

  9
$DIMALT
 70
     0
  9
$DIMALTD
 70
     2
  9
$DIMALTF
 40
25.399999999999999
  9
$DIMLFAC
 40
1.0
  9
$DIMTOFL
 70
     0
  9
$DIMTVP
 40
0.0
  9
$DIMTIX
 70
     0
  9
$DIMSOXD
 70
     0
  9
$DIMSAH
 70
     0
  9
$DIMBLK1
  1

  9
$DIMBLK2
  1

  9
$DIMSTYLE
  2
STANDARD
  9
$DIMCLRD
 70
     0
  9
$DIMCLRE
 70
     0
  9
$DIMCLRT
 70
     0
  9
$DIMTFAC
 40
1.0
  9
$DIMGAP
 40
0.09
  9
$LUNITS
 70
     2
  9
$LUPREC
 70
     4
  9
$SKETCHINC
 40
0.1
  9
$FILLETRAD
 40
0.0
  9
$AUNITS
 70
     0
  9
$AUPREC
 70
     0
  9
$MENU
  1
.
  9
$ELEVATION
 40
0.0
  9
$PELEVATION
 40
0.0
  9
$THICKNESS
 40
0.0
  9
$LIMCHECK
 70
     0
  9
$BLIPMODE
 70
     0
  9
$CHAMFERA
 40
0.0
  9
$CHAMFERB
 40
0.0
  9
$SKPOLY
 70
     0
  9
$TDCREATE
 40
2444972.375
  9
$TDUPDATE
 40
2458521.249516123
  9
$TDINDWG
 40
0.0000463426
  9
$TDUSRTIMER
 40
0.0000463426
  9
$USRTIMER
 70
     1
  9
$ANGBASE
 50
0.0
  9
$ANGDIR
 70
     0
  9
$PDMODE
 70
     0
  9
$PDSIZE
 40
0.0
  9
$PLINEWID
 40
0.0
  9
$COORDS
 70
     1
  9
$SPLFRAME
 70
     0
  9
$SPLINETYPE
 70
     6
  9
$SPLINESEGS
 70
     8
  9
$ATTDIA
 70
     1
  9
$ATTREQ
 70
     1
  9
$HANDLING
 70
     1
  9
$HANDSEED
  5
483
  9
$SURFTAB1
 70
     6
  9
$SURFTAB2
 70
     6
  9
$SURFTYPE
 70
     6
  9
$SURFU
 70
     6
  9
$SURFV
 70
     6
  9
$UCSNAME
  2

  9
$UCSORG
 10
0.0
 20
0.0
 30
0.0
  9
$UCSXDIR
 10
1.0
 20
0.0
 30
0.0
  9
$UCSYDIR
 10
0.0
 20
1.0
 30
0.0
  9
$PUCSNAME
  2

  9
$PUCSORG
 10
0.0
 20
0.0
 30
0.0
  9
$PUCSXDIR
 10
1.0
 20
0.0
 30
0.0
  9
$PUCSYDIR
 10
0.0
 20
1.0
 30
0.0
  9
$USERI1
 70
     0
  9
$USERI2
 70
     0
  9
$USERI3
 70
     0
  9
$USERI4
 70
     0
  9
$USERI5
 70
     0
  9
$USERR1
 40
0.0
  9
$USERR2
 40
0.0
  9
$USERR3
 40
0.0
  9
$USERR4
 40
0.0
  9
$USERR5
 40
0.0
  9
$WORLDVIEW
 70
     1
  9
$SHADEDGE
 70
     3
  9
$SHADEDIF
 70
    70
  9
$TILEMODE
 70
     1
  9
$MAXACTVP
 70
    48
  9
$PLIMCHECK
 70
     0
  9
$PEXTMIN
 10
1.0000000000000000E+020
 20
1.0000000000000000E+020
 30
1.0000000000000000E+020
  9
$PEXTMAX
 10
-1.0000000000000000E+020
 20
-1.0000000000000000E+020
 30
-1.0000000000000000E+020
  9
$PLIMMIN
 10
0.0
 20
0.0
  9
$PLIMMAX
 10
12.0
 20
9.0
  9
$UNITMODE
 70
     0
  9
$VISRETAIN
 70
     1
  9
$PLINEGEN
 70
     0
  9
$PSLTSCALE
 70
     1
  0
ENDSEC
  0
SECTION
  2
TABLES
  0
TABLE
  2
VPORT
 70
     1
  0
VPORT
  2
*ACTIVE
 70
     0
 10
0.0
 20
0.0
 11
1.0
 21
1.0
 12
235.80375567344251
 22
148.589
 13
0.0
 23
0.0
 14
1.0
 24
1.0
 15
0.0
 25
0.0
 16
0.0
 26
0.0
 36
1.0
 17
0.0
 27
0.0
 37
0.0
 40
285.48563927085848
 41
2.5432937181663831
 42
50.0
 43
0.0
 44
0.0
 50
0.0
 51
0.0
 71
     0
 72
   100
 73
     1
 74
     1
 75
     0
 76
     0
 77
     0
 78
     0
  0
ENDTAB
  0
TABLE
  2
LTYPE
 70
     3
  0
LTYPE
  2
CONTINUOUS
 70
     0
  3
Solid line
 72
    65
 73
     0
 40
0.0
  0
LTYPE
  2
AIGENLINE001
 70
     0
  3
generate AI->DXF Converter
 72
    65
 73
     4
 40
5.8561449999999988
 49
3.5278
 49
-0.776115
 49
0.776115
 49
-0.776115
  0
LTYPE
  2
AIGENLINE002
 70
     0
  3
generate AI->DXF Converter
 72
    65
 73
     6
 40
7.4083750000000004
 49
3.5278
 49
-0.776115
 49
0.776115
 49
-0.776115
 49
0.776115
 49
-0.776115
  0
ENDTAB
  0
TABLE
  2
LAYER
 70
     4
  0
LAYER
  2
0
 70
     0
 62
     7
  6
CONTINUOUS
  0
LAYER
  2
____
 70
     0
 62
     7
  6
CONTINUOUS
  0
LAYER
  2
_________1
 70
     0
 62
     7
  6
CONTINUOUS
  0
LAYER
  2
_________2
 70
     0
 62
     7
  6
CONTINUOUS
  0
ENDTAB
  0
TABLE
  2
STYLE
 70
     1
  0
STYLE
  2
STANDARD
 70
     0
 40
0.0
 41
0.0
 50
0.0
 71
     0
 42
0.0
  3
TXT
  4
EXTFONT.SHX
  0
ENDTAB
  0
TABLE
  2
VIEW
 70
     0
  0
ENDTAB
  0
TABLE
  2
UCS
 70
     0
  0
ENDTAB
  0
TABLE
  2
APPID
 70
     3
  0
APPID
  2
ACAD
 70
     0
  0
APPID
  2
ACAD_NAV_VCDISPLAY
 70
     0
  0
APPID
  2
ACAD_MLEADERVER
 70
     0
  0
ENDTAB
  0
TABLE
  2
DIMSTYLE
 70
     1
  0
DIMSTYLE
  2
STANDARD
 70
     0
  3

  4

  5

  6

  7

 40
1.0
 41
0.18
 42
0.0625
 43
0.38
 44
0.18
 45
0.0
 46
0.0
 47
0.0
 48
0.0
140
0.18
141
0.09
142
0.0
143
25.399999999999999
144
1.0
145
0.0
146
1.0
147
0.09
 71
     0
 72
     0
 73
     1
 74
     1
 75
     0
 76
     0
 77
     0
 78
     0
170
     0
171
     2
172
     0
173
     0
174
     0
175
     0
176
     0
177
     0
178
     0
  0
ENDTAB
  0
ENDSEC
  0
SECTION
  2
BLOCKS
  0
BLOCK
  8
0
  2
$MODEL_SPACE
 70
     0
 10
0.0
 20
0.0
 30
0.0
  3
$MODEL_SPACE
  1

  0
ENDBLK
  5
1A
  8
0
  0
BLOCK
 67
     1
  8
0
  2
$PAPER_SPACE
 70
     0
 10
0.0
 20
0.0
 30
0.0
  3
$PAPER_SPACE
  1

  0
ENDBLK
  5
17
 67
     1
  8
0
  0
BLOCK
  8
_________1
  2
AIGNBL02010002
 70
     0
 10
0.0
 20
0.0
 30
0.0
  3
AIGNBL02010002
  1

  0
LINE
  5
27
  8
_________1
 62
     7
 10
80.515100000000004
 20
177.35499999999999
 30
0.0
 11
79.016000000000005
 21
175.62599999999989
 31
0.0
  0
LINE
  5
28
  8
_________1
 62
     7
 10
79.016000000000005
 20
175.62599999999989
 30
0.0
 11
81.178799999999995
 21
176.374
 31
0.0
  0
LINE
  5
29
  8
_________1
 62
     7
 10
81.178799999999995
 20
176.374
 30
0.0
 11
80.515100000000004
 21
177.35499999999999
 31
0.0
  0
LINE
  5
2A
  8
_________1
 62
     7
 10
79.016000000000005
 20
175.62599999999989
 30
0.0
 11
94.637500000000003
 21
186.19499999999999
 31
0.0
  0
ENDBLK
  5
2B
  8
_________1
  0
BLOCK
  8
_________1
  2
AIGNBL02010003
 70
     0
 10
0.0
 20
0.0
 30
0.0
  3
AIGNBL02010003
  1

  0
LINE
  5
2E
  8
_________1
 62
     7
 10
-33.6175
 20
89.189999999999998
 30
0.0
 11
-30.6174
 21
89.189999999999998
 31
0.0
  0
LINE
  5
2F
  8
_________1
 62
     7
 10
-32.1175
 20
85.939800000000005
 30
0.0
 11
-32.1175
 21
82.939800000000005
 31
0.0
  0
LINE
  5
30
  8
_________1
 62
     7
 10
-34.617600000000003
 20
86.439700000000016
 30
0.0
 11
-33.86760000000001
 21
85.939800000000005
 31
0.0
  0
LINE
  5
31
  8
_________1
 62
     7
 10
-30.3673
 20
85.939800000000005
 30
0.0
 11
-29.617699999999999
 21
86.439700000000016
 31
0.0
  0
LINE
  5
32
  8
_________1
 62
     7
 10
-33.63300000000001
 20
82.939800000000005
 30
0.0
 11
-30.601900000000001
 21
82.939800000000005
 31
0.0
  0
LINE
  5
33
  8
_________1
 62
     7
 10
-33.86760000000001
 20
85.939800000000005
 30
0.0
 11
-30.3673
 21
85.939800000000005
 31
0.0
  0
LINE
  5
34
  8
_________1
 62
     7
 10
-33.86760000000001
 20
85.939800000000005
 30
0.0
 11
-30.3673
 21
85.939800000000005
 31
0.0
  0
LINE
  5
35
  8
_________1
 62
     7
 10
-30.6174
 20
89.189999999999998
 30
0.0
 11
-30.6174
 21
88.189800000000005
 31
0.0
  0
LINE
  5
36
  8
_________1
 62
     7
 10
-33.6175
 20
89.189999999999998
 30
0.0
 11
-33.6175
 21
88.189800000000005
 31
0.0
  0
LINE
  5
37
  8
_________1
 62
     7
 10
-30.601900000000001
 20
85.939800000000005
 30
0.0
 11
-30.601900000000001
 21
82.939800000000005
 31
0.0
  0
LINE
  5
38
  8
_________1
 62
     7
 10
-33.63300000000001
 20
85.939800000000005
 30
0.0
 11
-33.63300000000001
 21
82.939800000000005
 31
0.0
  0
LINE
  5
39
  8
_________1
 62
     7
 10
-33.851399999999998
 20
87.689899999999994
 30
0.0
 11
-33.851399999999998
 21
86.439700000000016
 31
0.0
  0
LINE
  5
3A
  8
_________1
 62
     7
 10
-37.351599999999998
 20
87.689899999999994
 30
0.0
 11
-37.351599999999998
 21
86.439700000000016
 31
0.0
  0
LINE
  5
3B
  8
_________1
 62
     7
 10
-30.351500000000001
 20
87.689899999999994
 30
0.0
 11
-30.351500000000001
 21
86.439700000000016
 31
0.0
  0
LINE
  5
3C
  8
_________1
 62
     7
 10
-40.851500000000001
 20
87.689899999999994
 30
0.0
 11
-40.851500000000001
 21
86.439700000000016
 31
0.0
  0
LINE
  5
3D
  8
_________1
 62
     7
 10
-29.101600000000001
 20
87.689899999999994
 30
0.0
 11
-29.101600000000001
 21
86.439700000000016
 31
0.0
  0
LINE
  5
3E
  8
_________1
 62
     7
 10
-42.101700000000001
 20
87.689899999999994
 30
0.0
 11
-42.101700000000001
 21
86.439700000000016
 31
0.0
  0
LINE
  5
3F
  8
_________1
 62
     7
 10
-42.101700000000001
 20
86.439700000000016
 30
0.0
 11
-29.101600000000001
 21
86.439700000000016
 31
0.0
  0
LINE
  5
40
  8
_________1
 62
     7
 10
-29.101600000000001
 20
88.189800000000005
 30
0.0
 11
-29.101600000000001
 21
87.689899999999994
 31
0.0
  0
LINE
  5
41
  8
_________1
 62
     7
 10
-42.101700000000001
 20
88.189800000000005
 30
0.0
 11
-42.101700000000001
 21
87.689899999999994
 31
0.0
  0
LINE
  5
42
  8
_________1
 62
     7
 10
-42.101700000000001
 20
88.189800000000005
 30
0.0
 11
-29.101600000000001
 21
88.189800000000005
 31
0.0
  0
LINE
  5
43
  8
_________1
 62
     7
 10
-42.101700000000001
 20
87.689899999999994
 30
0.0
 11
-29.101600000000001
 21
87.689899999999994
 31
0.0
  0
ENDBLK
  5
44
  8
_________1
  0
BLOCK
  8
_________1
  2
AIGNBL02010004
 70
     0
 10
0.0
 20
0.0
 30
0.0
  3
AIGNBL02010004
  1

  0
LINE
  5
47
  8
_________1
  6
AIGENLINE001
 62
     7
 10
-12.661799999999999
 20
135.86000000000001
 30
0.0
 11
-19.5397
 21
121.111
 31
0.0
  0
LINE
  5
48
  8
_________1
  6
AIGENLINE002
 62
     7
 10
-19.5383
 20
124.959
 30
0.0
 11
-14.7971
 21
135.126
 31
0.0
  0
LINE
  5
49
  8
_________1
  6
AIGENLINE002
 62
     7
 10
-14.7971
 20
135.126
 30
0.0
 11
-11.8515
 21
133.75299999999999
 31
0.0
  0
LINE
  5
4A
  8
_________1
  6
AIGENLINE002
 62
     7
 10
-11.8515
 20
133.75299999999999
 30
0.0
 11
-16.592700000000001
 21
123.58499999999999
 31
0.0
  0
ENDBLK
  5
4B
  8
_________1
  0
BLOCK
  8
_________1
  2
AIGNBL02010005
 70
     0
 10
0.0
 20
0.0
 30
0.0
  3
AIGNBL02010005
  1

  0
LINE
  5
4E
  8
_________1
 62
     7
 10
-53.786499999999997
 20
175.97999999999999
 30
0.0
 11
-54.378799999999991
 21
178.19
 31
0.0
  0
LINE
  5
4F
  8
_________1
 62
     7
 10
-54.378799999999991
 20
178.19
 30
0.0
 11
-54.971200000000003
 21
175.97999999999999
 31
0.0
  0
LINE
  5
50
  8
_________1
 62
     7
 10
-54.971200000000003
 20
175.97999999999999
 30
0.0
 11
-53.786499999999997
 21
175.97999999999999
 31
0.0
  0
LINE
  5
51
  8
_________1
 62
     7
 10
-54.970999999999997
 20
97.900199999999998
 30
0.0
 11
-54.378799999999991
 21
95.689499999999995
 31
0.0
  0
LINE
  5
52
  8
_________1
 62
     7
 10
-54.378799999999991
 20
95.689499999999995
 30
0.0
 11
-53.7864
 21
97.900199999999998
 31
0.0
  0
LINE
  5
53
  8
_________1
 62
     7
 10
-53.7864
 20
97.900199999999998
 30
0.0
 11
-54.970999999999997
 21
97.900199999999998
 31
0.0
  0
LINE
  5
54
  8
_________1
 62
     7
 10
-54.378799999999991
 20
178.19
 30
0.0
 11
-54.378799999999991
 21
95.689499999999995
 31
0.0
  0
ENDBLK
  5
55
  8
_________1
  0
BLOCK
  8
_________1
  2
AIGNBL02010006
 70
     0
 10
0.0
 20
0.0
 30
0.0
  3
AIGNBL02010006
  1

  0
LINE
  5
58
  8
_________1
 62
     7
 10
-24.1356
 20
114.05200000000001
 30
0.0
 11
-24.9511
 21
116.19
 31
0.0
  0
LINE
  5
59
  8
_________1
 62
     7
 10
-24.9511
 20
116.19
 30
0.0
 11
-25.314
 21
113.93000000000001
 31
0.0
  0
LINE
  5
5A
  8
_________1
 62
     7
 10
-25.314
 20
113.93000000000001
 30
0.0
 11
-24.1356
 21
114.05200000000001
 31
0.0
  0
LINE
  5
5B
  8
_________1
 62
     7
 10
-24.9511
 20
116.19
 30
0.0
 11
-23.725999999999999
 21
104.292
 31
0.0
  0
LINE
  5
5C
  8
_________1
 62
     7
 10
-6.3476299999999997
 20
113.979
 30
0.0
 11
-6.9398399999999993
 21
116.19
 31
0.0
  0
LINE
  5
5D
  8
_________1
 62
     7
 10
-6.9398399999999993
 20
116.19
 30
0.0
 11
-7.5322300000000002
 21
113.979
 31
0.0
  0
LINE
  5
5E
  8
_________1
 62
     7
 10
-7.5322300000000002
 20
113.979
 30
0.0
 11
-6.3476299999999997
 21
113.979
 31
0.0
  0
LINE
  5
5F
  8
_________1
 62
     7
 10
-7.5320600000000004
 20
97.900199999999998
 30
0.0
 11
-6.9398399999999993
 21
95.689499999999995
 31
0.0
  0
LINE
  5
60
  8
_________1
 62
     7
 10
-6.9398399999999993
 20
95.689499999999995
 30
0.0
 11
-6.347459999999999
 21
97.900199999999998
 31
0.0
  0
LINE
  5
61
  8
_________1
 62
     7
 10
-6.347459999999999
 20
97.900199999999998
 30
0.0
 11
-7.5320600000000004
 21
97.900199999999998
 31
0.0
  0
LINE
  5
62
  8
_________1
 62
     7
 10
-6.9398399999999993
 20
116.19
 30
0.0
 11
-6.9398399999999993
 21
95.689499999999995
 31
0.0
  0
ENDBLK
  5
63
  8
_________1
  0
BLOCK
  8
_________1
  2
AIGNBL02010007
 70
     0
 10
0.0
 20
0.0
 30
0.0
  3
AIGNBL02010007
  1

  0
LINE
  5
66
  8
_________1
 62
     7
 10
1.8817199999999989
 20
132.22900000000001
 30
0.0
 11
1.289509999999999
 21
134.44
 31
0.0
  0
LINE
  5
67
  8
_________1
 62
     7
 10
1.289509999999999
 20
134.44
 30
0.0
 11
0.6971189999999999
 21
132.22900000000001
 31
0.0
  0
LINE
  5
68
  8
_________1
 62
     7
 10
0.6971189999999999
 20
132.22900000000001
 30
0.0
 11
1.8817199999999989
 21
132.22900000000001
 31
0.0
  0
LINE
  5
69
  8
_________1
 62
     7
 10
35.380800000000001
 20
97.900199999999998
 30
0.0
 11
35.972700000000003
 21
95.689499999999995
 31
0.0
  0
LINE
  5
6A
  8
_________1
 62
     7
 10
35.972700000000003
 20
95.689499999999995
 30
0.0
 11
36.565300000000001
 21
97.900199999999998
 31
0.0
  0
LINE
  5
6B
  8
_________1
 62
     7
 10
36.565300000000001
 20
97.900199999999998
 30
0.0
 11
35.380800000000001
 21
97.900199999999998
 31
0.0
  0
LINE
  5
6C
  8
_________1
 62
     7
 10
0.6972920000000001
 20
97.900199999999998
 30
0.0
 11
1.289509999999999
 21
95.689499999999995
 31
0.0
  0
LINE
  5
6D
  8
_________1
 62
     7
 10
1.289509999999999
 20
95.689499999999995
 30
0.0
 11
1.881899999999999
 21
97.900199999999998
 31
0.0
  0
LINE
  5
6E
  8
_________1
 62
     7
 10
1.881899999999999
 20
97.900199999999998
 30
0.0
 11
0.6972920000000001
 21
97.900199999999998
 31
0.0
  0
LINE
  5
6F
  8
_________1
 62
     7
 10
1.289509999999999
 20
134.44
 30
0.0
 11
1.289509999999999
 21
95.689499999999995
 31
0.0
  0
ENDBLK
  5
70
  8
_________1
  0
BLOCK
  8
_________1
  2
AIGNBL02010008
 70
     0
 10
0.0
 20
0.0
 30
0.0
  3
AIGNBL02010008
  1

  0
LINE
  5
73
  8
_________1
 62
     7
 10
24.094999999999999
 20
151.702
 30
0.0
 11
21.884599999999999
 21
151.11000000000001
 31
0.0
  0
LINE
  5
74
  8
_________1
 62
     7
 10
21.884599999999999
 20
151.11000000000001
 30
0.0
 11
24.094999999999999
 21
150.518
 31
0.0
  0
LINE
  5
75
  8
_________1
 62
     7
 10
24.094999999999999
 20
150.518
 30
0.0
 11
24.094999999999999
 21
151.702
 31
0.0
  0
LINE
  5
76
  8
_________1
 62
     7
 10
64.673999999999992
 20
140.25899999999999
 30
0.0
 11
66.885099999999994
 21
140.851
 31
0.0
  0
LINE
  5
77
  8
_________1
 62
     7
 10
66.885099999999994
 20
140.851
 30
0.0
 11
64.673999999999992
 21
141.44300000000001
 31
0.0
  0
LINE
  5
78
  8
_________1
 62
     7
 10
64.673999999999992
 20
141.44300000000001
 30
0.0
 11
64.673999999999992
 21
140.25899999999999
 31
0.0
  0
LINE
  5
79
  8
_________1
 62
     7
 10
64.674300000000002
 20
150.518
 30
0.0
 11
66.885400000000004
 21
151.11000000000001
 31
0.0
  0
LINE
  5
7A
  8
_________1
 62
     7
 10
66.885400000000004
 20
151.11000000000001
 30
0.0
 11
64.674300000000002
 21
151.703
 31
0.0
  0
LINE
  5
7B
  8
_________1
 62
     7
 10
64.674300000000002
 20
151.703
 30
0.0
 11
64.674300000000002
 21
150.518
 31
0.0
  0
LINE
  5
7C
  8
_________1
 62
     7
 10
21.884599999999999
 20
151.11000000000001
 30
0.0
 11
66.885099999999994
 21
151.11000000000001
 31
0.0
  0
ENDBLK
  5
7D
  8
_________1
  0
BLOCK
  8
_________1
  2
AIGNBL02010009
 70
     0
 10
0.0
 20
0.0
 30
0.0
  3
AIGNBL02010009
  1

  0
LINE
  5
80
  8
_________1
 62
     7
 10
61.595799999999997
 20
104.05
 30
0.0
 11
59.384700000000002
 21
103.458
 31
0.0
  0
LINE
  5
81
  8
_________1
 62
     7
 10
59.384700000000002
 20
103.458
 30
0.0
 11
61.595799999999997
 21
102.866
 31
0.0
  0
LINE
  5
82
  8
_________1
 62
     7
 10
61.595799999999997
 20
102.866
 30
0.0
 11
61.595799999999997
 21
104.05
 31
0.0
  0
LINE
  5
83
  8
_________1
 62
     7
 10
72.174300000000002
 20
102.866
 30
0.0
 11
74.385400000000004
 21
103.458
 31
0.0
  0
LINE
  5
84
  8
_________1
 62
     7
 10
74.385400000000004
 20
103.458
 30
0.0
 11
72.174300000000002
 21
104.051
 31
0.0
  0
LINE
  5
85
  8
_________1
 62
     7
 10
72.174300000000002
 20
104.051
 30
0.0
 11
72.174300000000002
 21
102.866
 31
0.0
  0
LINE
  5
86
  8
_________1
 62
     7
 10
59.384999999999998
 20
103.458
 30
0.0
 11
74.385099999999994
 21
103.458
 31
0.0
  0
ENDBLK
  5
87
  8
_________1
  0
BLOCK
  8
_________1
  2
AIGNBL0201000A
 70
     0
 10
0.0
 20
0.0
 30
0.0
  3
AIGNBL0201000A
  1

  0
LINE
  5
8A
  8
_________1
 62
     7
 10
69.095399999999984
 20
141.44300000000001
 30
0.0
 11
66.885099999999994
 21
140.851
 31
0.0
  0
LINE
  5
8B
  8
_________1
 62
     7
 10
66.885099999999994
 20
140.851
 30
0.0
 11
69.095399999999984
 21
140.25899999999999
 31
0.0
  0
LINE
  5
8C
  8
_________1
 62
     7
 10
69.095399999999984
 20
140.25899999999999
 30
0.0
 11
69.095399999999984
 21
141.44300000000001
 31
0.0
  0
LINE
  5
8D
  8
_________1
 62
     7
 10
51.595300000000002
 20
141.44300000000001
 30
0.0
 11
49.384900000000002
 21
140.851
 31
0.0
  0
LINE
  5
8E
  8
_________1
 62
     7
 10
49.384900000000002
 20
140.851
 30
0.0
 11
51.595300000000002
 21
140.25899999999999
 31
0.0
  0
LINE
  5
8F
  8
_________1
 62
     7
 10
51.595300000000002
 20
140.25899999999999
 30
0.0
 11
51.595300000000002
 21
141.44300000000001
 31
0.0
  0
LINE
  5
90
  8
_________1
 62
     7
 10
82.174800000000005
 20
140.25899999999999
 30
0.0
 11
84.385199999999998
 21
140.851
 31
0.0
  0
LINE
  5
91
  8
_________1
 62
     7
 10
84.385199999999998
 20
140.851
 30
0.0
 11
82.174800000000005
 21
141.44300000000001
 31
0.0
  0
LINE
  5
92
  8
_________1
 62
     7
 10
82.174800000000005
 20
141.44300000000001
 30
0.0
 11
82.174800000000005
 21
140.25899999999999
 31
0.0
  0
LINE
  5
93
  8
_________1
 62
     7
 10
49.384900000000002
 20
140.851
 30
0.0
 11
84.385199999999998
 21
140.851
 31
0.0
  0
ENDBLK
  5
94
  8
_________1
  0
BLOCK
  8
_________1
  2
AIGNBL0201000B
 70
     0
 10
0.0
 20
0.0
 30
0.0
  3
AIGNBL0201000B
  1

  0
LINE
  5
97
  8
_________1
 62
     7
 10
-33.391100000000002
 20
144.66399999999999
 30
0.0
 11
-35.601500000000001
 21
144.071
 31
0.0
  0
LINE
  5
98
  8
_________1
 62
     7
 10
-35.601500000000001
 20
144.071
 30
0.0
 11
-33.391100000000002
 21
143.47900000000001
 31
0.0
  0
LINE
  5
99
  8
_________1
 62
     7
 10
-33.391100000000002
 20
143.47900000000001
 30
0.0
 11
-33.391100000000002
 21
144.66399999999999
 31
0.0
  0
LINE
  5
9A
  8
_________1
 62
     7
 10
-22.312100000000001
 20
143.47900000000001
 30
0.0
 11
-20.101600000000001
 21
144.072
 31
0.0
  0
LINE
  5
9B
  8
_________1
 62
     7
 10
-20.101600000000001
 20
144.072
 30
0.0
 11
-22.312100000000001
 21
144.66399999999999
 31
0.0
  0
LINE
  5
9C
  8
_________1
 62
     7
 10
-22.312100000000001
 20
144.66399999999999
 30
0.0
 11
-22.312100000000001
 21
143.47900000000001
 31
0.0
  0
LINE
  5
9D
  8
_________1
 62
     7
 10
-35.601500000000001
 20
144.072
 30
0.0
 11
-20.101600000000001
 21
144.072
 31
0.0
  0
ENDBLK
  5
9E
  8
_________1
  0
BLOCK
  8
_________1
  2
AIGNBL0201000C
 70
     0
 10
0.0
 20
0.0
 30
0.0
  3
AIGNBL0201000C
  1

  0
LINE
  5
A1
  8
_________1
 62
     7
 10
-19.187899999999999
 20
228.398
 30
0.0
 11
-17.0823
 21
229.29400000000001
 31
0.0
  0
LINE
  5
A2
  8
_________1
 62
     7
 10
-17.0823
 20
229.29400000000001
 30
0.0
 11
-18.458100000000002
 21
227.465
 31
0.0
  0
LINE
  5
A3
  8
_________1
 62
     7
 10
-18.458100000000002
 20
227.465
 30
0.0
 11
-19.187899999999999
 21
228.398
 31
0.0
  0
LINE
  5
A4
  8
_________1
 62
     7
 10
-52.013999999999989
 20
228.399
 30
0.0
 11
-54.119700000000002
 21
229.29400000000001
 31
0.0
  0
LINE
  5
A5
  8
_________1
 62
     7
 10
-54.119700000000002
 20
229.29400000000001
 30
0.0
 11
-52.743899999999996
 21
227.46600000000001
 31
0.0
  0
LINE
  5
A6
  8
_________1
 62
     7
 10
-52.743899999999996
 20
227.46600000000001
 30
0.0
 11
-52.013999999999989
 21
228.399
 31
0.0
  0
LINE
  5
A7
  8
_________1
 62
     7
 10
-30.641200000000001
 20
168.22
 30
0.0
 11
-32.851599999999998
 21
167.62799999999999
 31
0.0
  0
LINE
  5
A8
  8
_________1
 62
     7
 10
-32.851599999999998
 20
167.62799999999999
 30
0.0
 11
-30.641200000000001
 21
167.036
 31
0.0
  0
LINE
  5
A9
  8
_________1
 62
     7
 10
-30.641200000000001
 20
167.036
 30
0.0
 11
-30.641200000000001
 21
168.22
 31
0.0
  0
LINE
  5
AA
  8
_________1
 62
     7
 10
-40.561899999999987
 20
167.07300000000001
 30
0.0
 11
-38.351399999999998
 21
167.66499999999999
 31
0.0
  0
LINE
  5
AB
  8
_________1
 62
     7
 10
-38.351399999999998
 20
167.66499999999999
 30
0.0
 11
-40.561899999999987
 21
168.25700000000001
 31
0.0
  0
LINE
  5
AC
  8
_________1
 62
     7
 10
-40.561899999999987
 20
168.25700000000001
 30
0.0
 11
-40.561899999999987
 21
167.07300000000001
 31
0.0
  0
LINE
  5
AD
  8
_________1
 62
     7
 10
-42.326700000000002
 20
167.66499999999999
 30
0.0
 11
-24.468299999999999
 21
167.66499999999999
 31
0.0
  0
ENDBLK
  5
AE
  8
_________1
  0
BLOCK
  8
_________1
  2
AIGNBL0201000D
 70
     0
 10
0.0
 20
0.0
 30
0.0
  3
AIGNBL0201000D
  1

  0
LINE
  5
B1
  8
_________1
 62
     7
 10
-33.391100000000002
 20
157.655
 30
0.0
 11
-35.601500000000001
 21
157.06299999999999
 31
0.0
  0
LINE
  5
B2
  8
_________1
 62
     7
 10
-35.601500000000001
 20
157.06299999999999
 30
0.0
 11
-33.391100000000002
 21
156.471
 31
0.0
  0
LINE
  5
B3
  8
_________1
 62
     7
 10
-33.391100000000002
 20
156.471
 30
0.0
 11
-33.391100000000002
 21
157.655
 31
0.0
  0
LINE
  5
B4
  8
_________1
 62
     7
 10
-14.062099999999999
 20
156.471
 30
0.0
 11
-11.8515
 21
157.06299999999999
 31
0.0
  0
LINE
  5
B5
  8
_________1
 62
     7
 10
-11.8515
 20
157.06299999999999
 30
0.0
 11
-14.062099999999999
 21
157.655
 31
0.0
  0
LINE
  5
B6
  8
_________1
 62
     7
 10
-14.062099999999999
 20
157.655
 30
0.0
 11
-14.062099999999999
 21
156.471
 31
0.0
  0
LINE
  5
B7
  8
_________1
 62
     7
 10
-35.601500000000001
 20
157.06299999999999
 30
0.0
 11
-11.8515
 21
157.06299999999999
 31
0.0
  0
ENDBLK
  5
B8
  8
_________1
  0
BLOCK
  8
_________1
  2
AIGNBL0201000E
 70
     0
 10
0.0
 20
0.0
 30
0.0
  3
AIGNBL0201000E
  1

  0
LINE
  5
BB
  8
_________1
 62
     7
 10
-38.891199999999998
 20
103.337
 30
0.0
 11
-41.101599999999991
 21
102.745
 31
0.0
  0
LINE
  5
BC
  8
_________1
 62
     7
 10
-41.101599999999991
 20
102.745
 30
0.0
 11
-38.891199999999998
 21
102.15300000000001
 31
0.0
  0
LINE
  5
BD
  8
_________1
 62
     7
 10
-38.891199999999998
 20
102.15300000000001
 30
0.0
 11
-38.891199999999998
 21
103.337
 31
0.0
  0
LINE
  5
BE
  8
_________1
 62
     7
 10
-32.3123
 20
102.15300000000001
 30
0.0
 11
-30.101700000000001
 21
102.745
 31
0.0
  0
LINE
  5
BF
  8
_________1
 62
     7
 10
-30.101700000000001
 20
102.745
 30
0.0
 11
-32.3123
 21
103.337
 31
0.0
  0
LINE
  5
C0
  8
_________1
 62
     7
 10
-32.3123
 20
103.337
 30
0.0
 11
-32.3123
 21
102.15300000000001
 31
0.0
  0
LINE
  5
C1
  8
_________1
 62
     7
 10
-41.101599999999991
 20
102.745
 30
0.0
 11
-30.101700000000001
 21
102.745
 31
0.0
  0
ENDBLK
  5
C2
  8
_________1
  0
BLOCK
  8
_________1
  2
AIGNBL0201000F
 70
     0
 10
0.0
 20
0.0
 30
0.0
  3
AIGNBL0201000F
  1

  0
LINE
  5
C5
  8
_________1
 62
     7
 10
98.728100000000012
 20
129.05699999999999
 30
0.0
 11
98.135900000000007
 21
131.268
 31
0.0
  0
LINE
  5
C6
  8
_________1
 62
     7
 10
98.135900000000007
 20
131.268
 30
0.0
 11
97.543700000000015
 21
129.05699999999999
 31
0.0
  0
LINE
  5
C7
  8
_________1
 62
     7
 10
97.543700000000015
 20
129.05699999999999
 30
0.0
 11
98.728100000000012
 21
129.05699999999999
 31
0.0
  0
LINE
  5
C8
  8
_________1
 62
     7
 10
97.543700000000015
 20
97.900199999999998
 30
0.0
 11
98.135900000000007
 21
95.689499999999995
 31
0.0
  0
LINE
  5
C9
  8
_________1
 62
     7
 10
98.135900000000007
 20
95.689499999999995
 30
0.0
 11
98.728100000000012
 21
97.900199999999998
 31
0.0
  0
LINE
  5
CA
  8
_________1
 62
     7
 10
98.728100000000012
 20
97.900199999999998
 30
0.0
 11
97.543700000000015
 21
97.900199999999998
 31
0.0
  0
LINE
  5
CB
  8
_________1
 62
     7
 10
98.135900000000007
 20
131.268
 30
0.0
 11
98.135900000000007
 21
95.689499999999995
 31
0.0
  0
ENDBLK
  5
CC
  8
_________1
  0
BLOCK
  8
_________1
  2
AIGNBL02010010
 70
     0
 10
0.0
 20
0.0
 30
0.0
  3
AIGNBL02010010
  1

  0
LINE
  5
CF
  8
_________1
 62
     7
 10
57.026200000000003
 20
45.290199999999999
 30
0.0
 11
54.815100000000001
 21
44.697599999999987
 31
0.0
  0
LINE
  5
D0
  8
_________1
 62
     7
 10
54.815100000000001
 20
44.697599999999987
 30
0.0
 11
57.026200000000003
 21
44.105800000000002
 31
0.0
  0
LINE
  5
D1
  8
_________1
 62
     7
 10
57.026200000000003
 20
44.105800000000002
 30
0.0
 11
57.026200000000003
 21
45.290199999999999
 31
0.0
  0
LINE
  5
D2
  8
_________1
 62
     7
 10
48.479500000000002
 20
44.119500000000002
 30
0.0
 11
50.689900000000002
 21
44.7121
 31
0.0
  0
LINE
  5
D3
  8
_________1
 62
     7
 10
50.689900000000002
 20
44.7121
 30
0.0
 11
48.479500000000002
 21
45.304699999999997
 31
0.0
  0
LINE
  5
D4
  8
_________1
 62
     7
 10
48.479500000000002
 20
45.304699999999997
 30
0.0
 11
48.479500000000002
 21
44.119500000000002
 31
0.0
  0
LINE
  5
D5
  8
_________1
 62
     7
 10
39.662399999999998
 20
44.705199999999991
 30
0.0
 11
58.531000000000013
 21
44.705199999999991
 31
0.0
  0
ENDBLK
  5
D6
  8
_________1
  0
BLOCK
  8
_________1
  2
AIGNBL02010011
 70
     0
 10
0.0
 20
0.0
 30
0.0
  3
AIGNBL02010011
  1

  0
LINE
  5
D9
  8
_________1
 62
     7
 10
36.565300000000001
 20
139.72800000000001
 30
0.0
 11
35.972700000000003
 21
141.94
 31
0.0
  0
LINE
  5
DA
  8
_________1
 62
     7
 10
35.972700000000003
 20
141.94
 30
0.0
 11
35.380099999999999
 21
139.72800000000001
 31
0.0
  0
LINE
  5
DB
  8
_________1
 62
     7
 10
35.380099999999999
 20
139.72800000000001
 30
0.0
 11
36.565300000000001
 21
139.72800000000001
 31
0.0
  0
LINE
  5
DC
  8
_________1
 62
     7
 10
36.565300000000001
 20
93.478099999999998
 30
0.0
 11
35.972700000000003
 21
95.689499999999995
 31
0.0
  0
LINE
  5
DD
  8
_________1
 62
     7
 10
35.972700000000003
 20
95.689499999999995
 30
0.0
 11
35.380099999999999
 21
93.478099999999998
 31
0.0
  0
LINE
  5
DE
  8
_________1
 62
     7
 10
35.380099999999999
 20
93.478099999999998
 30
0.0
 11
36.565300000000001
 21
93.478099999999998
 31
0.0
  0
LINE
  5
DF
  8
_________1
 62
     7
 10
35.394599999999997
 20
55.0154
 30
0.0
 11
35.987200000000001
 21
52.804000000000002
 31
0.0
  0
LINE
  5
E0
  8
_________1
 62
     7
 10
35.987200000000001
 20
52.804000000000002
 30
0.0
 11
36.57970000000001
 21
55.0154
 31
0.0
  0
LINE
  5
E1
  8
_________1
 62
     7
 10
36.57970000000001
 20
55.0154
 30
0.0
 11
35.394599999999997
 21
55.0154
 31
0.0
  0
LINE
  5
E2
  8
_________1
 62
     7
 10
35.972700000000003
 20
141.94
 30
0.0
 11
35.972700000000003
 21
52.804000000000002
 31
0.0
  0
ENDBLK
  5
E3
  8
_________1
  0
BLOCK
  8
_________1
  2
AIGNBL02010012
 70
     0
 10
0.0
 20
0.0
 30
0.0
  3
AIGNBL02010012
  1

  0
LINE
  5
E6
  8
_________1
 62
     7
 10
55.241199999999992
 20
93.478099999999998
 30
0.0
 11
54.648699999999998
 21
95.689499999999995
 31
0.0
  0
LINE
  5
E7
  8
_________1
 62
     7
 10
54.648699999999998
 20
95.689499999999995
 30
0.0
 11
54.056100000000001
 21
93.478099999999998
 31
0.0
  0
LINE
  5
E8
  8
_________1
 62
     7
 10
54.056100000000001
 20
93.478099999999998
 30
0.0
 11
55.241199999999992
 21
93.478099999999998
 31
0.0
  0
LINE
  5
E9
  8
_________1
 62
     7
 10
54.070599999999999
 20
90.401300000000006
 30
0.0
 11
54.663200000000003
 21
88.189800000000005
 31
0.0
  0
LINE
  5
EA
  8
_________1
 62
     7
 10
54.663200000000003
 20
88.189800000000005
 30
0.0
 11
55.255699999999997
 21
90.401300000000006
 31
0.0
  0
LINE
  5
EB
  8
_________1
 62
     7
 10
55.255699999999997
 20
90.401300000000006
 30
0.0
 11
54.070599999999999
 21
90.401300000000006
 31
0.0
  0
LINE
  5
EC
  8
_________1
 62
     7
 10
54.648699999999998
 20
95.689499999999995
 30
0.0
 11
54.648699999999998
 21
88.189800000000005
 31
0.0
  0
ENDBLK
  5
ED
  8
_________1
  0
BLOCK
  8
_________1
  2
AIGNBL02010013
 70
     0
 10
0.0
 20
0.0
 30
0.0
  3
AIGNBL02010013
  1

  0
LINE
  5
F0
  8
_________1
 62
     7
 10
62.646900000000002
 20
245.71600000000001
 30
0.0
 11
63.791299999999993
 21
247.69900000000001
 31
0.0
  0
LINE
  5
F1
  8
_________1
 62
     7
 10
63.791299999999993
 20
247.69900000000001
 30
0.0
 11
61.808300000000003
 21
246.554
 31
0.0
  0
LINE
  5
F2
  8
_________1
 62
     7
 10
61.808300000000003
 20
246.554
 30
0.0
 11
62.646900000000002
 21
245.71600000000001
 31
0.0
  0
LINE
  5
F3
  8
_________1
 62
     7
 10
71.123900000000006
 20
255.869
 30
0.0
 11
69.978800000000007
 21
253.887
 31
0.0
  0
LINE
  5
F4
  8
_________1
 62
     7
 10
69.978800000000007
 20
253.887
 30
0.0
 11
71.961799999999997
 21
255.03100000000001
 31
0.0
  0
LINE
  5
F5
  8
_________1
 62
     7
 10
71.961799999999997
 20
255.03100000000001
 30
0.0
 11
71.123900000000006
 21
255.869
 31
0.0
  0
LINE
  5
F6
  8
_________1
 62
     7
 10
73.997799999999984
 20
257.90499999999997
 30
0.0
 11
59.812199999999997
 21
243.72
 31
0.0
  0
ENDBLK
  5
F7
  8
_________1
  0
BLOCK
  8
_________2
  2
AIGNBL03010002
 70
     0
 10
0.0
 20
0.0
 30
0.0
  3
AIGNBL03010002
  1

  0
LINE
  5
FA
  8
_________2
 62
     7
 10
186.649
 20
51.052199999999999
 30
0.0
 11
184.46299999999999
 21
51.052199999999999
 31
0.0
  0
LINE
  5
FB
  8
_________2
 62
     7
 10
187.142
 20
51.052199999999999
 30
0.0
 11
186.88900000000001
 21
51.052199999999999
 31
0.0
  0
LINE
  5
FC
  8
_________2
 62
     7
 10
187.63399999999999
 20
51.052199999999999
 30
0.0
 11
190.559
 21
51.052199999999999
 31
0.0
  0
LINE
  5
FD
  8
_________2
 62
     7
 10
187.142
 20
51.052199999999999
 30
0.0
 11
187.39400000000001
 21
51.052199999999999
 31
0.0
  0
LINE
  5
FE
  8
_________2
 62
     7
 10
180.745
 20
51.052199999999999
 30
0.0
 11
178.55799999999999
 21
51.052199999999999
 31
0.0
  0
LINE
  5
FF
  8
_________2
 62
     7
 10
181.23699999999999
 20
51.052199999999999
 30
0.0
 11
180.98599999999999
 21
51.052199999999999
 31
0.0
  0
LINE
  5
100
  8
_________2
 62
     7
 10
181.23699999999999
 20
51.544800000000002
 30
0.0
 11
181.23699999999999
 21
53.7318
 31
0.0
  0
LINE
  5
101
  8
_________2
 62
     7
 10
181.23699999999999
 20
51.052199999999999
 30
0.0
 11
181.23699999999999
 21
51.304299999999998
 31
0.0
  0
LINE
  5
102
  8
_________2
 62
     7
 10
181.72999999999999
 20
51.052199999999999
 30
0.0
 11
183.917
 21
51.052199999999999
 31
0.0
  0
LINE
  5
103
  8
_________2
 62
     7
 10
181.23699999999999
 20
51.052199999999999
 30
0.0
 11
181.489
 21
51.052199999999999
 31
0.0
  0
LINE
  5
104
  8
_________2
 62
     7
 10
181.23699999999999
 20
50.560200000000002
 30
0.0
 11
181.23699999999999
 21
48.373199999999997
 31
0.0
  0
LINE
  5
105
  8
_________2
 62
     7
 10
181.23699999999999
 20
51.052199999999999
 30
0.0
 11
181.23699999999999
 21
50.800699999999999
 31
0.0
  0
LINE
  5
106
  8
_________2
 62
     7
 10
184.94799999999989
 20
49.832599999999999
 30
0.0
 11
190.12599999999989
 21
48.9679
 31
0.0
  0
LINE
  5
107
  8
_________2
 62
     7
 10
184.94799999999989
 20
52.271700000000003
 30
0.0
 11
190.12599999999989
 21
53.137099999999997
 31
0.0
  0
LINE
  5
108
  8
_________2
 62
     7
 10
190.12599999999989
 20
48.9679
 30
0.0
 11
190.12599999999989
 21
53.137099999999997
 31
0.0
  0
LINE
  5
109
  8
_________2
 62
     7
 10
184.94799999999989
 20
49.832599999999999
 30
0.0
 11
184.94799999999989
 21
52.271700000000003
 31
0.0
  0
ARC
  5
10A
  8
_________2
 62
     7
 10
181.190651
 20
51.004810999999989
 30
0.0
 40
1.2677780000000001
 50
2.1403449999999991
 51
87.892005999999995
  0
ARC
  5
10B
  8
_________2
 62
     7
 10
181.28420199999999
 20
51.005241999999988
 30
0.0
 40
1.2673579999999991
 50
92.121564999999975
 51
177.87840600000001
  0
ARC
  5
10C
  8
_________2
 62
     7
 10
181.28381400000001
 20
51.098689
 30
0.0
 40
1.2669559999999991
 50
182.10473099999999
 51
267.89529900000002
  0
ARC
  5
10D
  8
_________2
 62
     7
 10
181.19038399999999
 20
51.099775000000001
 30
0.0
 40
1.268054
 50
272.11960599999998
 51
357.84804300000002
  0
ARC
  5
10E
  8
_________2
 62
     7
 10
181.23728399999999
 20
51.05215900000001
 30
0.0
 40
2.0849849999999992
 50
0.00001
 51
89.999980000000008
  0
ARC
  5
10F
  8
_________2
 62
     7
 10
181.317331
 20
50.972827000000002
 30
0.0
 40
2.1657969999999991
 50
92.118111999999996
 51
177.90079600000001
  0
ARC
  5
110
  8
_________2
 62
     7
 10
181.31728799999999
 20
51.132162999999998
 30
0.0
 40
2.1657779999999991
 50
182.11700400000001
 51
267.88302499999998
  0
ARC
  5
111
  8
_________2
 62
     7
 10
181.15730300000001
 20
51.132855999999997
 30
0.0
 40
2.166469999999999
 50
272.115725
 51
357.86534699999999
  0
ENDBLK
  5
112
  8
_________2
  0
ENDSEC
  0
SECTION
  2
ENTITIES
  0
TEXT
  5
113
  8
____
 62
     7
 10
91.185199999999995
 20
193.76326999999989
 30
0.0
 40
3.0923400000000001
  1
W.L
 50
90.0
 41
0.5
 72
     2
 11
91.185199999999995
 21
197.37100000000001
 31
0.0
  0
TEXT
  5
114
  8
____
 62
     7
 10
107.7646975714285
 20
186.89500000000001
 30
0.0
 40
3.0923400000000001
  1
100mm以上スペースを設けてください。
 41
0.5
 72
     2
 11
140.91900000000001
 21
186.89500000000001
 31
0.0
  0
TEXT
  5
115
  8
____
 62
     7
 10
-14.527896
 20
45.7239
 30
0.0
 40
3.0923400000000001
  1
水側
 41
0.5
 72
     2
 11
-11.2294
 21
45.7239
 31
0.0
  0
TEXT
  5
116
  8
____
 62
     7
 10
-66.683999999999997
 20
45.7239
 30
0.0
 40
3.0923400000000001
  1
湯側
 41
0.5
  0
TEXT
  5
117
  8
____
 62
     7
 10
75.661879999999996
 20
258.60500000000002
 30
0.0
 40
3.0923400000000001
  1
%%c35
 41
0.5
 72
     2
 11
79.784999999999997
 21
258.60500000000002
 31
0.0
  0
TEXT
  5
118
  8
____
 62
     7
 10
60.597341999999998
 20
236.447
 30
0.0
 40
3.0923400000000001
  1
水栓金具取付穴
 41
0.5
 72
     1
 11
66.885099999999994
 21
236.447
 31
0.0
  0
TEXT
  5
119
  8
____
 62
     7
 10
-11.348000000000001
 20
130.15000000000001
 30
0.0
 40
3.0923400000000001
  1
開
 41
0.5
  0
TEXT
  5
11A
  8
____
 62
     7
 10
-25.568114000000001
 20
136.98500000000001
 30
0.0
 40
3.0923400000000001
  1
閉
 41
0.5
 72
     2
 11
-24.228100000000001
 21
136.98500000000001
 31
0.0
  0
TEXT
  5
11B
  8
____
 62
     7
 10
46.814607999999993
 20
127.291
 30
0.0
 40
3.0923400000000001
  1
水
 41
0.5
 72
     2
 11
48.2577
 21
127.291
 31
0.0
  0
TEXT
  5
11C
  8
____
 62
     7
 10
85.227900000000005
 20
127.291
 30
0.0
 40
3.0923400000000001
  1
湯
 41
0.5
  0
TEXT
  5
11D
  8
____
 62
     7
 10
39.662399999999998
 20
45.40529999999999
 30
0.0
 40
3.0923400000000001
  1
PF 3/8
 41
0.5
  0
TEXT
  5
11E
  8
____
 62
     7
 10
53.948599999999999
 20
88.203222500000024
 30
0.0
 40
3.0923400000000001
  1
max.30
 50
90.0
 41
0.5
 72
     1
 11
53.948599999999999
 21
91.939800000000005
 31
0.0
  0
TEXT
  5
11F
  8
____
 62
     7
 10
35.221699999999998
 20
117.011135
 30
0.0
 40
3.0923400000000001
  1
185
 50
90.0
 41
0.5
 72
     1
 11
35.221699999999998
 21
118.815
 31
0.0
  0
TEXT
  5
120
  8
____
 62
     7
 10
35.221699999999998
 20
72.314087499999985
 30
0.0
 40
3.0923400000000001
  1
370
 50
90.0
 41
0.5
 72
     1
 11
35.221699999999998
 21
74.246799999999993
 31
0.0
  0
TEXT
  5
121
  8
____
 62
     7
 10
-28.591419999999999
 20
168.36500000000001
 30
0.0
 40
3.0923400000000001
  1
%%c22
 41
0.5
 72
     2
 11
-24.468299999999999
 21
168.36500000000001
 31
0.0
  0
TEXT
  5
122
  8
____
 62
     7
 10
-25.907533999999998
 20
100.988
 30
0.0
 40
3.0923400000000001
  1
メーカーロゴ
 41
0.5
 72
     1
 11
-20.444400000000002
 21
100.988
 31
0.0
  0
TEXT
  5
123
  8
____
 62
     7
 10
-37.663060000000002
 20
103.44499999999999
 30
0.0
 40
3.0923400000000001
  1
%%c44
 41
0.5
 72
     1
 11
-35.601500000000001
 21
103.44499999999999
 31
0.0
  0
TEXT
  5
124
  8
____
 62
     7
 10
64.9523875
 20
104.158
 30
0.0
 40
3.0923400000000001
  1
%%c60
 41
0.5
 72
     1
 11
66.885099999999994
 21
104.158
 31
0.0
  0
TEXT
  5
125
  8
____
 62
     7
 10
74.475672500000002
 20
141.55099999999999
 30
0.0
 40
3.0923400000000001
  1
70
 41
0.5
 72
     1
 11
75.635300000000001
 21
141.55099999999999
 31
0.0
  0
TEXT
  5
126
  8
____
 62
     7
 10
-29.139975
 20
144.77199999999999
 30
0.0
 40
3.0923400000000001
  1
62
 41
0.5
 72
     1
 11
-27.851500000000001
 21
144.77199999999999
 31
0.0
  0
TEXT
  5
127
  8
____
 62
     7
 10
-25.014975
 20
157.76300000000001
 30
0.0
 40
3.0923400000000001
  1
95
 41
0.5
 72
     1
 11
-23.726500000000001
 21
157.76300000000001
 31
0.0
  0
TEXT
  5
128
  8
____
 62
     7
 10
-30.127600000000001
 20
219.29300000000001
 30
0.0
 40
3.0923400000000001
  1
スパウト回転360%%d
 41
0.5
  0
TEXT
  5
129
  8
____
 62
     7
 10
42.7096825
 20
151.81
 30
0.0
 40
3.0923400000000001
  1
180
 41
0.5
 72
     1
 11
44.384700000000002
 21
151.81
 31
0.0
  0
TEXT
  5
12A
  8
____
 62
     7
 10
56.975172499999999
 20
141.55099999999999
 30
0.0
 40
3.0923400000000001
  1
70
 41
0.5
 72
     1
 11
58.134799999999998
 21
141.55099999999999
 31
0.0
  0
TEXT
  5
12B
  8
____
 62
     7
 10
-55.078800000000001
 20
135.00728749999999
 30
0.0
 40
3.0923400000000001
  1
330
 50
90.0
 41
0.5
 72
     1
 11
-55.078800000000001
 21
136.94
 31
0.0
  0
TEXT
  5
12C
  8
____
 62
     7
 10
-7.6398899999999994
 20
104.650525
 30
0.0
 40
3.0923400000000001
  1
82
 50
90.0
 41
0.5
 72
     1
 11
-7.6398899999999994
 21
105.93899999999999
 31
0.0
  0
TEXT
  5
12D
  8
____
 62
     7
 10
0.5894599999999999
 20
113.261135
 30
0.0
 40
3.0923400000000001
  1
155
 50
90.0
 41
0.5
 72
     1
 11
0.58946
 21
115.065
 31
0.0
  0
TEXT
  5
12E
  8
____
 62
     7
 10
97.435800000000015
 20
111.675135
 30
0.0
 40
3.0923400000000001
  1
145
 50
90.0
 41
0.5
 72
     1
 11
97.435800000000015
 21
113.479
 31
0.0
  0
LINE
  5
12F
  8
_________1
 62
     7
 10
94.637500000000003
 20
186.19499999999999
 30
0.0
 11
140.91900000000001
 21
186.19499999999999
 31
0.0
  0
INSERT
  5
130
  8
_________1
 62
     7
  2
AIGNBL02010002
 10
0.0
 20
0.0
 30
0.0
  0
LINE
  5
131
  8
_________1
 62
     7
 10
69.095299999999995
 20
176.21799999999999
 30
0.0
 11
66.885099999999994
 21
175.62599999999989
 31
0.0
  0
LINE
  5
132
  8
_________1
 62
     7
 10
66.885099999999994
 20
175.62599999999989
 30
0.0
 11
69.095299999999995
 21
175.03399999999999
 31
0.0
  0
LINE
  5
133
  8
_________1
 62
     7
 10
69.095299999999995
 20
175.03399999999999
 30
0.0
 11
69.095299999999995
 21
176.21799999999999
 31
0.0
  0
LINE
  5
134
  8
_________1
 62
     7
 10
89.674899999999994
 20
175.03399999999999
 30
0.0
 11
91.885199999999998
 21
175.62599999999989
 31
0.0
  0
LINE
  5
135
  8
_________1
 62
     7
 10
91.885199999999998
 20
175.62599999999989
 30
0.0
 11
89.674899999999994
 21
176.21799999999999
 31
0.0
  0
LINE
  5
136
  8
_________1
 62
     7
 10
89.674899999999994
 20
176.21799999999999
 30
0.0
 11
89.674899999999994
 21
175.03399999999999
 31
0.0
  0
LINE
  5
137
  8
_________1
 62
     7
 10
66.885099999999994
 20
175.62599999999989
 30
0.0
 11
91.885199999999998
 21
175.62599999999989
 31
0.0
  0
LINE
  5
138
  8
_________1
 62
     7
 10
-18.110600000000002
 20
45.023899999999998
 30
0.0
 11
-11.2294
 21
45.023899999999998
 31
0.0
  0
LINE
  5
139
  8
_________1
 62
     7
 10
-23.977
 20
50.219099999999997
 30
0.0
 11
-24.891999999999999
 21
51.804600000000001
 31
0.0
  0
LINE
  5
13A
  8
_________1
 62
     7
 10
-24.891999999999999
 20
51.804600000000001
 30
0.0
 11
-23.3066
 21
50.889499999999998
 31
0.0
  0
LINE
  5
13B
  8
_________1
 62
     7
 10
-23.3066
 20
50.889499999999998
 30
0.0
 11
-23.977
 21
50.219099999999997
 31
0.0
  0
LINE
  5
13C
  8
_________1
 62
     7
 10
-18.110600000000002
 20
45.023899999999998
 30
0.0
 11
-24.891999999999999
 21
51.804600000000001
 31
0.0
  0
LINE
  5
13D
  8
_________1
 62
     7
 10
-59.802799999999998
 20
45.023899999999998
 30
0.0
 11
-66.683999999999997
 21
45.023899999999998
 31
0.0
  0
LINE
  5
13E
  8
_________1
 62
     7
 10
-53.936399999999999
 20
50.219099999999997
 30
0.0
 11
-53.0214
 21
51.804600000000001
 31
0.0
  0
LINE
  5
13F
  8
_________1
 62
     7
 10
-53.0214
 20
51.804600000000001
 30
0.0
 11
-54.606799999999993
 21
50.889499999999998
 31
0.0
  0
LINE
  5
140
  8
_________1
 62
     7
 10
-54.606799999999993
 20
50.889499999999998
 30
0.0
 11
-53.936399999999999
 21
50.219099999999997
 31
0.0
  0
LINE
  5
141
  8
_________1
 62
     7
 10
-59.802799999999998
 20
45.023899999999998
 30
0.0
 11
-53.0214
 21
51.804600000000001
 31
0.0
  0
LINE
  5
142
  8
_________1
 62
     7
 10
63.322099999999992
 20
88.189499999999995
 30
0.0
 11
63.322099999999992
 21
95.689499999999995
 31
0.0
  0
LINE
  5
143
  8
_________1
 62
     7
 10
65.946600000000004
 20
89.189999999999998
 30
0.0
 11
65.946600000000004
 21
95.689499999999995
 31
0.0
  0
LINE
  5
144
  8
_________1
 62
     7
 10
83.769900000000007
 20
52.053699999999999
 30
0.0
 11
83.319999999999979
 21
51.804200000000002
 31
0.0
  0
LINE
  5
145
  8
_________1
 62
     7
 10
78.269400000000005
 20
52.053699999999999
 30
0.0
 11
78.718699999999998
 21
51.804200000000002
 31
0.0
  0
LINE
  5
146
  8
_________1
 62
     7
 10
82.569599999999994
 20
55.054400000000001
 30
0.0
 11
82.569599999999994
 21
54.929600000000001
 31
0.0
  0
LINE
  5
147
  8
_________1
 62
     7
 10
79.468999999999994
 20
55.054400000000001
 30
0.0
 11
79.468999999999994
 21
54.929600000000001
 31
0.0
  0
LINE
  5
148
  8
_________1
 62
     7
 10
82.444900000000004
 20
58.305199999999992
 30
0.0
 11
82.444900000000004
 21
56.304900000000004
 31
0.0
  0
LINE
  5
149
  8
_________1
 62
     7
 10
79.569299999999984
 20
58.305199999999992
 30
0.0
 11
79.569299999999984
 21
56.304900000000004
 31
0.0
  0
LINE
  5
14A
  8
_________1
 62
     7
 10
82.444900000000004
 20
56.304900000000004
 30
0.0
 11
82.644700000000014
 21
55.879800000000003
 31
0.0
  0
LINE
  5
14B
  8
_________1
 62
     7
 10
82.619600000000005
 20
58.604900000000001
 30
0.0
 11
82.444900000000004
 21
58.305199999999992
 31
0.0
  0
LINE
  5
14C
  8
_________1
 62
     7
 10
79.569299999999984
 20
56.304900000000004
 30
0.0
 11
79.393900000000002
 21
55.879800000000003
 31
0.0
  0
LINE
  5
14D
  8
_________1
 62
     7
 10
79.393900000000002
 20
58.604900000000001
 30
0.0
 11
79.569299999999984
 21
58.305199999999992
 31
0.0
  0
LINE
  5
14E
  8
_________1
 62
     7
 10
78.718699999999998
 20
54.929600000000001
 30
0.0
 11
78.269400000000005
 21
54.679499999999997
 31
0.0
  0
LINE
  5
14F
  8
_________1
 62
     7
 10
83.319999999999979
 20
54.929600000000001
 30
0.0
 11
83.769900000000007
 21
54.679499999999997
 31
0.0
  0
LINE
  5
150
  8
_________1
 62
     7
 10
82.694400000000016
 20
59.555700000000002
 30
0.0
 11
82.694400000000016
 21
58.854999999999997
 31
0.0
  0
LINE
  5
151
  8
_________1
 62
     7
 10
79.319199999999995
 20
59.555700000000002
 30
0.0
 11
79.319199999999995
 21
58.854999999999997
 31
0.0
  0
LINE
  5
152
  8
_________1
 62
     7
 10
79.319199999999995
 20
59.555700000000002
 30
0.0
 11
82.694400000000016
 21
59.555700000000002
 31
0.0
  0
LINE
  5
153
  8
_________1
 62
     7
 10
79.344300000000004
 20
58.730299999999993
 30
0.0
 11
79.393900000000002
 21
58.604900000000001
 31
0.0
  0
LINE
  5
154
  8
_________1
 62
     7
 10
79.319199999999995
 20
58.854999999999997
 30
0.0
 11
79.344300000000004
 21
58.730299999999993
 31
0.0
  0
LINE
  5
155
  8
_________1
 62
     7
 10
82.694400000000016
 20
58.730299999999993
 30
0.0
 11
82.619600000000005
 21
58.604900000000001
 31
0.0
  0
LINE
  5
156
  8
_________1
 62
     7
 10
82.694400000000016
 20
58.854999999999997
 30
0.0
 11
82.694400000000016
 21
58.730299999999993
 31
0.0
  0
LINE
  5
157
  8
_________1
 62
     7
 10
81.019300000000015
 20
58.305199999999992
 30
0.0
 11
82.444900000000004
 21
58.305199999999992
 31
0.0
  0
LINE
  5
158
  8
_________1
 62
     7
 10
79.569299999999984
 20
58.305199999999992
 30
0.0
 11
81.019300000000015
 21
58.305199999999992
 31
0.0
  0
LINE
  5
159
  8
_________1
 62
     7
 10
79.569299999999984
 20
56.304900000000004
 30
0.0
 11
82.444900000000004
 21
56.304900000000004
 31
0.0
  0
LINE
  5
15A
  8
_________1
 62
     7
 10
79.744600000000005
 20
55.080500000000001
 30
0.0
 11
79.769499999999994
 21
55.080500000000001
 31
0.0
  0
ARC
  5
15B
  8
_________1
 62
     7
 10
84.265869999999993
 20
64.154269999999997
 30
0.0
 40
10.137758
 50
242.79826199999999
 51
243.51404199999999
  0
ARC
  5
15C
  8
_________1
 62
     7
 10
79.923265999999998
 20
55.707087000000001
 30
0.0
 40
0.6397000000000001
 50
234.340416
 51
242.879075
  0
ARC
  5
15D
  8
_________1
 62
     7
 10
79.839871000000002
 20
55.583893000000003
 30
0.0
 40
0.4910060000000001
 50
225.53074100000001
 51
233.866649
  0
ARC
  5
15E
  8
_________1
 62
     7
 10
79.854277999999994
 20
55.557842999999998
 30
0.0
 40
0.4833510000000001
 50
203.23388600000001
 51
222.14699300000001
  0
ARC
  5
15F
  8
_________1
 62
     7
 10
80.513555000000011
 20
55.838691000000011
 30
0.0
 40
1.199954
 50
198.66450699999999
 51
203.13821799999999
  0
LINE
  5
160
  8
_________1
 62
     7
 10
79.344300000000004
 20
55.554600000000001
 30
0.0
 11
79.3767
 21
55.454700000000003
 31
0.0
  0
LINE
  5
161
  8
_________1
 62
     7
 10
79.344300000000004
 20
55.704799999999992
 30
0.0
 11
79.344300000000004
 21
55.554600000000001
 31
0.0
  0
ARC
  5
162
  8
_________1
 62
     7
 10
157.50619
 20
44.715994000000002
 30
0.0
 40
78.930545999999993
 50
171.86889400000001
 51
171.99720500000001
  0
LINE
  5
163
  8
_________1
 62
     7
 10
79.369100000000003
 20
55.879800000000003
 30
0.0
 11
79.393900000000002
 21
55.879800000000003
 31
0.0
  0
LINE
  5
164
  8
_________1
 62
     7
 10
82.694400000000016
 20
55.704799999999992
 30
0.0
 11
82.644700000000014
 21
55.879800000000003
 31
0.0
  0
LINE
  5
165
  8
_________1
 62
     7
 10
82.694400000000016
 20
55.554600000000001
 30
0.0
 11
82.694400000000016
 21
55.704799999999992
 31
0.0
  0
LINE
  5
166
  8
_________1
 62
     7
 10
82.660899999999998
 20
55.454700000000003
 30
0.0
 11
82.694400000000016
 21
55.554600000000001
 31
0.0
  0
ARC
  5
167
  8
_________1
 62
     7
 10
82.182655999999994
 20
55.615661000000003
 30
0.0
 40
0.5046490000000001
 50
329.05255899999997
 51
341.39716499999997
  0
ARC
  5
168
  8
_________1
 62
     7
 10
82.016013999999984
 20
55.753602000000001
 30
0.0
 40
0.7192430000000001
 50
290.64248099999998
 51
326.45409799999999
  0
LINE
  5
169
  8
_________1
 62
     7
 10
79.468999999999994
 20
55.054400000000001
 30
0.0
 11
82.569599999999994
 21
55.054400000000001
 31
0.0
  0
LINE
  5
16A
  8
_________1
 62
     7
 10
78.718699999999998
 20
54.929600000000001
 30
0.0
 11
83.319999999999979
 21
54.929600000000001
 31
0.0
  0
LINE
  5
16B
  8
_________1
 62
     7
 10
78.269400000000005
 20
52.053699999999999
 30
0.0
 11
78.718699999999998
 21
51.804200000000002
 31
0.0
  0
LINE
  5
16C
  8
_________1
 62
     7
 10
83.769900000000007
 20
52.053699999999999
 30
0.0
 11
83.319999999999979
 21
51.829000000000001
 31
0.0
  0
LINE
  5
16D
  8
_________1
 62
     7
 10
83.319999999999979
 20
51.829000000000001
 30
0.0
 11
83.319999999999979
 21
51.804200000000002
 31
0.0
  0
LINE
  5
16E
  8
_________1
 62
     7
 10
83.620099999999994
 20
52.003999999999998
 30
0.0
 11
83.319999999999979
 21
51.829000000000001
 31
0.0
  0
LINE
  5
16F
  8
_________1
 62
     7
 10
81.019300000000015
 20
51.804200000000002
 30
0.0
 11
83.319999999999979
 21
51.804200000000002
 31
0.0
  0
LINE
  5
170
  8
_________1
 62
     7
 10
78.718699999999998
 20
51.804200000000002
 30
0.0
 11
81.019300000000015
 21
51.804200000000002
 31
0.0
  0
LINE
  5
171
  8
_________1
 62
     7
 10
79.769499999999994
 20
55.080500000000001
 30
0.0
 11
81.019300000000015
 21
55.080500000000001
 31
0.0
  0
LINE
  5
172
  8
_________1
 62
     7
 10
82.269599999999997
 20
55.080500000000001
 30
0.0
 11
81.019300000000015
 21
55.080500000000001
 31
0.0
  0
ARC
  5
173
  8
_________1
 62
     7
 10
80.898212999999998
 20
50.059003999999987
 30
0.0
 40
4.8566900000000004
 50
72.058612000000011
 51
85.196087000000006
  0
ARC
  5
174
  8
_________1
 62
     7
 10
81.10158100000001
 20
52.445937000000001
 30
0.0
 40
2.4611119999999991
 50
85.260300999999984
 51
89.372129999999984
  0
ARC
  5
175
  8
_________1
 62
     7
 10
81.101575999999994
 20
53.445985999999998
 30
0.0
 40
1.461163999999999
 50
88.942242000000007
 51
93.226404000000002
  0
ARC
  5
176
  8
_________1
 62
     7
 10
80.910358000000002
 20
52.696348999999991
 30
0.0
 40
2.211171999999999
 50
87.174924000000004
 51
93.757938000000024
  0
ARC
  5
177
  8
_________1
 62
     7
 10
81.121426
 20
50.178131
 30
0.0
 40
4.738027999999999
 50
94.308968999999976
 51
103.33627799999999
  0
ARC
  5
178
  8
_________1
 62
     7
 10
80.885093999999995
 20
51.02993699999999
 30
0.0
 40
3.8548249999999991
 50
102.838708
 51
108.780646
  0
ARC
  5
179
  8
_________1
 62
     7
 10
78.520387999999997
 20
46.089959
 30
0.0
 40
6.068630999999999
 50
76.418272999999999
 51
79.329596999999993
  0
ARC
  5
17A
  8
_________1
 62
     7
 10
82.164618999999973
 20
61.136977000000002
 30
0.0
 40
9.413397999999999
 50
256.36471299999999
 51
258.50461300000001
  0
ARC
  5
17B
  8
_________1
 62
     7
 10
81.058257999999995
 20
55.760483999999998
 30
0.0
 40
3.9242879999999989
 50
258.6899049999999
 51
261.91535599999997
  0
ARC
  5
17C
  8
_________1
 62
     7
 10
80.804000000000002
 20
53.936231000000006
 30
0.0
 40
2.0824139999999991
 50
261.78260999999998
 51
269.744621
  0
LINE
  5
17D
  8
_________1
 62
     7
 10
81.243999999999986
 20
51.8538
 30
0.0
 11
80.794700000000006
 21
51.8538
 31
0.0
  0
ARC
  5
17E
  8
_________1
 62
     7
 10
81.215241000000006
 20
54.192492999999999
 30
0.0
 40
2.338832
 50
270.70360499999998
 51
278.61021
  0
ARC
  5
17F
  8
_________1
 62
     7
 10
80.715120999999996
 20
57.545470999999992
 30
0.0
 40
5.7288990000000002
 50
278.53524299999998
 51
284.779426
  0
ARC
  5
180
  8
_________1
 62
     7
 10
83.491483000000017
 20
46.506464999999999
 30
0.0
 40
5.6546580000000004
 50
101.1883
 51
103.446589
  0
ARC
  5
181
  8
_________1
 62
     7
 10
78.644613000000007
 20
52.982863000000002
 30
0.0
 40
1.9691439999999989
 50
59.499339999999989
 51
66.730772000000002
  0
ARC
  5
182
  8
_________1
 62
     7
 10
78.837531999999996
 20
53.501105000000003
 30
0.0
 40
1.4171100000000001
 50
65.618611000000001
 51
77.161043000000006
  0
ARC
  5
183
  8
_________1
 62
     7
 10
78.967002000000008
 20
54.114190000000001
 30
0.0
 40
0.790647
 50
76.43617900000001
 51
89.844281999999993
  0
ARC
  5
184
  8
_________1
 62
     7
 10
78.990178999999998
 20
53.797978999999998
 30
0.0
 40
1.1070539999999991
 50
91.088385000000002
 51
107.252442
  0
ARC
  5
185
  8
_________1
 62
     7
 10
79.267666000000006
 20
52.976196999999999
 30
0.0
 40
1.974275
 50
107.869906
 51
120.372035
  0
ARC
  5
186
  8
_________1
 62
     7
 10
80.623968000000005
 20
57.438310000000001
 30
0.0
 40
5.8769279999999986
 50
246.38193799999999
 51
248.592646
  0
ARC
  5
187
  8
_________1
 62
     7
 10
79.312779000000006
 20
54.080165999999998
 30
0.0
 40
2.2718919999999989
 50
248.46699100000001
 51
252.878365
  0
ARC
  5
188
  8
_________1
 62
     7
 10
79.049996999999991
 20
53.216106999999987
 30
0.0
 40
1.3687670000000001
 50
252.74256399999999
 51
258.56519200000002
  0
ARC
  5
189
  8
_________1
 62
     7
 10
78.968075999999996
 20
52.732227000000002
 30
0.0
 40
0.8783899999999999
 50
257.54529300000002
 51
270.07009399999998
  0
ARC
  5
18A
  8
_________1
 62
     7
 10
78.959773999999996
 20
52.652048999999998
 30
0.0
 40
0.798266
 50
270.673023
 51
281.20397200000002
  0
ARC
  5
18B
  8
_________1
 62
     7
 10
78.701048999999998
 20
53.784815000000002
 30
0.0
 40
1.960003999999999
 50
282.18899800000003
 51
291.62018500000011
  0
ARC
  5
18C
  8
_________1
 62
     7
 10
76.984273999999985
 20
58.198099999999997
 30
0.0
 40
6.6954169999999991
 50
291.36270300000001
 51
293.40657399999998
  0
LINE
  5
18D
  8
_________1
 62
     7
 10
79.643999999999991
 20
54.679499999999997
 30
0.0
 11
79.643999999999991
 21
52.053699999999999
 31
0.0
  0
LINE
  5
18E
  8
_________1
 62
     7
 10
78.269400000000005
 20
54.679499999999997
 30
0.0
 11
78.269400000000005
 21
52.053699999999999
 31
0.0
  0
ARC
  5
18F
  8
_________1
 62
     7
 10
82.777508999999995
 20
52.997869999999992
 30
0.0
 40
1.9526490000000001
 50
59.453415
 51
67.416469000000006
  0
ARC
  5
190
  8
_________1
 62
     7
 10
82.979637999999994
 20
53.525181000000011
 30
0.0
 40
1.388239
 50
66.761310999999992
 51
78.216138999999998
  0
ARC
  5
191
  8
_________1
 62
     7
 10
83.070607999999993
 20
53.997827999999998
 30
0.0
 40
0.9070059999999999
 50
77.744191999999998
 51
90.046419999999998
  0
ARC
  5
192
  8
_________1
 62
     7
 10
83.070081000000002
 20
53.994791999999997
 30
0.0
 40
0.9100419999999999
 50
90.013041999999984
 51
95.901539
  0
ARC
  5
193
  8
_________1
 62
     7
 10
83.150747999999993
 20
53.560954000000002
 30
0.0
 40
1.3503449999999999
 50
97.413617000000002
 51
124.069535
  0
ARC
  5
194
  8
_________1
 62
     7
 10
83.588678000000002
 20
54.420259999999999
 30
0.0
 40
2.6509230000000001
 50
243.22057100000001
 51
247.98058199999991
  0
ARC
  5
195
  8
_________1
 62
     7
 10
83.193814000000003
 20
53.386786000000001
 30
0.0
 40
1.5449399999999991
 50
247.18657300000001
 51
258.073262
  0
ARC
  5
196
  8
_________1
 62
     7
 10
83.075333000000015
 20
52.807648
 30
0.0
 40
0.9538260000000001
 50
257.84727199999998
 51
269.67204100000009
  0
ARC
  5
197
  8
_________1
 62
     7
 10
83.059753000000001
 20
52.839581000000003
 30
0.0
 40
0.985795
 50
270.58823999999998
 51
280.74291299999999
  0
ARC
  5
198
  8
_________1
 62
     7
 10
82.856412999999989
 20
53.728836999999999
 30
0.0
 40
1.8976729999999991
 50
281.770017
 51
291.22976199999999
  0
ARC
  5
199
  8
_________1
 62
     7
 10
79.787055000000009
 20
61.353818999999987
 30
0.0
 40
10.117127999999999
 50
291.796018
 51
293.18340499999999
  0
LINE
  5
19A
  8
_________1
 62
     7
 10
82.394300000000001
 20
54.679499999999997
 30
0.0
 11
82.394300000000001
 21
52.053699999999999
 31
0.0
  0
LINE
  5
19B
  8
_________1
 62
     7
 10
83.769900000000007
 20
54.679499999999997
 30
0.0
 11
83.769900000000007
 21
52.053699999999999
 31
0.0
  0
LINE
  5
19C
  8
_________1
  6
AIGENLINE001
 62
     7
 10
69.134699999999995
 20
72.343999999999994
 30
0.0
 11
69.134699999999995
 21
98.223699999999994
 31
0.0
  0
LINE
  5
19D
  8
_________1
 62
     7
 10
67.822100000000006
 20
89.189999999999998
 30
0.0
 11
67.822100000000006
 21
95.689499999999995
 31
0.0
  0
LINE
  5
19E
  8
_________1
 62
     7
 10
70.447000000000003
 20
88.189499999999995
 30
0.0
 11
70.447000000000003
 21
95.689499999999995
 31
0.0
  0
LINE
  5
19F
  8
_________1
 62
     7
 10
67.822100000000006
 20
75.716099999999983
 30
0.0
 11
67.822100000000006
 21
82.939800000000005
 31
0.0
  0
LINE
  5
1A0
  8
_________1
 62
     7
 10
70.447000000000003
 20
75.716099999999983
 30
0.0
 11
70.447000000000003
 21
86.440099999999987
 31
0.0
  0
LINE
  5
1A1
  8
_________1
  6
AIGENLINE001
 62
     7
 10
81.016599999999997
 20
86.283999999999992
 30
0.0
 11
81.016599999999997
 21
50.592199999999991
 31
0.0
  0
LINE
  5
1A2
  8
_________1
 62
     7
 10
79.703999999999994
 20
82.614900000000006
 30
0.0
 11
79.703999999999994
 21
59.555700000000002
 31
0.0
  0
LINE
  5
1A3
  8
_________1
 62
     7
 10
82.3292
 20
59.555700000000002
 30
0.0
 11
82.3292
 21
82.614900000000006
 31
0.0
  0
LINE
  5
1A4
  8
_________1
  6
AIGENLINE001
 62
     7
 10
69.134699999999995
 20
72.343999999999994
 30
0.0
 11
81.016599999999997
 21
86.283999999999992
 31
0.0
  0
LINE
  5
1A5
  8
_________1
 62
     7
 10
49.999200000000002
 20
52.053699999999999
 30
0.0
 11
50.449100000000001
 21
51.804200000000002
 31
0.0
  0
LINE
  5
1A6
  8
_________1
 62
     7
 10
55.499600000000001
 20
52.053699999999999
 30
0.0
 11
55.05040000000001
 21
51.804200000000002
 31
0.0
  0
LINE
  5
1A7
  8
_________1
 62
     7
 10
51.19939999999999
 20
55.054400000000001
 30
0.0
 11
51.19939999999999
 21
54.929600000000001
 31
0.0
  0
LINE
  5
1A8
  8
_________1
 62
     7
 10
54.29999999999999
 20
55.054400000000001
 30
0.0
 11
54.29999999999999
 21
54.929600000000001
 31
0.0
  0
LINE
  5
1A9
  8
_________1
 62
     7
 10
51.32419999999999
 20
58.305199999999992
 30
0.0
 11
51.32419999999999
 21
56.304900000000004
 31
0.0
  0
LINE
  5
1AA
  8
_________1
 62
     7
 10
54.200099999999999
 20
58.305199999999992
 30
0.0
 11
54.200099999999999
 21
56.304900000000004
 31
0.0
  0
LINE
  5
1AB
  8
_________1
 62
     7
 10
51.32419999999999
 20
56.304900000000004
 30
0.0
 11
51.124299999999991
 21
55.879800000000003
 31
0.0
  0
LINE
  5
1AC
  8
_________1
 62
     7
 10
51.149799999999999
 20
58.604900000000001
 30
0.0
 11
51.32419999999999
 21
58.305199999999992
 31
0.0
  0
LINE
  5
1AD
  8
_________1
 62
     7
 10
54.200099999999999
 20
56.304900000000004
 30
0.0
 11
54.375100000000003
 21
55.879800000000003
 31
0.0
  0
LINE
  5
1AE
  8
_________1
 62
     7
 10
54.375100000000003
 20
58.604900000000001
 30
0.0
 11
54.200099999999999
 21
58.305199999999992
 31
0.0
  0
LINE
  5
1AF
  8
_________1
 62
     7
 10
55.05040000000001
 20
54.929600000000001
 30
0.0
 11
55.499600000000001
 21
54.679499999999997
 31
0.0
  0
LINE
  5
1B0
  8
_________1
 62
     7
 10
50.449100000000001
 20
54.929600000000001
 30
0.0
 11
49.999200000000002
 21
54.679499999999997
 31
0.0
  0
LINE
  5
1B1
  8
_________1
 62
     7
 10
51.0747
 20
59.555700000000002
 30
0.0
 11
51.0747
 21
58.854999999999997
 31
0.0
  0
LINE
  5
1B2
  8
_________1
 62
     7
 10
54.450299999999999
 20
59.555700000000002
 30
0.0
 11
54.450299999999999
 21
58.854999999999997
 31
0.0
  0
LINE
  5
1B3
  8
_________1
 62
     7
 10
54.450299999999999
 20
59.555700000000002
 30
0.0
 11
51.0747
 21
59.555700000000002
 31
0.0
  0
LINE
  5
1B4
  8
_________1
 62
     7
 10
54.424799999999991
 20
58.730299999999993
 30
0.0
 11
54.375100000000003
 21
58.604900000000001
 31
0.0
  0
LINE
  5
1B5
  8
_________1
 62
     7
 10
54.450299999999999
 20
58.854999999999997
 30
0.0
 11
54.424799999999991
 21
58.730299999999993
 31
0.0
  0
LINE
  5
1B6
  8
_________1
 62
     7
 10
51.0747
 20
58.730299999999993
 30
0.0
 11
51.149799999999999
 21
58.604900000000001
 31
0.0
  0
LINE
  5
1B7
  8
_________1
 62
     7
 10
51.0747
 20
58.854999999999997
 30
0.0
 11
51.0747
 21
58.730299999999993
 31
0.0
  0
LINE
  5
1B8
  8
_________1
 62
     7
 10
52.74969999999999
 20
58.305199999999992
 30
0.0
 11
51.32419999999999
 21
58.305199999999992
 31
0.0
  0
LINE
  5
1B9
  8
_________1
 62
     7
 10
54.200099999999999
 20
58.305199999999992
 30
0.0
 11
52.74969999999999
 21
58.305199999999992
 31
0.0
  0
LINE
  5
1BA
  8
_________1
 62
     7
 10
54.200099999999999
 20
56.304900000000004
 30
0.0
 11
51.32419999999999
 21
56.304900000000004
 31
0.0
  0
LINE
  5
1BB
  8
_________1
 62
     7
 10
54.0244
 20
55.080500000000001
 30
0.0
 11
53.999600000000001
 21
55.080500000000001
 31
0.0
  0
ARC
  5
1BC
  8
_________1
 62
     7
 10
51.441741999999998
 20
60.340157999999988
 30
0.0
 40
5.8595169999999994
 50
296.15294899999998
 51
297.3943680000001
  0
ARC
  5
1BD
  8
_________1
 62
     7
 10
53.71884699999999
 20
55.912263000000003
 30
0.0
 40
0.8805770000000001
 50
298.408008
 51
304.58910300000002
  0
ARC
  5
1BE
  8
_________1
 62
     7
 10
53.991031000000007
 20
55.510998000000001
 30
0.0
 40
0.395739
 50
305.12754000000001
 51
315.47510999999997
  0
ARC
  5
1BF
  8
_________1
 62
     7
 10
53.923155999999999
 20
55.552481999999998
 30
0.0
 40
0.4735630000000001
 50
317.655709
 51
336.96345200000002
  0
ARC
  5
1C0
  8
_________1
 62
     7
 10
53.273051000000002
 20
55.831997999999999
 30
0.0
 40
1.1812089999999991
 50
336.82628499999998
 51
341.37102999999991
  0
LINE
  5
1C1
  8
_________1
 62
     7
 10
54.424799999999991
 20
55.554600000000001
 30
0.0
 11
54.392400000000002
 21
55.454700000000003
 31
0.0
  0
LINE
  5
1C2
  8
_________1
 62
     7
 10
54.424799999999991
 20
55.704799999999992
 30
0.0
 11
54.424799999999991
 21
55.554600000000001
 31
0.0
  0
ARC
  5
1C3
  8
_________1
 62
     7
 10
40.776663999999997
 20
53.859679
 30
0.0
 40
13.77225
 50
7.6992449999999986
 51
8.4346169999999994
  0
LINE
  5
1C4
  8
_________1
 62
     7
 10
54.399999999999999
 20
55.879800000000003
 30
0.0
 11
54.375100000000003
 21
55.879800000000003
 31
0.0
  0
LINE
  5
1C5
  8
_________1
 62
     7
 10
51.0747
 20
55.704799999999992
 30
0.0
 11
51.124299999999991
 21
55.879800000000003
 31
0.0
  0
LINE
  5
1C6
  8
_________1
 62
     7
 10
51.0747
 20
55.554600000000001
 30
0.0
 11
51.0747
 21
55.704799999999992
 31
0.0
  0
LINE
  5
1C7
  8
_________1
 62
     7
 10
51.108499999999999
 20
55.454700000000003
 30
0.0
 11
51.0747
 21
55.554600000000001
 31
0.0
  0
ARC
  5
1C8
  8
_________1
 62
     7
 10
51.563074
 20
55.604725000000002
 30
0.0
 40
0.478712
 50
198.26702299999999
 51
211.28329299999999
  0
ARC
  5
1C9
  8
_________1
 62
     7
 10
51.75472899999999
 20
55.755256000000003
 30
0.0
 40
0.721257
 50
213.59759299999999
 51
249.305868
  0
LINE
  5
1CA
  8
_________1
 62
     7
 10
54.29999999999999
 20
55.054400000000001
 30
0.0
 11
51.19939999999999
 21
55.054400000000001
 31
0.0
  0
LINE
  5
1CB
  8
_________1
 62
     7
 10
55.05040000000001
 20
54.929600000000001
 30
0.0
 11
50.449100000000001
 21
54.929600000000001
 31
0.0
  0
LINE
  5
1CC
  8
_________1
 62
     7
 10
55.499600000000001
 20
52.053699999999999
 30
0.0
 11
55.05040000000001
 21
51.804200000000002
 31
0.0
  0
LINE
  5
1CD
  8
_________1
 62
     7
 10
49.999200000000002
 20
52.053699999999999
 30
0.0
 11
50.449100000000001
 21
51.829000000000001
 31
0.0
  0
LINE
  5
1CE
  8
_________1
 62
     7
 10
50.449100000000001
 20
51.829000000000001
 30
0.0
 11
50.449100000000001
 21
51.804200000000002
 31
0.0
  0
LINE
  5
1CF
  8
_________1
 62
     7
 10
50.1494
 20
52.003999999999998
 30
0.0
 11
50.449100000000001
 21
51.829000000000001
 31
0.0
  0
LINE
  5
1D0
  8
_________1
 62
     7
 10
52.74969999999999
 20
51.804200000000002
 30
0.0
 11
50.449100000000001
 21
51.804200000000002
 31
0.0
  0
LINE
  5
1D1
  8
_________1
 62
     7
 10
55.05040000000001
 20
51.804200000000002
 30
0.0
 11
52.74969999999999
 21
51.804200000000002
 31
0.0
  0
LINE
  5
1D2
  8
_________1
 62
     7
 10
53.999600000000001
 20
55.080500000000001
 30
0.0
 11
52.74969999999999
 21
55.080500000000001
 31
0.0
  0
LINE
  5
1D3
  8
_________1
 62
     7
 10
51.49989999999999
 20
55.080500000000001
 30
0.0
 11
52.74969999999999
 21
55.080500000000001
 31
0.0
  0
ARC
  5
1D4
  8
_________1
 62
     7
 10
52.882429000000002
 20
50.003892999999998
 30
0.0
 40
4.9125800000000002
 50
94.884434999999996
 51
107.867835
  0
ARC
  5
1D5
  8
_________1
 62
     7
 10
52.668567000000003
 20
52.422004000000001
 30
0.0
 40
2.485050999999999
 50
90.638471000000024
 51
94.718610999999996
  0
ARC
  5
1D6
  8
_________1
 62
     7
 10
52.667894999999987
 20
53.462102999999999
 30
0.0
 40
1.4450510000000001
 50
86.753081999999992
 51
91.071370999999999
  0
ARC
  5
1D7
  8
_________1
 62
     7
 10
52.858713000000002
 20
52.695169999999997
 30
0.0
 40
2.2123490000000001
 50
86.243793999999994
 51
92.823304000000022
  0
ARC
  5
1D8
  8
_________1
 62
     7
 10
52.635294999999992
 20
50.098504999999989
 30
0.0
 40
4.8183619999999996
 50
76.739108000000002
 51
85.615605000000002
  0
ARC
  5
1D9
  8
_________1
 62
     7
 10
52.868856999999991
 20
50.976506999999991
 30
0.0
 40
3.910282
 50
71.261506999999995
 51
77.119100000000003
  0
ARC
  5
1DA
  8
_________1
 62
     7
 10
55.409116000000012
 20
45.351739000000002
 30
0.0
 40
6.8238219999999989
 50
100.846388
 51
103.43262799999999
  0
ARC
  5
1DB
  8
_________1
 62
     7
 10
51.479517999999999
 20
61.708092000000001
 30
0.0
 40
9.9979610000000001
 50
281.544805
 51
283.56150200000002
  0
ARC
  5
1DC
  8
_________1
 62
     7
 10
52.722850999999999
 20
55.690091000000002
 30
0.0
 40
3.8529029999999991
 50
278.054776
 51
281.34000300000002
  0
ARC
  5
1DD
  8
_________1
 62
     7
 10
52.975425999999992
 20
53.796562999999999
 30
0.0
 40
1.9427259999999991
 50
269.96863999999999
 51
278.50416899999999
  0
LINE
  5
1DE
  8
_________1
 62
     7
 10
52.525100000000002
 20
51.8538
 30
0.0
 11
52.974400000000003
 21
51.8538
 31
0.0
  0
ARC
  5
1DF
  8
_________1
 62
     7
 10
52.558546999999997
 20
54.245614000000003
 30
0.0
 40
2.3920099999999991
 50
261.47698000000003
 51
269.19929400000001
  0
ARC
  5
1E0
  8
_________1
 62
     7
 10
53.120206000000003
 20
57.864902000000001
 30
0.0
 40
6.0545999999999989
 50
255.38869700000001
 51
261.296674
  0
ARC
  5
1E1
  8
_________1
 62
     7
 10
50.236999999999988
 20
46.318961999999992
 30
0.0
 40
5.8465429999999987
 50
76.590454000000008
 51
78.774616000000009
  0
ARC
  5
1E2
  8
_________1
 62
     7
 10
55.191558000000001
 20
52.847940999999999
 30
0.0
 40
2.1194749999999991
 50
113.485916
 51
120.212144
  0
ARC
  5
1E3
  8
_________1
 62
     7
 10
54.936137000000002
 20
53.488497999999993
 30
0.0
 40
1.430345999999999
 50
102.892518
 51
114.327787
  0
ARC
  5
1E4
  8
_________1
 62
     7
 10
54.800362
 20
54.131320000000002
 30
0.0
 40
0.773513
 50
90.006500000000003
 51
103.712998
  0
ARC
  5
1E5
  8
_________1
 62
     7
 10
54.780518000000008
 20
53.808129999999998
 30
0.0
 40
1.096881999999999
 50
72.670932999999991
 51
88.967965000000007
  0
ARC
  5
1E6
  8
_________1
 62
     7
 10
54.522190999999999
 20
53.022599
 30
0.0
 40
1.923743999999999
 50
59.463070000000002
 51
72.29495
  0
ARC
  5
1E7
  8
_________1
 62
     7
 10
53.273685
 20
57.128101999999991
 30
0.0
 40
5.5411970000000004
 50
291.34039300000001
 51
293.68506200000002
  0
ARC
  5
1E8
  8
_________1
 62
     7
 10
54.429031999999992
 20
54.153768999999997
 30
0.0
 40
2.350366999999999
 50
287.23672599999998
 51
291.49281200000001
  0
ARC
  5
1E9
  8
_________1
 62
     7
 10
54.73825999999999
 20
53.142469999999989
 30
0.0
 40
1.292864
 50
281.26374499999997
 51
287.428539
  0
ARC
  5
1EA
  8
_________1
 62
     7
 10
54.800331
 20
52.741606999999988
 30
0.0
 40
0.8877690000000001
 50
269.99634800000001
 51
282.388305
  0
ARC
  5
1EB
  8
_________1
 62
     7
 10
54.80761600000001
 20
52.632483999999998
 30
0.0
 40
0.7786810000000001
 50
258.66321899999991
 51
269.45982600000002
  0
ARC
  5
1EC
  8
_________1
 62
     7
 10
55.084150000000001
 20
53.836720999999997
 30
0.0
 40
2.0140750000000001
 50
248.506709
 51
257.684147
  0
ARC
  5
1ED
  8
_________1
 62
     7
 10
56.887065
 20
58.45601099999999
 30
0.0
 40
6.9727319999999997
 50
246.66421800000001
 51
248.629412
  0
LINE
  5
1EE
  8
_________1
 62
     7
 10
54.125
 20
54.679499999999997
 30
0.0
 11
54.125
 21
52.053699999999999
 31
0.0
  0
LINE
  5
1EF
  8
_________1
 62
     7
 10
55.499600000000001
 20
54.679499999999997
 30
0.0
 11
55.499600000000001
 21
52.053699999999999
 31
0.0
  0
ARC
  5
1F0
  8
_________1
 62
     7
 10
50.957307
 20
53.066398
 30
0.0
 40
1.8762249999999989
 50
112.421054
 51
120.709022
  0
ARC
  5
1F1
  8
_________1
 62
     7
 10
50.772536999999993
 20
53.577660999999999
 30
0.0
 40
1.333356999999999
 50
101.518749
 51
113.46094100000001
  0
ARC
  5
1F2
  8
_________1
 62
     7
 10
50.69939699999999
 20
53.992395999999999
 30
0.0
 40
0.912438
 50
90.011954999999986
 51
102.219031
  0
ARC
  5
1F3
  8
_________1
 62
     7
 10
50.705393000000001
 20
54.112305000000013
 30
0.0
 40
0.792553
 50
83.659904999999995
 51
90.447181
  0
ARC
  5
1F4
  8
_________1
 62
     7
 10
50.616604000000002
 20
53.555480000000003
 30
0.0
 40
1.3560410000000001
 50
55.987456000000002
 51
82.529353
  0
ARC
  5
1F5
  8
_________1
 62
     7
 10
50.195766999999996
 20
54.387146999999999
 30
0.0
 40
2.614593999999999
 50
291.98634900000008
 51
296.81253700000002
  0
ARC
  5
1F6
  8
_________1
 62
     7
 10
50.556604999999998
 20
53.447544999999998
 30
0.0
 40
1.608325999999999
 50
282.14189800000003
 51
292.59830599999998
  0
ARC
  5
1F7
  8
_________1
 62
     7
 10
50.69715999999999
 20
52.779619999999987
 30
0.0
 40
0.9257839999999999
 50
270.1266700000001
 51
282.33225599999997
  0
ARC
  5
1F8
  8
_________1
 62
     7
 10
50.707338
 20
52.815891000000001
 30
0.0
 40
0.962087
 50
259.13071200000002
 51
269.51579500000003
  0
ARC
  5
1F9
  8
_________1
 62
     7
 10
50.908237
 20
53.715364000000001
 30
0.0
 40
1.8835099999999989
 50
248.74746200000001
 51
258.28858700000001
  0
ARC
  5
1FA
  8
_________1
 62
     7
 10
53.299556999999993
 20
59.705356999999992
 30
0.0
 40
8.3331359999999997
 50
246.66809699999999
 51
248.352521
  0
LINE
  5
1FB
  8
_________1
 62
     7
 10
51.375100000000003
 20
54.679499999999997
 30
0.0
 11
51.375100000000003
 21
52.053699999999999
 31
0.0
  0
LINE
  5
1FC
  8
_________1
 62
     7
 10
49.999200000000002
 20
54.679499999999997
 30
0.0
 11
49.999200000000002
 21
52.053699999999999
 31
0.0
  0
LINE
  5
1FD
  8
_________1
  6
AIGENLINE001
 62
     7
 10
64.634699999999995
 20
72.343999999999994
 30
0.0
 11
64.634699999999995
 21
98.223699999999994
 31
0.0
  0
LINE
  5
1FE
  8
_________1
 62
     7
 10
65.947299999999998
 20
75.716099999999983
 30
0.0
 11
65.947299999999998
 21
82.939800000000005
 31
0.0
  0
LINE
  5
1FF
  8
_________1
 62
     7
 10
63.322099999999992
 20
75.716099999999983
 30
0.0
 11
63.322099999999992
 21
86.440099999999987
 31
0.0
  0
LINE
  5
200
  8
_________1
  6
AIGENLINE001
 62
     7
 10
52.752499999999991
 20
86.283999999999992
 30
0.0
 11
52.752499999999991
 21
50.592199999999991
 31
0.0
  0
LINE
  5
201
  8
_________1
 62
     7
 10
54.065100000000001
 20
82.614900000000006
 30
0.0
 11
54.065100000000001
 21
59.555700000000002
 31
0.0
  0
LINE
  5
202
  8
_________1
 62
     7
 10
51.439900000000002
 20
59.555700000000002
 30
0.0
 11
51.439900000000002
 21
82.614900000000006
 31
0.0
  0
LINE
  5
203
  8
_________1
  6
AIGENLINE001
 62
     7
 10
64.634699999999995
 20
72.343999999999994
 30
0.0
 11
52.752499999999991
 21
86.283999999999992
 31
0.0
  0
LINE
  5
204
  8
_________1
  6
AIGENLINE001
 62
     7
 10
66.884699999999995
 20
101.93600000000001
 30
0.0
 11
66.884699999999995
 21
77.235399999999984
 31
0.0
  0
LINE
  5
205
  8
_________1
 62
     7
 10
60.384099999999989
 20
87.689899999999994
 30
0.0
 11
73.384600000000006
 21
87.689899999999994
 31
0.0
  0
LINE
  5
206
  8
_________1
 62
     7
 10
60.384099999999989
 20
88.190200000000004
 30
0.0
 11
73.384600000000006
 21
88.190200000000004
 31
0.0
  0
LINE
  5
207
  8
_________1
 62
     7
 10
60.384099999999989
 20
88.190200000000004
 30
0.0
 11
60.384099999999989
 21
87.689899999999994
 31
0.0
  0
LINE
  5
208
  8
_________1
 62
     7
 10
73.384600000000006
 20
88.190200000000004
 30
0.0
 11
73.384600000000006
 21
87.689899999999994
 31
0.0
  0
LINE
  5
209
  8
_________1
 62
     7
 10
60.384099999999989
 20
86.440099999999987
 30
0.0
 11
73.384600000000006
 21
86.440099999999987
 31
0.0
  0
LINE
  5
20A
  8
_________1
 62
     7
 10
60.384099999999989
 20
87.689899999999994
 30
0.0
 11
60.384099999999989
 21
86.440099999999987
 31
0.0
  0
LINE
  5
20B
  8
_________1
 62
     7
 10
73.384600000000006
 20
87.689899999999994
 30
0.0
 11
73.384600000000006
 21
86.440099999999987
 31
0.0
  0
LINE
  5
20C
  8
_________1
 62
     7
 10
61.634700000000002
 20
87.689899999999994
 30
0.0
 11
61.634700000000002
 21
86.440099999999987
 31
0.0
  0
LINE
  5
20D
  8
_________1
 62
     7
 10
72.134699999999995
 20
87.689899999999994
 30
0.0
 11
72.134699999999995
 21
86.440099999999987
 31
0.0
  0
LINE
  5
20E
  8
_________1
 62
     7
 10
65.134600000000006
 20
87.689899999999994
 30
0.0
 11
65.134600000000006
 21
86.440099999999987
 31
0.0
  0
LINE
  5
20F
  8
_________1
 62
     7
 10
68.634799999999998
 20
87.689899999999994
 30
0.0
 11
68.634799999999998
 21
86.440099999999987
 31
0.0
  0
LINE
  5
210
  8
_________1
 62
     7
 10
65.369200000000006
 20
85.939800000000005
 30
0.0
 11
65.369200000000006
 21
82.939800000000005
 31
0.0
  0
LINE
  5
211
  8
_________1
 62
     7
 10
68.400199999999984
 20
85.939800000000005
 30
0.0
 11
68.400199999999984
 21
82.939800000000005
 31
0.0
  0
LINE
  5
212
  8
_________1
 62
     7
 10
65.384699999999995
 20
89.189999999999998
 30
0.0
 11
65.384699999999995
 21
88.190200000000004
 31
0.0
  0
LINE
  5
213
  8
_________1
 62
     7
 10
68.384699999999995
 20
89.189999999999998
 30
0.0
 11
68.384699999999995
 21
88.190200000000004
 31
0.0
  0
LINE
  5
214
  8
_________1
 62
     7
 10
65.134600000000006
 20
85.939800000000005
 30
0.0
 11
68.634799999999998
 21
85.939800000000005
 31
0.0
  0
LINE
  5
215
  8
_________1
 62
     7
 10
65.134600000000006
 20
85.939800000000005
 30
0.0
 11
68.634799999999998
 21
85.939800000000005
 31
0.0
  0
LINE
  5
216
  8
_________1
 62
     7
 10
65.369200000000006
 20
82.939800000000005
 30
0.0
 11
68.400199999999984
 21
82.939800000000005
 31
0.0
  0
LINE
  5
217
  8
_________1
 62
     7
 10
68.634799999999998
 20
85.939800000000005
 30
0.0
 11
69.384500000000003
 21
86.440099999999987
 31
0.0
  0
LINE
  5
218
  8
_________1
 62
     7
 10
64.384600000000006
 20
86.440099999999987
 30
0.0
 11
65.134600000000006
 21
85.939800000000005
 31
0.0
  0
LINE
  5
219
  8
_________1
 62
     7
 10
66.884699999999995
 20
85.939800000000005
 30
0.0
 11
66.884699999999995
 21
82.939800000000005
 31
0.0
  0
LINE
  5
21A
  8
_________1
 62
     7
 10
65.384699999999995
 20
89.189999999999998
 30
0.0
 11
68.384699999999995
 21
89.189999999999998
 31
0.0
  0
LINE
  5
21B
  8
_________1
 62
     7
 10
-40.475999999999999
 20
75.716399999999993
 30
0.0
 11
-40.475999999999999
 21
86.439700000000016
 31
0.0
  0
LINE
  5
21C
  8
_________1
 62
     7
 10
-37.851199999999999
 20
75.716399999999993
 30
0.0
 11
-37.851199999999999
 21
86.439700000000016
 31
0.0
  0
LINE
  5
21D
  8
_________1
 62
     7
 10
-37.851199999999999
 20
88.190200000000004
 30
0.0
 11
-37.851199999999999
 21
95.689899999999994
 31
0.0
  0
LINE
  5
21E
  8
_________1
 62
     7
 10
-40.475999999999999
 20
88.189800000000005
 30
0.0
 11
-40.475999999999999
 21
95.689899999999994
 31
0.0
  0
LINE
  5
21F
  8
_________1
 62
     7
 10
-24.601400000000002
 20
116.19
 30
0.0
 11
-25.351400000000002
 21
116.19
 31
0.0
  0
LINE
  5
220
  8
_________1
 62
     7
 10
-25.351400000000002
 20
116.19
 30
0.0
 11
-25.351400000000002
 21
120.19
 31
0.0
  0
LINE
  5
221
  8
_________1
 62
     7
 10
-25.351400000000002
 20
120.19
 30
0.0
 11
-24.601400000000002
 21
120.19
 31
0.0
  0
LINE
  5
222
  8
_________1
 62
     7
 10
-24.601400000000002
 20
120.19
 30
0.0
 11
-24.601400000000002
 21
116.19
 31
0.0
  0
LINE
  5
223
  8
_________1
 62
     7
 10
25.334900000000001
 20
141.94
 30
0.0
 11
36.672800000000002
 21
141.94
 31
0.0
  0
ARC
  5
224
  8
_________1
 62
     7
 10
-35.689976999999999
 20
251.03516999999999
 30
0.0
 40
28.616804999999999
 50
270.17129899999998
 51
310.559484
  0
ARC
  5
225
  8
_________1
 62
     7
 10
-35.500826000000004
 20
251.06403800000001
 30
0.0
 40
28.645733
 50
229.46067700000009
 51
269.79279400000001
  0
ARC
  5
226
  8
_________1
 62
     7
 10
-21.788858000000001
 20
250.85522800000001
 30
0.0
 40
1.6884410000000001
 50
272.11207000000002
 51
357.881866
  0
ARC
  5
227
  8
_________1
 62
     7
 10
-21.664628
 20
250.85464899999999
 30
0.0
 40
1.687854999999999
 50
182.09921900000001
 51
267.89473599999991
  0
ARC
  5
228
  8
_________1
 62
     7
 10
-21.664290999999999
 20
250.73084
 30
0.0
 40
1.6881959999999989
 50
92.116262000000006
 51
177.89585600000001
  0
ARC
  5
229
  8
_________1
 62
     7
 10
-21.788625
 20
250.73083
 30
0.0
 40
1.688194
 50
2.104468999999999
 51
87.895520999999988
  0
LINE
  5
22A
  8
_________1
 62
     7
 10
-32.851599999999998
 20
245.29300000000001
 30
0.0
 11
-26.351400000000002
 21
245.29300000000001
 31
0.0
  0
LINE
  5
22B
  8
_________1
 62
     7
 10
-25.851500000000001
 20
245.29300000000001
 30
0.0
 11
-18.101299999999998
 21
245.29300000000001
 31
0.0
  0
LINE
  5
22C
  8
_________1
 62
     7
 10
-35.601500000000001
 20
256.29300000000001
 30
0.0
 11
-26.351400000000002
 21
256.29300000000001
 31
0.0
  0
LINE
  5
22D
  8
_________1
 62
     7
 10
-25.851500000000001
 20
256.29300000000001
 30
0.0
 11
-18.101299999999998
 21
256.29300000000001
 31
0.0
  0
ARC
  5
22E
  8
_________1
 62
     7
 10
-35.481977999999998
 20
250.86105900000001
 30
0.0
 40
5.620063
 50
180.695685
 51
239.29440600000001
  0
ARC
  5
22F
  8
_________1
 62
     7
 10
-35.601496000000012
 20
250.792823
 30
0.0
 40
5.5001309999999988
 50
90.0
 51
179.99996999999999
  0
ARC
  5
230
  8
_________1
 62
     7
 10
-35.601497999999999
 20
250.792823
 30
0.0
 40
5.5001309999999988
 50
0.00001
 51
89.999980000000008
  0
ARC
  5
231
  8
_________1
 62
     7
 10
-35.714096000000012
 20
250.85709700000001
 30
0.0
 40
5.6130969999999989
 50
300.661609
 51
359.34391699999998
  0
ARC
  5
232
  8
_________1
 62
     7
 10
-35.633215999999997
 20
250.83342099999999
 30
0.0
 40
7.551391999999999
 50
291.90707099999997
 51
312.79757300000011
  0
ARC
  5
233
  8
_________1
 62
     7
 10
-35.407330999999999
 20
250.922718
 30
0.0
 40
7.695282999999999
 50
180.967206
 51
247.503671
  0
ARC
  5
234
  8
_________1
 62
     7
 10
-35.601410000000001
 20
250.79290800000001
 30
0.0
 40
7.5001079999999991
 50
90.000657999999987
 51
180.00066799999999
  0
ARC
  5
235
  8
_________1
 62
     7
 10
-35.631785999999998
 20
250.71564100000001
 30
0.0
 40
7.5774359999999987
 50
47.39919699999998
 51
89.770968000000011
  0
INSERT
  5
236
  8
_________1
 62
     7
  2
AIGNBL02010003
 10
0.0
 20
0.0
 30
0.0
  0
INSERT
  5
237
  8
_________1
 62
     7
  2
AIGNBL02010004
 10
0.0
 20
0.0
 30
0.0
  0
ARC
  5
238
  8
_________1
 62
     7
 10
-26.349429000000001
 20
250.764903
 30
0.0
 40
5.1530500000000004
 50
84.454637000000005
 51
90.021433000000016
  0
ARC
  5
239
  8
_________1
 62
     7
 10
-26.349429000000001
 20
250.82091600000001
 30
0.0
 40
5.1530500000000004
 50
269.978567
 51
275.54536300000001
  0
ARC
  5
23A
  8
_________1
 62
     7
 10
-26.349429000000001
 20
116.161587
 30
0.0
 40
5.1530500000000004
 50
84.454637000000005
 51
90.021433000000016
  0
ARC
  5
23B
  8
_________1
 62
     7
 10
-26.350674999999999
 20
116.19421199999999
 30
0.0
 40
5.1294889999999986
 50
269.99238500000001
 51
299.50552299999998
  0
ARC
  5
23C
  8
_________1
 62
     7
 10
-24.601583000000002
 20
122.939699
 30
0.0
 40
1.250232999999999
 50
270.00002000000001
 51
359.99999000000003
  0
ARC
  5
23D
  8
_________1
 62
     7
 10
-18.851337000000001
 20
122.93969800000001
 30
0.0
 40
1.250232999999999
 50
179.99996999999999
 51
270.00002000000001
  0
ARC
  5
23E
  8
_________1
 62
     7
 10
-28.851479000000001
 20
122.93969800000001
 30
0.0
 40
1.250232999999999
 50
179.99996999999999
 51
270.00002000000001
  0
ARC
  5
23F
  8
_________1
 62
     7
 10
-28.851651
 20
109.43949000000001
 30
0.0
 40
1.2500610000000001
 50
89.992105000000009
 51
179.992075
  0
ARC
  5
240
  8
_________1
 62
     7
 10
44.384999999999998
 20
152.939775
 30
0.0
 40
25.250302000000001
 50
90.0
 51
179.99996999999999
  0
ARC
  5
241
  8
_________1
 62
     7
 10
44.384819
 20
152.93994799999999
 30
0.0
 40
25.250129999999999
 50
359.999619
 51
89.999589000000014
  0
ARC
  5
242
  8
_________1
 62
     7
 10
44.384655000000002
 20
152.93977599999999
 30
0.0
 40
19.750171999999999
 50
90.0
 51
179.99996999999999
  0
ARC
  5
243
  8
_________1
 62
     7
 10
44.384647999999999
 20
152.93977599999999
 30
0.0
 40
19.750171999999999
 50
0.00001
 51
89.999980000000008
  0
ARC
  5
244
  8
_________1
  6
AIGENLINE001
 62
     7
 10
44.384741999999989
 20
152.93986200000001
 30
0.0
 40
22.500150999999999
 50
90.000219000000001
 51
180.00022899999999
  0
ARC
  5
245
  8
_________1
  6
AIGENLINE001
 62
     7
 10
44.384734000000002
 20
152.93969000000001
 30
0.0
 40
22.500323000000002
 50
0.000229
 51
90.000198999999995
  0
LINE
  5
246
  8
_________1
 62
     7
 10
-38.351399999999998
 20
250.79300000000001
 30
0.0
 11
-38.351399999999998
 21
205.79300000000001
 31
0.0
  0
LINE
  5
247
  8
_________1
 62
     7
 10
-32.851599999999998
 20
250.79300000000001
 30
0.0
 11
-32.851599999999998
 21
205.79300000000001
 31
0.0
  0
ARC
  5
248
  8
_________1
 62
     7
 10
-35.60158400000001
 20
205.79261600000001
 30
0.0
 40
2.7499790000000002
 50
270.00181400000002
 51
0.001785
  0
ARC
  5
249
  8
_________1
 62
     7
 10
-35.601412000000003
 20
205.79261500000001
 30
0.0
 40
2.749978
 50
179.998176
 51
269.99822499999999
  0
ARC
  5
24A
  8
_________1
 62
     7
 10
-35.601410999999999
 20
250.79290900000001
 30
0.0
 40
2.7499790000000002
 50
90.001793999999975
 51
180.00180399999999
  0
ARC
  5
24B
  8
_________1
 62
     7
 10
-35.60158400000001
 20
250.79290900000001
 30
0.0
 40
2.7499790000000002
 50
359.99821500000002
 51
89.998186000000004
  0
LINE
  5
24C
  8
_________1
 62
     7
 10
-38.351399999999998
 20
175.44
 30
0.0
 11
-38.351399999999998
 21
130.19
 31
0.0
  0
LINE
  5
24D
  8
_________1
 62
     7
 10
-32.851599999999998
 20
175.44
 30
0.0
 11
-32.851599999999998
 21
130.19
 31
0.0
  0
LINE
  5
24E
  8
_________1
  6
AIGENLINE001
 62
     7
 10
-21.726600000000001
 20
253.08600000000001
 30
0.0
 11
-21.726600000000001
 21
248.43299999999999
 31
0.0
  0
LINE
  5
24F
  8
_________1
 62
     7
 10
-26.351400000000002
 20
256.29300000000001
 30
0.0
 11
-26.351400000000002
 21
245.29300000000001
 31
0.0
  0
LINE
  5
250
  8
_________1
 62
     7
 10
-25.851500000000001
 20
256.29300000000001
 30
0.0
 11
-25.851500000000001
 21
245.29300000000001
 31
0.0
  0
LINE
  5
251
  8
_________1
 62
     7
 10
-18.101299999999998
 20
256.29300000000001
 30
0.0
 11
-18.101299999999998
 21
245.29300000000001
 31
0.0
  0
LINE
  5
252
  8
_________1
  6
AIGENLINE001
 62
     7
 10
-21.726600000000001
 20
140.00700000000001
 30
0.0
 11
-21.726600000000001
 21
116.19
 31
0.0
  0
LINE
  5
253
  8
_________1
 62
     7
 10
-23.351299999999998
 20
138.44
 30
0.0
 11
-23.351299999999998
 21
122.94
 31
0.0
  0
LINE
  5
254
  8
_________1
 62
     7
 10
-20.101600000000001
 20
138.44
 30
0.0
 11
-20.101600000000001
 21
122.94
 31
0.0
  0
LINE
  5
255
  8
_________1
 62
     7
 10
-23.351299999999998
 20
123.44
 30
0.0
 11
-20.101600000000001
 21
123.44
 31
0.0
  0
ARC
  5
256
  8
_________1
 62
     7
 10
-35.601410999999999
 20
175.440099
 30
0.0
 40
2.7499790000000002
 50
90.001793999999975
 51
180.00180399999999
  0
ARC
  5
257
  8
_________1
 62
     7
 10
-35.60158400000001
 20
175.440099
 30
0.0
 40
2.7499790000000002
 50
359.99821500000002
 51
89.998186000000004
  0
ARC
  5
258
  8
_________1
 62
     7
 10
-42.351515999999997
 20
98.439402999999984
 30
0.0
 40
1.249889
 50
270.00002000000001
 51
359.99999000000003
  0
INSERT
  5
259
  8
_________1
 62
     7
  2
AIGNBL02010005
 10
0.0
 20
0.0
 30
0.0
  0
INSERT
  5
25A
  8
_________1
 62
     7
  2
AIGNBL02010006
 10
0.0
 20
0.0
 30
0.0
  0
INSERT
  5
25B
  8
_________1
 62
     7
  2
AIGNBL02010007
 10
0.0
 20
0.0
 30
0.0
  0
LINE
  5
25C
  8
_________1
 62
     7
 10
-20.101600000000001
 20
144.77199999999999
 30
0.0
 11
-20.101600000000001
 21
139.13999999999999
 31
0.0
  0
LINE
  5
25D
  8
_________1
 62
     7
 10
-11.8515
 20
157.76300000000001
 30
0.0
 11
-11.8515
 21
134.119
 31
0.0
  0
LINE
  5
25E
  8
_________1
  6
AIGENLINE001
 62
     7
 10
-35.601500000000001
 20
260.33300000000003
 30
0.0
 11
-35.601500000000001
 21
199.785
 31
0.0
  0
LINE
  5
25F
  8
_________1
  6
AIGENLINE001
 62
     7
 10
-35.601500000000001
 20
180.00700000000001
 30
0.0
 11
-35.601500000000001
 21
107.40900000000001
 31
0.0
  0
LINE
  5
260
  8
_________1
  6
AIGENLINE001
 62
     7
 10
-39.163699999999999
 20
97.984300000000005
 30
0.0
 11
-39.163699999999999
 21
72.269900000000007
 31
0.0
  0
LINE
  5
261
  8
_________1
  6
AIGENLINE001
 62
     7
 10
-35.601500000000001
 20
101.93600000000001
 30
0.0
 11
-35.601500000000001
 21
84.333399999999983
 31
0.0
  0
LINE
  5
262
  8
_________1
 62
     7
 10
-25.851500000000001
 20
116.19
 30
0.0
 11
-23.351299999999998
 21
110.69
 31
0.0
  0
LINE
  5
263
  8
_________1
 62
     7
 10
-25.851500000000001
 20
121.68899999999999
 30
0.0
 11
-25.851500000000001
 21
116.19
 31
0.0
  0
LINE
  5
264
  8
_________1
 62
     7
 10
-26.351400000000002
 20
121.68899999999999
 30
0.0
 11
-26.351400000000002
 21
110.69
 31
0.0
  0
LINE
  5
265
  8
_________1
 62
     7
 10
-18.101299999999998
 20
121.68899999999999
 30
0.0
 11
-18.101299999999998
 21
110.69
 31
0.0
  0
LINE
  5
266
  8
_________1
 62
     7
 10
-41.101599999999991
 20
130.19
 30
0.0
 11
-41.101599999999991
 21
98.439400000000006
 31
0.0
  0
ARC
  5
267
  8
_________1
 62
     7
 10
-28.851652000000001
 20
98.439575000000005
 30
0.0
 40
1.2500610000000001
 50
180.00790499999999
 51
270.00791500000003
  0
LINE
  5
268
  8
_________1
 62
     7
 10
-30.101700000000001
 20
130.19
 30
0.0
 11
-30.101700000000001
 21
122.94
 31
0.0
  0
LINE
  5
269
  8
_________1
 62
     7
 10
-30.101700000000001
 20
109.44
 30
0.0
 11
-30.101700000000001
 21
98.439400000000006
 31
0.0
  0
LINE
  5
26A
  8
_________1
 62
     7
 10
-28.101500000000001
 20
97.189499999999995
 30
0.0
 11
-28.101500000000001
 21
95.689499999999995
 31
0.0
  0
LINE
  5
26B
  8
_________1
 62
     7
 10
-43.101500000000001
 20
97.189499999999995
 30
0.0
 11
-43.101500000000001
 21
95.689499999999995
 31
0.0
  0
LINE
  5
26C
  8
_________1
 62
     7
 10
-23.351299999999998
 20
138.44
 30
0.0
 11
-20.101600000000001
 21
138.44
 31
0.0
  0
LINE
  5
26D
  8
_________1
 62
     7
 10
-28.851500000000001
 20
110.69
 30
0.0
 11
-26.351400000000002
 21
110.69
 31
0.0
  0
LINE
  5
26E
  8
_________1
 62
     7
 10
-23.351299999999998
 20
110.69
 30
0.0
 11
-18.101299999999998
 21
110.69
 31
0.0
  0
LINE
  5
26F
  8
_________1
 62
     7
 10
-28.851500000000001
 20
121.68899999999999
 30
0.0
 11
-26.351400000000002
 21
121.68899999999999
 31
0.0
  0
LINE
  5
270
  8
_________1
 62
     7
 10
-25.851500000000001
 20
121.68899999999999
 30
0.0
 11
-24.601600000000001
 21
121.68899999999999
 31
0.0
  0
LINE
  5
271
  8
_________1
 62
     7
 10
-18.851299999999998
 20
121.68899999999999
 30
0.0
 11
-18.101299999999998
 21
121.68899999999999
 31
0.0
  0
LINE
  5
272
  8
_________1
 62
     7
 10
-41.101599999999991
 20
124.68899999999999
 30
0.0
 11
-30.101700000000001
 21
124.68899999999999
 31
0.0
  0
LINE
  5
273
  8
_________1
 62
     7
 10
61.384900000000002
 20
124.68899999999999
 30
0.0
 11
65.260000000000005
 21
124.68899999999999
 31
0.0
  0
LINE
  5
274
  8
_________1
 62
     7
 10
68.510099999999994
 20
124.68899999999999
 30
0.0
 11
72.385199999999998
 21
124.68899999999999
 31
0.0
  0
LINE
  5
275
  8
_________1
 62
     7
 10
-41.101599999999991
 20
130.19
 30
0.0
 11
-30.101700000000001
 21
130.19
 31
0.0
  0
LINE
  5
276
  8
_________1
  6
AIGENLINE001
 62
     7
 10
-45.271299999999989
 20
250.79300000000001
 30
0.0
 11
-16.485600000000002
 21
250.79300000000001
 31
0.0
  0
LINE
  5
277
  8
_________1
  6
AIGENLINE001
 62
     7
 10
-35.601500000000001
 20
116.19
 30
0.0
 11
-16.644400000000001
 21
116.19
 31
0.0
  0
LINE
  5
278
  8
_________1
 62
     7
 10
-41.101599999999991
 20
98.689499999999995
 30
0.0
 11
-30.101700000000001
 21
98.689499999999995
 31
0.0
  0
LINE
  5
279
  8
_________1
 62
     7
 10
-43.101500000000001
 20
97.189499999999995
 30
0.0
 11
-28.101500000000001
 21
97.189499999999995
 31
0.0
  0
INSERT
  5
27A
  8
_________1
 62
     7
  2
AIGNBL02010008
 10
0.0
 20
0.0
 30
0.0
  0
LINE
  5
27B
  8
_________1
 62
     7
 10
35.2727
 20
95.689499999999995
 30
0.0
 11
58.685000000000002
 21
95.689499999999995
 31
0.0
  0
LINE
  5
27C
  8
_________1
 62
     7
 10
75.085099999999997
 20
95.689499999999995
 30
0.0
 11
98.835899999999995
 21
95.689499999999995
 31
0.0
  0
LINE
  5
27D
  8
_________1
 62
     7
 10
83.947699999999983
 20
131.268
 30
0.0
 11
98.835899999999995
 21
131.268
 31
0.0
  0
INSERT
  5
27E
  8
_________1
 62
     7
  2
AIGNBL02010009
 10
0.0
 20
0.0
 30
0.0
  0
INSERT
  5
27F
  8
_________1
 62
     7
  2
AIGNBL0201000A
 10
0.0
 20
0.0
 30
0.0
  0
INSERT
  5
280
  8
_________1
 62
     7
  2
AIGNBL0201000B
 10
0.0
 20
0.0
 30
0.0
  0
INSERT
  5
281
  8
_________1
 62
     7
  2
AIGNBL0201000C
 10
0.0
 20
0.0
 30
0.0
  0
INSERT
  5
282
  8
_________1
 62
     7
  2
AIGNBL0201000D
 10
0.0
 20
0.0
 30
0.0
  0
LINE
  5
283
  8
_________1
 62
     7
 10
-15.9443
 20
116.19
 30
0.0
 11
-6.2397999999999989
 21
116.19
 31
0.0
  0
LINE
  5
284
  8
_________1
 62
     7
 10
-12.5616
 20
134.44
 30
0.0
 11
1.9895599999999991
 21
134.44
 31
0.0
  0
INSERT
  5
285
  8
_________1
 62
     7
  2
AIGNBL0201000E
 10
0.0
 20
0.0
 30
0.0
  0
LINE
  5
286
  8
_________1
 62
     7
 10
-55.078800000000001
 20
178.19
 30
0.0
 11
-37.439799999999998
 21
178.19
 31
0.0
  0
LINE
  5
287
  8
_________1
 62
     7
 10
-55.078800000000001
 20
95.689499999999995
 30
0.0
 11
-43.801600000000001
 21
95.689499999999995
 31
0.0
  0
LINE
  5
288
  8
_________1
 62
     7
 10
-27.401399999999999
 20
95.689499999999995
 30
0.0
 11
1.9895599999999991
 21
95.689499999999995
 31
0.0
  0
LINE
  5
289
  8
_________1
 62
     7
 10
-43.101500000000001
 20
95.689499999999995
 30
0.0
 11
-28.101500000000001
 21
95.689499999999995
 31
0.0
  0
LINE
  5
28A
  8
_________1
 62
     7
 10
64.134799999999984
 20
152.94
 30
0.0
 11
64.134799999999984
 21
130.19
 31
0.0
  0
LINE
  5
28B
  8
_________1
 62
     7
 10
69.634900000000002
 20
152.94
 30
0.0
 11
69.634900000000002
 21
130.19
 31
0.0
  0
LINE
  5
28C
  8
_________1
  6
AIGENLINE001
 62
     7
 10
21.884599999999999
 20
152.94
 30
0.0
 11
21.884599999999999
 21
138.983
 31
0.0
  0
LINE
  5
28D
  8
_________1
 62
     7
 10
19.134699999999999
 20
152.94
 30
0.0
 11
19.134699999999999
 21
141.94
 31
0.0
  0
LINE
  5
28E
  8
_________1
 62
     7
 10
24.634799999999998
 20
152.94
 30
0.0
 11
24.634799999999998
 21
141.94
 31
0.0
  0
LINE
  5
28F
  8
_________1
  6
AIGENLINE002
 62
     7
 10
72.484800000000007
 20
119.123
 30
0.0
 11
84.377300000000005
 21
130.036
 31
0.0
  0
LINE
  5
290
  8
_________1
  6
AIGENLINE002
 62
     7
 10
84.377300000000005
 20
130.036
 30
0.0
 11
82.180000000000007
 21
132.43100000000001
 31
0.0
  0
LINE
  5
291
  8
_________1
  6
AIGENLINE002
 62
     7
 10
82.180000000000007
 20
132.43100000000001
 30
0.0
 11
70.287499999999994
 21
121.517
 31
0.0
  0
LINE
  5
292
  8
_________1
  6
AIGENLINE002
 62
     7
 10
73.325699999999998
 20
119.895
 30
0.0
 11
71.128100000000003
 21
122.289
 31
0.0
  0
LINE
  5
293
  8
_________1
  6
AIGENLINE001
 62
     7
 10
84.195700000000002
 20
132.07499999999999
 30
0.0
 11
66.885099999999994
 21
116.18899999999999
 31
0.0
  0
LINE
  5
294
  8
_________1
  6
AIGENLINE002
 62
     7
 10
61.285400000000003
 20
119.123
 30
0.0
 11
49.392800000000001
 21
130.036
 31
0.0
  0
LINE
  5
295
  8
_________1
  6
AIGENLINE002
 62
     7
 10
49.392800000000001
 20
130.036
 30
0.0
 11
51.590499999999999
 21
132.43100000000001
 31
0.0
  0
LINE
  5
296
  8
_________1
  6
AIGENLINE002
 62
     7
 10
51.590499999999999
 20
132.43100000000001
 30
0.0
 11
63.482999999999997
 21
121.517
 31
0.0
  0
LINE
  5
297
  8
_________1
  6
AIGENLINE002
 62
     7
 10
60.444800000000001
 20
119.895
 30
0.0
 11
62.642099999999999
 21
122.289
 31
0.0
  0
ARC
  5
298
  8
_________1
 62
     7
 10
69.789454000000006
 20
122.316906
 30
0.0
 40
1.279466999999999
 50
180.821484
 51
244.04418000000001
  0
ARC
  5
299
  8
_________1
 62
     7
 10
63.980658999999989
 20
122.316906
 30
0.0
 40
1.279466999999999
 50
295.95585799999998
 51
359.178517
  0
ARC
  5
29A
  8
_________1
 62
     7
 10
66.885056000000006
 20
116.18968099999999
 30
0.0
 40
5.5001309999999988
 50
270.00002000000001
 51
359.99999000000003
  0
ARC
  5
29B
  8
_________1
 62
     7
 10
66.885056000000006
 20
116.189679
 30
0.0
 40
5.5001290000000003
 50
179.99996999999999
 51
270.00002000000001
  0
ARC
  5
29C
  8
_________1
 62
     7
 10
66.884885999999995
 20
116.18950700000001
 30
0.0
 40
5.4999580000000003
 50
89.998206000000025
 51
179.998176
  0
ARC
  5
29D
  8
_________1
 62
     7
 10
66.885227999999998
 20
116.18950700000001
 30
0.0
 40
5.4999580000000003
 50
0.001804
 51
90.001774999999995
  0
ARC
  5
29E
  8
_________1
 62
     7
 10
60.135038000000002
 20
98.439402999999984
 30
0.0
 40
1.249889
 50
270.00002000000001
 51
359.99999000000003
  0
LINE
  5
29F
  8
_________1
  6
AIGENLINE001
 62
     7
 10
49.5747
 20
132.07499999999999
 30
0.0
 11
66.885099999999994
 21
116.18899999999999
 31
0.0
  0
LINE
  5
2A0
  8
_________1
  6
AIGENLINE002
 62
     7
 10
91.885199999999998
 20
197.37100000000001
 30
0.0
 11
91.885199999999998
 21
41.967399999999998
 31
0.0
  0
LINE
  5
2A1
  8
_________1
 62
     7
 10
66.885099999999994
 20
176.32599999999999
 30
0.0
 11
66.885099999999994
 21
156.73500000000001
 31
0.0
  0
LINE
  5
2A2
  8
_________1
  6
AIGENLINE001
 62
     7
 10
66.885099999999994
 20
152.94
 30
0.0
 11
66.885099999999994
 21
108.093
 31
0.0
  0
LINE
  5
2A3
  8
_________1
 62
     7
 10
65.260000000000005
 20
138.44
 30
0.0
 11
65.260000000000005
 21
122.29900000000001
 31
0.0
  0
LINE
  5
2A4
  8
_________1
 62
     7
 10
68.510099999999994
 20
138.44
 30
0.0
 11
68.510099999999994
 21
122.29900000000001
 31
0.0
  0
LINE
  5
2A5
  8
_________1
 62
     7
 10
49.384900000000002
 20
141.55099999999999
 30
0.0
 11
49.384900000000002
 21
130.73599999999999
 31
0.0
  0
INSERT
  5
2A6
  8
_________1
 62
     7
  2
AIGNBL0201000F
 10
0.0
 20
0.0
 30
0.0
  0
LINE
  5
2A7
  8
_________1
 62
     7
 10
59.384999999999998
 20
104.158
 30
0.0
 11
59.384999999999998
 21
97.889600000000016
 31
0.0
  0
LINE
  5
2A8
  8
_________1
 62
     7
 10
74.385099999999994
 20
104.158
 30
0.0
 11
74.385099999999994
 21
97.889600000000016
 31
0.0
  0
LINE
  5
2A9
  8
_________1
 62
     7
 10
84.385199999999998
 20
141.55099999999999
 30
0.0
 11
84.385199999999998
 21
130.73599999999999
 31
0.0
  0
LINE
  5
2AA
  8
_________1
 62
     7
 10
61.384900000000002
 20
130.19
 30
0.0
 11
61.384900000000002
 21
98.439400000000006
 31
0.0
  0
ARC
  5
2AB
  8
_________1
 62
     7
 10
73.635075000000001
 20
98.439402000000001
 30
0.0
 40
1.249887999999999
 50
179.99996999999999
 51
270.00002000000001
  0
LINE
  5
2AC
  8
_________1
 62
     7
 10
72.385199999999998
 20
130.19
 30
0.0
 11
72.385199999999998
 21
98.439400000000006
 31
0.0
  0
LINE
  5
2AD
  8
_________1
 62
     7
 10
74.385099999999994
 20
97.189499999999995
 30
0.0
 11
74.385099999999994
 21
95.689499999999995
 31
0.0
  0
LINE
  5
2AE
  8
_________1
 62
     7
 10
59.384999999999998
 20
97.189499999999995
 30
0.0
 11
59.384999999999998
 21
95.689499999999995
 31
0.0
  0
LINE
  5
2AF
  8
_________1
 62
     7
 10
65.260000000000005
 20
138.44
 30
0.0
 11
68.510099999999994
 21
138.44
 31
0.0
  0
LINE
  5
2B0
  8
_________1
 62
     7
 10
65.260000000000005
 20
123.44
 30
0.0
 11
68.510099999999994
 21
123.44
 31
0.0
  0
LINE
  5
2B1
  8
_________1
 62
     7
 10
61.384900000000002
 20
130.19
 30
0.0
 11
65.260000000000005
 21
130.19
 31
0.0
  0
LINE
  5
2B2
  8
_________1
 62
     7
 10
68.510099999999994
 20
130.19
 30
0.0
 11
72.385199999999998
 21
130.19
 31
0.0
  0
LINE
  5
2B3
  8
_________1
  6
AIGENLINE001
 62
     7
 10
59.939399999999999
 20
116.19
 30
0.0
 11
73.622699999999995
 21
116.19
 31
0.0
  0
LINE
  5
2B4
  8
_________1
 62
     7
 10
61.384900000000002
 20
98.689499999999995
 30
0.0
 11
72.385199999999998
 21
98.689499999999995
 31
0.0
  0
LINE
  5
2B5
  8
_________1
 62
     7
 10
59.384999999999998
 20
97.189499999999995
 30
0.0
 11
74.385099999999994
 21
97.189499999999995
 31
0.0
  0
LINE
  5
2B6
  8
_________1
 62
     7
 10
-38.351399999999998
 20
147.19
 30
0.0
 11
-32.851599999999998
 21
147.19
 31
0.0
  0
LINE
  5
2B7
  8
_________1
 62
     7
 10
-38.351399999999998
 20
146.94
 30
0.0
 11
-32.851599999999998
 21
146.94
 31
0.0
  0
LINE
  5
2B8
  8
_________1
 62
     7
 10
-38.351399999999998
 20
141.94
 30
0.0
 11
-32.851599999999998
 21
141.94
 31
0.0
  0
LINE
  5
2B9
  8
_________1
 62
     7
 10
19.134699999999999
 20
147.19
 30
0.0
 11
24.634799999999998
 21
147.19
 31
0.0
  0
LINE
  5
2BA
  8
_________1
 62
     7
 10
19.134699999999999
 20
146.94
 30
0.0
 11
24.634799999999998
 21
146.94
 31
0.0
  0
LINE
  5
2BB
  8
_________1
 62
     7
 10
19.134699999999999
 20
141.94
 30
0.0
 11
24.634799999999998
 21
141.94
 31
0.0
  0
LINE
  5
2BC
  8
_________1
 62
     7
 10
59.384999999999998
 20
95.689499999999995
 30
0.0
 11
74.385099999999994
 21
95.689499999999995
 31
0.0
  0
LINE
  5
2BD
  8
_________1
  6
AIGENLINE001
 62
     7
 10
-39.163699999999999
 20
72.269900000000007
 30
0.0
 11
-51.982999999999997
 21
86.283999999999992
 31
0.0
  0
LINE
  5
2BE
  8
_________1
 62
     7
 10
-53.2956
 20
59.556100000000001
 30
0.0
 11
-53.2956
 21
82.614900000000006
 31
0.0
  0
LINE
  5
2BF
  8
_________1
 62
     7
 10
-50.670400000000001
 20
82.614900000000006
 30
0.0
 11
-50.670400000000001
 21
59.556100000000001
 31
0.0
  0
LINE
  5
2C0
  8
_________1
  6
AIGENLINE001
 62
     7
 10
-51.982999999999997
 20
86.283999999999992
 30
0.0
 11
-51.982999999999997
 21
50.592199999999991
 31
0.0
  0
LINE
  5
2C1
  8
_________1
 62
     7
 10
-54.736400000000003
 20
54.679900000000004
 30
0.0
 11
-54.736400000000003
 21
52.054000000000002
 31
0.0
  0
LINE
  5
2C2
  8
_________1
 62
     7
 10
-53.360700000000001
 20
54.679900000000004
 30
0.0
 11
-53.360700000000001
 21
52.054000000000002
 31
0.0
  0
ARC
  5
2C3
  8
_________1
 62
     7
 10
-51.371189000000001
 20
59.871308999999997
 30
0.0
 40
8.5108619999999995
 50
246.709205
 51
248.35700399999999
  0
ARC
  5
2C4
  8
_________1
 62
     7
 10
-53.822420999999999
 20
53.727829999999997
 30
0.0
 40
1.896471
 50
248.73670000000001
 51
258.21222899999998
  0
ARC
  5
2C5
  8
_________1
 62
     7
 10
-54.028480000000002
 20
52.818764999999999
 30
0.0
 40
0.9646139999999999
 50
259.16278199999999
 51
269.53432299999997
  0
ARC
  5
2C6
  8
_________1
 62
     7
 10
-54.036456999999992
 20
52.760153000000003
 30
0.0
 40
0.9059709999999999
 50
270.00869599999999
 51
282.469402
  0
ARC
  5
2C7
  8
_________1
 62
     7
 10
-54.159369999999988
 20
53.385351
 30
0.0
 40
1.543032
 50
281.91324900000001
 51
292.81865800000003
  0
ARC
  5
2C8
  8
_________1
 62
     7
 10
-54.619740999999998
 20
54.560718999999992
 30
0.0
 40
2.805127999999999
 50
292.17554799999999
 51
296.66826700000001
  0
ARC
  5
2C9
  8
_________1
 62
     7
 10
-54.115639000000002
 20
53.564609999999988
 30
0.0
 40
1.346730999999999
 50
55.906326
 51
82.633775
  0
ARC
  5
2CA
  8
_________1
 62
     7
 10
-54.037424000000001
 20
54.002145999999989
 30
0.0
 40
0.9030329999999999
 50
83.996275999999995
 51
89.929920999999993
  0
ARC
  5
2CB
  8
_________1
 62
     7
 10
-54.035527000000002
 20
53.986395999999999
 30
0.0
 40
0.9187829999999999
 50
90.049436999999983
 51
102.191017
  0
ARC
  5
2CC
  8
_________1
 62
     7
 10
-53.945376000000003
 20
53.520509999999987
 30
0.0
 40
1.3932370000000001
 50
101.76890400000001
 51
113.179952
  0
ARC
  5
2CD
  8
_________1
 62
     7
 10
-53.718243000000001
 20
52.948618000000003
 30
0.0
 40
2.0084330000000001
 50
112.714618
 51
120.459186
  0
LINE
  5
2CE
  8
_________1
 62
     7
 10
-49.235900000000001
 20
54.679900000000004
 30
0.0
 11
-49.235900000000001
 21
52.054000000000002
 31
0.0
  0
LINE
  5
2CF
  8
_________1
 62
     7
 10
-50.610500000000002
 20
54.679900000000004
 30
0.0
 11
-50.610500000000002
 21
52.054000000000002
 31
0.0
  0
ARC
  5
2D0
  8
_________1
 62
     7
 10
-47.220799999999997
 20
59.935155000000002
 30
0.0
 40
8.5791979999999999
 50
246.72740999999999
 51
248.322879
  0
ARC
  5
2D1
  8
_________1
 62
     7
 10
-49.653888999999999
 20
53.839888000000002
 30
0.0
 40
2.0162869999999988
 50
248.59500800000001
 51
257.763261
  0
ARC
  5
2D2
  8
_________1
 62
     7
 10
-49.925114999999998
 20
52.658543000000002
 30
0.0
 40
0.8044279999999998
 50
258.808606
 51
269.25343700000002
  0
ARC
  5
2D3
  8
_________1
 62
     7
 10
-49.936404000000003
 20
52.759734999999999
 30
0.0
 40
0.9055530000000001
 50
270.05111199999999
 51
282.20139799999998
  0
ARC
  5
2D4
  8
_________1
 62
     7
 10
-50.035927000000001
 20
53.294936
 30
0.0
 40
1.449784
 50
281.57539500000001
 51
287.064933
  0
ARC
  5
2D5
  8
_________1
 62
     7
 10
-50.284159000000002
 20
54.100278000000003
 30
0.0
 40
2.2925149999999999
 50
287.089226
 51
291.46309600000001
  0
ARC
  5
2D6
  8
_________1
 62
     7
 10
-51.756669000000002
 20
57.809212000000002
 30
0.0
 40
6.2830550000000001
 50
291.584293
 51
293.65336100000002
  0
ARC
  5
2D7
  8
_________1
 62
     7
 10
-50.238295999999998
 20
52.966000999999999
 30
0.0
 40
1.9854839999999989
 50
59.677581000000011
 51
72.112421999999995
  0
ARC
  5
2D8
  8
_________1
 62
     7
 10
-49.960196999999987
 20
53.778565
 30
0.0
 40
1.1268819999999991
 50
72.879016000000007
 51
88.749108000000007
  0
ARC
  5
2D9
  8
_________1
 62
     7
 10
-49.934869999999997
 20
54.136814999999999
 30
0.0
 40
0.768363
 50
90.054157999999987
 51
103.845017
  0
ARC
  5
2DA
  8
_________1
 62
     7
 10
-49.791942999999989
 20
53.461618999999992
 30
0.0
 40
1.458323
 50
102.94928400000001
 51
114.168941
  0
ARC
  5
2DB
  8
_________1
 62
     7
 10
-49.545969999999997
 20
52.853980999999997
 30
0.0
 40
2.113545999999999
 50
113.508207
 51
120.242947
  0
ARC
  5
2DC
  8
_________1
 62
     7
 10
-54.678779000000013
 20
45.45834
 30
0.0
 40
6.7260660000000003
 50
76.798683999999994
 51
78.699123999999998
  0
ARC
  5
2DD
  8
_________1
 62
     7
 10
-51.672313000000003
 20
57.578198
 30
0.0
 40
5.7623030000000002
 50
255.21587700000001
 51
261.42086899999998
  0
ARC
  5
2DE
  8
_________1
 62
     7
 10
-52.185619000000003
 20
54.14503599999999
 30
0.0
 40
2.290988
 50
261.30629199999998
 51
269.380044
  0
LINE
  5
2DF
  8
_________1
 62
     7
 10
-52.2104
 20
51.854199999999999
 30
0.0
 11
-51.761200000000002
 21
51.854199999999999
 31
0.0
  0
ARC
  5
2E0
  8
_________1
 62
     7
 10
-51.761485
 20
53.815008999999989
 30
0.0
 40
1.9608259999999991
 50
270.00938500000001
 51
278.46042699999998
  0
ARC
  5
2E1
  8
_________1
 62
     7
 10
-51.975568000000003
 20
55.470841
 30
0.0
 40
3.6302759999999998
 50
277.95753200000001
 51
281.44536299999999
  0
ARC
  5
2E2
  8
_________1
 62
     7
 10
-53.387597
 20
62.331462000000002
 30
0.0
 40
10.634688000000001
 50
281.56698799999998
 51
283.46249799999998
  0
ARC
  5
2E3
  8
_________1
 62
     7
 10
-49.492784
 20
46.144100999999992
 30
0.0
 40
6.0146639999999989
 50
100.709577
 51
103.645709
  0
ARC
  5
2E4
  8
_________1
 62
     7
 10
-51.850450000000002
 20
51.025430999999998
 30
0.0
 40
3.8590659999999999
 50
71.257854000000009
 51
77.192154000000002
  0
ARC
  5
2E5
  8
_________1
 62
     7
 10
-52.091203
 20
50.161169999999998
 30
0.0
 40
4.7553910000000004
 50
76.671986000000004
 51
85.669133000000016
  0
ARC
  5
2E6
  8
_________1
 62
     7
 10
-51.878717000000002
 20
52.619788999999997
 30
0.0
 40
2.287895999999999
 50
86.325652000000005
 51
92.682303000000019
  0
ARC
  5
2E7
  8
_________1
 62
     7
 10
-52.069043999999991
 20
53.489350000000002
 30
0.0
 40
1.418274
 50
86.634596999999999
 51
91.039574000000002
  0
ARC
  5
2E8
  8
_________1
 62
     7
 10
-52.055382000000002
 20
52.332483000000003
 30
0.0
 40
2.5752090000000001
 50
90.876494999999991
 51
94.814526000000001
  0
ARC
  5
2E9
  8
_________1
 62
     7
 10
-51.857664999999997
 20
50.016551999999997
 30
0.0
 40
4.8995639999999989
 50
94.845420000000004
 51
107.86502
  0
LINE
  5
2EA
  8
_________1
 62
     7
 10
-53.235999999999997
 20
55.0809
 30
0.0
 11
-51.98579999999999
 21
55.0809
 31
0.0
  0
LINE
  5
2EB
  8
_________1
 62
     7
 10
-50.735900000000001
 20
55.0809
 30
0.0
 11
-51.98579999999999
 21
55.0809
 31
0.0
  0
LINE
  5
2EC
  8
_________1
 62
     7
 10
-49.685099999999998
 20
51.804600000000001
 30
0.0
 11
-51.98579999999999
 21
51.804600000000001
 31
0.0
  0
LINE
  5
2ED
  8
_________1
 62
     7
 10
-51.98579999999999
 20
51.804600000000001
 30
0.0
 11
-54.2864
 21
51.804600000000001
 31
0.0
  0
LINE
  5
2EE
  8
_________1
 62
     7
 10
-54.586500000000001
 20
52.004399999999997
 30
0.0
 11
-54.2864
 21
51.8294
 31
0.0
  0
LINE
  5
2EF
  8
_________1
 62
     7
 10
-54.2864
 20
51.8294
 30
0.0
 11
-54.2864
 21
51.804600000000001
 31
0.0
  0
LINE
  5
2F0
  8
_________1
 62
     7
 10
-54.736400000000003
 20
52.054000000000002
 30
0.0
 11
-54.2864
 21
51.8294
 31
0.0
  0
LINE
  5
2F1
  8
_________1
 62
     7
 10
-49.235900000000001
 20
52.054000000000002
 30
0.0
 11
-49.685099999999998
 21
51.804600000000001
 31
0.0
  0
LINE
  5
2F2
  8
_________1
 62
     7
 10
-49.685099999999998
 20
54.93
 30
0.0
 11
-54.2864
 21
54.93
 31
0.0
  0
LINE
  5
2F3
  8
_________1
 62
     7
 10
-50.43549999999999
 20
55.05469999999999
 30
0.0
 11
-53.53609999999999
 21
55.05469999999999
 31
0.0
  0
ARC
  5
2F4
  8
_________1
 62
     7
 10
-52.98442099999999
 20
55.751477999999999
 30
0.0
 40
0.7162430000000001
 50
213.46767299999999
 51
249.434697
  0
ARC
  5
2F5
  8
_________1
 62
     7
 10
-53.153840000000002
 20
55.613832999999993
 30
0.0
 40
0.499466
 50
198.54002199999999
 51
211.01267599999991
  0
LINE
  5
2F6
  8
_________1
 62
     7
 10
-53.627400000000002
 20
55.454999999999998
 30
0.0
 11
-53.660800000000002
 21
55.554900000000004
 31
0.0
  0
LINE
  5
2F7
  8
_________1
 62
     7
 10
-53.660800000000002
 20
55.554900000000004
 30
0.0
 11
-53.660800000000002
 21
55.705100000000002
 31
0.0
  0
LINE
  5
2F8
  8
_________1
 62
     7
 10
-53.660800000000002
 20
55.705100000000002
 30
0.0
 11
-53.61119999999999
 21
55.880099999999999
 31
0.0
  0
LINE
  5
2F9
  8
_________1
 62
     7
 10
-50.335599999999999
 20
55.880099999999999
 30
0.0
 11
-50.360399999999991
 21
55.880099999999999
 31
0.0
  0
ARC
  5
2FA
  8
_________1
 62
     7
 10
-157.523911
 20
40.598835000000001
 30
0.0
 40
108.272147
 50
8.0201609999999999
 51
8.1136999999999997
  0
LINE
  5
2FB
  8
_________1
 62
     7
 10
-50.3108
 20
55.705100000000002
 30
0.0
 11
-50.3108
 21
55.554900000000004
 31
0.0
  0
LINE
  5
2FC
  8
_________1
 62
     7
 10
-50.3108
 20
55.554900000000004
 30
0.0
 11
-50.34320000000001
 21
55.454999999999998
 31
0.0
  0
ARC
  5
2FD
  8
_________1
 62
     7
 10
-51.412222
 20
55.812918000000003
 30
0.0
 40
1.1273859999999989
 50
336.71280400000001
 51
341.49066599999998
  0
ARC
  5
2FE
  8
_________1
 62
     7
 10
-50.814529999999991
 20
55.554611000000001
 30
0.0
 40
0.476266
 50
317.684552
 51
336.82979499999999
  0
ARC
  5
2FF
  8
_________1
 62
     7
 10
-50.745705000000001
 20
55.510738000000011
 30
0.0
 40
0.396082
 50
305.29823599999997
 51
315.67459700000001
  0
ARC
  5
300
  8
_________1
 62
     7
 10
-50.938054000000001
 20
55.788240000000002
 30
0.0
 40
0.73372
 50
297.609959
 51
305.03562699999998
  0
ARC
  5
301
  8
_________1
 62
     7
 10
-52.693013000000001
 20
59.139777000000002
 30
0.0
 40
4.5169300000000003
 50
296.02581499999991
 51
297.63329199999998
  0
LINE
  5
302
  8
_________1
 62
     7
 10
-50.711100000000002
 20
55.0809
 30
0.0
 11
-50.735900000000001
 21
55.0809
 31
0.0
  0
LINE
  5
303
  8
_________1
 62
     7
 10
-50.535699999999999
 20
56.305300000000003
 30
0.0
 11
-53.4114
 21
56.305300000000003
 31
0.0
  0
LINE
  5
304
  8
_________1
 62
     7
 10
-50.535699999999999
 20
58.305500000000002
 30
0.0
 11
-51.98579999999999
 21
58.305500000000002
 31
0.0
  0
LINE
  5
305
  8
_________1
 62
     7
 10
-51.98579999999999
 20
58.305500000000002
 30
0.0
 11
-53.4114
 21
58.305500000000002
 31
0.0
  0
LINE
  5
306
  8
_________1
 62
     7
 10
-53.660800000000002
 20
58.8553
 30
0.0
 11
-53.660800000000002
 21
58.730600000000003
 31
0.0
  0
LINE
  5
307
  8
_________1
 62
     7
 10
-53.660800000000002
 20
58.730600000000003
 30
0.0
 11
-53.585999999999999
 21
58.605200000000011
 31
0.0
  0
LINE
  5
308
  8
_________1
 62
     7
 10
-50.285600000000002
 20
58.8553
 30
0.0
 11
-50.3108
 21
58.730600000000003
 31
0.0
  0
LINE
  5
309
  8
_________1
 62
     7
 10
-50.3108
 20
58.730600000000003
 30
0.0
 11
-50.360399999999991
 21
58.605200000000011
 31
0.0
  0
LINE
  5
30A
  8
_________1
 62
     7
 10
-50.285600000000002
 20
59.556100000000001
 30
0.0
 11
-53.660800000000002
 21
59.556100000000001
 31
0.0
  0
LINE
  5
30B
  8
_________1
 62
     7
 10
-50.285600000000002
 20
59.556100000000001
 30
0.0
 11
-50.285600000000002
 21
58.8553
 31
0.0
  0
LINE
  5
30C
  8
_________1
 62
     7
 10
-53.660800000000002
 20
59.556100000000001
 30
0.0
 11
-53.660800000000002
 21
58.8553
 31
0.0
  0
LINE
  5
30D
  8
_________1
 62
     7
 10
-54.2864
 20
54.93
 30
0.0
 11
-54.736400000000003
 21
54.679900000000004
 31
0.0
  0
LINE
  5
30E
  8
_________1
 62
     7
 10
-49.685099999999998
 20
54.93
 30
0.0
 11
-49.235900000000001
 21
54.679900000000004
 31
0.0
  0
LINE
  5
30F
  8
_________1
 62
     7
 10
-50.360399999999991
 20
58.605200000000011
 30
0.0
 11
-50.535699999999999
 21
58.305500000000002
 31
0.0
  0
LINE
  5
310
  8
_________1
 62
     7
 10
-50.535699999999999
 20
56.305300000000003
 30
0.0
 11
-50.360399999999991
 21
55.880099999999999
 31
0.0
  0
LINE
  5
311
  8
_________1
 62
     7
 10
-53.585999999999999
 20
58.605200000000011
 30
0.0
 11
-53.4114
 21
58.305500000000002
 31
0.0
  0
LINE
  5
312
  8
_________1
 62
     7
 10
-53.4114
 20
56.305300000000003
 30
0.0
 11
-53.61119999999999
 21
55.880099999999999
 31
0.0
  0
LINE
  5
313
  8
_________1
 62
     7
 10
-50.535699999999999
 20
58.305500000000002
 30
0.0
 11
-50.535699999999999
 21
56.305300000000003
 31
0.0
  0
LINE
  5
314
  8
_________1
 62
     7
 10
-53.4114
 20
58.305500000000002
 30
0.0
 11
-53.4114
 21
56.305300000000003
 31
0.0
  0
LINE
  5
315
  8
_________1
 62
     7
 10
-50.43549999999999
 20
55.05469999999999
 30
0.0
 11
-50.43549999999999
 21
54.93
 31
0.0
  0
LINE
  5
316
  8
_________1
 62
     7
 10
-53.53609999999999
 20
55.05469999999999
 30
0.0
 11
-53.53609999999999
 21
54.93
 31
0.0
  0
LINE
  5
317
  8
_________1
 62
     7
 10
-49.235900000000001
 20
52.054000000000002
 30
0.0
 11
-49.685099999999998
 21
51.804600000000001
 31
0.0
  0
LINE
  5
318
  8
_________1
 62
     7
 10
-54.736400000000003
 20
52.054000000000002
 30
0.0
 11
-54.2864
 21
51.804600000000001
 31
0.0
  0
LINE
  5
319
  8
_________1
  6
AIGENLINE001
 62
     7
 10
-39.163699999999999
 20
72.269900000000007
 30
0.0
 11
-26.3445
 21
86.283999999999992
 31
0.0
  0
LINE
  5
31A
  8
_________1
 62
     7
 10
-31.2424
 20
95.688800000000001
 30
0.0
 11
-31.2424
 21
89.189999999999998
 31
0.0
  0
LINE
  5
31B
  8
_________1
 62
     7
 10
-32.9925
 20
95.688800000000001
 30
0.0
 11
-32.9925
 21
89.189999999999998
 31
0.0
  0
LINE
  5
31C
  8
_________1
  6
AIGENLINE001
 62
     7
 10
-32.1175
 20
96.836399999999998
 30
0.0
 11
-32.1175
 21
81.781599999999997
 31
0.0
  0
LINE
  5
31D
  8
_________1
 62
     7
 10
-25.0319
 20
59.556100000000001
 30
0.0
 11
-25.0319
 21
82.614900000000006
 31
0.0
  0
LINE
  5
31E
  8
_________1
 62
     7
 10
-27.6571
 20
82.614900000000006
 30
0.0
 11
-27.6571
 21
59.556100000000001
 31
0.0
  0
LINE
  5
31F
  8
_________1
  6
AIGENLINE001
 62
     7
 10
-26.3445
 20
86.283999999999992
 30
0.0
 11
-26.3445
 21
50.592199999999991
 31
0.0
  0
INSERT
  5
320
  8
_________1
 62
     7
  2
AIGNBL02010010
 10
0.0
 20
0.0
 30
0.0
  0
LINE
  5
321
  8
_________1
 62
     7
 10
50.689900000000002
 20
44.315899999999992
 30
0.0
 11
50.689900000000002
 21
51.104500000000002
 31
0.0
  0
LINE
  5
322
  8
_________1
 62
     7
 10
54.815100000000001
 20
44.315899999999992
 30
0.0
 11
54.815100000000001
 21
51.104500000000002
 31
0.0
  0
LINE
  5
323
  8
_________1
 62
     7
 10
-23.591100000000001
 20
54.679900000000004
 30
0.0
 11
-23.591100000000001
 21
52.054000000000002
 31
0.0
  0
LINE
  5
324
  8
_________1
 62
     7
 10
-24.966799999999999
 20
54.679900000000004
 30
0.0
 11
-24.966799999999999
 21
52.054000000000002
 31
0.0
  0
ARC
  5
325
  8
_________1
 62
     7
 10
-26.956308
 20
59.871308999999997
 30
0.0
 40
8.5108619999999995
 50
291.64301499999999
 51
293.29081500000001
  0
ARC
  5
326
  8
_________1
 62
     7
 10
-24.505075999999999
 20
53.727829999999997
 30
0.0
 40
1.896471
 50
281.78779100000003
 51
291.26332000000002
  0
ARC
  5
327
  8
_________1
 62
     7
 10
-24.299016999999999
 20
52.818764999999999
 30
0.0
 40
0.9646139999999999
 50
270.46569699999998
 51
280.83723800000001
  0
ARC
  5
328
  8
_________1
 62
     7
 10
-24.291039999999999
 20
52.760153000000003
 30
0.0
 40
0.9059709999999999
 50
257.530618
 51
269.99132400000002
  0
ARC
  5
329
  8
_________1
 62
     7
 10
-24.168258000000002
 20
53.384931999999992
 30
0.0
 40
1.542595999999999
 50
247.179812
 51
258.08832000000001
  0
ARC
  5
32A
  8
_________1
 62
     7
 10
-23.707756
 20
54.560718999999992
 30
0.0
 40
2.805127999999999
 50
243.33175299999999
 51
247.82447099999999
  0
ARC
  5
32B
  8
_________1
 62
     7
 10
-24.213000999999998
 20
53.567630000000001
 30
0.0
 40
1.343588999999999
 50
97.334382000000005
 51
124.125478
  0
ARC
  5
32C
  8
_________1
 62
     7
 10
-24.290073
 20
54.002145999999989
 30
0.0
 40
0.9030329999999999
 50
90.070059000000015
 51
96.003703999999999
  0
ARC
  5
32D
  8
_________1
 62
     7
 10
-24.291976999999999
 20
53.986338000000003
 30
0.0
 40
0.9188410000000001
 50
77.809351000000007
 51
89.950154999999995
  0
ARC
  5
32E
  8
_________1
 62
     7
 10
-24.382089000000001
 20
53.520645999999999
 30
0.0
 40
1.3930979999999991
 50
66.81922800000001
 51
78.231207999999995
  0
ARC
  5
32F
  8
_________1
 62
     7
 10
-24.608879999999999
 20
52.949331000000008
 30
0.0
 40
2.0076290000000001
 50
59.539679999999997
 51
67.287493000000012
  0
LINE
  5
330
  8
_________1
 62
     7
 10
-29.0916
 20
54.679900000000004
 30
0.0
 11
-29.0916
 21
52.054000000000002
 31
0.0
  0
LINE
  5
331
  8
_________1
 62
     7
 10
-27.716999999999999
 20
54.679900000000004
 30
0.0
 11
-27.716999999999999
 21
52.054000000000002
 31
0.0
  0
ARC
  5
332
  8
_________1
 62
     7
 10
-31.106697
 20
59.935155000000002
 30
0.0
 40
8.5791979999999999
 50
291.67714100000001
 51
293.27260999999999
  0
ARC
  5
333
  8
_________1
 62
     7
 10
-28.673608000000002
 20
53.839888000000002
 30
0.0
 40
2.0162869999999988
 50
282.23675900000012
 51
291.405012
  0
ARC
  5
334
  8
_________1
 62
     7
 10
-28.402381999999999
 20
52.658543000000002
 30
0.0
 40
0.8044279999999998
 50
270.74658299999999
 51
281.19141400000001
  0
ARC
  5
335
  8
_________1
 62
     7
 10
-28.391093000000001
 20
52.759734999999999
 30
0.0
 40
0.9055530000000001
 50
257.79862100000003
 51
269.94890800000002
  0
ARC
  5
336
  8
_________1
 62
     7
 10
-28.291855000000002
 20
53.293822999999989
 30
0.0
 40
1.448637
 50
252.9329109999999
 51
258.42680100000001
  0
ARC
  5
337
  8
_________1
 62
     7
 10
-28.042943000000001
 20
54.101482999999988
 30
0.0
 40
2.2937829999999999
 50
248.53865200000001
 51
252.91022899999999
  0
ARC
  5
338
  8
_________1
 62
     7
 10
-26.568473999999998
 20
57.814719999999987
 30
0.0
 40
6.2890449999999989
 50
246.34714399999999
 51
248.414196
  0
ARC
  5
339
  8
_________1
 62
     7
 10
-28.089202
 20
52.966000999999999
 30
0.0
 40
1.9854839999999989
 50
107.887558
 51
120.322399
  0
ARC
  5
33A
  8
_________1
 62
     7
 10
-28.367329999999999
 20
53.778748999999998
 30
0.0
 40
1.1266969999999989
 50
91.249560000000002
 51
107.122277
  0
ARC
  5
33B
  8
_________1
 62
     7
 10
-28.392627000000001
 20
54.136814999999999
 30
0.0
 40
0.768363
 50
76.154964000000007
 51
89.945821999999993
  0
ARC
  5
33C
  8
_________1
 62
     7
 10
-28.535554000000001
 20
53.461618999999992
 30
0.0
 40
1.458323
 50
65.831039000000004
 51
77.050696000000002
  0
ARC
  5
33D
  8
_________1
 62
     7
 10
-28.781527000000001
 20
52.853980999999997
 30
0.0
 40
2.113545999999999
 50
59.757032999999993
 51
66.491772999999995
  0
ARC
  5
33E
  8
_________1
 62
     7
 10
-23.659580999999999
 20
45.508364999999998
 30
0.0
 40
6.6748830000000003
 50
101.29356899999991
 51
103.208584
  0
ARC
  5
33F
  8
_________1
 62
     7
 10
-26.668274
 20
57.641509999999997
 30
0.0
 40
5.826859999999999
 50
278.61355800000001
 51
284.74973599999998
  0
ARC
  5
340
  8
_________1
 62
     7
 10
-26.141897
 20
54.145268000000002
 30
0.0
 40
2.29122
 50
270.620385
 51
278.69331800000009
  0
LINE
  5
341
  8
_________1
 62
     7
 10
-26.117100000000001
 20
51.854199999999999
 30
0.0
 11
-26.566299999999998
 21
51.854199999999999
 31
0.0
  0
ARC
  5
342
  8
_________1
 62
     7
 10
-26.566012000000001
 20
53.815008999999989
 30
0.0
 40
1.9608259999999991
 50
261.53959300000002
 51
269.990634
  0
ARC
  5
343
  8
_________1
 62
     7
 10
-26.351768
 20
55.471890000000002
 30
0.0
 40
3.6313379999999991
 50
258.55536000000001
 51
262.04225500000001
  0
ARC
  5
344
  8
_________1
 62
     7
 10
-24.938002000000001
 20
62.340039000000012
 30
0.0
 40
10.643471999999999
 50
256.53830399999998
 51
258.43224900000001
  0
ARC
  5
345
  8
_________1
 62
     7
 10
-28.834527000000001
 20
46.145078999999988
 30
0.0
 40
6.013668
 50
76.353842
 51
79.290409999999994
  0
ARC
  5
346
  8
_________1
 62
     7
 10
-26.477046999999999
 20
51.025430999999998
 30
0.0
 40
3.8590659999999999
 50
102.80782600000001
 51
108.742126
  0
ARC
  5
347
  8
_________1
 62
     7
 10
-26.236294000000001
 20
50.161169999999998
 30
0.0
 40
4.7553910000000004
 50
94.330847000000006
 51
103.327994
  0
ARC
  5
348
  8
_________1
 62
     7
 10
-26.448779999999999
 20
52.619788999999997
 30
0.0
 40
2.287895999999999
 50
87.317677000000003
 51
93.674328000000017
  0
ARC
  5
349
  8
_________1
 62
     7
 10
-26.258481
 20
53.490684999999999
 30
0.0
 40
1.416939999999999
 50
88.958331000000001
 51
93.367457999999999
  0
ARC
  5
34A
  8
_________1
 62
     7
 10
-26.272114999999999
 20
52.332483000000003
 30
0.0
 40
2.5752090000000001
 50
85.185453999999993
 51
89.123485000000002
  0
ARC
  5
34B
  8
_________1
 62
     7
 10
-26.469884000000011
 20
50.016294000000002
 30
0.0
 40
4.899824999999999
 50
72.135308999999992
 51
85.154211000000004
  0
LINE
  5
34C
  8
_________1
 62
     7
 10
-25.0915
 20
55.0809
 30
0.0
 11
-26.341699999999999
 21
55.0809
 31
0.0
  0
LINE
  5
34D
  8
_________1
 62
     7
 10
-27.5916
 20
55.0809
 30
0.0
 11
-26.341699999999999
 21
55.0809
 31
0.0
  0
LINE
  5
34E
  8
_________1
 62
     7
 10
-28.642399999999999
 20
51.804600000000001
 30
0.0
 11
-26.341699999999999
 21
51.804600000000001
 31
0.0
  0
LINE
  5
34F
  8
_________1
 62
     7
 10
-26.341699999999999
 20
51.804600000000001
 30
0.0
 11
-24.0411
 21
51.804600000000001
 31
0.0
  0
LINE
  5
350
  8
_________1
 62
     7
 10
-23.741
 20
52.004399999999997
 30
0.0
 11
-24.0411
 21
51.8294
 31
0.0
  0
LINE
  5
351
  8
_________1
 62
     7
 10
-24.0411
 20
51.8294
 30
0.0
 11
-24.0411
 21
51.804600000000001
 31
0.0
  0
LINE
  5
352
  8
_________1
 62
     7
 10
-23.591100000000001
 20
52.054000000000002
 30
0.0
 11
-24.0411
 21
51.8294
 31
0.0
  0
LINE
  5
353
  8
_________1
 62
     7
 10
-29.0916
 20
52.054000000000002
 30
0.0
 11
-28.642399999999999
 21
51.804600000000001
 31
0.0
  0
LINE
  5
354
  8
_________1
 62
     7
 10
-28.642399999999999
 20
54.93
 30
0.0
 11
-24.0411
 21
54.93
 31
0.0
  0
LINE
  5
355
  8
_________1
 62
     7
 10
-27.891999999999999
 20
55.05469999999999
 30
0.0
 11
-24.791399999999999
 21
55.05469999999999
 31
0.0
  0
ARC
  5
356
  8
_________1
 62
     7
 10
-25.343076
 20
55.751477999999999
 30
0.0
 40
0.7162430000000001
 50
290.56532299999998
 51
326.53234700000002
  0
ARC
  5
357
  8
_________1
 62
     7
 10
-25.174430000000001
 20
55.614189000000003
 30
0.0
 40
0.500312
 50
328.99793
 51
341.449412
  0
LINE
  5
358
  8
_________1
 62
     7
 10
-24.700099999999999
 20
55.454999999999998
 30
0.0
 11
-24.666699999999999
 21
55.554900000000004
 31
0.0
  0
LINE
  5
359
  8
_________1
 62
     7
 10
-24.666699999999999
 20
55.554900000000004
 30
0.0
 11
-24.666699999999999
 21
55.705100000000002
 31
0.0
  0
LINE
  5
35A
  8
_________1
 62
     7
 10
-24.666699999999999
 20
55.705100000000002
 30
0.0
 11
-24.7163
 21
55.880099999999999
 31
0.0
  0
LINE
  5
35B
  8
_________1
 62
     7
 10
-27.991900000000001
 20
55.880099999999999
 30
0.0
 11
-27.967099999999999
 21
55.880099999999999
 31
0.0
  0
ARC
  5
35C
  8
_________1
 62
     7
 10
1.8454740000000001
 20
51.561959999999999
 30
0.0
 40
30.148250000000001
 50
171.765085
 51
172.10101399999999
  0
LINE
  5
35D
  8
_________1
 62
     7
 10
-28.0167
 20
55.705100000000002
 30
0.0
 11
-28.0167
 21
55.554900000000004
 31
0.0
  0
LINE
  5
35E
  8
_________1
 62
     7
 10
-28.0167
 20
55.554900000000004
 30
0.0
 11
-27.984300000000001
 21
55.454999999999998
 31
0.0
  0
ARC
  5
35F
  8
_________1
 62
     7
 10
-26.913837000000001
 20
55.813403000000001
 30
0.0
 40
1.1289029999999991
 50
198.50954899999991
 51
203.280889
  0
ARC
  5
360
  8
_________1
 62
     7
 10
-27.512682000000002
 20
55.554811000000001
 30
0.0
 40
0.476612
 50
203.178696
 51
222.310272
  0
ARC
  5
361
  8
_________1
 62
     7
 10
-27.581792
 20
55.510738000000011
 30
0.0
 40
0.396082
 50
224.325423
 51
234.701784
  0
ARC
  5
362
  8
_________1
 62
     7
 10
-27.390153999999999
 20
55.787072000000002
 30
0.0
 40
0.732355
 50
234.9574640000001
 51
242.39698999999999
  0
ARC
  5
363
  8
_________1
 62
     7
 10
-25.646231
 20
59.116551999999999
 30
0.0
 40
4.490905999999999
 50
242.36206999999999
 51
243.97886299999999
  0
LINE
  5
364
  8
_________1
 62
     7
 10
-27.616399999999999
 20
55.0809
 30
0.0
 11
-27.5916
 21
55.0809
 31
0.0
  0
LINE
  5
365
  8
_________1
 62
     7
 10
-27.791799999999999
 20
56.305300000000003
 30
0.0
 11
-24.9161
 21
56.305300000000003
 31
0.0
  0
LINE
  5
366
  8
_________1
 62
     7
 10
-27.791799999999999
 20
58.305500000000002
 30
0.0
 11
-26.341699999999999
 21
58.305500000000002
 31
0.0
  0
LINE
  5
367
  8
_________1
 62
     7
 10
-26.341699999999999
 20
58.305500000000002
 30
0.0
 11
-24.9161
 21
58.305500000000002
 31
0.0
  0
LINE
  5
368
  8
_________1
 62
     7
 10
-24.666699999999999
 20
58.8553
 30
0.0
 11
-24.666699999999999
 21
58.730600000000003
 31
0.0
  0
LINE
  5
369
  8
_________1
 62
     7
 10
-24.666699999999999
 20
58.730600000000003
 30
0.0
 11
-24.741499999999998
 21
58.605200000000011
 31
0.0
  0
LINE
  5
36A
  8
_________1
 62
     7
 10
-28.041899999999998
 20
58.8553
 30
0.0
 11
-28.0167
 21
58.730600000000003
 31
0.0
  0
LINE
  5
36B
  8
_________1
 62
     7
 10
-28.0167
 20
58.730600000000003
 30
0.0
 11
-27.967099999999999
 21
58.605200000000011
 31
0.0
  0
LINE
  5
36C
  8
_________1
 62
     7
 10
-28.041899999999998
 20
59.556100000000001
 30
0.0
 11
-24.666699999999999
 21
59.556100000000001
 31
0.0
  0
LINE
  5
36D
  8
_________1
 62
     7
 10
-28.041899999999998
 20
59.556100000000001
 30
0.0
 11
-28.041899999999998
 21
58.8553
 31
0.0
  0
LINE
  5
36E
  8
_________1
 62
     7
 10
-24.666699999999999
 20
59.556100000000001
 30
0.0
 11
-24.666699999999999
 21
58.8553
 31
0.0
  0
LINE
  5
36F
  8
_________1
 62
     7
 10
-24.0411
 20
54.93
 30
0.0
 11
-23.591100000000001
 21
54.679900000000004
 31
0.0
  0
LINE
  5
370
  8
_________1
 62
     7
 10
-28.642399999999999
 20
54.93
 30
0.0
 11
-29.0916
 21
54.679900000000004
 31
0.0
  0
LINE
  5
371
  8
_________1
 62
     7
 10
-27.967099999999999
 20
58.605200000000011
 30
0.0
 11
-27.791799999999999
 21
58.305500000000002
 31
0.0
  0
LINE
  5
372
  8
_________1
 62
     7
 10
-27.791799999999999
 20
56.305300000000003
 30
0.0
 11
-27.967099999999999
 21
55.880099999999999
 31
0.0
  0
LINE
  5
373
  8
_________1
 62
     7
 10
-24.741499999999998
 20
58.605200000000011
 30
0.0
 11
-24.9161
 21
58.305500000000002
 31
0.0
  0
LINE
  5
374
  8
_________1
 62
     7
 10
-24.9161
 20
56.305300000000003
 30
0.0
 11
-24.7163
 21
55.880099999999999
 31
0.0
  0
LINE
  5
375
  8
_________1
 62
     7
 10
-27.791799999999999
 20
58.305500000000002
 30
0.0
 11
-27.791799999999999
 21
56.305300000000003
 31
0.0
  0
LINE
  5
376
  8
_________1
 62
     7
 10
-24.9161
 20
58.305500000000002
 30
0.0
 11
-24.9161
 21
56.305300000000003
 31
0.0
  0
LINE
  5
377
  8
_________1
 62
     7
 10
-27.891999999999999
 20
55.05469999999999
 30
0.0
 11
-27.891999999999999
 21
54.93
 31
0.0
  0
LINE
  5
378
  8
_________1
 62
     7
 10
-24.791399999999999
 20
55.05469999999999
 30
0.0
 11
-24.791399999999999
 21
54.93
 31
0.0
  0
LINE
  5
379
  8
_________1
 62
     7
 10
-29.0916
 20
52.054000000000002
 30
0.0
 11
-28.642399999999999
 21
51.804600000000001
 31
0.0
  0
LINE
  5
37A
  8
_________1
 62
     7
 10
-23.591100000000001
 20
52.054000000000002
 30
0.0
 11
-24.0411
 21
51.804600000000001
 31
0.0
  0
INSERT
  5
37B
  8
_________1
 62
     7
  2
AIGNBL02010011
 10
0.0
 20
0.0
 30
0.0
  0
LINE
  5
37C
  8
_________1
 62
     7
 10
49.299100000000003
 20
52.804000000000002
 30
0.0
 11
35.2727
 21
52.804000000000002
 31
0.0
  0
INSERT
  5
37D
  8
_________1
 62
     7
  2
AIGNBL02010012
 10
0.0
 20
0.0
 30
0.0
  0
LINE
  5
37E
  8
_________1
 62
     7
 10
59.628999999999998
 20
88.189800000000005
 30
0.0
 11
53.948599999999999
 21
88.189800000000005
 31
0.0
  0
LINE
  5
37F
  8
_________1
 62
     7
 10
73.997799999999984
 20
257.90499999999997
 30
0.0
 11
79.784999999999997
 21
257.90499999999997
 31
0.0
  0
INSERT
  5
380
  8
_________1
 62
     7
  2
AIGNBL02010013
 10
0.0
 20
0.0
 30
0.0
  0
LINE
  5
381
  8
_________1
  6
AIGENLINE001
 62
     7
 10
66.885099999999994
 20
257.11399999999998
 30
0.0
 11
66.885099999999994
 21
243.96199999999999
 31
0.0
  0
ARC
  5
382
  8
_________1
 62
     7
 10
66.885227999999998
 20
250.79265000000001
 30
0.0
 40
4.3751269999999991
 50
0.002266
 51
90.002235999999996
  0
ARC
  5
383
  8
_________1
 62
     7
 10
66.885230000000007
 20
250.79299499999999
 30
0.0
 40
4.374782999999999
 50
90.002256000000017
 51
180.00226599999999
  0
ARC
  5
384
  8
_________1
 62
     7
 10
66.885227999999998
 20
250.79265000000001
 30
0.0
 40
4.3747809999999987
 50
179.997714
 51
269.99776400000002
  0
ARC
  5
385
  8
_________1
 62
     7
 10
66.885227999999998
 20
250.79299599999999
 30
0.0
 40
4.3751269999999991
 50
269.99776400000002
 51
359.99773399999998
  0
LINE
  5
386
  8
_________1
  6
AIGENLINE001
 62
     7
 10
59.946599999999989
 20
250.79300000000001
 30
0.0
 11
73.662300000000002
 21
250.79300000000001
 31
0.0
  0
TEXT
  5
387
  8
_________2
 62
     7
 10
169.50999999999999
 20
118.48
 30
0.0
 40
3.9357000000000002
  1
※快適にお使いいただくためには、0.2～0.3MPa程度の圧力をおすすめします。
 41
0.5
  0
TEXT
  5
388
  8
_________2
 62
     7
 10
169.50999999999999
 20
124.56
 30
0.0
 40
3.9357000000000002
  1
0.5MPa（流動圧）
 41
0.5
  0
TEXT
  5
389
  8
_________2
 62
     7
 10
129.49600000000001
 20
132.18199999999999
 30
0.0
 40
3.9357000000000002
  1
給水圧力
 41
0.5
  0
TEXT
  5
38A
  8
_________2
 62
     7
 10
129.49600000000001
 20
139.94399999999999
 30
0.0
 40
3.9357000000000002
  1
用途
 41
0.5
  0
TEXT
  5
38B
  8
_________2
 62
     7
 10
169.50999999999999
 20
139.94399999999999
 30
0.0
 40
3.9357000000000002
  1
一般住宅用（屋内用）
 41
0.5
  0
LINE
  5
38C
  8
_________2
 62
     7
 10
145.64099999999999
 20
137.83600000000001
 30
0.0
 11
145.64099999999999
 21
116.5
 31
0.0
  0
LINE
  5
38D
  8
_________2
 62
     7
 10
166.97200000000001
 20
145.59899999999999
 30
0.0
 11
166.97200000000001
 21
61.980800000000002
 31
0.0
  0
LINE
  5
38E
  8
_________2
 62
     7
 10
290.16199999999998
 20
145.59899999999999
 30
0.0
 11
126.95699999999999
 21
145.59899999999999
 31
0.0
  0
LINE
  5
38F
  8
_________2
 62
     7
 10
126.95699999999999
 20
145.59899999999999
 30
0.0
 11
126.95699999999999
 21
61.980800000000002
 31
0.0
  0
LINE
  5
390
  8
_________2
 62
     7
 10
126.95699999999999
 20
61.980800000000002
 30
0.0
 11
290.16199999999998
 21
61.980800000000002
 31
0.0
  0
LINE
  5
391
  8
_________2
 62
     7
 10
290.16199999999998
 20
61.980800000000002
 30
0.0
 11
290.16199999999998
 21
145.59899999999999
 31
0.0
  0
TEXT
  5
392
  8
_________2
 62
     7
 10
147.41499999999999
 20
132.18199999999999
 30
0.0
 40
3.9357000000000002
  1
最低必要水圧
 41
0.5
  0
TEXT
  5
393
  8
_________2
 62
     7
 10
169.50999999999999
 20
132.18199999999999
 30
0.0
 40
3.9357000000000002
  1
0.1MPa（流動圧）
 41
0.5
  0
LINE
  5
394
  8
_________2
 62
     7
 10
126.95699999999999
 20
137.83600000000001
 30
0.0
 11
290.16199999999998
 21
137.83600000000001
 31
0.0
  0
TEXT
  5
395
  8
_________2
 62
     7
 10
129.49600000000001
 20
110.845
 30
0.0
 40
3.9357000000000002
  1
使用可能水質
 41
0.5
  0
TEXT
  5
396
  8
_________2
 62
     7
 10
169.50999999999999
 20
110.845
 30
0.0
 40
3.9357000000000002
  1
水道水
 41
0.5
  0
LINE
  5
397
  8
_________2
 62
     7
 10
126.95699999999999
 20
116.5
 30
0.0
 11
290.16199999999998
 21
116.5
 31
0.0
  0
TEXT
  5
398
  8
_________2
 62
     7
 10
147.41499999999999
 20
124.56
 30
0.0
 40
3.9357000000000002
  1
最高水圧
 41
0.5
  0
LINE
  5
399
  8
_________2
 62
     7
 10
145.64099999999999
 20
130.07400000000001
 30
0.0
 11
290.16199999999998
 21
130.07400000000001
 31
0.0
  0
TEXT
  5
39A
  8
_________2
 62
     7
 10
129.49600000000001
 20
103.223
 30
0.0
 40
3.9357000000000002
  1
使用環境温度
 41
0.5
  0
TEXT
  5
39B
  8
_________2
 62
     7
 10
129.49600000000001
 20
89.649199999999993
 30
0.0
 40
3.9357000000000002
  1
最高給湯温度
 41
0.5
  0
TEXT
  5
39C
  8
_________2
 62
     7
 10
129.49600000000001
 20
75.946600000000004
 30
0.0
 40
3.9357000000000002
  1
特記事項
 41
0.5
  0
TEXT
  5
39D
  8
_________2
 62
     7
 10
169.50999999999999
 20
97.142999999999986
 30
0.0
 40
3.9357000000000002
  1
※寒冷地仕様ではありません、凍結が予想される場合は凍結予防をしてください。
 41
0.5
  0
TEXT
  5
39E
  8
_________2
 62
     7
 10
169.50999999999999
 20
103.223
 30
0.0
 40
3.9357000000000002
  1
1～40℃
 41
0.5
  0
LINE
  5
39F
  8
_________2
 62
     7
 10
126.95699999999999
 20
108.73699999999999
 30
0.0
 11
290.16199999999998
 21
108.73699999999999
 31
0.0
  0
TEXT
  5
3A0
  8
_________2
 62
     7
 10
169.50999999999999
 20
83.568899999999985
 30
0.0
 40
3.9357000000000002
  1
※安全のため給湯温度は60℃以下でのご使用をおすすめします。
 41
0.5
  0
TEXT
  5
3A1
  8
_________2
 62
     7
 10
169.50999999999999
 20
89.649199999999993
 30
0.0
 40
3.9357000000000002
  1
80℃
 41
0.5
  0
TEXT
  5
3A2
  8
_________2
 62
     7
 10
169.50999999999999
 20
63.786000000000001
 30
0.0
 40
3.9357000000000002
  1
（3）フレキホース寸法公差\U+00B120。
 41
0.5
  0
TEXT
  5
3A3
  8
_________2
 62
     7
 10
169.50999999999999
 20
69.866299999999995
 30
0.0
 40
3.9357000000000002
  1
（2）湯水を逆に配管しないでください。
 41
0.5
  0
TEXT
  5
3A4
  8
_________2
 62
     7
 10
169.50999999999999
 20
75.946600000000004
 30
0.0
 40
3.9357000000000002
  1
（1）水圧は湯水ほぼ同圧、且つ湯圧が水圧より高くならないように設定してください。
 41
0.5
  0
LINE
  5
3A5
  8
_________2
 62
     7
 10
126.95699999999999
 20
95.1631
 30
0.0
 11
290.16199999999998
 21
95.1631
 31
0.0
  0
LINE
  5
3A6
  8
_________2
 62
     7
 10
126.95699999999999
 20
81.588999999999999
 30
0.0
 11
290.16199999999998
 21
81.588999999999999
 31
0.0
  0
TEXT
  5
3A7
  8
_________2
 62
     7
 10
200.4570586666666
 20
34.465299999999999
 30
0.0
 40
3.6545800000000002
  1
1 ： 4
 41
0.5
 72
     1
 11
203.86799999999999
 21
34.465299999999999
 31
0.0
  0
TEXT
  5
3A8
  8
_________2
 62
     7
 10
247.88242500000001
 20
30.3553
 30
0.0
 40
3.9357000000000002
  1
ZU6587
 41
0.5
 72
     1
 11
253.458
 21
30.3553
 31
0.0
  0
TEXT
  5
3A9
  8
_________2
 62
     7
 10
149.3328003333333
 20
34.850499999999997
 30
0.0
 40
3.6545800000000002
  1
井田
 41
0.5
 72
     1
 11
151.221
 21
34.850499999999997
 31
0.0
  0
TEXT
  5
3AA
  8
_________2
 62
     7
 10
130.69789066666669
 20
34.850499999999997
 30
0.0
 40
3.6545800000000002
  1
恋塚
 41
0.5
 72
     1
 11
132.64699999999999
 21
34.850499999999997
 31
0.0
  0
TEXT
  5
3AB
  8
_________2
 62
     7
 10
177.69399999999999
 20
34.465299999999999
 30
0.0
 40
3.6545800000000002
  1
19.02.04
 41
0.5
  0
TEXT
  5
3AC
  8
_________2
 62
     7
 10
290.64778333333328
 20
12.808299999999999
 30
0.0
 40
3.3734599999999988
  1
A3
 41
0.5
 72
     2
 11
293.459
 21
12.808299999999999
 31
0.0
  0
TEXT
  5
3AD
  8
_________2
 62
     7
 10
134.495
 20
21.954699999999999
 30
0.0
 40
3.9357000000000002
  1
（社）日本水道協会認証品
 41
0.5
  0
LINE
  5
3AE
  8
_________2
 62
     7
 10
315.209
 20
148.65899999999999
 30
0.0
 11
293.459
 21
148.65899999999999
 31
0.0
  0
LINE
  5
3AF
  8
_________2
 62
     7
 10
105.20699999999999
 20
17.156300000000002
 30
0.0
 11
105.20699999999999
 21
0.176045
 31
0.0
  0
LINE
  5
3B0
  8
_________2
 62
     7
 10
105.20699999999999
 20
297.178
 30
0.0
 11
105.20699999999999
 21
280.15800000000002
 31
0.0
  0
LINE
  5
3B1
  8
_________2
 62
     7
 10
-83.043899999999994
 20
148.65899999999999
 30
0.0
 11
-104.794
 21
148.65899999999999
 31
0.0
  0
INSERT
  5
3B2
  8
_________2
 62
     7
  2
AIGNBL03010002
 10
0.0
 20
0.0
 30
0.0
  0
TEXT
  5
3B3
  8
_________2
 62
     7
 10
214.51300000000001
 20
22.9269
 30
0.0
 40
3.0923400000000001
  1
図番
 41
0.5
  0
LINE
  5
3B4
  8
_________2
 62
     7
 10
213.458
 20
27.156099999999999
 30
0.0
 11
293.459
 21
27.156099999999999
 31
0.0
  0
TEXT
  5
3B5
  8
_________2
 62
     7
 10
214.51300000000001
 20
32.926699999999997
 30
0.0
 40
3.0923400000000001
  1
品番
 41
0.5
  0
TEXT
  5
3B6
  8
_________2
 62
     7
 10
214.51300000000001
 20
53.0655
 30
0.0
 40
3.0923400000000001
  1
名称
 41
0.5
  0
TEXT
  5
3B7
  8
_________2
 62
     7
 10
201.75325833333329
 20
48.069400000000002
 30
0.0
 40
3.6545800000000002
  1
mm
 41
0.5
 72
     1
 11
203.27600000000001
 21
48.069400000000002
 31
0.0
  0
TEXT
  5
3B8
  8
_________2
 62
     7
 10
195.55099999999999
 20
53.0655
 30
0.0
 40
3.0923400000000001
  1
単位
 41
0.5
  0
TEXT
  5
3B9
  8
_________2
 62
     7
 10
195.55099999999999
 20
40.658200000000001
 30
0.0
 40
3.0923400000000001
  1
尺度
 41
0.5
  0
TEXT
  5
3BA
  8
_________2
 62
     7
 10
247.88242500000001
 20
20.354800000000001
 30
0.0
 40
3.9357000000000002
  1
ZU6587
 41
0.5
 72
     1
 11
253.458
 21
20.354800000000001
 31
0.0
  0
TEXT
  5
3BB
  8
_________2
 62
     7
 10
219.08699999999999
 20
45.473100000000002
 30
0.0
 40
3.9357000000000002
  1
パンスタイル 湯水混合水栓
 41
0.5
  0
TEXT
  5
3BC
  8
_________2
 62
     7
 10
176.501
 20
40.658200000000001
 30
0.0
 40
3.0923400000000001
  1
日付
 41
0.5
  0
TEXT
  5
3BD
  8
_________2
 62
     7
 10
139.547
 20
40.658200000000001
 30
0.0
 40
3.0923400000000001
  1
検図
 41
0.5
  0
TEXT
  5
3BE
  8
_________2
 62
     7
 10
127.929
 20
26.4588
 30
0.0
 40
3.0923400000000001
  1
備考
 41
0.5
  0
TEXT
  5
3BF
  8
_________2
 62
     7
 10
127.929
 20
40.658200000000001
 30
0.0
 40
3.0923400000000001
  1
製図
 41
0.5
  0
TEXT
  5
3C0
  8
_________2
 62
     7
 10
133.69596533333331
 20
49.184199999999997
 30
0.0
 40
4.4979399999999989
  1
セラトレーディング株式会社
 41
0.5
 72
     1
 11
151.08799999999999
 21
49.184199999999997
 31
0.0
  0
LINE
  5
3C1
  8
_________2
 62
     7
 10
293.459
 20
17.156300000000002
 30
0.0
 11
-83.043899999999994
 21
17.156300000000002
 31
0.0
  0
LINE
  5
3C2
  8
_________2
 62
     7
 10
-83.043899999999994
 20
17.156300000000002
 30
0.0
 11
-83.043899999999994
 21
280.15800000000002
 31
0.0
  0
LINE
  5
3C3
  8
_________2
 62
     7
 10
-83.043899999999994
 20
280.15800000000002
 30
0.0
 11
293.459
 21
280.15800000000002
 31
0.0
  0
LINE
  5
3C4
  8
_________2
 62
     7
 10
293.459
 20
280.15800000000002
 30
0.0
 11
293.459
 21
17.156300000000002
 31
0.0
  0
LINE
  5
3C5
  8
_________2
 62
     7
 10
175.458
 20
30.656400000000001
 30
0.0
 11
175.458
 21
57.156199999999998
 31
0.0
  0
LINE
  5
3C6
  8
_________2
 62
     7
 10
194.458
 20
30.656400000000001
 30
0.0
 11
194.458
 21
57.156199999999998
 31
0.0
  0
LINE
  5
3C7
  8
_________2
 62
     7
 10
126.95699999999999
 20
17.156300000000002
 30
0.0
 11
126.95699999999999
 21
57.156199999999998
 31
0.0
  0
LINE
  5
3C8
  8
_________2
 62
     7
 10
213.458
 20
17.156300000000002
 30
0.0
 11
213.458
 21
57.156199999999998
 31
0.0
  0
LINE
  5
3C9
  8
_________2
 62
     7
 10
138.45699999999999
 20
30.656400000000001
 30
0.0
 11
138.45699999999999
 21
44.65659999999999
 31
0.0
  0
LINE
  5
3CA
  8
_________2
 62
     7
 10
126.95699999999999
 20
30.656400000000001
 30
0.0
 11
213.458
 21
30.656400000000001
 31
0.0
  0
LINE
  5
3CB
  8
_________2
 62
     7
 10
126.95699999999999
 20
44.65659999999999
 30
0.0
 11
213.458
 21
44.65659999999999
 31
0.0
  0
LINE
  5
3CC
  8
_________2
 62
     7
 10
213.458
 20
37.15590000000001
 30
0.0
 11
293.459
 21
37.15590000000001
 31
0.0
  0
LINE
  5
3CD
  8
_________2
 62
     7
 10
126.95699999999999
 20
57.156199999999998
 30
0.0
 11
293.459
 21
57.156199999999998
 31
0.0
  0
ENDSEC
  0
EOF
