  0
SECTION
  2
HEADER
  9
$ACADVER
  1
AC1009
  9
$INSBASE
 10
0.0
 20
0.0
 30
0.0
  9
$EXTMIN
 10
-4.7012099999999988
 20
-21.070999999999991
 30
0.0
  9
$EXTMAX
 10
205.30099999999999
 20
275.93099999999993
 30
0.0
  9
$LIMMIN
 10
0.0
 20
0.0
  9
$LIMMAX
 10
12.0
 20
9.0
  9
$ORTHOMODE
 70
     0
  9
$REGENMODE
 70
     1
  9
$FILLMODE
 70
     1
  9
$QTEXTMODE
 70
     0
  9
$MIRRTEXT
 70
     1
  9
$DRAGMODE
 70
     2
  9
$LTSCALE
 40
1.0
  9
$OSMODE
 70
    37
  9
$ATTMODE
 70
     1
  9
$TEXTSIZE
 40
0.0
  9
$TRACEWID
 40
0.05
  9
$TEXTSTYLE
  7
STANDARD
  9
$CLAYER
  8
0
  9
$CELTYPE
  6
CONTINUOUS
  9
$CECOLOR
 62
   256
  9
$DIMSCALE
 40
1.0
  9
$DIMASZ
 40
0.18
  9
$DIMEXO
 40
0.0625
  9
$DIMDLI
 40
0.38
  9
$DIMRND
 40
0.0
  9
$DIMDLE
 40
0.0
  9
$DIMEXE
 40
0.18
  9
$DIMTP
 40
0.0
  9
$DIMTM
 40
0.0
  9
$DIMTXT
 40
0.18
  9
$DIMCEN
 40
0.09
  9
$DIMTSZ
 40
0.0
  9
$DIMTOL
 70
     0
  9
$DIMLIM
 70
     0
  9
$DIMTIH
 70
     1
  9
$DIMTOH
 70
     1
  9
$DIMSE1
 70
     0
  9
$DIMSE2
 70
     0
  9
$DIMTAD
 70
     0
  9
$DIMZIN
 70
     0
  9
$DIMBLK
  1

  9
$DIMASO
 70
     1
  9
$DIMSHO
 70
     1
  9
$DIMPOST
  1

  9
$DIMAPOST
  1

  9
$DIMALT
 70
     0
  9
$DIMALTD
 70
     2
  9
$DIMALTF
 40
25.399999999999999
  9
$DIMLFAC
 40
1.0
  9
$DIMTOFL
 70
     0
  9
$DIMTVP
 40
0.0
  9
$DIMTIX
 70
     0
  9
$DIMSOXD
 70
     0
  9
$DIMSAH
 70
     0
  9
$DIMBLK1
  1

  9
$DIMBLK2
  1

  9
$DIMSTYLE
  2
STANDARD
  9
$DIMCLRD
 70
     0
  9
$DIMCLRE
 70
     0
  9
$DIMCLRT
 70
     0
  9
$DIMTFAC
 40
1.0
  9
$DIMGAP
 40
0.09
  9
$LUNITS
 70
     2
  9
$LUPREC
 70
     4
  9
$SKETCHINC
 40
0.1
  9
$FILLETRAD
 40
0.0
  9
$AUNITS
 70
     0
  9
$AUPREC
 70
     0
  9
$MENU
  1
.
  9
$ELEVATION
 40
0.0
  9
$PELEVATION
 40
0.0
  9
$THICKNESS
 40
0.0
  9
$LIMCHECK
 70
     0
  9
$BLIPMODE
 70
     0
  9
$CHAMFERA
 40
0.0
  9
$CHAMFERB
 40
0.0
  9
$SKPOLY
 70
     0
  9
$TDCREATE
 40
2444972.375
  9
$TDUPDATE
 40
2456676.2515407871
  9
$TDINDWG
 40
0.0000090856
  9
$TDUSRTIMER
 40
0.0000090856
  9
$USRTIMER
 70
     1
  9
$ANGBASE
 50
0.0
  9
$ANGDIR
 70
     0
  9
$PDMODE
 70
     0
  9
$PDSIZE
 40
0.0
  9
$PLINEWID
 40
0.0
  9
$COORDS
 70
     1
  9
$SPLFRAME
 70
     0
  9
$SPLINETYPE
 70
     6
  9
$SPLINESEGS
 70
     8
  9
$ATTDIA
 70
     0
  9
$ATTREQ
 70
     1
  9
$HANDLING
 70
     1
  9
$HANDSEED
  5
48E
  9
$SURFTAB1
 70
     6
  9
$SURFTAB2
 70
     6
  9
$SURFTYPE
 70
     6
  9
$SURFU
 70
     6
  9
$SURFV
 70
     6
  9
$UCSNAME
  2

  9
$UCSORG
 10
0.0
 20
0.0
 30
0.0
  9
$UCSXDIR
 10
1.0
 20
0.0
 30
0.0
  9
$UCSYDIR
 10
0.0
 20
1.0
 30
0.0
  9
$PUCSNAME
  2

  9
$PUCSORG
 10
0.0
 20
0.0
 30
0.0
  9
$PUCSXDIR
 10
1.0
 20
0.0
 30
0.0
  9
$PUCSYDIR
 10
0.0
 20
1.0
 30
0.0
  9
$USERI1
 70
     0
  9
$USERI2
 70
     0
  9
$USERI3
 70
     0
  9
$USERI4
 70
     0
  9
$USERI5
 70
     0
  9
$USERR1
 40
0.0
  9
$USERR2
 40
0.0
  9
$USERR3
 40
0.0
  9
$USERR4
 40
0.0
  9
$USERR5
 40
0.0
  9
$WORLDVIEW
 70
     1
  9
$SHADEDGE
 70
     3
  9
$SHADEDIF
 70
    70
  9
$TILEMODE
 70
     1
  9
$MAXACTVP
 70
    48
  9
$PLIMCHECK
 70
     0
  9
$PEXTMIN
 10
1.0000000000000000E+020
 20
1.0000000000000000E+020
 30
1.0000000000000000E+020
  9
$PEXTMAX
 10
-1.0000000000000000E+020
 20
-1.0000000000000000E+020
 30
-1.0000000000000000E+020
  9
$PLIMMIN
 10
0.0
 20
0.0
  9
$PLIMMAX
 10
12.0
 20
9.0
  9
$UNITMODE
 70
     0
  9
$VISRETAIN
 70
     1
  9
$PLINEGEN
 70
     0
  9
$PSLTSCALE
 70
     1
  0
ENDSEC
  0
SECTION
  2
TABLES
  0
TABLE
  2
VPORT
 70
     2
  0
VPORT
  2
*ACTIVE
 70
     0
 10
0.0
 20
0.0
 11
1.0
 21
1.0
 12
202.006301769564
 22
127.42999999999989
 13
0.0
 23
0.0
 14
1.0
 24
1.0
 15
0.0
 25
0.0
 16
0.0
 26
0.0
 36
1.0
 17
0.0
 27
0.0
 37
0.0
 40
299.45318569463541
 41
2.2894736842105261
 42
50.0
 43
0.0
 44
0.0
 50
0.0
 51
0.0
 71
     0
 72
   100
 73
     1
 74
     1
 75
     0
 76
     0
 77
     0
 78
     0
  0
ENDTAB
  0
TABLE
  2
LTYPE
 70
     3
  0
LTYPE
  2
CONTINUOUS
 70
     0
  3
Solid line
 72
    65
 73
     0
 40
0.0
  0
LTYPE
  2
AIGENLINE001
 70
     0
  3
generate AI->DXF Converter
 72
    65
 73
     4
 40
5.8561449999999988
 49
3.5278
 49
-0.776115
 49
0.776115
 49
-0.776115
  0
LTYPE
  2
AIGENLINE002
 70
     0
  3
generate AI->DXF Converter
 72
    65
 73
     6
 40
7.4083750000000004
 49
3.5278
 49
-0.776115
 49
0.776115
 49
-0.776115
 49
0.776115
 49
-0.776115
  0
ENDTAB
  0
TABLE
  2
LAYER
 70
     2
  0
LAYER
  2
0
 70
     0
 62
     7
  6
CONTINUOUS
  0
LAYER
  2
_________2
 70
     0
 62
     7
  6
CONTINUOUS
  0
ENDTAB
  0
TABLE
  2
STYLE
 70
     1
  0
STYLE
  2
STANDARD
 70
     0
 40
0.0
 41
0.0
 50
0.0
 71
     0
 42
0.0
  3
TXT
  4
EXTFONT.SHX
  0
ENDTAB
  0
TABLE
  2
VIEW
 70
     0
  0
ENDTAB
  0
TABLE
  2
UCS
 70
     0
  0
ENDTAB
  0
TABLE
  2
APPID
 70
     1
  0
APPID
  2
ACAD
 70
     0
  0
ENDTAB
  0
TABLE
  2
DIMSTYLE
 70
     1
  0
DIMSTYLE
  2
STANDARD
 70
     0
  3

  4

  5

  6

  7

 40
1.0
 41
0.18
 42
0.0625
 43
0.38
 44
0.18
 45
0.0
 46
0.0
 47
0.0
 48
0.0
140
0.18
141
0.09
142
0.0
143
25.399999999999999
144
1.0
145
0.0
146
1.0
147
0.09
 71
     0
 72
     0
 73
     1
 74
     1
 75
     0
 76
     0
 77
     0
 78
     0
170
     0
171
     2
172
     0
173
     0
174
     0
175
     0
176
     0
177
     0
178
     0
  0
ENDTAB
  0
ENDSEC
  0
SECTION
  2
BLOCKS
  0
BLOCK
  8
0
  2
$MODEL_SPACE
 70
     0
 10
0.0
 20
0.0
 30
0.0
  3
$MODEL_SPACE
  1

  0
ENDBLK
  5
1A
  8
0
  0
BLOCK
 67
     1
  8
0
  2
$PAPER_SPACE
 70
     0
 10
0.0
 20
0.0
 30
0.0
  3
$PAPER_SPACE
  1

  0
ENDBLK
  5
17
 67
     1
  8
0
  0
ENDSEC
  0
SECTION
  2
ENTITIES
  0
TEXT
  5
23
  8
0
 62
     7
 10
135.76300000000001
 20
231.70999999999989
 30
0.0
 40
3.0923400000000001
  1
%%c35
 41
0.5
  0
TEXT
  5
24
  8
0
 62
     7
 10
112.50700000000001
 20
217.42400000000001
 30
0.0
 40
3.0923400000000001
  1
水
 41
0.5
  0
TEXT
  5
25
  8
0
 62
     7
 10
58.397908000000001
 20
217.42400000000001
 30
0.0
 40
3.0923400000000001
  1
湯
 41
0.5
 72
     2
 11
59.841000000000001
 21
217.42400000000001
 31
0.0
  0
TEXT
  5
26
  8
0
 62
     7
 10
127.0879859999999
 20
179.4559999999999
 30
0.0
 40
3.0923400000000001
  1
閉
 41
0.5
 72
     2
 11
128.428
 21
179.4559999999999
 31
0.0
  0
TEXT
  5
27
  8
0
 62
     7
 10
131.14198599999989
 20
184.83299999999991
 30
0.0
 40
3.0923400000000001
  1
開
 41
0.5
 72
     2
 11
132.482
 21
184.83299999999991
 31
0.0
  0
TEXT
  5
28
  8
0
 62
     7
 10
20.139500000000002
 20
39.087299999999999
 30
0.0
 40
3.6545800000000002
  1
・国産洗面器とのセットの場合は国産の排水ヘッド部を別途準備してください。
 41
0.5
  0
TEXT
  5
29
  8
0
 62
     7
 10
52.769582499999991
 20
52.6524
 30
0.0
 40
3.0923400000000001
  1
180
 41
0.5
 72
     1
 11
54.444600000000001
 21
52.6524
 31
0.0
  0
TEXT
  5
2A
  8
0
 62
     7
 10
52.150100000000002
 20
72.284025
 30
0.0
 40
3.0923400000000001
  1
%%c5
 50
90.0
 41
0.5
 72
     1
 11
52.150100000000002
 21
73.572500000000005
 31
0.0
  0
TEXT
  5
2B
  8
0
 62
     7
 10
42.67851799999999
 20
59.986699999999999
 30
0.0
 40
3.0923400000000001
  1
G1 1/4
 41
0.5
 72
     2
 11
49.790900000000001
 21
59.986699999999999
 31
0.0
  0
TEXT
  5
2C
  8
0
 62
     7
 10
26.3062
 20
68.521672499999994
 30
0.0
 40
3.0923400000000001
  1
50
 50
90.0
 41
0.5
 72
     1
 11
26.3062
 21
69.681299999999993
 31
0.0
  0
TEXT
  5
2D
  8
0
 62
     7
 10
25.965800000000002
 20
75.761922500000011
 30
0.0
 40
3.0923400000000001
  1
max.50
 50
90.0
 41
0.5
 72
     1
 11
25.965800000000002
 21
79.498500000000007
 31
0.0
  0
TEXT
  5
2E
  8
0
 62
     7
 10
35.428240000000002
 20
88.614999999999995
 30
0.0
 40
3.0923400000000001
  1
%%c63
 41
0.5
 72
     1
 11
37.489800000000002
 21
88.614999999999995
 31
0.0
  0
TEXT
  5
2F
  8
0
 62
     7
 10
135.55299999999991
 20
51.620899999999999
 30
0.0
 40
3.865419999999999
  1
G 3/8
 41
0.5
  0
TEXT
  5
30
  8
0
 62
     7
 10
125.8929999999999
 20
140.30084500000001
 30
0.0
 40
3.0923400000000001
  1
max.40
 50
90.0
 41
0.5
 72
     2
 11
125.8929999999999
 21
147.774
 31
0.0
  0
TEXT
  5
31
  8
0
 62
     7
 10
155.29505
 20
144.43299999999991
 30
0.0
 40
3.0923400000000001
  1
45
 41
0.5
 72
     2
 11
157.87200000000001
 21
144.43299999999991
 31
0.0
  0
TEXT
  5
32
  8
0
 62
     7
 10
154.8860499999999
 20
97.809600000000003
 30
0.0
 40
3.0923400000000001
  1
%%c5
 41
0.5
 72
     2
 11
157.46299999999991
 21
97.809600000000003
 31
0.0
  0
TEXT
  5
33
  8
0
 62
     7
 10
98.393135000000015
 20
211.19699999999989
 30
0.0
 40
3.0923400000000001
  1
55%%d
 41
0.5
 72
     1
 11
100.197
 21
211.19699999999989
 31
0.0
  0
TEXT
  5
34
  8
0
 62
     7
 10
70.943235000000001
 20
211.19699999999989
 30
0.0
 40
3.0923400000000001
  1
55%%d
 41
0.5
 72
     1
 11
72.747100000000003
 21
211.19699999999989
 31
0.0
  0
TEXT
  5
35
  8
0
 62
     7
 10
111.1419649999999
 20
152.8129999999999
 30
0.0
 40
3.0923400000000001
  1
20%%d
 41
0.5
 72
     2
 11
114.492
 21
152.8129999999999
 31
0.0
  0
TEXT
  5
36
  8
0
 62
     7
 10
129.81398250000001
 20
153.197
 30
0.0
 40
3.0923400000000001
  1
130
 41
0.5
 72
     1
 11
131.489
 21
153.197
 31
0.0
  0
TEXT
  5
37
  8
0
 62
     7
 10
76.008799999999994
 20
153.77600000000001
 30
0.0
 40
3.0923400000000001
  1
50
 41
0.5
  0
TEXT
  5
38
  8
0
 62
     7
 10
105.38799999999991
 20
101.9264399999999
 30
0.0
 40
3.0923400000000001
  1
355
 50
90.0
 41
0.5
 72
     1
 11
105.38799999999991
 21
103.9879999999999
 31
0.0
  0
TEXT
  5
39
  8
0
 62
     7
 10
125.8929999999999
 20
156.4365249999999
 30
0.0
 40
3.0923400000000001
  1
68
 50
90.0
 41
0.5
 72
     1
 11
125.8929999999999
 21
157.72499999999999
 31
0.0
  0
TEXT
  5
3A
  8
0
 62
     7
 10
105.38799999999991
 20
156.231525
 30
0.0
 40
3.0923400000000001
  1
72
 50
90.0
 41
0.5
 72
     1
 11
105.38799999999991
 21
157.52000000000001
 31
0.0
  0
TEXT
  5
3B
  8
0
 62
     7
 10
174.95899999999989
 20
161.91513499999991
 30
0.0
 40
3.0923400000000001
  1
148
 50
90.0
 41
0.5
 72
     1
 11
174.95899999999989
 21
163.71899999999991
 31
0.0
  0
TEXT
  5
3C
  8
0
 62
     7
 10
167.904
 20
161.91513499999991
 30
0.0
 40
3.0923400000000001
  1
127
 50
90.0
 41
0.5
 72
     1
 11
167.904
 21
163.71899999999991
 31
0.0
  0
TEXT
  5
3D
  8
0
 62
     7
 10
167.904
 20
110.101135
 30
0.0
 40
3.0923400000000001
  1
300
 50
90.0
 41
0.5
 72
     1
 11
167.904
 21
111.905
 31
0.0
  0
TEXT
  5
3E
  8
0
 62
     7
 10
141.68624199999999
 20
223.441
 30
0.0
 40
3.0923400000000001
  1
水栓金具取付穴
 41
0.5
 72
     1
 11
147.9739999999999
 21
223.441
 31
0.0
  0
ARC
  5
3F
  8
0
 62
     7
 10
86.075494999999989
 20
237.39933500000001
 30
0.0
 40
31.020815999999989
 50
270.54483599999992
 51
324.44517300000001
  0
ARC
  5
40
  8
0
 62
     7
 10
86.645376999999996
 20
237.36172599999989
 30
0.0
 40
30.983022999999999
 50
215.4813639999999
 51
269.49162399999989
  0
LINE
  5
41
  8
0
 62
     7
 10
141.92899999999989
 20
230.7819999999999
 30
0.0
 11
135.56200000000001
 21
230.7819999999999
 31
0.0
  0
LINE
  5
42
  8
0
 62
     7
 10
151.892
 20
148.364
 30
0.0
 11
151.215
 21
146.95400000000001
 31
0.0
  0
LINE
  5
43
  8
0
 62
     7
 10
151.0989999999999
 20
146.44200000000001
 30
0.0
 11
151.0989999999999
 21
140.864
 31
0.0
  0
ARC
  5
44
  8
0
 62
     7
 10
152.2895409999999
 20
146.43995200000001
 30
0.0
 40
1.190833
 50
154.45063499999989
 51
179.904111
  0
LINE
  5
45
  8
0
  6
AIGENLINE001
 62
     7
 10
156.42899999999989
 20
159.2589999999999
 30
0.0
 11
150.65899999999991
 21
147.238
 31
0.0
  0
ARC
  5
46
  8
0
  6
AIGENLINE001
 62
     7
 10
152.35727
 20
146.4244009999999
 30
0.0
 40
1.8835059999999999
 50
154.392627
 51
179.94839799999991
  0
LINE
  5
47
  8
0
 62
     7
 10
160.59899999999999
 20
158.989
 30
0.0
 11
157.15000000000001
 21
158.989
 31
0.0
  0
LINE
  5
48
  8
0
 62
     7
 10
156.92400000000001
 20
158.84700000000001
 30
0.0
 11
153.5989999999999
 21
151.9189999999999
 31
0.0
  0
ARC
  5
49
  8
0
 62
     7
 10
157.15336600000001
 20
158.73228700000001
 30
0.0
 40
0.256455
 50
90.816167000000036
 51
153.39877899999991
  0
LINE
  5
4A
  8
0
  6
AIGENLINE001
 62
     7
 10
161.49399999999989
 20
159.614
 30
0.0
 11
156.99199999999999
 21
159.614
 31
0.0
  0
ARC
  5
4B
  8
0
  6
AIGENLINE001
 62
     7
 10
157.00088500000001
 20
158.97528600000001
 30
0.0
 40
0.6387770000000002
 50
90.772658999999976
 51
153.61506700000001
  0
LINE
  5
4C
  8
0
 62
     7
 10
150.506
 20
148.364
 30
0.0
 11
150.095
 21
147.5079999999999
 31
0.0
  0
LINE
  5
4D
  8
0
 62
     7
 10
149.8489999999999
 20
146.42599999999999
 30
0.0
 11
149.8489999999999
 21
140.864
 31
0.0
  0
ARC
  5
4E
  8
0
 62
     7
 10
152.35662999999991
 20
146.42432400000001
 30
0.0
 40
2.5078099999999992
 50
154.392506
 51
179.95160799999999
  0
LINE
  5
4F
  8
0
 62
     7
 10
160.59899999999999
 20
160.23899999999989
 30
0.0
 11
156.99199999999999
 21
160.23899999999989
 31
0.0
  0
LINE
  5
50
  8
0
 62
     7
 10
155.86500000000001
 20
159.52999999999989
 30
0.0
 11
153.5989999999999
 21
154.80799999999991
 31
0.0
  0
ARC
  5
51
  8
0
 62
     7
 10
157.01065299999991
 20
158.95995799999989
 30
0.0
 40
1.279123999999999
 50
90.823393999999993
 51
153.55503699999991
  0
LINE
  5
52
  8
0
 62
     7
 10
160.59899999999999
 20
158.989
 30
0.0
 11
160.59899999999999
 21
160.23899999999989
 31
0.0
  0
LINE
  5
53
  8
0
 62
     7
 10
89.873500000000007
 20
147.36500000000001
 30
0.0
 11
88.623199999999997
 21
147.36500000000001
 31
0.0
  0
LINE
  5
54
  8
0
 62
     7
 10
87.3733
 20
147.36500000000001
 30
0.0
 11
88.623199999999997
 21
147.36500000000001
 31
0.0
  0
ARC
  5
55
  8
0
 62
     7
 10
146.97392899999991
 20
146.691836
 30
0.0
 40
0.7188100000000001
 50
110.631292
 51
146.46524700000001
  0
ARC
  5
56
  8
0
 62
     7
 10
146.80310399999991
 20
146.83148199999991
 30
0.0
 40
0.4997580000000001
 50
148.9918989999999
 51
161.457785
  0
LINE
  5
57
  8
0
 62
     7
 10
146.32900000000001
 20
146.99000000000001
 30
0.0
 11
146.29599999999991
 21
146.8899999999999
 31
0.0
  0
LINE
  5
58
  8
0
 62
     7
 10
146.29599999999991
 20
146.8899999999999
 30
0.0
 11
146.29599999999991
 21
146.74000000000001
 31
0.0
  0
LINE
  5
59
  8
0
 62
     7
 10
146.29599999999991
 20
146.74000000000001
 30
0.0
 11
146.34499999999991
 21
146.56499999999991
 31
0.0
  0
LINE
  5
5A
  8
0
 62
     7
 10
149.62100000000001
 20
146.56499999999991
 30
0.0
 11
149.596
 21
146.56499999999991
 31
0.0
  0
ARC
  5
5B
  8
0
 62
     7
 10
119.78370200000001
 20
150.883465
 30
0.0
 40
30.148250000000001
 50
351.76510500000001
 51
352.10103399999991
  0
LINE
  5
5C
  8
0
 62
     7
 10
149.64599999999999
 20
146.74000000000001
 30
0.0
 11
149.64599999999999
 21
146.8899999999999
 31
0.0
  0
LINE
  5
5D
  8
0
 62
     7
 10
149.64599999999999
 20
146.8899999999999
 30
0.0
 11
149.614
 21
146.99000000000001
 31
0.0
  0
ARC
  5
5E
  8
0
 62
     7
 10
148.55309999999989
 20
146.63578299999989
 30
0.0
 40
1.118144
 50
18.490876
 51
23.307994999999998
  0
ARC
  5
5F
  8
0
 62
     7
 10
149.14188799999991
 20
146.890659
 30
0.0
 40
0.47656
 50
23.174828000000002
 51
42.308720000000001
  0
ARC
  5
60
  8
0
 62
     7
 10
149.2118679999999
 20
146.9357169999999
 30
0.0
 40
0.394719
 50
44.309932000000003
 51
54.722825999999991
  0
ARC
  5
61
  8
0
 62
     7
 10
149.01933500000001
 20
146.65851599999991
 30
0.0
 40
0.732217
 50
54.950842000000002
 51
62.391277000000002
  0
ARC
  5
62
  8
0
 62
     7
 10
147.250494
 20
143.2790389999999
 30
0.0
 40
4.5466189999999997
 50
62.375211999999991
 51
63.972221999999988
  0
LINE
  5
63
  8
0
 62
     7
 10
149.24600000000001
 20
147.36500000000001
 30
0.0
 11
149.221
 21
147.36500000000001
 31
0.0
  0
LINE
  5
64
  8
0
 62
     7
 10
149.42099999999991
 20
144.1399999999999
 30
0.0
 11
147.971
 21
144.1399999999999
 31
0.0
  0
LINE
  5
65
  8
0
 62
     7
 10
147.971
 20
144.1399999999999
 30
0.0
 11
146.5449999999999
 21
144.1399999999999
 31
0.0
  0
LINE
  5
66
  8
0
 62
     7
 10
146.29599999999991
 20
143.58999999999989
 30
0.0
 11
146.29599999999991
 21
143.715
 31
0.0
  0
LINE
  5
67
  8
0
 62
     7
 10
146.29599999999991
 20
143.715
 30
0.0
 11
146.37100000000001
 21
143.84
 31
0.0
  0
LINE
  5
68
  8
0
 62
     7
 10
149.67099999999999
 20
143.58999999999989
 30
0.0
 11
149.64599999999999
 21
143.715
 31
0.0
  0
LINE
  5
69
  8
0
 62
     7
 10
149.64599999999999
 20
143.715
 30
0.0
 11
149.596
 21
143.84
 31
0.0
  0
LINE
  5
6A
  8
0
 62
     7
 10
149.67099999999999
 20
142.88900000000001
 30
0.0
 11
146.29599999999991
 21
142.88900000000001
 31
0.0
  0
LINE
  5
6B
  8
0
 62
     7
 10
149.67099999999999
 20
142.88900000000001
 30
0.0
 11
149.67099999999999
 21
143.58999999999989
 31
0.0
  0
LINE
  5
6C
  8
0
 62
     7
 10
146.29599999999991
 20
142.88900000000001
 30
0.0
 11
146.29599999999991
 21
143.58999999999989
 31
0.0
  0
LINE
  5
6D
  8
0
 62
     7
 10
149.596
 20
143.84
 30
0.0
 11
149.42099999999991
 21
144.1399999999999
 31
0.0
  0
LINE
  5
6E
  8
0
 62
     7
 10
146.37100000000001
 20
143.84
 30
0.0
 11
146.5449999999999
 21
144.1399999999999
 31
0.0
  0
LINE
  5
6F
  8
0
 62
     7
 10
146.5449999999999
 20
146.1399999999999
 30
0.0
 11
146.34499999999991
 21
146.56499999999991
 31
0.0
  0
LINE
  5
70
  8
0
 62
     7
 10
149.42099999999991
 20
144.1399999999999
 30
0.0
 11
149.42099999999991
 21
146.1399999999999
 31
0.0
  0
LINE
  5
71
  8
0
 62
     7
 10
146.5449999999999
 20
144.1399999999999
 30
0.0
 11
146.5449999999999
 21
146.1399999999999
 31
0.0
  0
LINE
  5
72
  8
0
 62
     7
 10
146.5449999999999
 20
146.1399999999999
 30
0.0
 11
149.42099999999991
 21
146.1399999999999
 31
0.0
  0
LINE
  5
73
  8
0
 62
     7
 10
149.42099999999991
 20
146.1399999999999
 30
0.0
 11
149.596
 21
146.56499999999991
 31
0.0
  0
ARC
  5
74
  8
0
 62
     7
 10
83.120402999999996
 20
146.691836
 30
0.0
 40
0.7188100000000001
 50
110.631292
 51
146.46524700000001
  0
ARC
  5
75
  8
0
 62
     7
 10
82.949578000000002
 20
146.83148199999991
 30
0.0
 40
0.4997580000000001
 50
148.9918989999999
 51
161.457785
  0
LINE
  5
76
  8
0
 62
     7
 10
82.475800000000007
 20
146.99000000000001
 30
0.0
 11
82.442299999999989
 21
146.8899999999999
 31
0.0
  0
LINE
  5
77
  8
0
 62
     7
 10
82.442299999999989
 20
146.8899999999999
 30
0.0
 11
82.442299999999989
 21
146.74000000000001
 31
0.0
  0
LINE
  5
78
  8
0
 62
     7
 10
82.442299999999989
 20
146.74000000000001
 30
0.0
 11
82.492000000000004
 21
146.56499999999991
 31
0.0
  0
LINE
  5
79
  8
0
 62
     7
 10
85.767600000000002
 20
146.56499999999991
 30
0.0
 11
85.742799999999988
 21
146.56499999999991
 31
0.0
  0
ARC
  5
7A
  8
0
 62
     7
 10
-21.420763999999998
 20
161.8465909999999
 30
0.0
 40
108.272147
 50
351.88630000000001
 51
351.97983900000003
  0
LINE
  5
7B
  8
0
 62
     7
 10
85.792400000000001
 20
146.74000000000001
 30
0.0
 11
85.792400000000001
 21
146.8899999999999
 31
0.0
  0
LINE
  5
7C
  8
0
 62
     7
 10
85.792400000000001
 20
146.8899999999999
 30
0.0
 11
85.760000000000005
 21
146.99000000000001
 31
0.0
  0
ARC
  5
7D
  8
0
 62
     7
 10
84.699574999999996
 20
146.63578299999989
 30
0.0
 40
1.118144
 50
18.490876
 51
23.307994999999998
  0
ARC
  5
7E
  8
0
 62
     7
 10
85.288739000000007
 20
146.89090100000001
 30
0.0
 40
0.476119
 50
23.165880999999999
 51
42.317667
  0
ARC
  5
7F
  8
0
 62
     7
 10
85.358086999999998
 20
146.9354439999999
 30
0.0
 40
0.395092
 50
44.312365999999997
 51
54.714800999999987
  0
ARC
  5
80
  8
0
 62
     7
 10
85.165684999999996
 20
146.65822900000001
 30
0.0
 40
0.732526
 50
54.955430000000007
 51
62.393439000000001
  0
ARC
  5
81
  8
0
 62
     7
 10
83.401510999999985
 20
143.28822099999999
 30
0.0
 40
4.5363749999999987
 50
62.372341000000013
 51
63.972895999999999
  0
LINE
  5
82
  8
0
 62
     7
 10
85.392099999999999
 20
147.36500000000001
 30
0.0
 11
85.367199999999997
 21
147.36500000000001
 31
0.0
  0
LINE
  5
83
  8
0
 62
     7
 10
85.567400000000006
 20
144.1399999999999
 30
0.0
 11
84.117399999999989
 21
144.1399999999999
 31
0.0
  0
LINE
  5
84
  8
0
 62
     7
 10
84.117399999999989
 20
144.1399999999999
 30
0.0
 11
82.691800000000001
 21
144.1399999999999
 31
0.0
  0
LINE
  5
85
  8
0
 62
     7
 10
82.442299999999989
 20
143.58999999999989
 30
0.0
 11
82.442299999999989
 21
143.715
 31
0.0
  0
LINE
  5
86
  8
0
 62
     7
 10
82.442299999999989
 20
143.715
 30
0.0
 11
82.517099999999999
 21
143.84
 31
0.0
  0
LINE
  5
87
  8
0
 62
     7
 10
85.817499999999995
 20
143.58999999999989
 30
0.0
 11
85.792400000000001
 21
143.715
 31
0.0
  0
LINE
  5
88
  8
0
 62
     7
 10
85.792400000000001
 20
143.715
 30
0.0
 11
85.742799999999988
 21
143.84
 31
0.0
  0
LINE
  5
89
  8
0
 62
     7
 10
85.817499999999995
 20
142.88900000000001
 30
0.0
 11
82.442299999999989
 21
142.88900000000001
 31
0.0
  0
LINE
  5
8A
  8
0
 62
     7
 10
85.817499999999995
 20
142.88900000000001
 30
0.0
 11
85.817499999999995
 21
143.58999999999989
 31
0.0
  0
LINE
  5
8B
  8
0
 62
     7
 10
82.442299999999989
 20
142.88900000000001
 30
0.0
 11
82.442299999999989
 21
143.58999999999989
 31
0.0
  0
LINE
  5
8C
  8
0
 62
     7
 10
85.742799999999988
 20
143.84
 30
0.0
 11
85.567400000000006
 21
144.1399999999999
 31
0.0
  0
LINE
  5
8D
  8
0
 62
     7
 10
82.517099999999999
 20
143.84
 30
0.0
 11
82.691800000000001
 21
144.1399999999999
 31
0.0
  0
LINE
  5
8E
  8
0
 62
     7
 10
82.691800000000001
 20
146.1399999999999
 30
0.0
 11
82.492000000000004
 21
146.56499999999991
 31
0.0
  0
LINE
  5
8F
  8
0
 62
     7
 10
85.567400000000006
 20
144.1399999999999
 30
0.0
 11
85.567400000000006
 21
146.1399999999999
 31
0.0
  0
LINE
  5
90
  8
0
 62
     7
 10
82.691800000000001
 20
144.1399999999999
 30
0.0
 11
82.691800000000001
 21
146.1399999999999
 31
0.0
  0
LINE
  5
91
  8
0
 62
     7
 10
85.745199999999997
 20
148.364
 30
0.0
 11
85.745199999999997
 21
147.02999999999989
 31
0.0
  0
LINE
  5
92
  8
0
 62
     7
 10
85.745199999999997
 20
146.56499999999991
 30
0.0
 11
85.745199999999997
 21
143.84
 31
0.0
  0
LINE
  5
93
  8
0
 62
     7
 10
85.745199999999997
 20
142.88900000000001
 30
0.0
 11
85.745199999999997
 21
140.864
 31
0.0
  0
LINE
  5
94
  8
0
 62
     7
 10
81.366799999999998
 20
61.489100000000001
 30
0.0
 11
81.366799999999998
 21
58.863300000000002
 31
0.0
  0
LINE
  5
95
  8
0
 62
     7
 10
82.742400000000004
 20
61.489100000000001
 30
0.0
 11
82.742400000000004
 21
58.863300000000002
 31
0.0
  0
ARC
  5
96
  8
0
 62
     7
 10
84.731957999999992
 20
66.680583999999996
 30
0.0
 40
8.5108619999999995
 50
246.70920499999991
 51
248.35700399999999
  0
ARC
  5
97
  8
0
 62
     7
 10
82.280726000000001
 20
60.537103999999999
 30
0.0
 40
1.896471
 50
248.73670000000001
 51
258.21222899999998
  0
ARC
  5
98
  8
0
 62
     7
 10
82.074667000000005
 20
59.628039000000001
 30
0.0
 40
0.9646139999999999
 50
259.16278199999988
 51
269.53432299999992
  0
ARC
  5
99
  8
0
 62
     7
 10
82.066690000000008
 20
59.569428000000002
 30
0.0
 40
0.9059709999999999
 50
270.00869599999987
 51
282.46940199999989
  0
ARC
  5
9A
  8
0
 62
     7
 10
81.943776999999997
 20
60.194625000000002
 30
0.0
 40
1.543032
 50
281.91324900000001
 51
292.81865800000003
  0
ARC
  5
9B
  8
0
 62
     7
 10
81.483406000000002
 20
61.369993000000008
 30
0.0
 40
2.805127999999999
 50
292.17554799999988
 51
296.66826700000001
  0
ARC
  5
9C
  8
0
 62
     7
 10
81.987507999999991
 20
60.373883999999997
 30
0.0
 40
1.346730999999999
 50
55.906326
 51
82.633775
  0
ARC
  5
9D
  8
0
 62
     7
 10
82.065722999999991
 20
60.811419999999991
 30
0.0
 40
0.9030329999999999
 50
83.996275999999995
 51
89.929920999999993
  0
ARC
  5
9E
  8
0
 62
     7
 10
82.067619999999991
 20
60.795669999999987
 30
0.0
 40
0.9187829999999999
 50
90.049436999999983
 51
102.1910169999999
  0
ARC
  5
9F
  8
0
 62
     7
 10
82.157770999999997
 20
60.329785000000001
 30
0.0
 40
1.3932370000000001
 50
101.76890400000001
 51
113.179952
  0
ARC
  5
A0
  8
0
 62
     7
 10
82.384904000000006
 20
59.757892000000012
 30
0.0
 40
2.0084330000000001
 50
112.7146179999999
 51
120.459186
  0
LINE
  5
A1
  8
0
 62
     7
 10
85.617699999999999
 20
142.88900000000001
 30
0.0
 11
85.617699999999999
 21
140.864
 31
0.0
  0
LINE
  5
A2
  8
0
 62
     7
 10
82.617000000000004
 20
142.88900000000001
 30
0.0
 11
82.617000000000004
 21
140.864
 31
0.0
  0
LINE
  5
A3
  8
0
 62
     7
 10
85.617699999999999
 20
132.364
 30
0.0
 11
85.617699999999999
 21
66.365399999999994
 31
0.0
  0
LINE
  5
A4
  8
0
 62
     7
 10
82.617000000000004
 20
138.989
 30
0.0
 11
82.617000000000004
 21
66.365399999999994
 31
0.0
  0
LINE
  5
A5
  8
0
 62
     7
 10
85.492699999999985
 20
61.489100000000001
 30
0.0
 11
85.492699999999985
 21
58.863300000000002
 31
0.0
  0
ARC
  5
A6
  8
0
 62
     7
 10
88.882346999999996
 20
66.744428999999997
 30
0.0
 40
8.5791979999999999
 50
246.72740999999999
 51
248.32287899999989
  0
ARC
  5
A7
  8
0
 62
     7
 10
86.449258000000015
 20
60.649163000000001
 30
0.0
 40
2.0162869999999988
 50
248.59500800000001
 51
257.763261
  0
ARC
  5
A8
  8
0
 62
     7
 10
86.178032000000002
 20
59.467816999999997
 30
0.0
 40
0.8044279999999998
 50
258.808606
 51
269.25343700000002
  0
LINE
  5
A9
  8
0
 62
     7
 10
86.167599999999993
 20
58.663499999999999
 30
0.0
 11
86.228200000000001
 21
58.665900000000001
 31
0.0
  0
ARC
  5
AA
  8
0
 62
     7
 10
86.167613000000003
 20
60.898177000000011
 30
0.0
 40
0.8162749999999999
 50
85.004474999999985
 51
90.004358999999994
  0
ARC
  5
AB
  8
0
 62
     7
 10
86.168276999999989
 20
60.946090000000012
 30
0.0
 40
0.768363
 50
90.054157999999987
 51
103.845017
  0
ARC
  5
AC
  8
0
 62
     7
 10
86.311204000000004
 20
60.270893999999991
 30
0.0
 40
1.458323
 50
102.94928400000001
 51
114.1689409999999
  0
ARC
  5
AD
  8
0
 62
     7
 10
86.557176999999996
 20
59.663254999999999
 30
0.0
 40
2.113545999999999
 50
113.508207
 51
120.242947
  0
ARC
  5
AE
  8
0
 62
     7
 10
81.424368000000001
 20
52.267614999999999
 30
0.0
 40
6.7260660000000003
 50
76.798683999999994
 51
78.699123999999998
  0
ARC
  5
AF
  8
0
 62
     7
 10
84.43083399999999
 20
64.387472000000002
 30
0.0
 40
5.7623030000000002
 50
255.21587700000001
 51
261.42086899999993
  0
ARC
  5
B0
  8
0
 62
     7
 10
83.917529000000002
 20
60.95431099999999
 30
0.0
 40
2.290988
 50
261.30629199999993
 51
269.38004399999988
  0
LINE
  5
B1
  8
0
 62
     7
 10
83.892700000000005
 20
58.663499999999999
 30
0.0
 11
84.342000000000013
 21
58.663499999999999
 31
0.0
  0
ARC
  5
B2
  8
0
 62
     7
 10
84.341661999999985
 20
60.624282999999998
 30
0.0
 40
1.9608259999999991
 50
270.00938500000001
 51
278.46042699999992
  0
ARC
  5
B3
  8
0
 62
     7
 10
84.127578999999997
 20
62.280115000000002
 30
0.0
 40
3.6302759999999998
 50
277.9575319999999
 51
281.44536299999999
  0
ARC
  5
B4
  8
0
 62
     7
 10
82.715549999999993
 20
69.140737000000001
 30
0.0
 40
10.634688000000001
 50
281.56698799999992
 51
283.46249799999998
  0
ARC
  5
B5
  8
0
 62
     7
 10
86.610363000000007
 20
52.953375000000001
 30
0.0
 40
6.0146639999999989
 50
100.709577
 51
103.645709
  0
ARC
  5
B6
  8
0
 62
     7
 10
84.252696999999984
 20
57.834706000000011
 30
0.0
 40
3.8590659999999999
 50
71.257854000000009
 51
77.192154000000002
  0
ARC
  5
B7
  8
0
 62
     7
 10
84.011943999999986
 20
56.970443999999993
 30
0.0
 40
4.7553910000000004
 50
76.671986000000004
 51
85.669133000000016
  0
ARC
  5
B8
  8
0
 62
     7
 10
84.224429999999984
 20
59.429062999999999
 30
0.0
 40
2.287895999999999
 50
86.325652000000005
 51
92.682303000000019
  0
ARC
  5
B9
  8
0
 62
     7
 10
84.034103999999999
 20
60.298625000000001
 30
0.0
 40
1.418274
 50
86.634596999999999
 51
91.039574000000002
  0
ARC
  5
BA
  8
0
 62
     7
 10
84.047764999999998
 20
59.141756999999998
 30
0.0
 40
2.5752090000000001
 50
90.876494999999991
 51
94.814526000000001
  0
ARC
  5
BB
  8
0
 62
     7
 10
84.245481999999996
 20
56.825825999999992
 30
0.0
 40
4.8995639999999989
 50
94.845420000000004
 51
107.86502
  0
LINE
  5
BC
  8
0
 62
     7
 10
82.867099999999994
 20
61.8902
 30
0.0
 11
84.117399999999989
 21
61.8902
 31
0.0
  0
LINE
  5
BD
  8
0
 62
     7
 10
85.367199999999997
 20
61.8902
 30
0.0
 11
84.117399999999989
 21
61.8902
 31
0.0
  0
LINE
  5
BE
  8
0
 62
     7
 10
86.417999999999992
 20
58.613799999999998
 30
0.0
 11
84.117399999999989
 21
58.613799999999998
 31
0.0
  0
LINE
  5
BF
  8
0
 62
     7
 10
84.117399999999989
 20
58.613799999999998
 30
0.0
 11
81.816699999999997
 21
58.613799999999998
 31
0.0
  0
LINE
  5
C0
  8
0
 62
     7
 10
81.516599999999997
 20
58.813699999999997
 30
0.0
 11
81.816699999999997
 21
58.6387
 31
0.0
  0
LINE
  5
C1
  8
0
 62
     7
 10
81.816699999999997
 20
58.6387
 30
0.0
 11
81.816699999999997
 21
58.613799999999998
 31
0.0
  0
LINE
  5
C2
  8
0
 62
     7
 10
81.366799999999998
 20
58.863300000000002
 30
0.0
 11
81.816699999999997
 21
58.6387
 31
0.0
  0
LINE
  5
C3
  8
0
 62
     7
 10
86.417999999999992
 20
61.7393
 30
0.0
 11
81.816699999999997
 21
61.7393
 31
0.0
  0
LINE
  5
C4
  8
0
 62
     7
 10
85.667699999999996
 20
61.86399999999999
 30
0.0
 11
82.567099999999996
 21
61.86399999999999
 31
0.0
  0
ARC
  5
C5
  8
0
 62
     7
 10
83.118725999999995
 20
62.560752000000001
 30
0.0
 40
0.7162430000000001
 50
213.46767299999991
 51
249.434697
  0
ARC
  5
C6
  8
0
 62
     7
 10
82.949307000000005
 20
62.423106999999987
 30
0.0
 40
0.499466
 50
198.54002199999999
 51
211.01267599999991
  0
LINE
  5
C7
  8
0
 62
     7
 10
82.475800000000007
 20
62.264299999999999
 30
0.0
 11
82.442299999999989
 21
62.36419999999999
 31
0.0
  0
LINE
  5
C8
  8
0
 62
     7
 10
82.442299999999989
 20
62.36419999999999
 30
0.0
 11
82.442299999999989
 21
62.514400000000002
 31
0.0
  0
LINE
  5
C9
  8
0
 62
     7
 10
82.442299999999989
 20
62.514400000000002
 30
0.0
 11
82.492000000000004
 21
62.689399999999999
 31
0.0
  0
LINE
  5
CA
  8
0
 62
     7
 10
85.767600000000002
 20
62.689399999999999
 30
0.0
 11
85.742799999999988
 21
62.689399999999999
 31
0.0
  0
ARC
  5
CB
  8
0
 62
     7
 10
-21.420763999999998
 20
47.408109000000003
 30
0.0
 40
108.272147
 50
8.0201609999999999
 51
8.1136999999999997
  0
LINE
  5
CC
  8
0
 62
     7
 10
85.792400000000001
 20
62.514400000000002
 30
0.0
 11
85.792400000000001
 21
62.36419999999999
 31
0.0
  0
LINE
  5
CD
  8
0
 62
     7
 10
85.792400000000001
 20
62.36419999999999
 30
0.0
 11
85.760000000000005
 21
62.264299999999999
 31
0.0
  0
ARC
  5
CE
  8
0
 62
     7
 10
84.690924999999993
 20
62.622191999999998
 30
0.0
 40
1.1273859999999989
 50
336.71280400000001
 51
341.49066599999998
  0
ARC
  5
CF
  8
0
 62
     7
 10
85.288617000000002
 20
62.363885000000003
 30
0.0
 40
0.476266
 50
317.684552
 51
336.82979499999999
  0
ARC
  5
D0
  8
0
 62
     7
 10
85.357442000000006
 20
62.320011999999998
 30
0.0
 40
0.396082
 50
305.29823599999992
 51
315.67459700000001
  0
ARC
  5
D1
  8
0
 62
     7
 10
85.165092999999999
 20
62.597513999999997
 30
0.0
 40
0.73372
 50
297.609959
 51
305.03562699999992
  0
ARC
  5
D2
  8
0
 62
     7
 10
83.410133999999985
 20
65.949050999999997
 30
0.0
 40
4.5169300000000003
 50
296.02581499999991
 51
297.63329199999993
  0
LINE
  5
D3
  8
0
 62
     7
 10
85.392099999999999
 20
61.8902
 30
0.0
 11
85.367199999999997
 21
61.8902
 31
0.0
  0
LINE
  5
D4
  8
0
 62
     7
 10
85.567400000000006
 20
63.1145
 30
0.0
 11
82.691800000000001
 21
63.1145
 31
0.0
  0
LINE
  5
D5
  8
0
 62
     7
 10
85.567400000000006
 20
65.114800000000002
 30
0.0
 11
84.117399999999989
 21
65.114800000000002
 31
0.0
  0
LINE
  5
D6
  8
0
 62
     7
 10
84.117399999999989
 20
65.114800000000002
 30
0.0
 11
82.691800000000001
 21
65.114800000000002
 31
0.0
  0
LINE
  5
D7
  8
0
 62
     7
 10
82.442299999999989
 20
65.664599999999993
 30
0.0
 11
82.442299999999989
 21
65.539900000000003
 31
0.0
  0
LINE
  5
D8
  8
0
 62
     7
 10
82.442299999999989
 20
65.539900000000003
 30
0.0
 11
82.517099999999999
 21
65.414500000000004
 31
0.0
  0
LINE
  5
D9
  8
0
 62
     7
 10
85.817499999999995
 20
65.664599999999993
 30
0.0
 11
85.792400000000001
 21
65.539900000000003
 31
0.0
  0
LINE
  5
DA
  8
0
 62
     7
 10
85.792400000000001
 20
65.539900000000003
 30
0.0
 11
85.742799999999988
 21
65.414500000000004
 31
0.0
  0
LINE
  5
DB
  8
0
 62
     7
 10
85.817499999999995
 20
66.365399999999994
 30
0.0
 11
82.442299999999989
 21
66.365399999999994
 31
0.0
  0
LINE
  5
DC
  8
0
 62
     7
 10
85.817499999999995
 20
66.365399999999994
 30
0.0
 11
85.817499999999995
 21
65.664599999999993
 31
0.0
  0
LINE
  5
DD
  8
0
 62
     7
 10
82.442299999999989
 20
66.365399999999994
 30
0.0
 11
82.442299999999989
 21
65.664599999999993
 31
0.0
  0
LINE
  5
DE
  8
0
 62
     7
 10
81.816699999999997
 20
61.7393
 30
0.0
 11
81.366799999999998
 21
61.489100000000001
 31
0.0
  0
LINE
  5
DF
  8
0
 62
     7
 10
85.742799999999988
 20
65.414500000000004
 30
0.0
 11
85.567400000000006
 21
65.114800000000002
 31
0.0
  0
LINE
  5
E0
  8
0
 62
     7
 10
85.567400000000006
 20
63.1145
 30
0.0
 11
85.742799999999988
 21
62.689399999999999
 31
0.0
  0
LINE
  5
E1
  8
0
 62
     7
 10
82.517099999999999
 20
65.414500000000004
 30
0.0
 11
82.691800000000001
 21
65.114800000000002
 31
0.0
  0
LINE
  5
E2
  8
0
 62
     7
 10
82.691800000000001
 20
63.1145
 30
0.0
 11
82.492000000000004
 21
62.689399999999999
 31
0.0
  0
LINE
  5
E3
  8
0
 62
     7
 10
85.567400000000006
 20
65.114800000000002
 30
0.0
 11
85.567400000000006
 21
63.1145
 31
0.0
  0
LINE
  5
E4
  8
0
 62
     7
 10
82.691800000000001
 20
65.114800000000002
 30
0.0
 11
82.691800000000001
 21
63.1145
 31
0.0
  0
LINE
  5
E5
  8
0
 62
     7
 10
85.667699999999996
 20
61.86399999999999
 30
0.0
 11
85.667699999999996
 21
61.7393
 31
0.0
  0
LINE
  5
E6
  8
0
 62
     7
 10
82.567099999999996
 20
61.86399999999999
 30
0.0
 11
82.567099999999996
 21
61.7393
 31
0.0
  0
LINE
  5
E7
  8
0
 62
     7
 10
81.366799999999998
 20
58.863300000000002
 30
0.0
 11
81.816699999999997
 21
58.613799999999998
 31
0.0
  0
ARC
  5
E8
  8
0
 62
     7
 10
89.620187999999999
 20
146.691836
 30
0.0
 40
0.7188100000000001
 50
33.534733000000003
 51
69.368688000000006
  0
ARC
  5
E9
  8
0
 62
     7
 10
89.791013000000007
 20
146.83148199999991
 30
0.0
 40
0.4997580000000001
 50
18.542195
 51
31.008081000000001
  0
LINE
  5
EA
  8
0
 62
     7
 10
90.264799999999994
 20
146.99000000000001
 30
0.0
 11
90.298199999999994
 21
146.8899999999999
 31
0.0
  0
LINE
  5
EB
  8
0
 62
     7
 10
90.298199999999994
 20
146.8899999999999
 30
0.0
 11
90.298199999999994
 21
146.74000000000001
 31
0.0
  0
LINE
  5
EC
  8
0
 62
     7
 10
90.298199999999994
 20
146.74000000000001
 30
0.0
 11
90.248599999999996
 21
146.56499999999991
 31
0.0
  0
LINE
  5
ED
  8
0
 62
     7
 10
86.972999999999999
 20
146.56499999999991
 30
0.0
 11
86.997799999999998
 21
146.56499999999991
 31
0.0
  0
ARC
  5
EE
  8
0
 62
     7
 10
194.16135499999999
 20
161.8465909999999
 30
0.0
 40
108.272147
 50
188.02018100000001
 51
188.11371999999989
  0
LINE
  5
EF
  8
0
 62
     7
 10
86.948199999999986
 20
146.74000000000001
 30
0.0
 11
86.948199999999986
 21
146.8899999999999
 31
0.0
  0
LINE
  5
F0
  8
0
 62
     7
 10
86.948199999999986
 20
146.8899999999999
 30
0.0
 11
86.980599999999995
 21
146.99000000000001
 31
0.0
  0
ARC
  5
F1
  8
0
 62
     7
 10
88.041017000000025
 20
146.63578299999989
 30
0.0
 40
1.118144
 50
156.69198499999999
 51
161.50910400000001
  0
ARC
  5
F2
  8
0
 62
     7
 10
87.451851999999988
 20
146.89090100000001
 30
0.0
 40
0.476119
 50
137.68231299999999
 51
156.83410000000001
  0
ARC
  5
F3
  8
0
 62
     7
 10
87.382503999999997
 20
146.9354439999999
 30
0.0
 40
0.395092
 50
125.285179
 51
135.687614
  0
ARC
  5
F4
  8
0
 62
     7
 10
87.574906999999996
 20
146.65822900000001
 30
0.0
 40
0.732526
 50
117.60654099999989
 51
125.04455
  0
ARC
  5
F5
  8
0
 62
     7
 10
89.339081000000007
 20
143.28822099999999
 30
0.0
 40
4.5363749999999987
 50
116.027084
 51
117.6276399999999
  0
LINE
  5
F6
  8
0
 62
     7
 10
87.348499999999987
 20
147.36500000000001
 30
0.0
 11
87.3733
 21
147.36500000000001
 31
0.0
  0
LINE
  5
F7
  8
0
 62
     7
 10
82.691800000000001
 20
146.1399999999999
 30
0.0
 11
85.567400000000006
 21
146.1399999999999
 31
0.0
  0
LINE
  5
F8
  8
0
 62
     7
 10
87.173199999999994
 20
146.1399999999999
 30
0.0
 11
90.048799999999986
 21
146.1399999999999
 31
0.0
  0
LINE
  5
F9
  8
0
 62
     7
 10
87.173199999999994
 20
144.1399999999999
 30
0.0
 11
88.623199999999997
 21
144.1399999999999
 31
0.0
  0
LINE
  5
FA
  8
0
 62
     7
 10
88.623199999999997
 20
144.1399999999999
 30
0.0
 11
90.048799999999986
 21
144.1399999999999
 31
0.0
  0
LINE
  5
FB
  8
0
 62
     7
 10
90.298199999999994
 20
143.58999999999989
 30
0.0
 11
90.298199999999994
 21
143.715
 31
0.0
  0
LINE
  5
FC
  8
0
 62
     7
 10
90.298199999999994
 20
143.715
 30
0.0
 11
90.223500000000016
 21
143.84
 31
0.0
  0
LINE
  5
FD
  8
0
 62
     7
 10
86.923100000000005
 20
143.58999999999989
 30
0.0
 11
86.948199999999986
 21
143.715
 31
0.0
  0
LINE
  5
FE
  8
0
 62
     7
 10
86.948199999999986
 20
143.715
 30
0.0
 11
86.997799999999998
 21
143.84
 31
0.0
  0
LINE
  5
FF
  8
0
 62
     7
 10
86.923100000000005
 20
142.88900000000001
 30
0.0
 11
90.298199999999994
 21
142.88900000000001
 31
0.0
  0
LINE
  5
100
  8
0
 62
     7
 10
86.923100000000005
 20
142.88900000000001
 30
0.0
 11
86.923100000000005
 21
143.58999999999989
 31
0.0
  0
LINE
  5
101
  8
0
 62
     7
 10
90.298199999999994
 20
142.88900000000001
 30
0.0
 11
90.298199999999994
 21
143.58999999999989
 31
0.0
  0
LINE
  5
102
  8
0
 62
     7
 10
86.997799999999998
 20
143.84
 30
0.0
 11
87.173199999999994
 21
144.1399999999999
 31
0.0
  0
LINE
  5
103
  8
0
 62
     7
 10
85.567400000000006
 20
146.1399999999999
 30
0.0
 11
85.742799999999988
 21
146.56499999999991
 31
0.0
  0
LINE
  5
104
  8
0
 62
     7
 10
87.173199999999994
 20
146.1399999999999
 30
0.0
 11
86.997799999999998
 21
146.56499999999991
 31
0.0
  0
LINE
  5
105
  8
0
 62
     7
 10
90.223500000000016
 20
143.84
 30
0.0
 11
90.048799999999986
 21
144.1399999999999
 31
0.0
  0
LINE
  5
106
  8
0
 62
     7
 10
90.048799999999986
 20
146.1399999999999
 30
0.0
 11
90.248599999999996
 21
146.56499999999991
 31
0.0
  0
LINE
  5
107
  8
0
 62
     7
 10
87.173199999999994
 20
144.1399999999999
 30
0.0
 11
87.173199999999994
 21
146.1399999999999
 31
0.0
  0
LINE
  5
108
  8
0
 62
     7
 10
90.048799999999986
 20
144.1399999999999
 30
0.0
 11
90.048799999999986
 21
146.1399999999999
 31
0.0
  0
LINE
  5
109
  8
0
 62
     7
 10
147.63799999999989
 20
96.474299999999985
 30
0.0
 11
149.8489999999999
 21
97.066199999999995
 31
0.0
  0
LINE
  5
10A
  8
0
 62
     7
 10
149.8489999999999
 20
97.066199999999995
 30
0.0
 11
147.63799999999989
 21
97.658699999999996
 31
0.0
  0
LINE
  5
10B
  8
0
 62
     7
 10
147.63799999999989
 20
97.658699999999996
 30
0.0
 11
147.63799999999989
 21
96.474299999999985
 31
0.0
  0
LINE
  5
10C
  8
0
 62
     7
 10
153.309
 20
97.644300000000001
 30
0.0
 11
151.0989999999999
 21
97.051699999999997
 31
0.0
  0
LINE
  5
10D
  8
0
 62
     7
 10
151.0989999999999
 20
97.051699999999997
 30
0.0
 11
153.309
 21
96.459800000000016
 31
0.0
  0
LINE
  5
10E
  8
0
 62
     7
 10
153.309
 20
96.459800000000016
 30
0.0
 11
153.309
 21
97.644300000000001
 31
0.0
  0
LINE
  5
10F
  8
0
 62
     7
 10
157.51400000000001
 20
97.059299999999993
 30
0.0
 11
146.72900000000001
 21
97.059299999999993
 31
0.0
  0
LINE
  5
110
  8
0
 62
     7
 10
106.62599999999991
 20
146.15299999999991
 30
0.0
 11
106.03399999999991
 21
148.364
 31
0.0
  0
LINE
  5
111
  8
0
 62
     7
 10
106.03399999999991
 20
148.364
 30
0.0
 11
105.44199999999999
 21
146.15299999999991
 31
0.0
  0
LINE
  5
112
  8
0
 62
     7
 10
105.44199999999999
 20
146.15299999999991
 30
0.0
 11
106.62599999999991
 21
146.15299999999991
 31
0.0
  0
LINE
  5
113
  8
0
 62
     7
 10
105.4559999999999
 20
61.82439999999999
 30
0.0
 11
106.04899999999989
 21
59.613300000000002
 31
0.0
  0
LINE
  5
114
  8
0
 62
     7
 10
106.04899999999989
 20
59.613300000000002
 30
0.0
 11
106.64100000000001
 21
61.82439999999999
 31
0.0
  0
LINE
  5
115
  8
0
 62
     7
 10
106.64100000000001
 20
61.82439999999999
 30
0.0
 11
105.4559999999999
 21
61.82439999999999
 31
0.0
  0
LINE
  5
116
  8
0
 62
     7
 10
106.041
 20
148.364
 30
0.0
 11
106.041
 21
59.613300000000002
 31
0.0
  0
LINE
  5
117
  8
0
 62
     7
 10
144.148
 20
59.613300000000002
 30
0.0
 11
105.34099999999999
 21
59.613300000000002
 31
0.0
  0
LINE
  5
118
  8
0
 62
     7
 10
167.959
 20
75.574200000000005
 30
0.0
 11
168.55199999999999
 21
73.363799999999998
 31
0.0
  0
LINE
  5
119
  8
0
 62
     7
 10
168.55199999999999
 20
73.363799999999998
 30
0.0
 11
169.14400000000001
 21
75.574200000000005
 31
0.0
  0
LINE
  5
11A
  8
0
 62
     7
 10
169.14400000000001
 20
75.574200000000005
 30
0.0
 11
167.959
 21
75.574200000000005
 31
0.0
  0
LINE
  5
11B
  8
0
 62
     7
 10
169.12899999999999
 20
146.15299999999991
 30
0.0
 11
168.53699999999989
 21
148.364
 31
0.0
  0
LINE
  5
11C
  8
0
 62
     7
 10
168.53699999999989
 20
148.364
 30
0.0
 11
167.94499999999991
 21
146.15299999999991
 31
0.0
  0
LINE
  5
11D
  8
0
 62
     7
 10
167.94499999999991
 20
146.15299999999991
 30
0.0
 11
169.12899999999999
 21
146.15299999999991
 31
0.0
  0
LINE
  5
11E
  8
0
 62
     7
 10
168.54400000000001
 20
73.363799999999998
 30
0.0
 11
168.54400000000001
 21
148.364
 31
0.0
  0
LINE
  5
11F
  8
0
 62
     7
 10
169.244
 20
73.363799999999998
 30
0.0
 11
151.91200000000001
 21
73.363799999999998
 31
0.0
  0
LINE
  5
120
  8
0
 62
     7
 10
126.3429999999999
 20
143.0749999999999
 30
0.0
 11
126.9349999999999
 21
140.864
 31
0.0
  0
LINE
  5
121
  8
0
 62
     7
 10
126.9349999999999
 20
140.864
 30
0.0
 11
127.52799999999991
 21
143.0749999999999
 31
0.0
  0
LINE
  5
122
  8
0
 62
     7
 10
127.52799999999991
 20
143.0749999999999
 30
0.0
 11
126.3429999999999
 21
143.0749999999999
 31
0.0
  0
LINE
  5
123
  8
0
 62
     7
 10
127.51299999999991
 20
146.15299999999991
 30
0.0
 11
126.92100000000001
 21
148.364
 31
0.0
  0
LINE
  5
124
  8
0
 62
     7
 10
126.92100000000001
 20
148.364
 30
0.0
 11
126.3279999999999
 21
146.15299999999991
 31
0.0
  0
LINE
  5
125
  8
0
 62
     7
 10
126.3279999999999
 20
146.15299999999991
 30
0.0
 11
127.51299999999991
 21
146.15299999999991
 31
0.0
  0
LINE
  5
126
  8
0
 62
     7
 10
126.9279999999999
 20
140.864
 30
0.0
 11
126.9279999999999
 21
148.364
 31
0.0
  0
LINE
  5
127
  8
0
 62
     7
 10
126.227
 20
140.864
 30
0.0
 11
141.36099999999999
 21
140.864
 31
0.0
  0
LINE
  5
128
  8
0
 62
     7
 10
153.5989999999999
 20
147.74899999999991
 30
0.0
 11
153.5989999999999
 21
142.958
 31
0.0
  0
LINE
  5
129
  8
0
 62
     7
 10
142.3489999999999
 20
147.74899999999991
 30
0.0
 11
142.3489999999999
 21
142.958
 31
0.0
  0
LINE
  5
12A
  8
0
 62
     7
 10
151.38800000000001
 20
143.07299999999989
 30
0.0
 11
153.5989999999999
 21
143.66499999999999
 31
0.0
  0
LINE
  5
12B
  8
0
 62
     7
 10
153.5989999999999
 20
143.66499999999999
 30
0.0
 11
151.38800000000001
 21
144.25700000000001
 31
0.0
  0
LINE
  5
12C
  8
0
 62
     7
 10
151.38800000000001
 20
144.25700000000001
 30
0.0
 11
151.38800000000001
 21
143.07299999999989
 31
0.0
  0
LINE
  5
12D
  8
0
 62
     7
 10
144.55999999999989
 20
144.24299999999991
 30
0.0
 11
142.3489999999999
 21
143.65100000000001
 31
0.0
  0
LINE
  5
12E
  8
0
 62
     7
 10
142.3489999999999
 20
143.65100000000001
 30
0.0
 11
144.55999999999989
 21
143.05799999999991
 31
0.0
  0
LINE
  5
12F
  8
0
 62
     7
 10
144.55999999999989
 20
143.05799999999991
 30
0.0
 11
144.55999999999989
 21
144.24299999999991
 31
0.0
  0
LINE
  5
130
  8
0
 62
     7
 10
158.06999999999999
 20
143.65799999999999
 30
0.0
 11
142.3489999999999
 21
143.65799999999999
 31
0.0
  0
LINE
  5
131
  8
0
 62
     7
 10
109.84999999999999
 20
157.52799999999999
 30
0.0
 11
112.09399999999999
 21
157.07900000000001
 31
0.0
  0
LINE
  5
132
  8
0
 62
     7
 10
112.09399999999999
 20
157.07900000000001
 30
0.0
 11
110.375
 21
158.59
 31
0.0
  0
LINE
  5
133
  8
0
 62
     7
 10
110.375
 20
158.59
 30
0.0
 11
109.84999999999999
 21
157.52799999999999
 31
0.0
  0
LINE
  5
134
  8
0
 62
     7
 10
88.558999999999997
 20
207.05099999999999
 30
0.0
 11
86.370500000000007
 21
206.38
 31
0.0
  0
LINE
  5
135
  8
0
 62
     7
 10
86.370500000000007
 20
206.38
 30
0.0
 11
88.601699999999994
 21
205.86699999999999
 31
0.0
  0
LINE
  5
136
  8
0
 62
     7
 10
88.601699999999994
 20
205.86699999999999
 30
0.0
 11
88.558999999999997
 21
207.05099999999999
 31
0.0
  0
LINE
  5
137
  8
0
 62
     7
 10
84.182100000000005
 20
207.05099999999999
 30
0.0
 11
86.370599999999996
 21
206.38
 31
0.0
  0
LINE
  5
138
  8
0
 62
     7
 10
86.370599999999996
 20
206.38
 30
0.0
 11
84.139399999999995
 21
205.86699999999999
 31
0.0
  0
LINE
  5
139
  8
0
 62
     7
 10
84.139399999999995
 20
205.86699999999999
 30
0.0
 11
84.182100000000005
 21
207.05099999999999
 31
0.0
  0
LINE
  5
13A
  8
0
 62
     7
 10
109.4829999999999
 20
217.98699999999999
 30
0.0
 11
111.3129999999999
 21
219.36199999999999
 31
0.0
  0
LINE
  5
13B
  8
0
 62
     7
 10
111.3129999999999
 20
219.36199999999999
 30
0.0
 11
110.41500000000001
 21
217.25599999999989
 31
0.0
  0
LINE
  5
13C
  8
0
 62
     7
 10
110.41500000000001
 20
217.25599999999989
 30
0.0
 11
109.4829999999999
 21
217.98699999999999
 31
0.0
  0
LINE
  5
13D
  8
0
  6
AIGENLINE002
 62
     7
 10
87.482000000000014
 20
228.4199999999999
 30
0.0
 11
97.421899999999994
 21
221.459
 31
0.0
  0
LINE
  5
13E
  8
0
  6
AIGENLINE002
 62
     7
 10
94.651700000000005
 20
238.65899999999999
 30
0.0
 11
104.592
 21
231.69900000000001
 31
0.0
  0
LINE
  5
13F
  8
0
  6
AIGENLINE002
 62
     7
 10
99.858800000000016
 20
221.88900000000001
 30
0.0
 11
105.021
 21
229.26199999999989
 31
0.0
  0
ARC
  5
140
  8
0
  6
AIGENLINE002
 62
     7
 10
98.425450999999995
 20
222.89310800000001
 30
0.0
 40
1.7500679999999991
 50
235.009366
 51
324.98674099999999
  0
ARC
  5
141
  8
0
  6
AIGENLINE002
 62
     7
 10
103.49453800000001
 20
230.24901199999999
 30
0.0
 40
1.817985
 50
327.10001
 51
52.878981000000003
  0
LINE
  5
142
  8
0
 62
     7
 10
111.91500000000001
 20
218.94099999999989
 30
0.0
 11
105.07899999999989
 21
223.727
 31
0.0
  0
LINE
  5
143
  8
0
  6
AIGENLINE001
 62
     7
 10
104.36
 20
224.23099999999991
 30
0.0
 11
86.370500000000007
 21
236.82699999999991
 31
0.0
  0
LINE
  5
144
  8
0
 62
     7
 10
63.258200000000002
 20
217.98699999999999
 30
0.0
 11
61.428199999999997
 21
219.36199999999999
 31
0.0
  0
LINE
  5
145
  8
0
 62
     7
 10
61.428199999999997
 20
219.36199999999999
 30
0.0
 11
62.325600000000001
 21
217.25599999999989
 31
0.0
  0
LINE
  5
146
  8
0
 62
     7
 10
62.325600000000001
 20
217.25599999999989
 30
0.0
 11
63.258200000000002
 21
217.98699999999999
 31
0.0
  0
LINE
  5
147
  8
0
 62
     7
 10
117.59
 20
157.35900000000001
 30
0.0
 11
115.4739999999999
 21
156.4859999999999
 31
0.0
  0
LINE
  5
148
  8
0
 62
     7
 10
115.4739999999999
 20
156.4859999999999
 30
0.0
 11
117.7429999999999
 21
156.184
 31
0.0
  0
LINE
  5
149
  8
0
 62
     7
 10
117.7429999999999
 20
156.184
 30
0.0
 11
117.59
 21
157.35900000000001
 31
0.0
  0
LINE
  5
14A
  8
0
 62
     7
 10
117.684
 20
152.90700000000001
 30
0.0
 11
115.4739999999999
 21
152.31399999999991
 31
0.0
  0
LINE
  5
14B
  8
0
 62
     7
 10
115.4739999999999
 20
152.31399999999991
 30
0.0
 11
117.684
 21
151.72200000000001
 31
0.0
  0
LINE
  5
14C
  8
0
 62
     7
 10
117.684
 20
151.72200000000001
 30
0.0
 11
117.684
 21
152.90700000000001
 31
0.0
  0
LINE
  5
14D
  8
0
 62
     7
 10
145.76299999999989
 20
151.73599999999999
 30
0.0
 11
147.9739999999999
 21
152.32900000000001
 31
0.0
  0
LINE
  5
14E
  8
0
 62
     7
 10
147.9739999999999
 20
152.32900000000001
 30
0.0
 11
145.76299999999989
 21
152.92099999999991
 31
0.0
  0
LINE
  5
14F
  8
0
 62
     7
 10
145.76299999999989
 20
152.92099999999991
 30
0.0
 11
145.76299999999989
 21
151.73599999999999
 31
0.0
  0
LINE
  5
150
  8
0
 62
     7
 10
115.473
 20
152.322
 30
0.0
 11
147.9739999999999
 21
152.322
 31
0.0
  0
LINE
  5
151
  8
0
 62
     7
 10
115.4739999999999
 20
151.62200000000001
 30
0.0
 11
115.4739999999999
 21
165.55799999999999
 31
0.0
  0
ARC
  5
152
  8
0
 62
     7
 10
115.50843500000001
 20
166.4552129999999
 30
0.0
 40
9.9692619999999987
 50
228.67927700000001
 51
269.80086699999993
  0
ARC
  5
153
  8
0
 62
     7
 10
115.471559
 20
166.42570000000001
 30
0.0
 40
9.9396889999999996
 50
270.01283899999987
 51
289.47393499999998
  0
LINE
  5
154
  8
0
 62
     7
 10
114.7239999999999
 20
164.30299999999991
 30
0.0
 11
111.89400000000001
 21
156.529
 31
0.0
  0
LINE
  5
155
  8
0
 62
     7
 10
126.3279999999999
 20
150.5749999999999
 30
0.0
 11
126.92100000000001
 21
148.364
 31
0.0
  0
LINE
  5
156
  8
0
 62
     7
 10
126.92100000000001
 20
148.364
 30
0.0
 11
127.51299999999991
 21
150.5749999999999
 31
0.0
  0
LINE
  5
157
  8
0
 62
     7
 10
127.51299999999991
 20
150.5749999999999
 30
0.0
 11
126.3279999999999
 21
150.5749999999999
 31
0.0
  0
LINE
  5
158
  8
0
 62
     7
 10
127.498
 20
163.12700000000001
 30
0.0
 11
126.90600000000001
 21
165.33799999999999
 31
0.0
  0
LINE
  5
159
  8
0
 62
     7
 10
126.90600000000001
 20
165.33799999999999
 30
0.0
 11
126.31399999999989
 21
163.12700000000001
 31
0.0
  0
LINE
  5
15A
  8
0
 62
     7
 10
126.31399999999989
 20
163.12700000000001
 30
0.0
 11
127.498
 21
163.12700000000001
 31
0.0
  0
LINE
  5
15B
  8
0
 62
     7
 10
126.913
 20
148.364
 30
0.0
 11
126.913
 21
165.33799999999999
 31
0.0
  0
LINE
  5
15C
  8
0
 62
     7
 10
105.4559999999999
 20
150.5749999999999
 30
0.0
 11
106.04899999999989
 21
148.364
 31
0.0
  0
LINE
  5
15D
  8
0
 62
     7
 10
106.04899999999989
 20
148.364
 30
0.0
 11
106.64100000000001
 21
150.5749999999999
 31
0.0
  0
LINE
  5
15E
  8
0
 62
     7
 10
106.64100000000001
 20
150.5749999999999
 30
0.0
 11
105.4559999999999
 21
150.5749999999999
 31
0.0
  0
LINE
  5
15F
  8
0
 62
     7
 10
106.62599999999991
 20
164.154
 30
0.0
 11
106.03399999999991
 21
166.364
 31
0.0
  0
LINE
  5
160
  8
0
 62
     7
 10
106.03399999999991
 20
166.364
 30
0.0
 11
105.44199999999999
 21
164.154
 31
0.0
  0
LINE
  5
161
  8
0
 62
     7
 10
105.44199999999999
 20
164.154
 30
0.0
 11
106.62599999999991
 21
164.154
 31
0.0
  0
LINE
  5
162
  8
0
 62
     7
 10
106.041
 20
148.364
 30
0.0
 11
106.041
 21
166.364
 31
0.0
  0
LINE
  5
163
  8
0
 62
     7
 10
127.6129999999999
 20
165.33799999999999
 30
0.0
 11
118.9929999999999
 21
165.33799999999999
 31
0.0
  0
LINE
  5
164
  8
0
 62
     7
 10
114.27799999999991
 20
166.364
 30
0.0
 11
105.34099999999999
 21
166.364
 31
0.0
  0
LINE
  5
165
  8
0
 62
     7
 10
141.1939999999999
 20
148.364
 30
0.0
 11
105.34099999999999
 21
148.364
 31
0.0
  0
LINE
  5
166
  8
0
 62
     7
 10
175.0149999999999
 20
150.5749999999999
 30
0.0
 11
175.607
 21
148.364
 31
0.0
  0
LINE
  5
167
  8
0
 62
     7
 10
175.607
 20
148.364
 30
0.0
 11
176.19900000000001
 21
150.5749999999999
 31
0.0
  0
LINE
  5
168
  8
0
 62
     7
 10
176.19900000000001
 20
150.5749999999999
 30
0.0
 11
175.0149999999999
 21
150.5749999999999
 31
0.0
  0
LINE
  5
169
  8
0
 62
     7
 10
176.185
 20
183.15299999999991
 30
0.0
 11
175.59299999999999
 21
185.364
 31
0.0
  0
LINE
  5
16A
  8
0
 62
     7
 10
175.59299999999999
 20
185.364
 30
0.0
 11
175.00099999999989
 21
183.15299999999991
 31
0.0
  0
LINE
  5
16B
  8
0
 62
     7
 10
175.00099999999989
 20
183.15299999999991
 30
0.0
 11
176.185
 21
183.15299999999991
 31
0.0
  0
LINE
  5
16C
  8
0
 62
     7
 10
175.59999999999999
 20
148.364
 30
0.0
 11
175.59999999999999
 21
185.364
 31
0.0
  0
LINE
  5
16D
  8
0
 62
     7
 10
167.959
 20
150.5749999999999
 30
0.0
 11
168.55199999999999
 21
148.364
 31
0.0
  0
LINE
  5
16E
  8
0
 62
     7
 10
168.55199999999999
 20
148.364
 30
0.0
 11
169.14400000000001
 21
150.5749999999999
 31
0.0
  0
LINE
  5
16F
  8
0
 62
     7
 10
169.14400000000001
 20
150.5749999999999
 30
0.0
 11
167.959
 21
150.5749999999999
 31
0.0
  0
LINE
  5
170
  8
0
 62
     7
 10
169.12899999999999
 20
177.90299999999991
 30
0.0
 11
168.53699999999989
 21
180.114
 31
0.0
  0
LINE
  5
171
  8
0
 62
     7
 10
168.53699999999989
 20
180.114
 30
0.0
 11
167.94499999999991
 21
177.90299999999991
 31
0.0
  0
LINE
  5
172
  8
0
 62
     7
 10
167.94499999999991
 20
177.90299999999991
 30
0.0
 11
169.12899999999999
 21
177.90299999999991
 31
0.0
  0
LINE
  5
173
  8
0
 62
     7
 10
168.54400000000001
 20
148.364
 30
0.0
 11
168.54400000000001
 21
180.114
 31
0.0
  0
LINE
  5
174
  8
0
 62
     7
 10
169.244
 20
180.114
 30
0.0
 11
131.02199999999999
 21
180.114
 31
0.0
  0
LINE
  5
175
  8
0
 62
     7
 10
176.29300000000001
 20
185.364
 30
0.0
 11
135.81999999999991
 21
185.364
 31
0.0
  0
LINE
  5
176
  8
0
 62
     7
 10
176.30699999999999
 20
148.364
 30
0.0
 11
154.48400000000001
 21
148.364
 31
0.0
  0
LINE
  5
177
  8
0
 62
     7
 10
90.409699999999987
 20
152.37
 30
0.0
 11
92.620300000000015
 21
152.96199999999999
 31
0.0
  0
LINE
  5
178
  8
0
 62
     7
 10
92.620300000000015
 20
152.96199999999999
 30
0.0
 11
90.409699999999987
 21
153.55500000000001
 31
0.0
  0
LINE
  5
179
  8
0
 62
     7
 10
90.409699999999987
 20
153.55500000000001
 30
0.0
 11
90.409699999999987
 21
152.37
 31
0.0
  0
LINE
  5
17A
  8
0
 62
     7
 10
82.330699999999993
 20
153.53999999999991
 30
0.0
 11
80.120300000000015
 21
152.94799999999989
 31
0.0
  0
LINE
  5
17B
  8
0
 62
     7
 10
80.120300000000015
 20
152.94799999999989
 30
0.0
 11
82.330699999999993
 21
152.35499999999999
 31
0.0
  0
LINE
  5
17C
  8
0
 62
     7
 10
82.330699999999993
 20
152.35499999999999
 30
0.0
 11
82.330699999999993
 21
153.53999999999991
 31
0.0
  0
LINE
  5
17D
  8
0
 62
     7
 10
92.620300000000015
 20
152.95500000000001
 30
0.0
 11
75.830500000000001
 21
152.95500000000001
 31
0.0
  0
LINE
  5
17E
  8
0
  6
AIGENLINE002
 62
     7
 10
85.258899999999997
 20
228.4199999999999
 30
0.0
 11
75.319000000000003
 21
221.459
 31
0.0
  0
LINE
  5
17F
  8
0
  6
AIGENLINE002
 62
     7
 10
78.089299999999994
 20
238.65899999999999
 30
0.0
 11
68.149399999999986
 21
231.69900000000001
 31
0.0
  0
LINE
  5
180
  8
0
  6
AIGENLINE002
 62
     7
 10
72.882099999999994
 20
221.88900000000001
 30
0.0
 11
67.719999999999999
 21
229.26199999999989
 31
0.0
  0
ARC
  5
181
  8
0
  6
AIGENLINE002
 62
     7
 10
74.315483999999998
 20
222.89310800000001
 30
0.0
 40
1.7500679999999991
 50
215.01327900000001
 51
304.99065400000001
  0
ARC
  5
182
  8
0
  6
AIGENLINE002
 62
     7
 10
69.246639999999985
 20
230.24889200000001
 30
0.0
 40
1.818122999999999
 50
127.12048299999999
 51
212.89267000000001
  0
LINE
  5
183
  8
0
 62
     7
 10
60.82609999999999
 20
218.94099999999989
 30
0.0
 11
67.661900000000003
 21
223.727
 31
0.0
  0
LINE
  5
184
  8
0
  6
AIGENLINE001
 62
     7
 10
68.380799999999994
 20
224.23099999999991
 30
0.0
 11
86.370500000000007
 21
236.82699999999991
 31
0.0
  0
LINE
  5
185
  8
0
 62
     7
 10
92.620300000000015
 20
240.702
 30
0.0
 11
92.620300000000015
 21
202.40000000000001
 31
0.0
  0
LINE
  5
186
  8
0
 62
     7
 10
80.120300000000015
 20
240.702
 30
0.0
 11
80.120300000000015
 21
202.40000000000001
 31
0.0
  0
LINE
  5
187
  8
0
 62
     7
 10
90.870500000000007
 20
200.64999999999989
 30
0.0
 11
81.870500000000007
 21
200.64999999999989
 31
0.0
  0
ARC
  5
188
  8
0
 62
     7
 10
90.802856000000006
 20
202.46738899999991
 30
0.0
 40
1.8186429999999989
 50
272.13096999999988
 51
357.88031999999998
  0
ARC
  5
189
  8
0
 62
     7
 10
81.937687999999994
 20
202.467355
 30
0.0
 40
1.818595
 50
182.1186899999999
 51
267.88133999999991
  0
LINE
  5
18A
  8
0
 62
     7
 10
90.870500000000007
 20
201.21599999999989
 30
0.0
 11
81.870500000000007
 21
201.21599999999989
 31
0.0
  0
ARC
  5
18B
  8
0
 62
     7
 10
90.870306999999997
 20
202.966328
 30
0.0
 40
1.7499480000000001
 50
270.00565999999998
 51
0.00563
  0
ARC
  5
18C
  8
0
 62
     7
 10
81.870455000000007
 20
202.966499
 30
0.0
 40
1.7501189999999991
 50
179.99996999999991
 51
270.00002000000001
  0
LINE
  5
18D
  8
0
 62
     7
 10
90.870500000000007
 20
217.20999999999989
 30
0.0
 11
81.870500000000007
 21
217.20999999999989
 31
0.0
  0
ARC
  5
18E
  8
0
 62
     7
 10
90.870480000000015
 20
218.96011200000001
 30
0.0
 40
1.7497750000000001
 50
270.00002000000001
 51
359.99998999999991
  0
LINE
  5
18F
  8
0
 62
     7
 10
90.870500000000007
 20
217.96700000000001
 30
0.0
 11
81.870500000000007
 21
217.96700000000001
 31
0.0
  0
ARC
  5
190
  8
0
 62
     7
 10
90.870306999999997
 20
219.71648799999991
 30
0.0
 40
1.7499480000000001
 50
270.00565999999998
 51
0.00563
  0
ARC
  5
191
  8
0
 62
     7
 10
81.870282999999986
 20
218.96028399999989
 30
0.0
 40
1.7499469999999999
 50
180.00565
 51
270.00565999999998
  0
ARC
  5
192
  8
0
 62
     7
 10
81.870455000000007
 20
219.71665999999999
 30
0.0
 40
1.7501189999999991
 50
179.99996999999991
 51
270.00002000000001
  0
LINE
  5
193
  8
0
  6
AIGENLINE001
 62
     7
 10
94.995000000000005
 20
236.82699999999991
 30
0.0
 11
77.842399999999998
 21
236.82699999999991
 31
0.0
  0
LINE
  5
194
  8
0
 62
     7
 10
90.870500000000007
 20
242.452
 30
0.0
 11
81.870500000000007
 21
242.452
 31
0.0
  0
ARC
  5
195
  8
0
 62
     7
 10
90.870306999999997
 20
240.70241899999999
 30
0.0
 40
1.7499480000000001
 50
359.99437
 51
89.994339999999994
  0
ARC
  5
196
  8
0
 62
     7
 10
81.870456000000004
 20
240.702247
 30
0.0
 40
1.7501199999999999
 50
90.0
 51
179.99996999999991
  0
LINE
  5
197
  8
0
 62
     7
 10
86.995400000000004
 20
248.84200000000001
 30
0.0
 11
86.995400000000004
 21
242.452
 31
0.0
  0
LINE
  5
198
  8
0
 62
     7
 10
85.745199999999997
 20
248.84200000000001
 30
0.0
 11
85.745199999999997
 21
242.452
 31
0.0
  0
LINE
  5
199
  8
0
 62
     7
 10
86.995400000000004
 20
248.84200000000001
 30
0.0
 11
85.745199999999997
 21
248.84200000000001
 31
0.0
  0
LINE
  5
19A
  8
0
  6
AIGENLINE001
 62
     7
 10
86.370500000000007
 20
197.94499999999991
 30
0.0
 11
86.370500000000007
 21
250.584
 31
0.0
  0
ARC
  5
19B
  8
0
 62
     7
 10
92.514645999999999
 20
179.9141689999999
 30
0.0
 40
0.105609
 50
0.196746
 51
35.465938000000001
  0
ARC
  5
19C
  8
0
 62
     7
 10
92.450598999999997
 20
179.86998799999989
 30
0.0
 40
0.183412
 50
35.097990000000003
 51
66.952669999999998
  0
ARC
  5
19D
  8
0
 62
     7
 10
92.377409
 20
179.72894099999991
 30
0.0
 40
0.342068
 50
64.920629000000005
 51
91.16005899999999
  0
ARC
  5
19E
  8
0
 62
     7
 10
80.370536000000001
 20
179.706062
 30
0.0
 40
0.364878
 50
90.013180000000034
 51
119.00922299999991
  0
ARC
  5
19F
  8
0
 62
     7
 10
80.282403999999985
 20
179.87801899999999
 30
0.0
 40
0.171871
 50
121.115111
 51
153.19775399999989
  0
ARC
  5
1A0
  8
0
 62
     7
 10
80.223468000000011
 20
179.91414499999999
 30
0.0
 40
0.103133
 50
156.3497889999999
 51
179.7856449999999
  0
LINE
  5
1A1
  8
0
 62
     7
 10
92.370500000000007
 20
180.071
 30
0.0
 11
80.370500000000007
 21
180.071
 31
0.0
  0
ARC
  5
1A2
  8
0
 62
     7
 10
92.515232999999995
 20
178.4010669999999
 30
0.0
 40
0.105023
 50
0.201032
 51
35.56823
  0
ARC
  5
1A3
  8
0
 62
     7
 10
92.450677999999996
 20
178.3564519999999
 30
0.0
 40
0.183489
 50
35.175246999999999
 51
66.989839000000003
  0
ARC
  5
1A4
  8
0
 62
     7
 10
92.377387999999996
 20
178.21519299999991
 30
0.0
 40
0.342376
 50
64.940809999999999
 51
91.155421999999973
  0
ARC
  5
1A5
  8
0
 62
     7
 10
80.370536000000001
 20
178.19232099999991
 30
0.0
 40
0.365179
 50
90.013182
 51
118.983071
  0
ARC
  5
1A6
  8
0
 62
     7
 10
80.282201999999984
 20
178.36462900000001
 30
0.0
 40
0.171761
 50
121.0588009999999
 51
153.12141999999989
  0
ARC
  5
1A7
  8
0
 62
     7
 10
80.222933999999995
 20
178.4010219999999
 30
0.0
 40
0.102599
 50
156.28729599999991
 51
179.76872299999999
  0
LINE
  5
1A8
  8
0
 62
     7
 10
92.370500000000007
 20
178.55699999999999
 30
0.0
 11
80.370500000000007
 21
178.55699999999999
 31
0.0
  0
ARC
  5
1A9
  8
0
 62
     7
 10
92.515232999999995
 20
173.19377199999991
 30
0.0
 40
0.105023
 50
0.201032
 51
35.56823
  0
ARC
  5
1AA
  8
0
 62
     7
 10
92.450677999999996
 20
173.149157
 30
0.0
 40
0.183489
 50
35.175246999999999
 51
66.989839000000003
  0
ARC
  5
1AB
  8
0
 62
     7
 10
92.377387999999996
 20
173.00789800000001
 30
0.0
 40
0.342376
 50
64.940809999999999
 51
91.155421999999973
  0
ARC
  5
1AC
  8
0
 62
     7
 10
80.370536000000001
 20
172.985026
 30
0.0
 40
0.365179
 50
90.013182
 51
118.983071
  0
ARC
  5
1AD
  8
0
 62
     7
 10
80.282201999999984
 20
173.15733399999999
 30
0.0
 40
0.171761
 50
121.0588009999999
 51
153.12141999999989
  0
ARC
  5
1AE
  8
0
 62
     7
 10
80.222933999999995
 20
173.19372699999991
 30
0.0
 40
0.102599
 50
156.28729599999991
 51
179.76872299999999
  0
LINE
  5
1AF
  8
0
 62
     7
 10
92.370500000000007
 20
173.34999999999999
 30
0.0
 11
80.370500000000007
 21
173.34999999999999
 31
0.0
  0
ARC
  5
1B0
  8
0
 62
     7
 10
92.515232999999995
 20
168.4935989999999
 30
0.0
 40
0.105023
 50
0.201032
 51
35.56823
  0
ARC
  5
1B1
  8
0
 62
     7
 10
92.450677999999996
 20
168.44898299999991
 30
0.0
 40
0.183489
 50
35.175246999999999
 51
66.989839000000003
  0
ARC
  5
1B2
  8
0
 62
     7
 10
92.377387999999996
 20
168.30772400000001
 30
0.0
 40
0.342376
 50
64.940809999999999
 51
91.155421999999973
  0
ARC
  5
1B3
  8
0
 62
     7
 10
80.370536000000001
 20
168.284853
 30
0.0
 40
0.365179
 50
90.013182
 51
118.983071
  0
ARC
  5
1B4
  8
0
 62
     7
 10
80.282201999999984
 20
168.45715999999999
 30
0.0
 40
0.171761
 50
121.0588009999999
 51
153.12141999999989
  0
ARC
  5
1B5
  8
0
 62
     7
 10
80.222933999999995
 20
168.49355299999991
 30
0.0
 40
0.102599
 50
156.28729599999991
 51
179.76872299999999
  0
ARC
  5
1B6
  8
0
 62
     7
 10
88.830469999999991
 20
166.36398700000001
 30
0.0
 40
0.039948
 50
0.299196
 51
29.184774999999991
  0
ARC
  5
1B7
  8
0
 62
     7
 10
88.795421000000005
 20
166.34381200000001
 30
0.0
 40
0.080387
 50
29.557773999999998
 51
50.861302000000009
  0
ARC
  5
1B8
  8
0
 62
     7
 10
88.703806
 20
166.23119099999991
 30
0.0
 40
0.225566
 50
50.868358000000001
 51
64.970917
  0
ARC
  5
1B9
  8
0
 62
     7
 10
88.533059999999992
 20
165.87926100000001
 30
0.0
 40
0.616713
 50
64.430421999999993
 51
72.480110999999994
  0
ARC
  5
1BA
  8
0
 62
     7
 10
88.255178000000001
 20
165.020433
 30
0.0
 40
1.5193680000000001
 50
72.236765000000005
 51
77.541527999999985
  0
ARC
  5
1BB
  8
0
 62
     7
 10
87.871666000000005
 20
163.32124899999999
 30
0.0
 40
3.2612869999999989
 50
77.402495000000002
 51
80.826313999999996
  0
ARC
  5
1BC
  8
0
 62
     7
 10
87.430105000000026
 20
160.61347399999991
 30
0.0
 40
6.0048269999999988
 50
80.786062999999999
 51
83.433001000000004
  0
ARC
  5
1BD
  8
0
 62
     7
 10
86.822217000000009
 20
155.272312
 30
0.0
 40
11.380466999999999
 50
83.467949000000004
 51
87.516174000000007
  0
ARC
  5
1BE
  8
0
 62
     7
 10
86.397017000000005
 20
147.653425
 30
0.0
 40
19.010858999999989
 50
87.231002000000004
 51
90.080004000000002
  0
ARC
  5
1BF
  8
0
 62
     7
 10
86.367128000000008
 20
147.52892299999999
 30
0.0
 40
19.135342999999999
 50
89.989989000000008
 51
94.028263999999993
  0
ARC
  5
1C0
  8
0
 62
     7
 10
85.671379999999985
 20
157.86453399999999
 30
0.0
 40
8.7764490000000013
 50
94.237398999999996
 51
98.664417000000014
  0
ARC
  5
1C1
  8
0
 62
     7
 10
84.844401999999988
 20
163.45508399999991
 30
0.0
 40
3.1252159999999991
 50
99.116517000000002
 51
102.951502
  0
ARC
  5
1C2
  8
0
 62
     7
 10
84.445561999999995
 20
165.16844399999991
 30
0.0
 40
1.3660620000000001
 50
102.75504599999999
 51
108.95449000000001
  0
ARC
  5
1C3
  8
0
 62
     7
 10
84.155381999999975
 20
166.0060629999999
 30
0.0
 40
0.479611
 50
108.67106699999989
 51
119.2140879999999
  0
ARC
  5
1C4
  8
0
 62
     7
 10
83.992233999999996
 20
166.29550499999991
 30
0.0
 40
0.147361
 50
118.7760509999999
 51
137.5958939999999
  0
ARC
  5
1C5
  8
0
 62
     7
 10
83.920222999999979
 20
166.3613489999999
 30
0.0
 40
0.049786
 50
137.66262800000001
 51
176.7212679999999
  0
ARC
  5
1C6
  8
0
 62
     7
 10
83.910466000000014
 20
166.364405
 30
0.0
 40
0.039948
 50
180.299216
 51
209.18479500000001
  0
ARC
  5
1C7
  8
0
 62
     7
 10
83.945406000000006
 20
166.38447600000001
 30
0.0
 40
0.080242
 50
209.531657
 51
230.87160499999999
  0
ARC
  5
1C8
  8
0
 62
     7
 10
84.037081000000015
 20
166.49709699999991
 30
0.0
 40
0.225458
 50
230.860243
 51
244.9672379999999
  0
ARC
  5
1C9
  8
0
 62
     7
 10
84.207366000000007
 20
166.847757
 30
0.0
 40
0.615261
 50
244.41662799999989
 51
252.48347699999999
  0
ARC
  5
1CA
  8
0
 62
     7
 10
84.485670999999996
 20
167.70753999999991
 30
0.0
 40
1.5189549999999989
 50
252.23369299999999
 51
257.53892000000002
  0
ARC
  5
1CB
  8
0
 62
     7
 10
84.869018999999994
 20
169.405719
 30
0.0
 40
3.2598569999999989
 50
257.40024799999992
 51
260.82501300000001
  0
ARC
  5
1CC
  8
0
 62
     7
 10
85.310569000000015
 20
172.11314999999999
 30
0.0
 40
6.0030549999999998
 50
260.78492899999992
 51
263.432343
  0
ARC
  5
1CD
  8
0
 62
     7
 10
85.918328000000002
 20
177.4526899999999
 30
0.0
 40
11.37707
 50
263.46733
 51
267.51671099999987
  0
ARC
  5
1CE
  8
0
 62
     7
 10
86.343847999999994
 20
185.07773199999991
 30
0.0
 40
19.013625000000001
 50
267.23121800000001
 51
270.08022699999998
  0
ARC
  5
1CF
  8
0
 62
     7
 10
86.373800999999986
 20
185.19538
 30
0.0
 40
19.131253999999998
 50
269.990028
 51
274.02871399999998
  0
ARC
  5
1D0
  8
0
 62
     7
 10
87.069174000000004
 20
174.86683500000001
 30
0.0
 40
8.7794350000000012
 50
274.23748599999988
 51
278.66334699999999
  0
ARC
  5
1D1
  8
0
 62
     7
 10
87.896213000000003
 20
169.2750189999999
 30
0.0
 40
3.1269409999999991
 50
279.115612
 51
282.94906099999992
  0
ARC
  5
1D2
  8
0
 62
     7
 10
88.294901999999993
 20
167.56173599999991
 30
0.0
 40
1.3678950000000001
 50
282.75515000000001
 51
288.94758200000001
  0
ARC
  5
1D3
  8
0
 62
     7
 10
88.585575000000006
 20
166.7223139999999
 30
0.0
 40
0.47958
 50
288.66559099999989
 51
299.21108399999991
  0
ARC
  5
1D4
  8
0
 62
     7
 10
88.748816000000005
 20
166.43276
 30
0.0
 40
0.147187
 50
298.75525299999993
 51
317.60090600000001
  0
ARC
  5
1D5
  8
0
 62
     7
 10
88.820752999999996
 20
166.36703299999999
 30
0.0
 40
0.049745
 50
317.63626799999997
 51
356.7305859999999
  0
ARC
  5
1D6
  8
0
 62
     7
 10
89.297276999999994
 20
166.36340100000001
 30
0.0
 40
0.073204
 50
0.622254
 51
42.891595000000002
  0
ARC
  5
1D7
  8
0
 62
     7
 10
89.208784999999978
 20
166.29495800000001
 30
0.0
 40
0.184895
 50
39.765053000000002
 51
54.256995999999987
  0
ARC
  5
1D8
  8
0
 62
     7
 10
89.081580999999986
 20
166.121047
 30
0.0
 40
0.400359
 50
54.02021400000001
 51
64.067347999999996
  0
ARC
  5
1D9
  8
0
 62
     7
 10
88.870745999999997
 20
165.69578100000001
 30
0.0
 40
0.8750129999999998
 50
63.829629000000011
 51
70.531712999999996
  0
ARC
  5
1DA
  8
0
 62
     7
 10
88.558558999999988
 20
164.81664099999989
 30
0.0
 40
1.807936999999999
 50
70.489443999999992
 51
75.593523000000005
  0
ARC
  5
1DB
  8
0
 62
     7
 10
88.167038000000005
 20
163.320367
 30
0.0
 40
3.354576999999999
 50
75.475022999999993
 51
78.828691000000006
  0
ARC
  5
1DC
  8
0
 62
     7
 10
87.711611999999988
 20
161.02418
 30
0.0
 40
5.6954940000000001
 50
78.809308999999999
 51
81.616091999999995
  0
ARC
  5
1DD
  8
0
 62
     7
 10
87.086596999999998
 20
156.75158899999991
 30
0.0
 40
10.013555999999991
 50
81.642578999999998
 51
85.912230000000008
  0
ARC
  5
1DE
  8
0
 62
     7
 10
86.440032999999985
 20
148.86181899999991
 30
0.0
 40
17.929534
 50
85.64858700000002
 51
90.222294999999988
  0
ARC
  5
1DF
  8
0
 62
     7
 10
86.367682999999985
 20
146.94250400000001
 30
0.0
 40
19.848714000000001
 50
89.991953000000024
 51
94.031047000000001
  0
ARC
  5
1E0
  8
0
 62
     7
 10
85.806509000000005
 20
155.36260699999991
 30
0.0
 40
11.410038999999999
 50
94.192356000000004
 51
98.100256000000016
  0
ARC
  5
1E1
  8
0
 62
     7
 10
84.887619999999984
 20
161.90730799999989
 30
0.0
 40
4.8011730000000004
 50
98.249015999999983
 51
104.132205
  0
ARC
  5
1E2
  8
0
 62
     7
 10
84.054568000000003
 20
165.248469
 30
0.0
 40
1.357758
 50
104.46723399999991
 51
115.29825599999999
  0
ARC
  5
1E3
  8
0
 62
     7
 10
83.629078000000007
 20
166.17039199999991
 30
0.0
 40
0.342552
 50
116.851041
 51
129.55389999999991
  0
ARC
  5
1E4
  8
0
 62
     7
 10
83.502511999999996
 20
166.32400899999999
 30
0.0
 40
0.143512
 50
129.649011
 51
146.863259
  0
ARC
  5
1E5
  8
0
 62
     7
 10
83.443475000000007
 20
166.36250000000001
 30
0.0
 40
0.073035
 50
146.83154899999991
 51
178.66977700000001
  0
ARC
  5
1E6
  8
0
 62
     7
 10
83.446145000000001
 20
166.365208
 30
0.0
 40
0.075692
 50
180.766504
 51
227.03741600000001
  0
ARC
  5
1E7
  8
0
 62
     7
 10
83.549220000000005
 20
166.45244899999989
 30
0.0
 40
0.21039
 50
222.68295299999991
 51
235.943725
  0
ARC
  5
1E8
  8
0
 62
     7
 10
83.700276000000002
 20
166.67658199999991
 30
0.0
 40
0.480673
 50
235.98763299999999
 51
246.07125499999989
  0
ARC
  5
1E9
  8
0
 62
     7
 10
83.933793999999978
 20
167.1895899999999
 30
0.0
 40
1.0443180000000001
 50
245.776612
 51
251.7170899999999
  0
ARC
  5
1EA
  8
0
 62
     7
 10
84.257910999999993
 20
168.16694200000001
 30
0.0
 40
2.074011
 50
251.68529100000001
 51
256.33326699999992
  0
ARC
  5
1EB
  8
0
 62
     7
 10
84.674745999999999
 20
169.85923899999989
 30
0.0
 40
3.8168839999999991
 50
256.2553999999999
 51
259.63697400000001
  0
ARC
  5
1EC
  8
0
 62
     7
 10
85.149433999999985
 20
172.42773299999999
 30
0.0
 40
6.428871
 50
259.59319699999998
 51
262.179418
  0
ARC
  5
1ED
  8
0
 62
     7
 10
85.756181999999995
 20
176.87828200000001
 30
0.0
 40
10.920588
 50
262.20296999999999
 51
266.39614399999999
  0
ARC
  5
1EE
  8
0
 62
     7
 10
86.319484000000003
 20
184.46957199999991
 30
0.0
 40
18.532467999999991
 50
266.13330400000001
 51
270.15763500000003
  0
ARC
  5
1EF
  8
0
 62
     7
 10
86.373250999999996
 20
185.78164699999991
 30
0.0
 40
19.844473000000001
 50
269.99197500000002
 51
274.031497
  0
ARC
  5
1F0
  8
0
 62
     7
 10
86.934088000000003
 20
177.36805000000001
 30
0.0
 40
11.412311000000001
 50
274.19248599999992
 51
278.09974099999999
  0
ARC
  5
1F1
  8
0
 62
     7
 10
87.852962000000005
 20
170.822903
 30
0.0
 40
4.803007
 50
278.24862999999988
 51
284.130202
  0
ARC
  5
1F2
  8
0
 62
     7
 10
88.686250999999999
 20
167.48037500000001
 30
0.0
 40
1.3582069999999991
 50
284.46440299999989
 51
295.29376100000002
  0
ARC
  5
1F3
  8
0
 62
     7
 10
89.111646999999977
 20
166.5583729999999
 30
0.0
 40
0.342971
 50
296.85102699999987
 51
309.54058599999991
  0
ARC
  5
1F4
  8
0
 62
     7
 10
89.23841800000001
 20
166.40438299999991
 30
0.0
 40
0.143512
 50
309.64903099999998
 51
326.86327899999992
  0
ARC
  5
1F5
  8
0
 62
     7
 10
89.297523999999996
 20
166.36588
 30
0.0
 40
0.072971
 50
326.80924099999999
 51
358.67742200000009
  0
ARC
  5
1F6
  8
0
 62
     7
 10
89.294790000000006
 20
168.12570500000001
 30
0.0
 40
0.075692
 50
0.7664840000000001
 51
47.037396000000008
  0
ARC
  5
1F7
  8
0
 62
     7
 10
89.191715000000002
 20
168.038465
 30
0.0
 40
0.21039
 50
42.682932999999991
 51
55.943706000000013
  0
ARC
  5
1F8
  8
0
 62
     7
 10
89.040660000000003
 20
167.81433200000001
 30
0.0
 40
0.480673
 50
55.987613000000003
 51
66.071235000000001
  0
ARC
  5
1F9
  8
0
 62
     7
 10
88.807141999999985
 20
167.30132399999991
 30
0.0
 40
1.0443180000000001
 50
65.776592000000022
 51
71.717069999999993
  0
ARC
  5
1FA
  8
0
 62
     7
 10
88.483024999999998
 20
166.32397199999991
 30
0.0
 40
2.074011
 50
71.685271
 51
76.333247999999998
  0
ARC
  5
1FB
  8
0
 62
     7
 10
88.066189000000008
 20
164.63167499999989
 30
0.0
 40
3.8168839999999991
 50
76.255380000000002
 51
79.636954000000003
  0
ARC
  5
1FC
  8
0
 62
     7
 10
87.591502000000006
 20
162.06318099999999
 30
0.0
 40
6.428871
 50
79.593176999999983
 51
82.179397999999992
  0
ARC
  5
1FD
  8
0
 62
     7
 10
86.984754000000009
 20
157.61263099999999
 30
0.0
 40
10.920588
 50
82.202950999999985
 51
86.396124
  0
ARC
  5
1FE
  8
0
 62
     7
 10
86.421451999999988
 20
150.021342
 30
0.0
 40
18.532467999999991
 50
86.133284999999987
 51
90.157615000000007
  0
ARC
  5
1FF
  8
0
 62
     7
 10
86.367684999999994
 20
148.7092669999999
 30
0.0
 40
19.844473000000001
 50
89.991955000000004
 51
94.031476999999995
  0
ARC
  5
200
  8
0
 62
     7
 10
85.806848000000002
 20
157.12286399999991
 30
0.0
 40
11.412311000000001
 50
94.19246600000001
 51
98.099721000000017
  0
ARC
  5
201
  8
0
 62
     7
 10
84.887974000000014
 20
163.66801100000001
 30
0.0
 40
4.803007
 50
98.248609999999999
 51
104.13018199999991
  0
ARC
  5
202
  8
0
 62
     7
 10
84.054684999999992
 20
167.01053899999991
 30
0.0
 40
1.3582069999999991
 50
104.464383
 51
115.2937419999999
  0
ARC
  5
203
  8
0
 62
     7
 10
83.629288999999986
 20
167.9325409999999
 30
0.0
 40
0.342971
 50
116.851007
 51
129.5405659999999
  0
ARC
  5
204
  8
0
 62
     7
 10
83.502517999999995
 20
168.08653100000001
 30
0.0
 40
0.143512
 50
129.649011
 51
146.863259
  0
ARC
  5
205
  8
0
 62
     7
 10
83.443411999999995
 20
168.125034
 30
0.0
 40
0.072971
 50
146.80922100000001
 51
178.677402
  0
LINE
  5
206
  8
0
 62
     7
 10
84.120500000000007
 20
148.364
 30
0.0
 11
84.120500000000007
 21
147.36500000000001
 31
0.0
  0
LINE
  5
207
  8
0
 62
     7
 10
85.5274
 20
147.36500000000001
 30
0.0
 11
82.713099999999983
 21
147.36500000000001
 31
0.0
  0
LINE
  5
208
  8
0
 62
     7
 10
82.713099999999983
 20
148.364
 30
0.0
 11
82.713099999999983
 21
147.36500000000001
 31
0.0
  0
LINE
  5
209
  8
0
 62
     7
 10
85.5274
 20
148.364
 30
0.0
 11
85.5274
 21
147.36500000000001
 31
0.0
  0
LINE
  5
20A
  8
0
 62
     7
 10
92.620300000000015
 20
179.91499999999999
 30
0.0
 11
92.620300000000015
 21
148.364
 31
0.0
  0
LINE
  5
20B
  8
0
 62
     7
 10
80.120300000000015
 20
179.91499999999999
 30
0.0
 11
80.120300000000015
 21
148.364
 31
0.0
  0
LINE
  5
20C
  8
0
 62
     7
 10
92.370500000000007
 20
168.65000000000001
 30
0.0
 11
80.370500000000007
 21
168.65000000000001
 31
0.0
  0
LINE
  5
20D
  8
0
 62
     7
 10
88.620500000000007
 20
148.364
 30
0.0
 11
88.620500000000007
 21
147.36500000000001
 31
0.0
  0
LINE
  5
20E
  8
0
 62
     7
 10
90.027500000000003
 20
147.36500000000001
 30
0.0
 11
87.213099999999997
 21
147.36500000000001
 31
0.0
  0
LINE
  5
20F
  8
0
 62
     7
 10
87.213099999999997
 20
148.364
 30
0.0
 11
87.213099999999997
 21
147.36500000000001
 31
0.0
  0
LINE
  5
210
  8
0
 62
     7
 10
90.027500000000003
 20
148.364
 30
0.0
 11
90.027500000000003
 21
147.36500000000001
 31
0.0
  0
LINE
  5
211
  8
0
 62
     7
 10
86.370500000000007
 20
135.114
 30
0.0
 11
86.370500000000007
 21
132.364
 31
0.0
  0
LINE
  5
212
  8
0
 62
     7
 10
86.995400000000004
 20
132.364
 30
0.0
 11
86.995400000000004
 21
125.6129999999999
 31
0.0
  0
LINE
  5
213
  8
0
 62
     7
 10
86.995400000000004
 20
148.364
 30
0.0
 11
86.995400000000004
 21
147.02999999999989
 31
0.0
  0
LINE
  5
214
  8
0
 62
     7
 10
86.995400000000004
 20
146.56499999999991
 30
0.0
 11
86.995400000000004
 21
143.84
 31
0.0
  0
LINE
  5
215
  8
0
 62
     7
 10
86.995400000000004
 20
142.88900000000001
 30
0.0
 11
86.995400000000004
 21
140.864
 31
0.0
  0
LINE
  5
216
  8
0
 62
     7
 10
85.620500000000007
 20
125.6129999999999
 30
0.0
 11
85.620500000000007
 21
122.1139999999999
 31
0.0
  0
LINE
  5
217
  8
0
 62
     7
 10
87.120500000000007
 20
125.6129999999999
 30
0.0
 11
87.120500000000007
 21
122.1139999999999
 31
0.0
  0
LINE
  5
218
  8
0
 62
     7
 10
87.120500000000007
 20
125.6129999999999
 30
0.0
 11
85.620500000000007
 21
125.6129999999999
 31
0.0
  0
LINE
  5
219
  8
0
 62
     7
 10
87.120500000000007
 20
122.1139999999999
 30
0.0
 11
85.620500000000007
 21
122.1139999999999
 31
0.0
  0
LINE
  5
21A
  8
0
 62
     7
 10
86.995400000000004
 20
122.1139999999999
 30
0.0
 11
86.995400000000004
 21
73.363799999999998
 31
0.0
  0
LINE
  5
21B
  8
0
 62
     7
 10
86.995400000000004
 20
73.363799999999998
 30
0.0
 11
85.745500000000007
 21
73.363799999999998
 31
0.0
  0
LINE
  5
21C
  8
0
 62
     7
 10
85.745500000000007
 20
122.1139999999999
 30
0.0
 11
85.745500000000007
 21
73.363799999999998
 31
0.0
  0
LINE
  5
21D
  8
0
 62
     7
 10
85.745500000000007
 20
132.364
 30
0.0
 11
85.745500000000007
 21
125.614
 31
0.0
  0
LINE
  5
21E
  8
0
 62
     7
 10
84.870500000000007
 20
138.614
 30
0.0
 11
84.870500000000007
 21
132.364
 31
0.0
  0
LINE
  5
21F
  8
0
 62
     7
 10
87.870500000000007
 20
138.614
 30
0.0
 11
87.870500000000007
 21
132.364
 31
0.0
  0
LINE
  5
220
  8
0
 62
     7
 10
84.870500000000007
 20
132.364
 30
0.0
 11
87.870500000000007
 21
132.364
 31
0.0
  0
LINE
  5
221
  8
0
 62
     7
 10
84.870500000000007
 20
135.114
 30
0.0
 11
87.870500000000007
 21
135.114
 31
0.0
  0
LINE
  5
222
  8
0
 62
     7
 10
87.870500000000007
 20
138.614
 30
0.0
 11
88.870199999999997
 21
138.989
 31
0.0
  0
LINE
  5
223
  8
0
 62
     7
 10
83.870300000000015
 20
138.989
 30
0.0
 11
84.870500000000007
 21
138.614
 31
0.0
  0
LINE
  5
224
  8
0
 62
     7
 10
84.870500000000007
 20
138.614
 30
0.0
 11
87.870500000000007
 21
138.614
 31
0.0
  0
LINE
  5
225
  8
0
 62
     7
 10
79.870199999999997
 20
140.864
 30
0.0
 11
79.870199999999997
 21
138.989
 31
0.0
  0
LINE
  5
226
  8
0
 62
     7
 10
92.870400000000004
 20
140.864
 30
0.0
 11
92.870400000000004
 21
138.989
 31
0.0
  0
LINE
  5
227
  8
0
 62
     7
 10
79.870199999999997
 20
138.989
 30
0.0
 11
92.870400000000004
 21
138.989
 31
0.0
  0
LINE
  5
228
  8
0
 62
     7
 10
151.0989999999999
 20
139.50499999999991
 30
0.0
 11
151.0989999999999
 21
125.6129999999999
 31
0.0
  0
LINE
  5
229
  8
0
 62
     7
 10
146.2239999999999
 20
138.613
 30
0.0
 11
146.7239999999999
 21
139.251
 31
0.0
  0
LINE
  5
22A
  8
0
 62
     7
 10
142.2239999999999
 20
140.864
 30
0.0
 11
142.2239999999999
 21
138.989
 31
0.0
  0
LINE
  5
22B
  8
0
 62
     7
 10
142.2239999999999
 20
138.989
 30
0.0
 11
152.9739999999999
 21
139.614
 31
0.0
  0
LINE
  5
22C
  8
0
 62
     7
 10
79.870199999999997
 20
140.364
 30
0.0
 11
92.870400000000004
 21
140.364
 31
0.0
  0
LINE
  5
22D
  8
0
 62
     7
 10
79.870199999999997
 20
140.864
 30
0.0
 11
92.870400000000004
 21
140.864
 31
0.0
  0
LINE
  5
22E
  8
0
  6
AIGENLINE001
 62
     7
 10
86.370500000000007
 20
71.950599999999994
 30
0.0
 11
86.370500000000007
 21
182.76599999999991
 31
0.0
  0
LINE
  5
22F
  8
0
 62
     7
 10
92.620300000000015
 20
148.364
 30
0.0
 11
80.120300000000015
 21
148.364
 31
0.0
  0
LINE
  5
230
  8
0
 62
     7
 10
147.22399999999999
 20
148.364
 30
0.0
 11
147.22399999999999
 21
147.36500000000001
 31
0.0
  0
LINE
  5
231
  8
0
 62
     7
 10
148.7239999999999
 20
148.364
 30
0.0
 11
148.7239999999999
 21
147.36500000000001
 31
0.0
  0
LINE
  5
232
  8
0
 62
     7
 10
149.5989999999999
 20
147.36500000000001
 30
0.0
 11
146.34899999999999
 21
147.36500000000001
 31
0.0
  0
LINE
  5
233
  8
0
 62
     7
 10
146.34899999999999
 20
148.364
 30
0.0
 11
146.34899999999999
 21
147.36500000000001
 31
0.0
  0
LINE
  5
234
  8
0
 62
     7
 10
149.5989999999999
 20
148.364
 30
0.0
 11
149.5989999999999
 21
147.36500000000001
 31
0.0
  0
LINE
  5
235
  8
0
 62
     7
 10
149.7239999999999
 20
125.6129999999999
 30
0.0
 11
149.7239999999999
 21
122.1139999999999
 31
0.0
  0
LINE
  5
236
  8
0
 62
     7
 10
151.22399999999999
 20
125.6129999999999
 30
0.0
 11
151.22399999999999
 21
122.1139999999999
 31
0.0
  0
LINE
  5
237
  8
0
 62
     7
 10
151.22399999999999
 20
125.6129999999999
 30
0.0
 11
149.7239999999999
 21
125.6129999999999
 31
0.0
  0
LINE
  5
238
  8
0
 62
     7
 10
151.22399999999999
 20
122.1139999999999
 30
0.0
 11
149.7239999999999
 21
122.1139999999999
 31
0.0
  0
LINE
  5
239
  8
0
 62
     7
 10
144.4739999999999
 20
132.86299999999989
 30
0.0
 11
144.97399999999999
 21
132.86299999999989
 31
0.0
  0
LINE
  5
23A
  8
0
 62
     7
 10
143.97399999999999
 20
132.363
 30
0.0
 11
143.97399999999999
 21
135.114
 31
0.0
  0
LINE
  5
23B
  8
0
 62
     7
 10
145.4739999999999
 20
132.363
 30
0.0
 11
145.4739999999999
 21
135.114
 31
0.0
  0
LINE
  5
23C
  8
0
 62
     7
 10
144.4739999999999
 20
132.363
 30
0.0
 11
144.4739999999999
 21
132.86299999999989
 31
0.0
  0
LINE
  5
23D
  8
0
 62
     7
 10
144.97399999999999
 20
132.363
 30
0.0
 11
144.97399999999999
 21
132.86299999999989
 31
0.0
  0
LINE
  5
23E
  8
0
 62
     7
 10
146.34899999999999
 20
132.363
 30
0.0
 11
146.34899999999999
 21
135.114
 31
0.0
  0
LINE
  5
23F
  8
0
 62
     7
 10
143.0989999999999
 20
132.363
 30
0.0
 11
143.0989999999999
 21
135.114
 31
0.0
  0
LINE
  5
240
  8
0
 62
     7
 10
144.97399999999999
 20
132.363
 30
0.0
 11
146.34899999999999
 21
132.363
 31
0.0
  0
LINE
  5
241
  8
0
 62
     7
 10
143.0989999999999
 20
132.363
 30
0.0
 11
144.4739999999999
 21
132.363
 31
0.0
  0
LINE
  5
242
  8
0
 62
     7
 10
143.0989999999999
 20
135.114
 30
0.0
 11
146.34899999999999
 21
135.114
 31
0.0
  0
LINE
  5
243
  8
0
 62
     7
 10
142.4739999999999
 20
138.614
 30
0.0
 11
142.2239999999999
 21
138.989
 31
0.0
  0
LINE
  5
244
  8
0
 62
     7
 10
112.4079999999999
 20
168.77199999999999
 30
0.0
 11
112.959
 21
173.2409999999999
 31
0.0
  0
LINE
  5
245
  8
0
 62
     7
 10
112.515
 20
168.6329999999999
 30
0.0
 11
139.108
 21
164.89400000000001
 31
0.0
  0
ARC
  5
246
  8
0
 62
     7
 10
112.53759599999989
 20
168.76093599999999
 30
0.0
 40
0.129748
 50
175.1134689999999
 51
260.02370699999989
  0
LINE
  5
247
  8
0
 62
     7
 10
153.489
 20
168.3779999999999
 30
0.0
 11
113.098
 21
173.34999999999999
 31
0.0
  0
ARC
  5
248
  8
0
 62
     7
 10
113.086894
 20
173.21991099999991
 30
0.0
 40
0.130053
 50
85.239178999999993
 51
170.8242789999999
  0
LINE
  5
249
  8
0
 62
     7
 10
153.5989999999999
 20
168.2529999999999
 30
0.0
 11
153.5989999999999
 21
148.364
 31
0.0
  0
ARC
  5
24A
  8
0
 62
     7
 10
153.46967799999999
 20
168.24981199999999
 30
0.0
 40
0.129205
 50
1.6346810000000001
 51
81.275777000000005
  0
LINE
  5
24B
  8
0
  6
AIGENLINE002
 62
     7
 10
133.08799999999999
 20
184.3059999999999
 30
0.0
 11
134.17599999999999
 21
185.339
 31
0.0
  0
LINE
  5
24C
  8
0
  6
AIGENLINE002
 62
     7
 10
139.89899999999989
 20
176.94799999999989
 30
0.0
 11
133.08299999999991
 21
184.12899999999999
 31
0.0
  0
ARC
  5
24D
  8
0
  6
AIGENLINE002
 62
     7
 10
133.18045000000001
 20
184.21507899999989
 30
0.0
 40
0.129943
 50
135.58309299999999
 51
221.519295
  0
LINE
  5
24E
  8
0
  6
AIGENLINE002
 62
     7
 10
141.09299999999999
 20
178.232
 30
0.0
 11
134.35299999999989
 21
185.334
 31
0.0
  0
ARC
  5
24F
  8
0
  6
AIGENLINE002
 62
     7
 10
134.26163199999999
 20
185.240757
 30
0.0
 40
0.130357
 50
45.695359000000003
 51
131.295613
  0
LINE
  5
250
  8
0
  6
AIGENLINE002
 62
     7
 10
155.0449999999999
 20
171.00999999999991
 30
0.0
 11
142.4079999999999
 21
177.261
 31
0.0
  0
LINE
  5
251
  8
0
  6
AIGENLINE002
 62
     7
 10
154.27000000000001
 20
169.16200000000001
 30
0.0
 11
155.102
 21
170.84200000000001
 31
0.0
  0
ARC
  5
252
  8
0
  6
AIGENLINE002
 62
     7
 10
154.98426199999989
 20
170.89523799999989
 30
0.0
 40
0.129526
 50
342.49796400000002
 51
61.990051999999999
  0
LINE
  5
253
  8
0
  6
AIGENLINE002
 62
     7
 10
142.05699999999999
 20
175.483
 30
0.0
 11
141.53399999999999
 21
175.7409999999999
 31
0.0
  0
LINE
  5
254
  8
0
  6
AIGENLINE002
 62
     7
 10
142.16200000000001
 20
172.87700000000001
 30
0.0
 11
142.62299999999991
 21
173.80799999999999
 31
0.0
  0
ARC
  5
255
  8
0
  6
AIGENLINE002
 62
     7
 10
141.47052099999991
 20
174.371138
 30
0.0
 40
1.282707
 50
333.96145999999987
 51
340.80872699999992
  0
ARC
  5
256
  8
0
  6
AIGENLINE002
 62
     7
 10
141.449749
 20
174.34109699999999
 30
0.0
 40
1.2929289999999991
 50
342.36876599999999
 51
62.00439999999999
  0
ARC
  5
257
  8
0
  6
AIGENLINE002
 62
     7
 10
144.122748
 20
180.96047899999991
 30
0.0
 40
5.8262330000000002
 50
223.52979999999999
 51
243.61632700000001
  0
ARC
  5
258
  8
0
  6
AIGENLINE002
 62
     7
 10
144.4922149999999
 20
181.4636219999999
 30
0.0
 40
4.6909359999999989
 50
223.556408
 51
243.61707799999999
  0
LINE
  5
259
  8
0
  6
AIGENLINE002
 62
     7
 10
154.27000000000001
 20
169.16200000000001
 30
0.0
 11
148.21199999999999
 21
169.88399999999999
 31
0.0
  0
LINE
  5
25A
  8
0
  6
AIGENLINE002
 62
     7
 10
148.21199999999999
 20
169.88399999999999
 30
0.0
 11
142.16200000000001
 21
172.87700000000001
 31
0.0
  0
LINE
  5
25B
  8
0
 62
     7
 10
128.98099999999991
 20
178.66900000000001
 30
0.0
 11
129.66699999999989
 21
180.0029999999999
 31
0.0
  0
LINE
  5
25C
  8
0
 62
     7
 10
137.84200000000001
 20
173.97599999999991
 30
0.0
 11
129.03499999999991
 21
178.5
 31
0.0
  0
ARC
  5
25D
  8
0
 62
     7
 10
129.0988659999999
 20
178.61357499999991
 30
0.0
 40
0.12979
 50
154.829183
 51
240.77065899999999
  0
LINE
  5
25E
  8
0
 62
     7
 10
138.5439999999999
 20
175.583
 30
0.0
 11
129.83500000000001
 21
180.05699999999999
 31
0.0
  0
ARC
  5
25F
  8
0
 62
     7
 10
129.78005300000001
 20
179.939213
 30
0.0
 40
0.13016
 50
64.980497999999997
 51
150.619325
  0
LINE
  5
260
  8
0
 62
     7
 10
154.09999999999991
 20
173.37899999999999
 30
0.0
 11
140.10599999999999
 21
175.102
 31
0.0
  0
LINE
  5
261
  8
0
 62
     7
 10
153.9799999999999
 20
171.37899999999999
 30
0.0
 11
154.20899999999989
 21
173.24000000000001
 31
0.0
  0
ARC
  5
262
  8
0
 62
     7
 10
154.080534
 20
173.25175599999989
 30
0.0
 40
0.129169
 50
1.6448240000000001
 51
81.444185999999988
  0
ARC
  5
263
  8
0
 62
     7
 10
147.48228599999999
 20
169.1181379999999
 30
0.0
 40
5.4698969999999996
 50
353.06978199999992
 51
0.026145
  0
ARC
  5
264
  8
0
 62
     7
 10
147.434887
 20
169.12539699999991
 30
0.0
 40
5.482132
 50
162.5108689999999
 51
173.12004999999991
  0
ARC
  5
265
  8
0
 62
     7
 10
147.43657599999989
 20
169.11813000000001
 30
0.0
 40
5.5156070000000001
 50
0.026012
 51
20.735054999999999
  0
LINE
  5
266
  8
0
 62
     7
 10
140.36299999999989
 20
173.30699999999999
 30
0.0
 11
139.785
 21
173.3779999999999
 31
0.0
  0
LINE
  5
267
  8
0
 62
     7
 10
141.3239999999999
 20
170.88200000000001
 30
0.0
 11
141.45099999999991
 21
171.91399999999999
 31
0.0
  0
ARC
  5
268
  8
0
 62
     7
 10
140.219255
 20
172.065259
 30
0.0
 40
1.2410499999999991
 50
352.98036999999988
 51
0.059796
  0
ARC
  5
269
  8
0
 62
     7
 10
140.16751899999991
 20
172.02866399999991
 30
0.0
 40
1.2933410000000001
 50
1.6788110000000001
 51
81.305189999999996
  0
ARC
  5
26A
  8
0
 62
     7
 10
140.496487
 20
179.144353
 30
0.0
 40
5.8100629999999986
 50
242.81307599999991
 51
262.95863999999989
  0
ARC
  5
26B
  8
0
 62
     7
 10
140.68152900000001
 20
179.748242
 30
0.0
 40
4.6820009999999996
 50
242.84548899999999
 51
262.94374799999991
  0
LINE
  5
26C
  8
0
 62
     7
 10
153.9799999999999
 20
171.37899999999999
 30
0.0
 11
148.02299999999991
 21
170.05799999999991
 31
0.0
  0
LINE
  5
26D
  8
0
 62
     7
 10
148.02299999999991
 20
170.05799999999991
 30
0.0
 11
141.3239999999999
 21
170.88200000000001
 31
0.0
  0
LINE
  5
26E
  8
0
  6
AIGENLINE001
 62
     7
 10
150.4739999999999
 20
146.42599999999999
 30
0.0
 11
150.4739999999999
 21
71.7239
 31
0.0
  0
LINE
  5
26F
  8
0
 62
     7
 10
141.2529999999999
 20
162.61000000000001
 30
0.0
 11
142.3489999999999
 21
148.364
 31
0.0
  0
ARC
  5
270
  8
0
 62
     7
 10
138.688604
 20
162.35085399999991
 30
0.0
 40
2.577370999999999
 50
5.7718069999999999
 51
80.627767000000006
  0
LINE
  5
271
  8
0
 62
     7
 10
146.2239999999999
 20
138.613
 30
0.0
 11
146.2239999999999
 21
135.114
 31
0.0
  0
LINE
  5
272
  8
0
 62
     7
 10
143.22399999999999
 20
138.613
 30
0.0
 11
143.22399999999999
 21
135.114
 31
0.0
  0
LINE
  5
273
  8
0
 62
     7
 10
146.2239999999999
 20
138.614
 30
0.0
 11
142.4739999999999
 21
138.614
 31
0.0
  0
LINE
  5
274
  8
0
 62
     7
 10
151.0989999999999
 20
122.1139999999999
 30
0.0
 11
151.0989999999999
 21
73.363799999999998
 31
0.0
  0
LINE
  5
275
  8
0
 62
     7
 10
151.0989999999999
 20
73.363799999999998
 30
0.0
 11
149.8489999999999
 21
73.363799999999998
 31
0.0
  0
LINE
  5
276
  8
0
 62
     7
 10
149.8489999999999
 20
122.1139999999999
 30
0.0
 11
149.8489999999999
 21
73.363799999999998
 31
0.0
  0
LINE
  5
277
  8
0
 62
     7
 10
149.8489999999999
 20
139.43299999999991
 30
0.0
 11
149.8489999999999
 21
125.614
 31
0.0
  0
LINE
  5
278
  8
0
 62
     7
 10
145.5989999999999
 20
148.364
 30
0.0
 11
145.5989999999999
 21
140.864
 31
0.0
  0
LINE
  5
279
  8
0
 62
     7
 10
143.8489999999999
 20
148.364
 30
0.0
 11
143.8489999999999
 21
140.864
 31
0.0
  0
LINE
  5
27A
  8
0
 62
     7
 10
142.2239999999999
 20
140.364
 30
0.0
 11
152.9739999999999
 21
140.364
 31
0.0
  0
LINE
  5
27B
  8
0
 62
     7
 10
142.2239999999999
 20
140.864
 30
0.0
 11
152.9739999999999
 21
140.864
 31
0.0
  0
LINE
  5
27C
  8
0
  6
AIGENLINE001
 62
     7
 10
144.7239999999999
 20
150.63800000000001
 30
0.0
 11
144.7239999999999
 21
130.786
 31
0.0
  0
LINE
  5
27D
  8
0
  6
AIGENLINE001
 62
     7
 10
147.9739999999999
 20
175.9429999999999
 30
0.0
 11
147.9739999999999
 21
57.401499999999992
 31
0.0
  0
LINE
  5
27E
  8
0
 62
     7
 10
152.9739999999999
 20
140.864
 30
0.0
 11
152.9739999999999
 21
139.614
 31
0.0
  0
LINE
  5
27F
  8
0
  6
AIGENLINE001
 62
     7
 10
114.9079999999999
 20
164.81099999999989
 30
0.0
 11
116.663
 21
169.63200000000001
 31
0.0
  0
LINE
  5
280
  8
0
 62
     7
 10
116.87299999999991
 20
166.91900000000001
 30
0.0
 11
114.759
 21
167.6879999999999
 31
0.0
  0
LINE
  5
281
  8
0
 62
     7
 10
83.370500000000007
 20
166.364
 30
0.0
 11
83.370500000000007
 21
168.12700000000001
 31
0.0
  0
LINE
  5
282
  8
0
 62
     7
 10
89.370500000000007
 20
166.364
 30
0.0
 11
89.370500000000007
 21
168.12700000000001
 31
0.0
  0
LINE
  5
283
  8
0
 62
     7
 10
114.416
 20
166.749
 30
0.0
 11
114.759
 21
167.6879999999999
 31
0.0
  0
LINE
  5
284
  8
0
 62
     7
 10
116.53100000000001
 20
165.97900000000001
 30
0.0
 11
116.87299999999991
 21
166.91900000000001
 31
0.0
  0
LINE
  5
285
  8
0
 62
     7
 10
112.6549999999999
 20
167.3899999999999
 30
0.0
 11
113.0779999999999
 21
168.554
 31
0.0
  0
LINE
  5
286
  8
0
 62
     7
 10
118.29300000000001
 20
165.33799999999999
 30
0.0
 11
119.152
 21
167.6999999999999
 31
0.0
  0
LINE
  5
287
  8
0
 62
     7
 10
118.29300000000001
 20
165.33799999999999
 30
0.0
 11
112.6549999999999
 21
167.3899999999999
 31
0.0
  0
LINE
  5
288
  8
0
 62
     7
 10
91.370400000000004
 20
164.614
 30
0.0
 11
81.370199999999997
 21
164.614
 31
0.0
  0
LINE
  5
289
  8
0
 62
     7
 10
153.5989999999999
 20
148.364
 30
0.0
 11
142.3489999999999
 21
148.364
 31
0.0
  0
ARC
  5
28A
  8
0
 62
     7
 10
38.22016099999999
 20
77.142347000000001
 30
0.0
 40
0.519149
 50
272.08835599999998
 51
357.911654
  0
ARC
  5
28B
  8
0
 62
     7
 10
36.258488999999997
 20
77.143086999999994
 30
0.0
 40
0.519904
 50
182.167022
 51
267.87248099999988
  0
ARC
  5
28C
  8
0
 62
     7
 10
38.219763999999998
 20
78.504209000000003
 30
0.0
 40
0.5195610000000001
 50
2.130487
 51
87.869502999999995
  0
ARC
  5
28D
  8
0
 62
     7
 10
36.258164999999998
 20
78.504190000000008
 30
0.0
 40
0.519567
 50
92.093094999999977
 51
177.86740199999991
  0
LINE
  5
28E
  8
0
 62
     7
 10
39.007699999999993
 20
52.412599999999998
 30
0.0
 11
37.238999999999997
 21
51.93889999999999
 31
0.0
  0
LINE
  5
28F
  8
0
 62
     7
 10
37.238999999999997
 20
51.93889999999999
 30
0.0
 11
39.007699999999993
 21
51.465200000000003
 31
0.0
  0
LINE
  5
290
  8
0
 62
     7
 10
39.007699999999993
 20
51.465200000000003
 30
0.0
 11
39.007699999999993
 21
52.412599999999998
 31
0.0
  0
LINE
  5
291
  8
0
 62
     7
 10
71.471000000000004
 20
51.476900000000001
 30
0.0
 11
73.239400000000003
 21
51.950299999999999
 31
0.0
  0
LINE
  5
292
  8
0
 62
     7
 10
73.239400000000003
 20
51.950299999999999
 30
0.0
 11
71.471000000000004
 21
52.424300000000002
 31
0.0
  0
LINE
  5
293
  8
0
 62
     7
 10
71.471000000000004
 20
52.424300000000002
 30
0.0
 11
71.471000000000004
 21
51.476900000000001
 31
0.0
  0
LINE
  5
294
  8
0
 62
     7
 10
37.260300000000001
 20
51.944800000000001
 30
0.0
 11
73.218000000000004
 21
51.944800000000001
 31
0.0
  0
LINE
  5
295
  8
0
 62
     7
 10
73.239400000000003
 20
67.986999999999995
 30
0.0
 11
73.239400000000003
 21
51.249899999999997
 31
0.0
  0
LINE
  5
296
  8
0
 62
     7
 10
41.000300000000003
 20
59.150300000000001
 30
0.0
 11
50.049599999999998
 21
59.150300000000001
 31
0.0
  0
LINE
  5
297
  8
0
 62
     7
 10
35.247
 20
59.618099999999991
 30
0.0
 11
33.478999999999999
 21
59.1447
 31
0.0
  0
LINE
  5
298
  8
0
 62
     7
 10
33.478999999999999
 20
59.1447
 30
0.0
 11
35.247
 21
58.670699999999997
 31
0.0
  0
LINE
  5
299
  8
0
 62
     7
 10
35.247
 20
58.670699999999997
 30
0.0
 11
35.247
 21
59.618099999999991
 31
0.0
  0
LINE
  5
29A
  8
0
 62
     7
 10
39.2316
 20
58.682400000000001
 30
0.0
 11
41.000300000000003
 21
59.156100000000002
 31
0.0
  0
LINE
  5
29B
  8
0
 62
     7
 10
41.000300000000003
 20
59.156100000000002
 30
0.0
 11
39.2316
 21
59.630200000000002
 31
0.0
  0
LINE
  5
29C
  8
0
 62
     7
 10
39.2316
 20
59.630200000000002
 30
0.0
 11
39.2316
 21
58.682400000000001
 31
0.0
  0
LINE
  5
29D
  8
0
 62
     7
 10
33.500300000000003
 20
59.150300000000001
 30
0.0
 11
40.978299999999997
 21
59.150300000000001
 31
0.0
  0
LINE
  5
29E
  8
0
 62
     7
 10
33.478999999999999
 20
64.912899999999993
 30
0.0
 11
33.478999999999999
 21
58.629399999999997
 31
0.0
  0
LINE
  5
29F
  8
0
 62
     7
 10
41.000300000000003
 20
64.912899999999993
 30
0.0
 11
41.000300000000003
 21
58.686199999999992
 31
0.0
  0
LINE
  5
2A0
  8
0
 62
     7
 10
27.651199999999999
 20
81.536299999999983
 30
0.0
 11
27.177199999999988
 21
83.304699999999997
 31
0.0
  0
LINE
  5
2A1
  8
0
 62
     7
 10
27.177199999999988
 20
83.304699999999997
 30
0.0
 11
26.703099999999999
 21
81.536299999999983
 31
0.0
  0
LINE
  5
2A2
  8
0
 62
     7
 10
26.703099999999999
 20
81.536299999999983
 30
0.0
 11
27.651199999999999
 21
81.536299999999983
 31
0.0
  0
LINE
  5
2A3
  8
0
 62
     7
 10
26.7148
 20
77.063100000000006
 30
0.0
 11
27.1889
 21
75.294799999999995
 31
0.0
  0
LINE
  5
2A4
  8
0
 62
     7
 10
27.1889
 20
75.294799999999995
 30
0.0
 11
27.6629
 21
77.063100000000006
 31
0.0
  0
LINE
  5
2A5
  8
0
 62
     7
 10
27.6629
 20
77.063100000000006
 30
0.0
 11
26.7148
 21
77.063100000000006
 31
0.0
  0
LINE
  5
2A6
  8
0
 62
     7
 10
27.182700000000001
 20
83.304699999999997
 30
0.0
 11
27.182700000000001
 21
75.294799999999995
 31
0.0
  0
LINE
  5
2A7
  8
0
 62
     7
 10
27.651199999999999
 20
73.52600000000001
 30
0.0
 11
27.177199999999988
 21
75.294799999999995
 31
0.0
  0
LINE
  5
2A8
  8
0
 62
     7
 10
27.177199999999988
 20
75.294799999999995
 30
0.0
 11
26.703099999999999
 21
73.52600000000001
 31
0.0
  0
LINE
  5
2A9
  8
0
 62
     7
 10
26.703099999999999
 20
73.52600000000001
 30
0.0
 11
27.651199999999999
 21
73.52600000000001
 31
0.0
  0
LINE
  5
2AA
  8
0
 62
     7
 10
26.7148
 20
66.996200000000002
 30
0.0
 11
27.1889
 21
65.228099999999984
 31
0.0
  0
LINE
  5
2AB
  8
0
 62
     7
 10
27.1889
 20
65.228099999999984
 30
0.0
 11
27.6629
 21
66.996200000000002
 31
0.0
  0
LINE
  5
2AC
  8
0
 62
     7
 10
27.6629
 20
66.996200000000002
 30
0.0
 11
26.7148
 21
66.996200000000002
 31
0.0
  0
LINE
  5
2AD
  8
0
 62
     7
 10
27.182700000000001
 20
75.316100000000006
 30
0.0
 11
27.182700000000001
 21
65.228099999999984
 31
0.0
  0
LINE
  5
2AE
  8
0
 62
     7
 10
32.875399999999992
 20
65.228099999999984
 30
0.0
 11
26.840199999999999
 21
65.228099999999984
 31
0.0
  0
LINE
  5
2AF
  8
0
 62
     7
 10
30.728400000000001
 20
75.294799999999995
 30
0.0
 11
26.840199999999999
 21
75.294799999999995
 31
0.0
  0
LINE
  5
2B0
  8
0
 62
     7
 10
30.651199999999999
 20
83.304699999999997
 30
0.0
 11
26.837499999999991
 21
83.304699999999997
 31
0.0
  0
LINE
  5
2B1
  8
0
 62
     7
 10
43.5291
 20
83.057999999999993
 30
0.0
 11
43.5291
 21
82.957400000000007
 31
0.0
  0
ARC
  5
2B2
  8
0
 62
     7
 10
45.864348
 20
70.080549000000005
 30
0.0
 40
5.1192349999999989
 50
197.7938509999999
 51
205.456209
  0
ARC
  5
2B3
  8
0
 62
     7
 10
42.990118000000002
 20
68.736257999999992
 30
0.0
 40
1.9463680000000001
 50
206.09278499999999
 51
211.00056599999999
  0
ARC
  5
2B4
  8
0
 62
     7
 10
41.925074000000002
 20
68.086046999999994
 30
0.0
 40
0.698619
 50
210.27972099999991
 51
225.387215
  0
ARC
  5
2B5
  8
0
 62
     7
 10
43.331766999999999
 20
69.148256000000003
 30
0.0
 40
2.302220999999999
 50
149.52437900000001
 51
157.20595499999999
  0
ARC
  5
2B6
  8
0
 62
     7
 10
44.96857399999999
 20
68.427250000000001
 30
0.0
 40
4.0906459999999987
 50
156.7778129999999
 51
168.87007099999991
  0
LINE
  5
2B7
  8
0
 62
     7
 10
46.936300000000003
 20
70.865700000000004
 30
0.0
 11
46.471899999999998
 21
70.865700000000004
 31
0.0
  0
LINE
  5
2B8
  8
0
 62
     7
 10
45.38669999999999
 20
66.902799999999999
 30
0.0
 11
44.6783
 21
66.902799999999999
 31
0.0
  0
LINE
  5
2B9
  8
0
 62
     7
 10
46.943899999999999
 20
66.902799999999999
 30
0.0
 11
46.524900000000002
 21
66.902799999999999
 31
0.0
  0
ARC
  5
2BA
  8
0
 62
     7
 10
45.936968
 20
66.834012000000001
 30
0.0
 40
0.856685
 50
71.079227000000003
 51
90.030982999999992
  0
ARC
  5
2BB
  8
0
 62
     7
 10
46.019861999999989
 20
67.133616000000004
 30
0.0
 40
0.546712
 50
15.048963000000001
 51
69.115506000000011
  0
ARC
  5
2BC
  8
0
 62
     7
 10
45.683178999999988
 20
67.028905000000009
 30
0.0
 40
0.8991399999999998
 50
358.79156799999998
 51
15.922105
  0
ARC
  5
2BD
  8
0
 62
     7
 10
46.505226999999998
 20
67.010370999999992
 30
0.0
 40
0.076894
 50
340.23881299999988
 51
359.68055299999992
  0
ARC
  5
2BE
  8
0
 62
     7
 10
46.414172999999991
 20
67.040506000000008
 30
0.0
 40
0.172791
 50
326.44246900000002
 51
341.04307299999999
  0
ARC
  5
2BF
  8
0
 62
     7
 10
46.248676000000003
 20
67.147611999999995
 30
0.0
 40
0.369918
 50
315.87787099999991
 51
326.78745299999991
  0
ARC
  5
2C0
  8
0
 62
     7
 10
46.003557999999991
 20
67.384454000000005
 30
0.0
 40
0.7107640000000001
 50
299.99903499999999
 51
315.92864899999989
  0
ARC
  5
2C1
  8
0
 62
     7
 10
45.894362999999998
 20
67.543807999999984
 30
0.0
 40
0.903489
 50
271.49285400000002
 51
300.94344699999999
  0
ARC
  5
2C2
  8
0
 62
     7
 10
45.919459000000003
 20
67.276686999999995
 30
0.0
 40
0.6360630000000001
 50
238.0169599999999
 51
269.859666
  0
ARC
  5
2C3
  8
0
 62
     7
 10
45.979399000000001
 20
67.403421999999992
 30
0.0
 40
0.7754800000000001
 50
216.71406300000001
 51
239.2203439999999
  0
ARC
  5
2C4
  8
0
 62
     7
 10
45.64567199999999
 20
67.150331000000008
 30
0.0
 40
0.356667
 50
203.97207299999991
 51
216.171798
  0
ARC
  5
2C5
  8
0
 62
     7
 10
45.418354000000001
 20
67.051959999999994
 30
0.0
 40
0.109018
 50
183.07270700000001
 51
205.27071000000001
  0
ARC
  5
2C6
  8
0
 62
     7
 10
46.427405999999991
 20
67.047169999999994
 30
0.0
 40
1.117912999999999
 50
169.31603299999989
 51
180.05405699999989
  0
ARC
  5
2C7
  8
0
 62
     7
 10
45.927822999999989
 20
67.135046000000003
 30
0.0
 40
0.610731
 50
143.50345200000001
 51
168.72816599999999
  0
ARC
  5
2C8
  8
0
 62
     7
 10
45.808351999999999
 20
67.197849000000005
 30
0.0
 40
0.4777790000000001
 50
101.71068199999991
 51
141.035741
  0
ARC
  5
2C9
  8
0
 62
     7
 10
45.920603999999997
 20
66.808242000000007
 30
0.0
 40
0.8825979999999999
 50
88.967709999999997
 51
103.712953
  0
ARC
  5
2CA
  8
0
 62
     7
 10
45.881816999999991
 20
69.226641999999984
 30
0.0
 40
1.7637890000000001
 50
76.622818999999993
 51
90.014088999999984
  0
ARC
  5
2CB
  8
0
 62
     7
 10
46.120409000000002
 20
70.272910999999993
 30
0.0
 40
0.690778
 50
59.890551000000002
 51
75.797769999999986
  0
ARC
  5
2CC
  8
0
 62
     7
 10
46.366500000000002
 20
70.707103000000004
 30
0.0
 40
0.191783
 50
29.411314999999998
 51
58.418089999999999
  0
ARC
  5
2CD
  8
0
 62
     7
 10
46.455761999999993
 20
70.765333999999996
 30
0.0
 40
0.085707
 50
0.317384
 51
24.799139
  0
ARC
  5
2CE
  8
0
 62
     7
 10
45.303077999999999
 20
70.765381999999988
 30
0.0
 40
1.2383889999999991
 50
344.521458
 51
0.019753
  0
ARC
  5
2CF
  8
0
 62
     7
 10
45.806994000000003
 20
70.641153000000003
 30
0.0
 40
0.719747
 50
319.05866800000001
 51
343.34634499999999
  0
ARC
  5
2D0
  8
0
 62
     7
 10
45.949641
 20
70.541906999999995
 30
0.0
 40
0.5472730000000001
 50
268.62459499999989
 51
317.12087300000002
  0
ARC
  5
2D1
  8
0
 62
     7
 10
45.942815000000003
 20
70.614766000000003
 30
0.0
 40
0.6200070000000001
 50
212.58928399999991
 51
269.41688399999992
  0
ARC
  5
2D2
  8
0
 62
     7
 10
46.090436999999987
 20
70.717252000000002
 30
0.0
 40
0.799616
 50
190.5786479999999
 51
213.079275
  0
ARC
  5
2D3
  8
0
 62
     7
 10
46.356090000000002
 20
70.782275999999996
 30
0.0
 40
1.072797999999999
 50
179.6650689999999
 51
191.38775000000001
  0
ARC
  5
2D4
  8
0
 62
     7
 10
45.340755000000001
 20
70.788494999999998
 30
0.0
 40
0.057444
 50
159.6352169999999
 51
179.948408
  0
ARC
  5
2D5
  8
0
 62
     7
 10
45.375355999999996
 20
70.775107999999975
 30
0.0
 40
0.094543
 50
138.68355500000001
 51
159.326448
  0
ARC
  5
2D6
  8
0
 62
     7
 10
45.451450999999999
 20
70.70915699999999
 30
0.0
 40
0.195239
 50
124.2858139999999
 51
138.89040800000001
  0
ARC
  5
2D7
  8
0
 62
     7
 10
45.56606
 20
70.544826999999998
 30
0.0
 40
0.395583
 50
114.19512399999989
 51
124.59347099999999
  0
ARC
  5
2D8
  8
0
 62
     7
 10
45.737253000000003
 20
70.162233999999998
 30
0.0
 40
0.8147300000000001
 50
99.289972999999975
 51
114.149432
  0
ARC
  5
2D9
  8
0
 62
     7
 10
45.871259999999999
 20
69.520933999999997
 30
0.0
 40
1.469530999999999
 50
89.605311999999998
 51
100.409947
  0
ARC
  5
2DA
  8
0
 62
     7
 10
45.935111999999997
 20
69.294094000000001
 30
0.0
 40
0.4791790000000001
 50
54.511673999999999
 51
89.833435999999992
  0
ARC
  5
2DB
  8
0
 62
     7
 10
45.822687000000002
 20
69.118005000000011
 30
0.0
 40
0.6879070000000001
 50
30.722599999999989
 51
55.401756000000013
  0
ARC
  5
2DC
  8
0
 62
     7
 10
45.519933999999992
 20
68.916041000000007
 30
0.0
 40
1.0515190000000001
 50
4.3951299999999991
 51
31.755082999999999
  0
ARC
  5
2DD
  8
0
 62
     7
 10
45.287533000000003
 20
68.870653000000004
 30
0.0
 40
1.287007
 50
359.98454800000002
 51
5.6170159999999996
  0
ARC
  5
2DE
  8
0
 62
     7
 10
45.36396899999999
 20
68.871553000000006
 30
0.0
 40
1.2105719999999991
 50
331.61258500000002
 51
359.94094899999999
  0
ARC
  5
2DF
  8
0
 62
     7
 10
45.753400999999997
 20
68.686233000000001
 30
0.0
 40
0.780175
 50
307.38971800000002
 51
329.988471
  0
ARC
  5
2E0
  8
0
 62
     7
 10
45.923569000000001
 20
68.483140000000006
 30
0.0
 40
0.515617
 50
271.43757499999992
 51
306.06975999999997
  0
ARC
  5
2E1
  8
0
 62
     7
 10
45.937910999999993
 20
68.446665999999993
 30
0.0
 40
0.4789830000000001
 50
234.517503
 51
269.83175099999988
  0
ARC
  5
2E2
  8
0
 62
     7
 10
46.051098000000003
 20
68.62451999999999
 30
0.0
 40
0.6895970000000001
 50
210.80902
 51
235.437174
  0
ARC
  5
2E3
  8
0
 62
     7
 10
46.350621999999987
 20
68.825130000000001
 30
0.0
 40
1.0497700000000001
 50
184.43253000000001
 51
211.840114
  0
ARC
  5
2E4
  8
0
 62
     7
 10
46.576616999999999
 20
68.869895
 30
0.0
 40
1.278837
 50
179.981582
 51
185.6496909999999
  0
ARC
  5
2E5
  8
0
 62
     7
 10
46.505234999999999
 20
68.869062999999997
 30
0.0
 40
1.207455999999999
 50
151.52532500000001
 51
179.94099800000001
  0
ARC
  5
2E6
  8
0
 62
     7
 10
46.121271
 20
69.052526999999998
 30
0.0
 40
0.782774
 50
127.383118
 51
149.93007299999991
  0
ARC
  5
2E7
  8
0
 62
     7
 10
45.949882000000002
 20
69.257315000000006
 30
0.0
 40
0.516129
 50
91.485153999999994
 51
126.0675379999999
  0
LINE
  5
2E8
  8
0
 62
     7
 10
54.075200000000002
 20
66.578999999999994
 30
0.0
 11
53.601900000000001
 21
68.347300000000004
 31
0.0
  0
LINE
  5
2E9
  8
0
 62
     7
 10
53.601900000000001
 20
68.347300000000004
 30
0.0
 11
53.127800000000001
 21
66.578999999999994
 31
0.0
  0
LINE
  5
2EA
  8
0
 62
     7
 10
53.127800000000001
 20
66.578999999999994
 30
0.0
 11
54.075200000000002
 21
66.578999999999994
 31
0.0
  0
LINE
  5
2EB
  8
0
 62
     7
 10
53.139600000000002
 20
71.114500000000007
 30
0.0
 11
53.613599999999998
 21
69.346400000000003
 31
0.0
  0
LINE
  5
2EC
  8
0
 62
     7
 10
53.613599999999998
 20
69.346400000000003
 30
0.0
 11
54.086999999999989
 21
71.114500000000007
 31
0.0
  0
LINE
  5
2ED
  8
0
 62
     7
 10
54.086999999999989
 20
71.114500000000007
 30
0.0
 11
53.139600000000002
 21
71.114500000000007
 31
0.0
  0
LINE
  5
2EE
  8
0
 62
     7
 10
53.607399999999991
 20
75.269300000000001
 30
0.0
 11
53.607399999999991
 21
65.312899999999999
 31
0.0
  0
LINE
  5
2EF
  8
0
 62
     7
 10
71.312200000000004
 20
68.487899999999996
 30
0.0
 11
70.779200000000003
 21
68.487899999999996
 31
0.0
  0
LINE
  5
2F0
  8
0
 62
     7
 10
71.312200000000004
 20
69.1935
 30
0.0
 11
70.779200000000003
 21
69.1935
 31
0.0
  0
LINE
  5
2F1
  8
0
 62
     7
 10
71.400700000000001
 20
68.376999999999995
 30
0.0
 11
71.405199999999994
 21
68.376999999999995
 31
0.0
  0
LINE
  5
2F2
  8
0
 62
     7
 10
70.779200000000003
 20
68.3673
 30
0.0
 11
71.312200000000004
 21
68.3673
 31
0.0
  0
LINE
  5
2F3
  8
0
 62
     7
 10
70.779200000000003
 20
69.312700000000007
 30
0.0
 11
71.312200000000004
 21
69.312700000000007
 31
0.0
  0
ARC
  5
2F4
  8
0
 62
     7
 10
71.565384999999992
 20
68.203941999999984
 30
0.0
 40
0.251803
 50
157.07963499999991
 51
179.82537600000001
  0
ARC
  5
2F5
  8
0
 62
     7
 10
71.503033000000002
 20
68.220543999999975
 30
0.0
 40
0.188123
 50
106.65652
 51
154.34015299999999
  0
ARC
  5
2F6
  8
0
 62
     7
 10
71.579892999999998
 20
68.021062000000001
 30
0.0
 40
0.4016030000000001
 50
88.083088000000004
 51
109.004983
  0
ARC
  5
2F7
  8
0
 62
     7
 10
71.599564000000001
 20
68.015917999999999
 30
0.0
 40
0.40657
 50
73.498393000000007
 51
90.878998999999993
  0
ARC
  5
2F8
  8
0
 62
     7
 10
71.644525999999999
 20
68.187318999999988
 30
0.0
 40
0.229525
 50
25.086769
 51
72.1066
  0
ARC
  5
2F9
  8
0
 62
     7
 10
71.551717000000011
 20
69.461524999999995
 30
0.0
 40
0.2391469999999999
 50
182.98169799999999
 51
206.04978800000001
  0
ARC
  5
2FA
  8
0
 62
     7
 10
71.501137999999983
 20
69.447018
 30
0.0
 40
0.18756
 50
208.85470299999989
 51
256.2593
  0
ARC
  5
2FB
  8
0
 62
     7
 10
71.580611000000005
 20
69.679368999999994
 30
0.0
 40
0.432698
 50
253.343772
 51
271.68390499999992
  0
ARC
  5
2FC
  8
0
 62
     7
 10
71.593753000000007
 20
69.683506999999992
 30
0.0
 40
0.4366500000000001
 50
269.94408499999997
 51
286.72148899999991
  0
ARC
  5
2FD
  8
0
 62
     7
 10
71.650867000000005
 20
69.476918999999995
 30
0.0
 40
0.222415
 50
287.94270699999993
 51
335.3959319999999
  0
ARC
  5
2FE
  8
0
 62
     7
 10
71.610585
 20
68.950136000000001
 30
0.0
 40
0.297223
 50
93.328722000000013
 51
177.7891789999999
  0
ARC
  5
2FF
  8
0
 62
     7
 10
71.593356999999983
 20
68.986221
 30
0.0
 40
0.260636
 50
26.768953
 51
90.006713000000005
  0
ARC
  5
300
  8
0
 62
     7
 10
71.524388000000002
 20
68.933329999999998
 30
0.0
 40
0.346413
 50
8.6404649999999972
 51
29.442734999999999
  0
ARC
  5
301
  8
0
 62
     7
 10
71.608765000000005
 20
68.718969000000001
 30
0.0
 40
0.29693
 50
184.84000999999989
 51
267.01964500000003
  0
ARC
  5
302
  8
0
 62
     7
 10
71.593341000000009
 20
68.854268000000005
 30
0.0
 40
0.431827
 50
269.99801599999989
 51
286.71117900000002
  0
ARC
  5
303
  8
0
 62
     7
 10
71.647712999999996
 20
68.653176000000002
 30
0.0
 40
0.223668
 50
288.183787
 51
348.47206699999992
  0
LINE
  5
304
  8
0
 62
     7
 10
71.669499999999985
 20
68.163399999999996
 30
0.0
 11
71.312200000000004
 21
68.163399999999996
 31
0.0
  0
LINE
  5
305
  8
0
 62
     7
 10
71.866900000000001
 20
69.312700000000007
 30
0.0
 11
71.866900000000001
 21
68.361099999999993
 31
0.0
  0
ARC
  5
306
  8
0
 62
     7
 10
71.661559999999994
 20
68.368662999999998
 30
0.0
 40
0.205447
 50
272.20466099999999
 51
357.89525400000002
  0
LINE
  5
307
  8
0
 62
     7
 10
71.669499999999985
 20
69.509699999999995
 30
0.0
 11
71.312200000000004
 21
69.509699999999995
 31
0.0
  0
ARC
  5
308
  8
0
 62
     7
 10
71.661928000000003
 20
69.304766000000001
 30
0.0
 40
0.205092
 50
2.205592999999999
 51
87.894476999999995
  0
LINE
  5
309
  8
0
 62
     7
 10
71.312200000000004
 20
69.509699999999995
 30
0.0
 11
71.312200000000004
 21
68.163399999999996
 31
0.0
  0
LINE
  5
30A
  8
0
 62
     7
 10
70.692099999999996
 20
68.394900000000007
 30
0.0
 11
70.692800000000005
 21
68.394900000000007
 31
0.0
  0
LINE
  5
30B
  8
0
 62
     7
 10
70.779200000000003
 20
69.525199999999984
 30
0.0
 11
70.577699999999993
 21
69.698499999999996
 31
0.0
  0
LINE
  5
30C
  8
0
 62
     7
 10
70.779200000000003
 20
68.178499999999985
 30
0.0
 11
70.577699999999993
 21
68.007000000000005
 31
0.0
  0
LINE
  5
30D
  8
0
 62
     7
 10
68.043800000000005
 20
68.007000000000005
 30
0.0
 11
67.842299999999994
 21
68.178499999999985
 31
0.0
  0
LINE
  5
30E
  8
0
 62
     7
 10
68.043800000000005
 20
69.697100000000006
 30
0.0
 11
67.842299999999994
 21
69.524900000000002
 31
0.0
  0
LINE
  5
30F
  8
0
 62
     7
 10
67.842299999999994
 20
69.524900000000002
 30
0.0
 11
67.842299999999994
 21
68.178499999999985
 31
0.0
  0
ARC
  5
310
  8
0
 62
     7
 10
68.447211999999993
 20
68.359554000000003
 30
0.0
 40
0.352595
 50
239.6336849999999
 51
269.89342999999991
  0
ARC
  5
311
  8
0
 62
     7
 10
68.521638999999993
 20
68.501932999999994
 30
0.0
 40
0.5131250000000001
 50
222.37933100000001
 51
240.50017800000001
  0
ARC
  5
312
  8
0
 62
     7
 10
68.743370999999996
 20
68.713052000000005
 30
0.0
 40
0.8192459999999998
 50
200.65539699999999
 51
222.833798
  0
ARC
  5
313
  8
0
 62
     7
 10
69.049953000000002
 20
68.855611999999994
 30
0.0
 40
1.156682999999999
 50
179.954724
 51
201.906251
  0
ARC
  5
314
  8
0
 62
     7
 10
69.080077000000003
 20
68.854623000000004
 30
0.0
 40
1.1868080000000001
 50
151.7001479999999
 51
179.908151
  0
ARC
  5
315
  8
0
 62
     7
 10
68.667361
 20
69.066231000000002
 30
0.0
 40
0.7231600000000001
 50
128.06763100000001
 51
150.959598
  0
ARC
  5
316
  8
0
 62
     7
 10
68.455483000000001
 20
69.312414000000004
 30
0.0
 40
0.398985
 50
105.3674479999999
 51
125.91109899999989
  0
ARC
  5
317
  8
0
 62
     7
 10
70.214202
 20
69.331893999999991
 30
0.0
 40
0.36975
 50
50.165275000000001
 51
81.041458000000006
  0
ARC
  5
318
  8
0
 62
     7
 10
70.073756000000003
 20
69.137815000000003
 30
0.0
 40
0.6089720000000001
 50
34.479073
 51
51.715510000000002
  0
ARC
  5
319
  8
0
 62
     7
 10
69.775897999999998
 20
68.922150000000002
 30
0.0
 40
0.9766379999999998
 50
14.17384
 51
35.016478999999997
  0
ARC
  5
31A
  8
0
 62
     7
 10
69.559021000000001
 20
68.844566999999998
 30
0.0
 40
1.2061129999999991
 50
0.273504
 51
15.224515999999991
  0
ARC
  5
31B
  8
0
 62
     7
 10
69.590170000000001
 20
68.851947999999993
 30
0.0
 40
1.1749519999999991
 50
331.658569
 51
359.920817
  0
ARC
  5
31C
  8
0
 62
     7
 10
69.984234000000001
 20
68.649292000000003
 30
0.0
 40
0.7319680000000001
 50
308.38011699999998
 51
330.97693199999998
  0
ARC
  5
31D
  8
0
 62
     7
 10
70.200220000000002
 20
68.399056999999999
 30
0.0
 40
0.4019480000000001
 50
282.71072400000003
 51
306.39137099999999
  0
LINE
  5
31E
  8
0
 62
     7
 10
68.032799999999995
 20
68.937799999999996
 30
0.0
 11
69.229299999999995
 21
68.937799999999996
 31
0.0
  0
LINE
  5
31F
  8
0
 62
     7
 10
68.032799999999995
 20
68.765600000000006
 30
0.0
 11
69.229299999999995
 21
68.765600000000006
 31
0.0
  0
ARC
  5
320
  8
0
 62
     7
 10
68.740417000000008
 20
68.837997000000001
 30
0.0
 40
0.713583
 50
112.6549969999999
 51
179.01017699999991
  0
ARC
  5
321
  8
0
 62
     7
 10
68.632463000000001
 20
69.019567000000009
 30
0.0
 40
0.5053130000000001
 50
90.180612999999994
 51
109.28695
  0
ARC
  5
322
  8
0
 62
     7
 10
68.629218000000009
 20
69.006600000000006
 30
0.0
 40
0.51828
 50
54.270740000000011
 51
89.817377000000008
  0
ARC
  5
323
  8
0
 62
     7
 10
68.516591000000005
 20
68.840001999999998
 30
0.0
 40
0.719315
 50
0.822211
 51
54.737286000000012
  0
ARC
  5
324
  8
0
 62
     7
 10
68.526735000000002
 20
68.862763000000001
 30
0.0
 40
0.709207
 50
292.34706199999988
 51
358.99499900000001
  0
ARC
  5
325
  8
0
 62
     7
 10
68.629234999999994
 20
68.686376999999993
 30
0.0
 40
0.507853
 50
270.18441999999999
 51
289.21613400000001
  0
ARC
  5
326
  8
0
 62
     7
 10
68.632520999999997
 20
68.696559999999991
 30
0.0
 40
0.518037
 50
234.30796799999999
 51
269.81742200000002
  0
ARC
  5
327
  8
0
 62
     7
 10
68.743746000000002
 20
68.861477000000008
 30
0.0
 40
0.716892
 50
180.8913979999999
 51
234.7781939999999
  0
LINE
  5
328
  8
0
 62
     7
 10
68.040000000000006
 20
68.007000000000005
 30
0.0
 11
70.581199999999995
 21
68.007000000000005
 31
0.0
  0
LINE
  5
329
  8
0
 62
     7
 10
68.043800000000005
 20
69.697100000000006
 30
0.0
 11
70.579400000000007
 21
69.697100000000006
 31
0.0
  0
LINE
  5
32A
  8
0
 62
     7
 10
70.779200000000003
 20
69.525199999999984
 30
0.0
 11
70.779200000000003
 21
68.178499999999985
 31
0.0
  0
LINE
  5
32B
  8
0
 62
     7
 10
30.950199999999992
 20
83.683599999999998
 30
0.0
 11
30.950199999999992
 21
87.795699999999997
 31
0.0
  0
LINE
  5
32C
  8
0
 62
     7
 10
31.196899999999999
 20
83.304699999999997
 30
0.0
 11
43.281700000000001
 21
83.304699999999997
 31
0.0
  0
ARC
  5
32D
  8
0
 62
     7
 10
43.272182999999998
 20
83.047756999999976
 30
0.0
 40
0.257077
 50
2.280692999999999
 51
87.879118000000005
  0
ARC
  5
32E
  8
0
 62
     7
 10
31.205749999999998
 20
83.048438000000004
 30
0.0
 40
0.255684
 50
91.980152000000004
 51
177.85955000000001
  0
LINE
  5
32F
  8
0
 62
     7
 10
30.950199999999992
 20
82.957400000000007
 30
0.0
 11
30.950199999999992
 21
83.057999999999993
 31
0.0
  0
LINE
  5
330
  8
0
 62
     7
 10
41.160899999999991
 20
76.623500000000007
 30
0.0
 11
41.233899999999991
 21
76.623500000000007
 31
0.0
  0
LINE
  5
331
  8
0
 62
     7
 10
40.83979999999999
 20
76.945999999999998
 30
0.0
 11
40.83979999999999
 21
78.702299999999994
 31
0.0
  0
ARC
  5
332
  8
0
 62
     7
 10
41.173321000000001
 20
76.957014999999998
 30
0.0
 40
0.333705
 50
181.89070599999991
 51
267.86394599999988
  0
LINE
  5
333
  8
0
 62
     7
 10
33.648499999999999
 20
76.945999999999998
 30
0.0
 11
33.648499999999999
 21
78.702299999999994
 31
0.0
  0
LINE
  5
334
  8
0
 62
     7
 10
33.244700000000002
 20
76.623500000000007
 30
0.0
 11
33.32739999999999
 21
76.623500000000007
 31
0.0
  0
ARC
  5
335
  8
0
 62
     7
 10
33.313626999999997
 20
76.958320000000001
 30
0.0
 40
0.33506
 50
272.35174199999989
 51
357.89364599999988
  0
LINE
  5
336
  8
0
 62
     7
 10
41.160899999999991
 20
79.023399999999995
 30
0.0
 11
41.233899999999991
 21
79.023399999999995
 31
0.0
  0
ARC
  5
337
  8
0
 62
     7
 10
41.17322399999999
 20
78.689984999999993
 30
0.0
 40
0.333654
 50
92.119619999999983
 51
177.88035099999991
  0
LINE
  5
338
  8
0
 62
     7
 10
33.244700000000002
 20
79.023399999999995
 30
0.0
 11
33.32739999999999
 21
79.023399999999995
 31
0.0
  0
ARC
  5
339
  8
0
 62
     7
 10
33.315034999999988
 20
78.689984999999993
 30
0.0
 40
0.333654
 50
2.1196470000000001
 51
87.880343000000011
  0
LINE
  5
33A
  8
0
 62
     7
 10
33.244700000000002
 20
79.023399999999995
 30
0.0
 11
33.244700000000002
 21
81.093599999999995
 31
0.0
  0
LINE
  5
33B
  8
0
 62
     7
 10
33.244700000000002
 20
76.223600000000005
 30
0.0
 11
33.244700000000002
 21
76.623500000000007
 31
0.0
  0
LINE
  5
33C
  8
0
 62
     7
 10
33.244700000000002
 20
81.093599999999995
 30
0.0
 11
33.0959
 21
81.249300000000005
 31
0.0
  0
LINE
  5
33D
  8
0
 62
     7
 10
41.346200000000003
 20
81.249300000000005
 30
0.0
 11
41.233899999999991
 21
81.093599999999995
 31
0.0
  0
LINE
  5
33E
  8
0
 62
     7
 10
41.233899999999991
 20
76.623500000000007
 30
0.0
 11
41.233899999999991
 21
76.223600000000005
 31
0.0
  0
LINE
  5
33F
  8
0
 62
     7
 10
41.233899999999991
 20
81.093599999999995
 30
0.0
 11
41.233899999999991
 21
79.023399999999995
 31
0.0
  0
LINE
  5
340
  8
0
 62
     7
 10
30.950199999999992
 20
82.957400000000007
 30
0.0
 11
43.549700000000001
 21
82.957400000000007
 31
0.0
  0
LINE
  5
341
  8
0
 62
     7
 10
47.182899999999989
 20
67.149799999999999
 30
0.0
 11
47.182899999999989
 21
70.620800000000003
 31
0.0
  0
ARC
  5
342
  8
0
 62
     7
 10
46.933960999999996
 20
67.159351999999998
 30
0.0
 40
0.256744
 50
272.209045
 51
357.87093099999993
  0
ARC
  5
343
  8
0
 62
     7
 10
46.926851999999997
 20
70.609549000000001
 30
0.0
 40
0.256342
 50
2.508769
 51
87.892731999999995
  0
LINE
  5
344
  8
0
 62
     7
 10
41.4069
 20
67.0334
 30
0.0
 11
33.0717
 21
67.0334
 31
0.0
  0
LINE
  5
345
  8
0
 62
     7
 10
43.263800000000003
 20
75.3048
 30
0.0
 11
31.2148
 21
75.3048
 31
0.0
  0
LINE
  5
346
  8
0
 62
     7
 10
43.823300000000003
 20
70.488100000000003
 30
0.0
 11
43.823300000000003
 21
67.205600000000004
 31
0.0
  0
LINE
  5
347
  8
0
 62
     7
 10
43.5291
 20
83.4876
 30
0.0
 11
43.5291
 21
87.795699999999997
 31
0.0
  0
LINE
  5
348
  8
0
 62
     7
 10
41.761000000000003
 20
86.982699999999994
 30
0.0
 11
43.5291
 21
87.456399999999988
 31
0.0
  0
LINE
  5
349
  8
0
 62
     7
 10
43.5291
 20
87.456399999999988
 30
0.0
 11
41.761000000000003
 21
87.930400000000006
 31
0.0
  0
LINE
  5
34A
  8
0
 62
     7
 10
41.761000000000003
 20
87.930400000000006
 30
0.0
 11
41.761000000000003
 21
86.982699999999994
 31
0.0
  0
LINE
  5
34B
  8
0
 62
     7
 10
32.718299999999999
 20
87.918999999999997
 30
0.0
 11
30.950199999999992
 21
87.444999999999993
 31
0.0
  0
LINE
  5
34C
  8
0
 62
     7
 10
30.950199999999992
 20
87.444999999999993
 30
0.0
 11
32.718299999999999
 21
86.971000000000004
 31
0.0
  0
LINE
  5
34D
  8
0
 62
     7
 10
32.718299999999999
 20
86.971000000000004
 30
0.0
 11
32.718299999999999
 21
87.918999999999997
 31
0.0
  0
LINE
  5
34E
  8
0
 62
     7
 10
43.507699999999993
 20
87.450900000000004
 30
0.0
 11
31.030200000000001
 21
87.450900000000004
 31
0.0
  0
LINE
  5
34F
  8
0
 62
     7
 10
37.238999999999997
 20
62.785499999999999
 30
0.0
 11
37.238999999999997
 21
51.131700000000002
 31
0.0
  0
LINE
  5
350
  8
0
 62
     7
 10
71.868899999999996
 20
68.332899999999995
 30
0.0
 11
73.026499999999984
 21
68.332899999999995
 31
0.0
  0
LINE
  5
351
  8
0
 62
     7
 10
47.183599999999991
 20
68.347300000000004
 30
0.0
 11
68.993600000000001
 21
68.347300000000004
 31
0.0
  0
LINE
  5
352
  8
0
  6
AIGENLINE001
 62
     7
 10
39.736699999999999
 20
68.846900000000005
 30
0.0
 11
74.928200000000004
 21
68.846900000000005
 31
0.0
  0
LINE
  5
353
  8
0
 62
     7
 10
71.868899999999996
 20
69.332300000000004
 30
0.0
 11
73.026499999999984
 21
69.332300000000004
 31
0.0
  0
LINE
  5
354
  8
0
 62
     7
 10
47.183599999999991
 20
69.346400000000003
 30
0.0
 11
68.993600000000001
 21
69.346400000000003
 31
0.0
  0
ARC
  5
355
  8
0
 62
     7
 10
41.710765000000002
 20
66.851488000000003
 30
0.0
 40
0.35417
 50
90.787019999999984
 51
149.10000999999991
  0
LINE
  5
356
  8
0
 62
     7
 10
44.592199999999998
 20
66.989599999999996
 30
0.0
 11
44.592199999999998
 21
70.703800000000001
 31
0.0
  0
ARC
  5
357
  8
0
 62
     7
 10
41.765146999999999
 20
70.84644200000001
 30
0.0
 40
0.358548
 50
182.2054709999999
 51
267.90903500000002
  0
LINE
  5
358
  8
0
 62
     7
 10
44.592199999999998
 20
66.989599999999996
 30
0.0
 11
44.6783
 21
66.902799999999999
 31
0.0
  0
LINE
  5
359
  8
0
 62
     7
 10
44.6783
 20
70.788499999999999
 30
0.0
 11
44.592199999999998
 21
70.703800000000001
 31
0.0
  0
LINE
  5
35A
  8
0
 62
     7
 10
41.752099999999992
 20
70.488100000000003
 30
0.0
 11
44.592199999999998
 21
70.488100000000003
 31
0.0
  0
LINE
  5
35B
  8
0
 62
     7
 10
44.592199999999998
 20
67.205600000000004
 30
0.0
 11
41.705899999999993
 21
67.205600000000004
 31
0.0
  0
LINE
  5
35C
  8
0
 62
     7
 10
44.171199999999992
 20
70.285899999999998
 30
0.0
 11
44.592199999999998
 21
70.285899999999998
 31
0.0
  0
LINE
  5
35D
  8
0
 62
     7
 10
44.592199999999998
 20
67.4054
 30
0.0
 11
44.171199999999992
 21
67.4054
 31
0.0
  0
LINE
  5
35E
  8
0
 62
     7
 10
73.026499999999984
 20
69.332300000000004
 30
0.0
 11
73.026499999999984
 21
68.332899999999995
 31
0.0
  0
ARC
  5
35F
  8
0
 62
     7
 10
42.609430000000003
 20
81.247163000000015
 30
0.0
 40
1.263201
 50
152.342443
 51
179.90299899999999
  0
ARC
  5
360
  8
0
 62
     7
 10
43.060008999999987
 20
81.037662999999995
 30
0.0
 40
1.7597020000000001
 50
131.92082600000001
 51
153.11056899999991
  0
ARC
  5
361
  8
0
 62
     7
 10
43.526018000000001
 20
80.571828999999994
 30
0.0
 40
2.4179169999999992
 50
98.762539000000004
 51
132.7624889999999
  0
ARC
  5
362
  8
0
 62
     7
 10
31.00328
 20
80.829177999999999
 30
0.0
 40
2.1507099999999988
 50
60.905686999999993
 51
82.507292000000007
  0
ARC
  5
363
  8
0
 62
     7
 10
30.922737999999999
 20
80.604322999999994
 30
0.0
 40
2.3866740000000002
 50
41.048794000000001
 51
61.840944
  0
ARC
  5
364
  8
0
 62
     7
 10
31.415682
 20
81.061537000000001
 30
0.0
 40
1.7147969999999999
 50
19.772131999999988
 51
40.344059999999992
  0
ARC
  5
365
  8
0
 62
     7
 10
31.825098999999991
 20
81.235755999999995
 30
0.0
 40
1.2708369999999991
 50
0.610684
 51
18.624625000000002
  0
LINE
  5
366
  8
0
 62
     7
 10
38.738999999999997
 20
77.123400000000004
 30
0.0
 11
38.738999999999997
 21
78.523499999999999
 31
0.0
  0
LINE
  5
367
  8
0
 62
     7
 10
35.738999999999997
 20
77.123400000000004
 30
0.0
 11
35.738999999999997
 21
78.523499999999999
 31
0.0
  0
LINE
  5
368
  8
0
  6
AIGENLINE001
 62
     7
 10
37.238999999999997
 20
63.607900000000001
 30
0.0
 11
37.238999999999997
 21
84.430199999999999
 31
0.0
  0
ARC
  5
369
  8
0
 62
     7
 10
32.042947999999988
 20
75.709778999999983
 30
0.0
 40
0.526354
 50
180.58722700000001
 51
230.30881600000001
  0
ARC
  5
36A
  8
0
 62
     7
 10
32.055720000000001
 20
75.68447900000001
 30
0.0
 40
0.539466
 50
92.152704999999997
 51
177.88529700000001
  0
ARC
  5
36B
  8
0
 62
     7
 10
42.42449899999999
 20
75.686848999999995
 30
0.0
 40
0.537088
 50
1.8709919999999991
 51
87.862240999999997
  0
ARC
  5
36C
  8
0
 62
     7
 10
42.438186999999999
 20
75.707676000000006
 30
0.0
 40
0.523125
 50
309.62571400000002
 51
359.63948299999993
  0
LINE
  5
36D
  8
0
 62
     7
 10
41.4069
 20
73.560100000000006
 30
0.0
 11
41.4069
 21
70.832599999999999
 31
0.0
  0
ARC
  5
36E
  8
0
 62
     7
 10
32.190515999999988
 20
73.550567999999984
 30
0.0
 40
0.8812829999999999
 50
0.6226010000000001
 51
59.354366000000013
  0
ARC
  5
36F
  8
0
 62
     7
 10
42.289045999999992
 20
73.550018999999992
 30
0.0
 40
0.8822399999999998
 50
120.6805539999999
 51
179.3424399999999
  0
LINE
  5
370
  8
0
 62
     7
 10
33.0717
 20
67.0334
 30
0.0
 11
33.0717
 21
73.560100000000006
 31
0.0
  0
LINE
  5
371
  8
0
 62
     7
 10
44.171199999999992
 20
67.4054
 30
0.0
 11
43.823300000000003
 21
67.205600000000004
 31
0.0
  0
LINE
  5
372
  8
0
 62
     7
 10
41.000300000000003
 20
65.304599999999994
 30
0.0
 11
41.000300000000003
 21
66.514499999999998
 31
0.0
  0
LINE
  5
373
  8
0
 62
     7
 10
33.244700000000002
 20
65.538899999999984
 30
0.0
 11
41.233899999999991
 21
65.538899999999984
 31
0.0
  0
LINE
  5
374
  8
0
 62
     7
 10
43.263800000000003
 20
75.131100000000004
 30
0.0
 11
41.838900000000002
 21
74.308800000000005
 31
0.0
  0
LINE
  5
375
  8
0
 62
     7
 10
43.263800000000003
 20
75.131100000000004
 30
0.0
 11
43.263800000000003
 21
75.3048
 31
0.0
  0
LINE
  5
376
  8
0
 62
     7
 10
41.233899999999991
 20
66.514499999999998
 30
0.0
 11
33.287399999999991
 21
66.514499999999998
 31
0.0
  0
LINE
  5
377
  8
0
 62
     7
 10
41.1905
 20
66.514499999999998
 30
0.0
 11
41.1905
 21
67.0334
 31
0.0
  0
LINE
  5
378
  8
0
 62
     7
 10
33.287399999999991
 20
66.514499999999998
 30
0.0
 11
33.287399999999991
 21
67.0334
 31
0.0
  0
LINE
  5
379
  8
0
 62
     7
 10
33.244700000000002
 20
65.538899999999984
 30
0.0
 11
33.478999999999999
 21
65.304599999999994
 31
0.0
  0
LINE
  5
37A
  8
0
 62
     7
 10
41.233899999999991
 20
65.538899999999984
 30
0.0
 11
41.000300000000003
 21
65.304599999999994
 31
0.0
  0
LINE
  5
37B
  8
0
 62
     7
 10
41.233899999999991
 20
66.514499999999998
 30
0.0
 11
41.233899999999991
 21
65.538899999999984
 31
0.0
  0
LINE
  5
37C
  8
0
 62
     7
 10
33.244700000000002
 20
65.538899999999984
 30
0.0
 11
33.244700000000002
 21
66.514499999999998
 31
0.0
  0
LINE
  5
37D
  8
0
 62
     7
 10
41.000300000000003
 20
65.304599999999994
 30
0.0
 11
33.478999999999999
 21
65.304599999999994
 31
0.0
  0
LINE
  5
37E
  8
0
 62
     7
 10
31.2148
 20
75.131100000000004
 30
0.0
 11
32.639699999999998
 21
74.308800000000005
 31
0.0
  0
LINE
  5
37F
  8
0
 62
     7
 10
31.2148
 20
75.131100000000004
 30
0.0
 11
31.2148
 21
75.3048
 31
0.0
  0
LINE
  5
380
  8
0
 62
     7
 10
73.198099999999997
 20
68.504400000000004
 30
0.0
 11
73.026499999999984
 21
68.332899999999995
 31
0.0
  0
LINE
  5
381
  8
0
 62
     7
 10
73.026499999999984
 20
69.332300000000004
 30
0.0
 11
73.198099999999997
 21
69.158299999999997
 31
0.0
  0
LINE
  5
382
  8
0
 62
     7
 10
73.198099999999997
 20
68.504400000000004
 30
0.0
 11
73.198099999999997
 21
69.158299999999997
 31
0.0
  0
LINE
  5
383
  8
0
 62
     7
 10
33.478999999999999
 20
65.304599999999994
 30
0.0
 11
33.478999999999999
 21
66.514499999999998
 31
0.0
  0
LINE
  5
384
  8
0
 62
     7
 10
36.239199999999997
 20
79.023399999999995
 30
0.0
 11
38.239100000000001
 21
79.023399999999995
 31
0.0
  0
LINE
  5
385
  8
0
 62
     7
 10
36.239199999999997
 20
76.623500000000007
 30
0.0
 11
38.239100000000001
 21
76.623500000000007
 31
0.0
  0
LINE
  5
386
  8
0
 62
     7
 10
32.035499999999992
 20
76.223600000000005
 30
0.0
 11
42.444499999999991
 21
76.223600000000005
 31
0.0
  0
LINE
  5
387
  8
0
 62
     7
 10
44.171199999999992
 20
67.205600000000004
 30
0.0
 11
44.171199999999992
 21
70.488100000000003
 31
0.0
  0
LINE
  5
388
  8
0
 62
     7
 10
43.823300000000003
 20
70.488100000000003
 30
0.0
 11
44.171199999999992
 21
70.285899999999998
 31
0.0
  0
LINE
  5
389
  8
0
 62
     7
 10
45.28329999999999
 20
70.788499999999999
 30
0.0
 11
44.6783
 21
70.788499999999999
 31
0.0
  0
LINE
  5
38A
  8
0
 62
     7
 10
152.24799999999991
 20
51.187600000000003
 30
0.0
 11
150.03700000000001
 21
50.594999999999992
 31
0.0
  0
LINE
  5
38B
  8
0
 62
     7
 10
150.03700000000001
 20
50.594999999999992
 30
0.0
 11
152.24799999999991
 21
50.003100000000003
 31
0.0
  0
LINE
  5
38C
  8
0
 62
     7
 10
152.24799999999991
 20
50.003100000000003
 30
0.0
 11
152.24799999999991
 21
51.187600000000003
 31
0.0
  0
LINE
  5
38D
  8
0
 62
     7
 10
143.70099999999991
 20
50.016899999999993
 30
0.0
 11
145.911
 21
50.609499999999997
 31
0.0
  0
LINE
  5
38E
  8
0
 62
     7
 10
145.911
 20
50.609499999999997
 30
0.0
 11
143.70099999999991
 21
51.201999999999998
 31
0.0
  0
LINE
  5
38F
  8
0
 62
     7
 10
143.70099999999991
 20
51.201999999999998
 30
0.0
 11
143.70099999999991
 21
50.016899999999993
 31
0.0
  0
LINE
  5
390
  8
0
 62
     7
 10
135.40100000000001
 20
50.602600000000002
 30
0.0
 11
153.75200000000001
 21
50.602600000000002
 31
0.0
  0
LINE
  5
391
  8
0
 62
     7
 10
149.47399999999999
 20
66.365399999999994
 30
0.0
 11
149.47399999999999
 21
139.40999999999991
 31
0.0
  0
LINE
  5
392
  8
0
 62
     7
 10
149.47399999999999
 20
140.864
 30
0.0
 11
149.47399999999999
 21
142.88900000000001
 31
0.0
  0
LINE
  5
393
  8
0
 62
     7
 10
146.4739999999999
 20
142.88900000000001
 30
0.0
 11
146.4739999999999
 21
140.864
 31
0.0
  0
LINE
  5
394
  8
0
 62
     7
 10
146.4739999999999
 20
138.93199999999999
 30
0.0
 11
146.4739999999999
 21
66.365399999999994
 31
0.0
  0
LINE
  5
395
  8
0
 62
     7
 10
147.9739999999999
 20
58.863300000000002
 30
0.0
 11
147.9739999999999
 21
61.488500000000002
 31
0.0
  0
LINE
  5
396
  8
0
 62
     7
 10
145.5989999999999
 20
58.863300000000002
 30
0.0
 11
145.5989999999999
 21
61.488500000000002
 31
0.0
  0
ARC
  5
397
  8
0
 62
     7
 10
151.2222449999999
 20
81.312104999999988
 30
0.0
 40
23.142506999999998
 50
255.936249
 51
256.95002199999999
  0
ARC
  5
398
  8
0
 62
     7
 10
147.09316599999991
 20
63.616964000000003
 30
0.0
 40
4.9720930000000001
 50
257.25949700000001
 51
263.09643
  0
ARC
  5
399
  8
0
 62
     7
 10
146.8095679999999
 20
61.492956000000007
 30
0.0
 40
2.8295180000000002
 50
263.62774799999988
 51
269.79011099999991
  0
ARC
  5
39A
  8
0
 62
     7
 10
146.79788199999999
 20
61.184431999999987
 30
0.0
 40
2.5209749999999991
 50
270.03002299999991
 51
277.20703900000001
  0
ARC
  5
39B
  8
0
 62
     7
 10
146.58600699999991
 20
62.979368999999991
 30
0.0
 40
4.3283379999999987
 50
277.008714
 51
283.59966600000001
  0
ARC
  5
39C
  8
0
 62
     7
 10
143.80388599999989
 20
75.050912999999994
 30
0.0
 40
16.716142999999992
 50
283.13919599999991
 51
284.445897
  0
ARC
  5
39D
  8
0
 62
     7
 10
146.35509500000001
 20
56.754325999999999
 30
0.0
 40
5.0032759999999996
 50
71.121235999999996
 51
78.868915000000001
  0
ARC
  5
39E
  8
0
 62
     7
 10
146.76817500000001
 20
58.700532999999993
 30
0.0
 40
3.014079999999999
 50
79.431341000000003
 51
89.410163999999995
  0
ARC
  5
39F
  8
0
 62
     7
 10
146.7995479999999
 20
58.831588000000004
 30
0.0
 40
2.8828640000000001
 50
90.006844999999998
 51
100.852923
  0
ARC
  5
3A0
  8
0
 62
     7
 10
147.04426699999991
 20
57.362636999999999
 30
0.0
 40
4.3717699999999988
 50
100.3779049999999
 51
109.3104749999999
  0
ARC
  5
3A1
  8
0
 62
     7
 10
153.5517429999999
 20
81.128680000000003
 30
0.0
 40
22.953423999999998
 50
255.9361529999999
 51
256.95859000000002
  0
ARC
  5
3A2
  8
0
 62
     7
 10
149.47065799999999
 20
63.627355999999999
 30
0.0
 40
4.9826600000000001
 50
257.2639299999999
 51
263.08700699999991
  0
ARC
  5
3A3
  8
0
 62
     7
 10
149.18451200000001
 20
61.484468000000007
 30
0.0
 40
2.8210309999999992
 50
263.617998
 51
269.78492499999987
  0
ARC
  5
3A4
  8
0
 62
     7
 10
149.172608
 20
61.186894000000002
 30
0.0
 40
2.523436999999999
 50
270.02984600000002
 51
277.20351699999992
  0
ARC
  5
3A5
  8
0
 62
     7
 10
148.96062900000001
 20
62.982267
 30
0.0
 40
4.3312460000000002
 50
277.00742700000001
 51
283.59563300000002
  0
ARC
  5
3A6
  8
0
 62
     7
 10
146.115183
 20
75.32900699999999
 30
0.0
 40
17.001439000000001
 50
283.13524999999993
 51
284.42132700000002
  0
LINE
  5
3A7
  8
0
 62
     7
 10
150.34899999999999
 20
58.863300000000002
 30
0.0
 11
150.34899999999999
 21
61.488500000000002
 31
0.0
  0
ARC
  5
3A8
  8
0
 62
     7
 10
148.724728
 20
56.731527999999997
 30
0.0
 40
5.0267169999999988
 50
71.143041000000011
 51
78.857030000000009
  0
ARC
  5
3A9
  8
0
 62
     7
 10
149.14312499999991
 20
58.697873999999992
 30
0.0
 40
3.016735999999999
 50
79.436267999999998
 51
89.415066000000024
  0
ARC
  5
3AA
  8
0
 62
     7
 10
149.1742689999999
 20
58.83723599999999
 30
0.0
 40
2.877216999999999
 50
90.006888999999987
 51
100.863602
  0
ARC
  5
3AB
  8
0
 62
     7
 10
149.42156199999999
 20
57.356200999999999
 30
0.0
 40
4.3784669999999988
 50
100.388957
 51
109.305924
  0
LINE
  5
3AC
  8
0
 62
     7
 10
150.34899999999999
 20
58.663499999999999
 30
0.0
 11
150.34899999999999
 21
58.863300000000002
 31
0.0
  0
LINE
  5
3AD
  8
0
 62
     7
 10
150.34899999999999
 20
61.488500000000002
 30
0.0
 11
150.34899999999999
 21
61.714500000000001
 31
0.0
  0
LINE
  5
3AE
  8
0
 62
     7
 10
145.5989999999999
 20
58.663499999999999
 30
0.0
 11
145.5989999999999
 21
58.863300000000002
 31
0.0
  0
LINE
  5
3AF
  8
0
 62
     7
 10
145.5989999999999
 20
61.488500000000002
 30
0.0
 11
145.5989999999999
 21
61.714500000000001
 31
0.0
  0
LINE
  5
3B0
  8
0
 62
     7
 10
149.22499999999999
 20
61.88880000000001
 30
0.0
 11
147.9739999999999
 21
61.88880000000001
 31
0.0
  0
LINE
  5
3B1
  8
0
 62
     7
 10
147.9739999999999
 20
61.88880000000001
 30
0.0
 11
146.7239999999999
 21
61.88880000000001
 31
0.0
  0
LINE
  5
3B2
  8
0
 62
     7
 10
150.34899999999999
 20
58.663499999999999
 30
0.0
 11
150.274
 21
58.613799999999998
 31
0.0
  0
LINE
  5
3B3
  8
0
 62
     7
 10
150.274
 20
58.613799999999998
 30
0.0
 11
145.67400000000001
 21
58.613799999999998
 31
0.0
  0
LINE
  5
3B4
  8
0
 62
     7
 10
145.67400000000001
 20
58.613799999999998
 30
0.0
 11
145.5989999999999
 21
58.663499999999999
 31
0.0
  0
ARC
  5
3B5
  8
0
 62
     7
 10
150.33090000000001
 20
61.680710999999988
 30
0.0
 40
0.038479
 50
61.269488000000003
 51
90.14337900000001
  0
ARC
  5
3B6
  8
0
 62
     7
 10
150.16930999999991
 20
60.361671000000001
 30
0.0
 40
1.3670910000000001
 50
83.215862000000001
 51
88.382508000000001
  0
ARC
  5
3B7
  8
0
 62
     7
 10
149.66140599999989
 20
48.143920000000001
 30
0.0
 40
13.595285000000001
 50
87.696236999999996
 51
89.304100000000005
  0
ARC
  5
3B8
  8
0
 62
     7
 10
148.74828799999989
 20
-13.542628000000001
 30
0.0
 40
75.288551999999996
 50
89.179406999999998
 51
89.888685999999993
  0
ARC
  5
3B9
  8
0
 62
     7
 10
148.04999900000001
 20
-316.35938599999992
 30
0.0
 40
378.106111
 50
89.872012999999995
 51
90.360083999999986
  0
LINE
  5
3BA
  8
0
 62
     7
 10
145.67400000000001
 20
61.7393
 30
0.0
 11
145.5989999999999
 21
61.714500000000001
 31
0.0
  0
LINE
  5
3BB
  8
0
 62
     7
 10
149.524
 20
61.7393
 30
0.0
 11
149.524
 21
61.86399999999999
 31
0.0
  0
LINE
  5
3BC
  8
0
 62
     7
 10
149.524
 20
61.86399999999999
 30
0.0
 11
146.42400000000001
 21
61.86399999999999
 31
0.0
  0
LINE
  5
3BD
  8
0
 62
     7
 10
146.42400000000001
 20
61.7393
 30
0.0
 11
146.42400000000001
 21
61.86399999999999
 31
0.0
  0
LINE
  5
3BE
  8
0
 62
     7
 10
146.7239999999999
 20
61.88880000000001
 30
0.0
 11
146.34899999999999
 21
62.189900000000002
 31
0.0
  0
LINE
  5
3BF
  8
0
 62
     7
 10
146.34899999999999
 20
62.189900000000002
 30
0.0
 11
146.3239999999999
 21
62.689399999999999
 31
0.0
  0
LINE
  5
3C0
  8
0
 62
     7
 10
149.625
 20
62.689399999999999
 30
0.0
 11
149.5989999999999
 21
62.189900000000002
 31
0.0
  0
LINE
  5
3C1
  8
0
 62
     7
 10
149.5989999999999
 20
62.189900000000002
 30
0.0
 11
149.22499999999999
 21
61.88880000000001
 31
0.0
  0
LINE
  5
3C2
  8
0
 62
     7
 10
149.42400000000001
 20
63.1145
 30
0.0
 11
146.52500000000001
 21
63.1145
 31
0.0
  0
LINE
  5
3C3
  8
0
 62
     7
 10
146.52500000000001
 20
63.1145
 30
0.0
 11
146.3239999999999
 21
62.689399999999999
 31
0.0
  0
LINE
  5
3C4
  8
0
 62
     7
 10
149.625
 20
62.689399999999999
 30
0.0
 11
149.42400000000001
 21
63.1145
 31
0.0
  0
LINE
  5
3C5
  8
0
 62
     7
 10
149.42400000000001
 20
65.114800000000002
 30
0.0
 11
146.52500000000001
 21
65.114800000000002
 31
0.0
  0
LINE
  5
3C6
  8
0
 62
     7
 10
145.911
 20
50.21329999999999
 30
0.0
 11
145.911
 21
58.1736
 31
0.0
  0
LINE
  5
3C7
  8
0
 62
     7
 10
150.03700000000001
 20
50.21329999999999
 30
0.0
 11
150.03700000000001
 21
58.1736
 31
0.0
  0
LINE
  5
3C8
  8
0
 62
     7
 10
146.52500000000001
 20
63.1145
 30
0.0
 11
146.52500000000001
 21
65.114800000000002
 31
0.0
  0
LINE
  5
3C9
  8
0
 62
     7
 10
149.42400000000001
 20
63.1145
 30
0.0
 11
149.42400000000001
 21
65.114800000000002
 31
0.0
  0
LINE
  5
3CA
  8
0
 62
     7
 10
146.52500000000001
 20
65.114800000000002
 30
0.0
 11
146.34899999999999
 21
65.415199999999999
 31
0.0
  0
LINE
  5
3CB
  8
0
 62
     7
 10
149.5989999999999
 20
65.415199999999999
 30
0.0
 11
149.42400000000001
 21
65.114800000000002
 31
0.0
  0
LINE
  5
3CC
  8
0
 62
     7
 10
146.34899999999999
 20
65.415199999999999
 30
0.0
 11
146.29900000000001
 21
65.539900000000003
 31
0.0
  0
LINE
  5
3CD
  8
0
 62
     7
 10
146.29900000000001
 20
65.539900000000003
 30
0.0
 11
146.29900000000001
 21
65.664599999999993
 31
0.0
  0
ARC
  5
3CE
  8
0
 62
     7
 10
149.05638400000001
 20
65.723451999999995
 30
0.0
 40
0.620564
 50
339.65870099999989
 51
354.56034
  0
ARC
  5
3CF
  8
0
 62
     7
 10
148.979128
 20
65.732364000000004
 30
0.0
 40
0.6963460000000001
 50
332.90463599999993
 51
341.18094600000001
  0
LINE
  5
3D0
  8
0
 62
     7
 10
149.67400000000001
 20
65.664599999999993
 30
0.0
 11
149.67400000000001
 21
66.365399999999994
 31
0.0
  0
LINE
  5
3D1
  8
0
 62
     7
 10
149.67400000000001
 20
66.365399999999994
 30
0.0
 11
146.29900000000001
 21
66.365399999999994
 31
0.0
  0
LINE
  5
3D2
  8
0
 62
     7
 10
146.29900000000001
 20
65.664599999999993
 30
0.0
 11
146.29900000000001
 21
66.365399999999994
 31
0.0
  0
ARC
  5
3D3
  8
0
 62
     7
 10
147.97398699999999
 20
236.82735199999991
 30
0.0
 40
3.5002399999999998
 50
270.00002000000001
 51
359.99998999999991
  0
ARC
  5
3D4
  8
0
 62
     7
 10
147.974332
 20
236.8270059999999
 30
0.0
 40
3.4998939999999998
 50
179.99432999999991
 51
269.99437999999992
  0
ARC
  5
3D5
  8
0
 62
     7
 10
147.97416100000001
 20
236.82752300000001
 30
0.0
 40
3.4997229999999999
 50
90.002820000000014
 51
180.00282999999999
  0
ARC
  5
3D6
  8
0
 62
     7
 10
147.97415899999999
 20
236.827179
 30
0.0
 40
3.500067
 50
0.00283
 51
90.002800000000008
  0
LINE
  5
3D7
  8
0
  6
AIGENLINE001
 62
     7
 10
84.120500000000007
 20
56.389699999999998
 30
0.0
 11
84.120500000000007
 21
150.14899999999989
 31
0.0
  0
LINE
  5
3D8
  8
0
  6
AIGENLINE001
 62
     7
 10
88.620500000000007
 20
56.389699999999998
 30
0.0
 11
88.620500000000007
 21
150.14899999999989
 31
0.0
  0
LINE
  5
3D9
  8
0
 62
     7
 10
91.373800000000003
 20
61.489100000000001
 30
0.0
 11
91.373800000000003
 21
58.863300000000002
 31
0.0
  0
LINE
  5
3DA
  8
0
 62
     7
 10
89.998199999999997
 20
61.489100000000001
 30
0.0
 11
89.998199999999997
 21
58.863300000000002
 31
0.0
  0
ARC
  5
3DB
  8
0
 62
     7
 10
87.916625999999994
 20
66.903070999999997
 30
0.0
 40
8.7515990000000006
 50
291.66568100000001
 51
293.26814899999988
  0
ARC
  5
3DC
  8
0
 62
     7
 10
90.459865000000008
 20
60.537103999999999
 30
0.0
 40
1.896471
 50
281.78779100000003
 51
291.26332000000002
  0
ARC
  5
3DD
  8
0
 62
     7
 10
90.665906000000007
 20
59.628214999999997
 30
0.0
 40
0.964791
 50
270.46664700000002
 51
280.83628799999991
  0
ARC
  5
3DE
  8
0
 62
     7
 10
90.673907
 20
59.569479000000001
 30
0.0
 40
0.9060219999999999
 50
257.53097000000002
 51
269.99097199999989
  0
ARC
  5
3DF
  8
0
 62
     7
 10
90.796682999999987
 20
60.194206000000008
 30
0.0
 40
1.542595999999999
 50
247.179812
 51
258.08832000000001
  0
ARC
  5
3E0
  8
0
 62
     7
 10
91.257184999999993
 20
61.369993000000008
 30
0.0
 40
2.805127999999999
 50
243.33175299999999
 51
247.8244709999999
  0
ARC
  5
3E1
  8
0
 62
     7
 10
90.753079
 20
60.37389000000001
 30
0.0
 40
1.346724
 50
97.365856000000008
 51
124.093653
  0
ARC
  5
3E2
  8
0
 62
     7
 10
90.674874000000003
 20
60.811416999999999
 30
0.0
 40
0.903036
 50
90.070415000000011
 51
96.003698999999997
  0
ARC
  5
3E3
  8
0
 62
     7
 10
90.672965000000005
 20
60.795611999999998
 30
0.0
 40
0.9188410000000001
 50
77.809351000000007
 51
89.950154999999995
  0
ARC
  5
3E4
  8
0
 62
     7
 10
90.582965000000002
 20
60.330281000000006
 30
0.0
 40
1.392720999999999
 50
66.81768000000001
 51
78.232755000000012
  0
ARC
  5
3E5
  8
0
 62
     7
 10
90.356607999999994
 20
59.759698
 30
0.0
 40
2.0064099999999989
 50
59.537323000000001
 51
67.289850000000001
  0
LINE
  5
3E6
  8
0
 62
     7
 10
87.122900000000016
 20
142.88900000000001
 30
0.0
 11
87.122900000000016
 21
140.864
 31
0.0
  0
LINE
  5
3E7
  8
0
 62
     7
 10
90.123599999999996
 20
142.88900000000001
 30
0.0
 11
90.123599999999996
 21
140.864
 31
0.0
  0
LINE
  5
3E8
  8
0
 62
     7
 10
87.122900000000016
 20
132.364
 30
0.0
 11
87.122900000000016
 21
66.365399999999994
 31
0.0
  0
LINE
  5
3E9
  8
0
 62
     7
 10
90.123599999999996
 20
138.989
 30
0.0
 11
90.123599999999996
 21
66.365399999999994
 31
0.0
  0
LINE
  5
3EA
  8
0
 62
     7
 10
85.873299999999986
 20
61.489100000000001
 30
0.0
 11
85.873299999999986
 21
58.863300000000002
 31
0.0
  0
LINE
  5
3EB
  8
0
 62
     7
 10
87.247900000000001
 20
61.489100000000001
 30
0.0
 11
87.247900000000001
 21
58.863300000000002
 31
0.0
  0
ARC
  5
3EC
  8
0
 62
     7
 10
83.858243999999999
 20
66.744428999999997
 30
0.0
 40
8.5791979999999999
 50
291.67714099999989
 51
293.27260999999999
  0
ARC
  5
3ED
  8
0
 62
     7
 10
86.291332999999995
 20
60.649163000000001
 30
0.0
 40
2.0162869999999988
 50
282.23675900000001
 51
291.405012
  0
ARC
  5
3EE
  8
0
 62
     7
 10
86.562558999999993
 20
59.467816999999997
 30
0.0
 40
0.8044279999999998
 50
270.74658299999987
 51
281.19141400000001
  0
ARC
  5
3EF
  8
0
 62
     7
 10
86.573847999999998
 20
59.569008999999987
 30
0.0
 40
0.9055530000000001
 50
257.79862099999991
 51
269.94890800000002
  0
ARC
  5
3F0
  8
0
 62
     7
 10
86.673371000000003
 20
60.104210000000002
 30
0.0
 40
1.449784
 50
252.93508600000001
 51
258.42462499999999
  0
ARC
  5
3F1
  8
0
 62
     7
 10
86.921603000000005
 20
60.909551999999998
 30
0.0
 40
2.2925149999999999
 50
248.536924
 51
252.91079300000001
  0
ARC
  5
3F2
  8
0
 62
     7
 10
88.394113000000004
 20
64.618486000000004
 30
0.0
 40
6.2830550000000001
 50
246.3466589999999
 51
248.415727
  0
ARC
  5
3F3
  8
0
 62
     7
 10
86.875740000000008
 20
59.775275999999998
 30
0.0
 40
1.9854839999999989
 50
107.887558
 51
120.322399
  0
ARC
  5
3F4
  8
0
 62
     7
 10
86.597641000000024
 20
60.587839000000002
 30
0.0
 40
1.1268819999999991
 50
91.250872000000015
 51
107.1209639999999
  0
ARC
  5
3F5
  8
0
 62
     7
 10
86.572314000000006
 20
60.946090000000012
 30
0.0
 40
0.768363
 50
76.154964000000007
 51
89.945821999999993
  0
ARC
  5
3F6
  8
0
 62
     7
 10
86.429387000000006
 20
60.270893999999991
 30
0.0
 40
1.458323
 50
65.831039000000004
 51
77.050696000000002
  0
ARC
  5
3F7
  8
0
 62
     7
 10
86.183413999999999
 20
59.663254999999999
 30
0.0
 40
2.113545999999999
 50
59.757032999999993
 51
66.491772999999995
  0
ARC
  5
3F8
  8
0
 62
     7
 10
91.316222999999994
 20
52.267614999999999
 30
0.0
 40
6.7260660000000003
 50
101.300856
 51
103.2012969999999
  0
ARC
  5
3F9
  8
0
 62
     7
 10
88.309756999999991
 20
64.387472000000002
 30
0.0
 40
5.7623030000000002
 50
278.57915099999991
 51
284.78414299999997
  0
ARC
  5
3FA
  8
0
 62
     7
 10
88.823063000000005
 20
60.95431099999999
 30
0.0
 40
2.290988
 50
270.61997599999989
 51
278.69372799999991
  0
LINE
  5
3FB
  8
0
 62
     7
 10
88.847899999999996
 20
58.663499999999999
 30
0.0
 11
88.398599999999988
 21
58.663499999999999
 31
0.0
  0
ARC
  5
3FC
  8
0
 62
     7
 10
88.398928999999995
 20
60.624282999999998
 30
0.0
 40
1.9608259999999991
 50
261.53959300000002
 51
269.990634
  0
ARC
  5
3FD
  8
0
 62
     7
 10
88.613011999999983
 20
62.280115000000002
 30
0.0
 40
3.6302759999999998
 50
258.55465699999991
 51
262.04248799999988
  0
ARC
  5
3FE
  8
0
 62
     7
 10
90.025041000000016
 20
69.140737000000001
 30
0.0
 40
10.634688000000001
 50
256.53752200000002
 51
258.43303199999991
  0
ARC
  5
3FF
  8
0
 62
     7
 10
86.130228000000017
 20
52.953375000000001
 30
0.0
 40
6.0146639999999989
 50
76.354271999999995
 51
79.290402999999998
  0
ARC
  5
400
  8
0
 62
     7
 10
88.487893999999983
 20
57.834706000000011
 30
0.0
 40
3.8590659999999999
 50
102.80782600000001
 51
108.7421259999999
  0
ARC
  5
401
  8
0
 62
     7
 10
88.728646999999995
 20
56.970443999999993
 30
0.0
 40
4.7553910000000004
 50
94.330847000000006
 51
103.3279939999999
  0
ARC
  5
402
  8
0
 62
     7
 10
88.516160999999997
 20
59.429062999999999
 30
0.0
 40
2.287895999999999
 50
87.317677000000003
 51
93.674328000000017
  0
ARC
  5
403
  8
0
 62
     7
 10
88.706488000000007
 20
60.298625000000001
 30
0.0
 40
1.418274
 50
88.960406000000006
 51
93.365382999999994
  0
ARC
  5
404
  8
0
 62
     7
 10
88.692825999999997
 20
59.141756999999998
 30
0.0
 40
2.5752090000000001
 50
85.185453999999993
 51
89.123485000000002
  0
ARC
  5
405
  8
0
 62
     7
 10
88.495108999999999
 20
56.825825999999992
 30
0.0
 40
4.8995639999999989
 50
72.134959999999992
 51
85.154560000000004
  0
LINE
  5
406
  8
0
 62
     7
 10
89.873500000000007
 20
61.8902
 30
0.0
 11
88.623199999999997
 21
61.8902
 31
0.0
  0
LINE
  5
407
  8
0
 62
     7
 10
87.3733
 20
61.8902
 30
0.0
 11
88.623199999999997
 21
61.8902
 31
0.0
  0
LINE
  5
408
  8
0
 62
     7
 10
86.322599999999994
 20
58.613799999999998
 30
0.0
 11
88.623199999999997
 21
58.613799999999998
 31
0.0
  0
LINE
  5
409
  8
0
 62
     7
 10
88.623199999999997
 20
58.613799999999998
 30
0.0
 11
90.923899999999989
 21
58.613799999999998
 31
0.0
  0
LINE
  5
40A
  8
0
 62
     7
 10
91.223900000000015
 20
58.813699999999997
 30
0.0
 11
90.923899999999989
 21
58.6387
 31
0.0
  0
LINE
  5
40B
  8
0
 62
     7
 10
90.923899999999989
 20
58.6387
 30
0.0
 11
90.923899999999989
 21
58.613799999999998
 31
0.0
  0
LINE
  5
40C
  8
0
 62
     7
 10
91.373800000000003
 20
58.863300000000002
 30
0.0
 11
90.923899999999989
 21
58.6387
 31
0.0
  0
LINE
  5
40D
  8
0
 62
     7
 10
85.873299999999986
 20
58.863300000000002
 30
0.0
 11
86.322599999999994
 21
58.613799999999998
 31
0.0
  0
LINE
  5
40E
  8
0
 62
     7
 10
86.322599999999994
 20
61.7393
 30
0.0
 11
90.923899999999989
 21
61.7393
 31
0.0
  0
LINE
  5
40F
  8
0
 62
     7
 10
87.072900000000004
 20
61.86399999999999
 30
0.0
 11
90.173500000000004
 21
61.86399999999999
 31
0.0
  0
ARC
  5
410
  8
0
 62
     7
 10
89.621864999999985
 20
62.560752000000001
 30
0.0
 40
0.7162430000000001
 50
290.56532299999998
 51
326.53234700000002
  0
ARC
  5
411
  8
0
 62
     7
 10
89.791283999999976
 20
62.423106999999987
 30
0.0
 40
0.499466
 50
328.98734400000001
 51
341.45999799999993
  0
LINE
  5
412
  8
0
 62
     7
 10
90.264799999999994
 20
62.264299999999999
 30
0.0
 11
90.298199999999994
 21
62.36419999999999
 31
0.0
  0
LINE
  5
413
  8
0
 62
     7
 10
90.298199999999994
 20
62.36419999999999
 30
0.0
 11
90.298199999999994
 21
62.514400000000002
 31
0.0
  0
LINE
  5
414
  8
0
 62
     7
 10
90.298199999999994
 20
62.514400000000002
 30
0.0
 11
90.248599999999996
 21
62.689399999999999
 31
0.0
  0
LINE
  5
415
  8
0
 62
     7
 10
86.972999999999999
 20
62.689399999999999
 30
0.0
 11
86.997799999999998
 21
62.689399999999999
 31
0.0
  0
ARC
  5
416
  8
0
 62
     7
 10
194.16135499999999
 20
47.408109000000003
 30
0.0
 40
108.272147
 50
171.88628
 51
171.97981899999991
  0
LINE
  5
417
  8
0
 62
     7
 10
86.948199999999986
 20
62.514400000000002
 30
0.0
 11
86.948199999999986
 21
62.36419999999999
 31
0.0
  0
LINE
  5
418
  8
0
 62
     7
 10
86.948199999999986
 20
62.36419999999999
 30
0.0
 11
86.980599999999995
 21
62.264299999999999
 31
0.0
  0
ARC
  5
419
  8
0
 62
     7
 10
88.049666000000002
 20
62.622191999999998
 30
0.0
 40
1.1273859999999989
 50
198.509354
 51
203.287215
  0
ARC
  5
41A
  8
0
 62
     7
 10
87.451974000000007
 20
62.363885000000003
 30
0.0
 40
0.476266
 50
203.1702249999999
 51
222.3154679999999
  0
ARC
  5
41B
  8
0
 62
     7
 10
87.383150000000001
 20
62.320011999999998
 30
0.0
 40
0.396082
 50
224.325423
 51
234.70178399999989
  0
ARC
  5
41C
  8
0
 62
     7
 10
87.575498999999979
 20
62.597513999999997
 30
0.0
 40
0.73372
 50
234.964393
 51
242.390061
  0
ARC
  5
41D
  8
0
 62
     7
 10
89.330456999999996
 20
65.949050999999997
 30
0.0
 40
4.5169300000000003
 50
242.36672799999991
 51
243.9742049999999
  0
LINE
  5
41E
  8
0
 62
     7
 10
87.348499999999987
 20
61.8902
 30
0.0
 11
87.3733
 21
61.8902
 31
0.0
  0
LINE
  5
41F
  8
0
 62
     7
 10
87.173199999999994
 20
63.1145
 30
0.0
 11
90.048799999999986
 21
63.1145
 31
0.0
  0
LINE
  5
420
  8
0
 62
     7
 10
87.173199999999994
 20
65.114800000000002
 30
0.0
 11
88.623199999999997
 21
65.114800000000002
 31
0.0
  0
LINE
  5
421
  8
0
 62
     7
 10
88.623199999999997
 20
65.114800000000002
 30
0.0
 11
90.048799999999986
 21
65.114800000000002
 31
0.0
  0
LINE
  5
422
  8
0
 62
     7
 10
90.298199999999994
 20
65.664599999999993
 30
0.0
 11
90.298199999999994
 21
65.539900000000003
 31
0.0
  0
LINE
  5
423
  8
0
 62
     7
 10
90.298199999999994
 20
65.539900000000003
 30
0.0
 11
90.223500000000016
 21
65.414500000000004
 31
0.0
  0
LINE
  5
424
  8
0
 62
     7
 10
86.923100000000005
 20
65.664599999999993
 30
0.0
 11
86.948199999999986
 21
65.539900000000003
 31
0.0
  0
LINE
  5
425
  8
0
 62
     7
 10
86.948199999999986
 20
65.539900000000003
 30
0.0
 11
86.997799999999998
 21
65.414500000000004
 31
0.0
  0
LINE
  5
426
  8
0
 62
     7
 10
86.923100000000005
 20
66.365399999999994
 30
0.0
 11
90.298199999999994
 21
66.365399999999994
 31
0.0
  0
LINE
  5
427
  8
0
 62
     7
 10
86.923100000000005
 20
66.365399999999994
 30
0.0
 11
86.923100000000005
 21
65.664599999999993
 31
0.0
  0
LINE
  5
428
  8
0
 62
     7
 10
90.298199999999994
 20
66.365399999999994
 30
0.0
 11
90.298199999999994
 21
65.664599999999993
 31
0.0
  0
LINE
  5
429
  8
0
 62
     7
 10
90.923899999999989
 20
61.7393
 30
0.0
 11
91.373800000000003
 21
61.489100000000001
 31
0.0
  0
LINE
  5
42A
  8
0
 62
     7
 10
86.322599999999994
 20
61.7393
 30
0.0
 11
85.873299999999986
 21
61.489100000000001
 31
0.0
  0
LINE
  5
42B
  8
0
 62
     7
 10
86.997799999999998
 20
65.414500000000004
 30
0.0
 11
87.173199999999994
 21
65.114800000000002
 31
0.0
  0
LINE
  5
42C
  8
0
 62
     7
 10
87.173199999999994
 20
63.1145
 30
0.0
 11
86.997799999999998
 21
62.689399999999999
 31
0.0
  0
LINE
  5
42D
  8
0
 62
     7
 10
90.223500000000016
 20
65.414500000000004
 30
0.0
 11
90.048799999999986
 21
65.114800000000002
 31
0.0
  0
LINE
  5
42E
  8
0
 62
     7
 10
90.048799999999986
 20
63.1145
 30
0.0
 11
90.248599999999996
 21
62.689399999999999
 31
0.0
  0
LINE
  5
42F
  8
0
 62
     7
 10
87.173199999999994
 20
65.114800000000002
 30
0.0
 11
87.173199999999994
 21
63.1145
 31
0.0
  0
LINE
  5
430
  8
0
 62
     7
 10
90.048799999999986
 20
65.114800000000002
 30
0.0
 11
90.048799999999986
 21
63.1145
 31
0.0
  0
LINE
  5
431
  8
0
 62
     7
 10
87.072900000000004
 20
61.86399999999999
 30
0.0
 11
87.072900000000004
 21
61.7393
 31
0.0
  0
LINE
  5
432
  8
0
 62
     7
 10
90.173500000000004
 20
61.86399999999999
 30
0.0
 11
90.173500000000004
 21
61.7393
 31
0.0
  0
LINE
  5
433
  8
0
 62
     7
 10
85.873299999999986
 20
58.863300000000002
 30
0.0
 11
86.322599999999994
 21
58.613799999999998
 31
0.0
  0
LINE
  5
434
  8
0
 62
     7
 10
91.373800000000003
 20
58.863300000000002
 30
0.0
 11
90.923899999999989
 21
58.613799999999998
 31
0.0
  0
LINE
  5
435
  8
0
  6
AIGENLINE001
 62
     7
 10
154.07599999999991
 20
236.82699999999991
 30
0.0
 11
141.89699999999999
 21
236.82699999999991
 31
0.0
  0
LINE
  5
436
  8
0
 62
     7
 10
146.4189999999999
 20
235.934
 30
0.0
 11
145.50399999999991
 21
234.34800000000001
 31
0.0
  0
LINE
  5
437
  8
0
 62
     7
 10
145.50399999999991
 20
234.34800000000001
 30
0.0
 11
147.08899999999991
 21
235.26400000000001
 31
0.0
  0
LINE
  5
438
  8
0
 62
     7
 10
147.08899999999991
 20
235.26400000000001
 30
0.0
 11
146.4189999999999
 21
235.934
 31
0.0
  0
LINE
  5
439
  8
0
 62
     7
 10
149.53399999999991
 20
237.71700000000001
 30
0.0
 11
150.4489999999999
 21
239.30199999999999
 31
0.0
  0
LINE
  5
43A
  8
0
 62
     7
 10
150.4489999999999
 20
239.30199999999999
 30
0.0
 11
148.864
 21
238.38699999999989
 31
0.0
  0
LINE
  5
43B
  8
0
 62
     7
 10
148.864
 20
238.38699999999989
 30
0.0
 11
149.53399999999991
 21
237.71700000000001
 31
0.0
  0
LINE
  5
43C
  8
0
 62
     7
 10
141.92899999999989
 20
230.7819999999999
 30
0.0
 11
150.4489999999999
 21
239.30199999999999
 31
0.0
  0
LINE
  5
43D
  8
0
  6
AIGENLINE001
 62
     7
 10
147.9739999999999
 20
230.67899999999989
 30
0.0
 11
147.9739999999999
 21
243.17899999999989
 31
0.0
  0
TEXT
  5
43E
  8
_________2
 62
     7
 10
24.586400000000001
 20
0.707627
 30
0.0
 40
3.9357000000000002
  1
（社）日本水道協会認証品
 41
0.5
  0
TEXT
  5
43F
  8
_________2
 62
     7
 10
109.179
 20
24.226099999999999
 30
0.0
 40
3.9357000000000002
  1
ソフト 湯水混合水栓
 41
0.5
  0
LINE
  5
440
  8
_________2
 62
     7
 10
205.30099999999999
 20
127.411
 30
0.0
 11
183.55099999999999
 21
127.411
 31
0.0
  0
LINE
  5
441
  8
_________2
 62
     7
 10
100.2999999999999
 20
-4.0910799999999998
 30
0.0
 11
100.2999999999999
 21
-21.070999999999991
 31
0.0
  0
LINE
  5
442
  8
_________2
 62
     7
 10
100.2999999999999
 20
275.93099999999993
 30
0.0
 11
100.2999999999999
 21
258.911
 31
0.0
  0
LINE
  5
443
  8
_________2
 62
     7
 10
17.049199999999988
 20
127.411
 30
0.0
 11
-4.7012099999999988
 21
127.411
 31
0.0
  0
LINE
  5
444
  8
_________2
 62
     7
 10
76.740700000000004
 20
29.8047
 30
0.0
 11
74.554400000000001
 21
29.8047
 31
0.0
  0
LINE
  5
445
  8
_________2
 62
     7
 10
77.2333
 20
29.8047
 30
0.0
 11
76.981099999999984
 21
29.8047
 31
0.0
  0
LINE
  5
446
  8
_________2
 62
     7
 10
77.725999999999999
 20
29.8047
 30
0.0
 11
80.650899999999993
 21
29.8047
 31
0.0
  0
LINE
  5
447
  8
_________2
 62
     7
 10
77.2333
 20
29.8047
 30
0.0
 11
77.485500000000002
 21
29.8047
 31
0.0
  0
LINE
  5
448
  8
_________2
 62
     7
 10
70.837100000000007
 20
29.8047
 30
0.0
 11
68.650199999999998
 21
29.8047
 31
0.0
  0
LINE
  5
449
  8
_________2
 62
     7
 10
71.329099999999997
 20
29.8047
 30
0.0
 11
71.077600000000004
 21
29.8047
 31
0.0
  0
LINE
  5
44A
  8
_________2
 62
     7
 10
71.329099999999997
 20
30.2974
 30
0.0
 11
71.329099999999997
 21
32.484400000000001
 31
0.0
  0
LINE
  5
44B
  8
_________2
 62
     7
 10
71.329099999999997
 20
29.8047
 30
0.0
 11
71.329099999999997
 21
30.057300000000001
 31
0.0
  0
LINE
  5
44C
  8
_________2
 62
     7
 10
71.821700000000007
 20
29.8047
 30
0.0
 11
74.008700000000005
 21
29.8047
 31
0.0
  0
LINE
  5
44D
  8
_________2
 62
     7
 10
71.329099999999997
 20
29.8047
 30
0.0
 11
71.581299999999985
 21
29.8047
 31
0.0
  0
LINE
  5
44E
  8
_________2
 62
     7
 10
71.329099999999997
 20
29.312799999999999
 30
0.0
 11
71.329099999999997
 21
27.126200000000001
 31
0.0
  0
LINE
  5
44F
  8
_________2
 62
     7
 10
71.329099999999997
 20
29.8047
 30
0.0
 11
71.329099999999997
 21
29.5532
 31
0.0
  0
LINE
  5
450
  8
_________2
 62
     7
 10
75.040199999999999
 20
28.5852
 30
0.0
 11
80.218199999999996
 21
27.720400000000001
 31
0.0
  0
LINE
  5
451
  8
_________2
 62
     7
 10
75.040199999999999
 20
31.024699999999999
 30
0.0
 11
80.218199999999996
 21
31.8901
 31
0.0
  0
LINE
  5
452
  8
_________2
 62
     7
 10
80.218199999999996
 20
27.720400000000001
 30
0.0
 11
80.218199999999996
 21
31.8901
 31
0.0
  0
LINE
  5
453
  8
_________2
 62
     7
 10
75.040199999999999
 20
28.5852
 30
0.0
 11
75.040199999999999
 21
31.024699999999999
 31
0.0
  0
ARC
  5
454
  8
_________2
 62
     7
 10
71.282501999999994
 20
29.757801000000001
 30
0.0
 40
1.267714
 50
2.1220840000000001
 51
87.894083999999992
  0
ARC
  5
455
  8
_________2
 62
     7
 10
71.375640000000004
 20
29.758545999999999
 30
0.0
 40
1.2669680000000001
 50
92.105782999999988
 51
177.91037
  0
ARC
  5
456
  8
_________2
 62
     7
 10
71.376013999999998
 20
29.851671
 30
0.0
 40
1.2673680000000001
 50
182.12203600000001
 51
267.877993
  0
ARC
  5
457
  8
_________2
 62
     7
 10
71.282195999999999
 20
29.852347999999999
 30
0.0
 40
1.2680439999999991
 50
272.11916400000001
 51
357.84848499999993
  0
ARC
  5
458
  8
_________2
 62
     7
 10
71.248716999999985
 20
29.724731999999989
 30
0.0
 40
2.1668310000000002
 50
2.1161439999999989
 51
87.874379000000005
  0
ARC
  5
459
  8
_________2
 62
     7
 10
71.408756000000011
 20
29.726146
 30
0.0
 40
2.165392999999999
 50
92.108508999999998
 51
177.91986499999999
  0
ARC
  5
45A
  8
_________2
 62
     7
 10
71.409094999999994
 20
29.884751999999999
 30
0.0
 40
2.1657829999999998
 50
182.117133
 51
267.88289700000001
  0
ARC
  5
45B
  8
_________2
 62
     7
 10
71.249115000000003
 20
29.885429999999989
 30
0.0
 40
2.1664590000000001
 50
272.11546800000002
 51
357.86560400000002
  0
TEXT
  5
45C
  8
_________2
 62
     7
 10
104.605
 20
1.6794899999999999
 30
0.0
 40
3.0923400000000001
  1
図番
 41
0.5
  0
LINE
  5
45D
  8
_________2
 62
     7
 10
103.55
 20
5.9087199999999989
 30
0.0
 11
183.55099999999999
 21
5.9087199999999989
 31
0.0
  0
TEXT
  5
45E
  8
_________2
 62
     7
 10
104.605
 20
11.679299999999991
 30
0.0
 40
3.0923400000000001
  1
品番
 41
0.5
  0
TEXT
  5
45F
  8
_________2
 62
     7
 10
104.605
 20
31.8184
 30
0.0
 40
3.0923400000000001
  1
名称
 41
0.5
  0
TEXT
  5
460
  8
_________2
 62
     7
 10
91.844758333333345
 20
26.822299999999998
 30
0.0
 40
3.6545800000000002
  1
mm
 41
0.5
 72
     1
 11
93.367500000000007
 21
26.822299999999998
 31
0.0
  0
TEXT
  5
461
  8
_________2
 62
     7
 10
85.642899999999983
 20
31.8184
 30
0.0
 40
3.0923400000000001
  1
単位
 41
0.5
  0
TEXT
  5
462
  8
_________2
 62
     7
 10
85.642899999999983
 20
19.410799999999991
 30
0.0
 40
3.0923400000000001
  1
尺度
 41
0.5
  0
TEXT
  5
463
  8
_________2
 62
     7
 10
90.548458666666676
 20
13.218199999999991
 30
0.0
 40
3.6545800000000002
  1
1 ： 4
 41
0.5
 72
     1
 11
93.959400000000016
 21
13.218199999999991
 31
0.0
  0
TEXT
  5
464
  8
_________2
 62
     7
 10
137.31847500000001
 20
9.1082000000000001
 30
0.0
 40
3.9357000000000002
  1
ZU7212R
 41
0.5
 72
     1
 11
143.55000000000001
 21
9.1082000000000001
 31
0.0
  0
TEXT
  5
465
  8
_________2
 62
     7
 10
137.31847500000001
 20
-0.8926299999999999
 30
0.0
 40
3.9357000000000002
  1
ZU7212R
 41
0.5
 72
     1
 11
143.55000000000001
 21
-0.8926299999999999
 31
0.0
  0
TEXT
  5
466
  8
_________2
 62
     7
 10
39.42500033333333
 20
13.603400000000001
 30
0.0
 40
3.6545800000000002
  1
早川
 41
0.5
 72
     1
 11
41.313200000000002
 21
13.603400000000001
 31
0.0
  0
TEXT
  5
467
  8
_________2
 62
     7
 10
20.790090666666661
 20
13.603400000000001
 30
0.0
 40
3.6545800000000002
  1
石原
 41
0.5
 72
     1
 11
22.73919999999999
 21
13.603400000000001
 31
0.0
  0
TEXT
  5
468
  8
_________2
 62
     7
 10
67.785399999999996
 20
13.218199999999991
 30
0.0
 40
3.6545800000000002
  1
14.01.14
 41
0.5
  0
TEXT
  5
469
  8
_________2
 62
     7
 10
66.592699999999994
 20
19.410799999999991
 30
0.0
 40
3.0923400000000001
  1
日付
 41
0.5
  0
TEXT
  5
46A
  8
_________2
 62
     7
 10
29.638999999999999
 20
19.410799999999991
 30
0.0
 40
3.0923400000000001
  1
検図
 41
0.5
  0
TEXT
  5
46B
  8
_________2
 62
     7
 10
18.020700000000001
 20
5.21143
 30
0.0
 40
3.0923400000000001
  1
備考
 41
0.5
  0
TEXT
  5
46C
  8
_________2
 62
     7
 10
18.020700000000001
 20
19.410799999999991
 30
0.0
 40
3.0923400000000001
  1
製図
 41
0.5
  0
TEXT
  5
46D
  8
_________2
 62
     7
 10
23.788165333333328
 20
27.936800000000002
 30
0.0
 40
4.4979399999999989
  1
セラトレーディング株式会社
 41
0.5
 72
     1
 11
41.180199999999999
 21
27.936800000000002
 31
0.0
  0
LINE
  5
46E
  8
_________2
 62
     7
 10
183.55099999999999
 20
-4.0910799999999998
 30
0.0
 11
17.049199999999988
 21
-4.0910799999999998
 31
0.0
  0
LINE
  5
46F
  8
_________2
 62
     7
 10
17.049199999999988
 20
-4.0910799999999998
 30
0.0
 11
17.049199999999988
 21
258.911
 31
0.0
  0
LINE
  5
470
  8
_________2
 62
     7
 10
17.049199999999988
 20
258.911
 30
0.0
 11
183.55099999999999
 21
258.911
 31
0.0
  0
LINE
  5
471
  8
_________2
 62
     7
 10
183.55099999999999
 20
258.911
 30
0.0
 11
183.55099999999999
 21
-4.0910799999999998
 31
0.0
  0
LINE
  5
472
  8
_________2
 62
     7
 10
65.549599999999998
 20
9.4092999999999982
 30
0.0
 11
65.549599999999998
 21
35.909100000000002
 31
0.0
  0
LINE
  5
473
  8
_________2
 62
     7
 10
84.549400000000006
 20
9.4092999999999982
 30
0.0
 11
84.549400000000006
 21
35.909100000000002
 31
0.0
  0
LINE
  5
474
  8
_________2
 62
     7
 10
103.55
 20
-4.0910799999999998
 30
0.0
 11
103.55
 21
35.909100000000002
 31
0.0
  0
LINE
  5
475
  8
_________2
 62
     7
 10
28.548999999999999
 20
9.4092999999999982
 30
0.0
 11
28.548999999999999
 21
23.409199999999998
 31
0.0
  0
LINE
  5
476
  8
_________2
 62
     7
 10
17.049199999999988
 20
9.4092999999999982
 30
0.0
 11
103.55
 21
9.4092999999999982
 31
0.0
  0
LINE
  5
477
  8
_________2
 62
     7
 10
17.049199999999988
 20
23.409199999999998
 30
0.0
 11
103.55
 21
23.409199999999998
 31
0.0
  0
LINE
  5
478
  8
_________2
 62
     7
 10
103.55
 20
15.9085
 30
0.0
 11
183.55099999999999
 21
15.9085
 31
0.0
  0
LINE
  5
479
  8
_________2
 62
     7
 10
17.049199999999988
 20
35.909100000000002
 30
0.0
 11
183.55099999999999
 21
35.909100000000002
 31
0.0
  0
ENDSEC
  0
EOF
