  0
SECTION
  2
HEADER
  9
$ACADVER
  1
AC1009
  9
$INSBASE
 10
0.0
 20
0.0
 30
0.0
  9
$EXTMIN
 10
-104.794
 20
0.176045
 30
0.0
  9
$EXTMAX
 10
315.209
 20
297.178
 30
0.0
  9
$LIMMIN
 10
0.0
 20
0.0
  9
$LIMMAX
 10
12.0
 20
9.0
  9
$ORTHOMODE
 70
     0
  9
$REGENMODE
 70
     1
  9
$FILLMODE
 70
     1
  9
$QTEXTMODE
 70
     0
  9
$MIRRTEXT
 70
     1
  9
$DRAGMODE
 70
     2
  9
$LTSCALE
 40
1.0
  9
$OSMODE
 70
    37
  9
$ATTMODE
 70
     1
  9
$TEXTSIZE
 40
0.0
  9
$TRACEWID
 40
0.05
  9
$TEXTSTYLE
  7
STANDARD
  9
$CLAYER
  8
0
  9
$CELTYPE
  6
CONTINUOUS
  9
$CECOLOR
 62
   256
  9
$DIMSCALE
 40
1.0
  9
$DIMASZ
 40
0.18
  9
$DIMEXO
 40
0.0625
  9
$DIMDLI
 40
0.38
  9
$DIMRND
 40
0.0
  9
$DIMDLE
 40
0.0
  9
$DIMEXE
 40
0.18
  9
$DIMTP
 40
0.0
  9
$DIMTM
 40
0.0
  9
$DIMTXT
 40
0.18
  9
$DIMCEN
 40
0.09
  9
$DIMTSZ
 40
0.0
  9
$DIMTOL
 70
     0
  9
$DIMLIM
 70
     0
  9
$DIMTIH
 70
     1
  9
$DIMTOH
 70
     1
  9
$DIMSE1
 70
     0
  9
$DIMSE2
 70
     0
  9
$DIMTAD
 70
     0
  9
$DIMZIN
 70
     0
  9
$DIMBLK
  1

  9
$DIMASO
 70
     1
  9
$DIMSHO
 70
     1
  9
$DIMPOST
  1

  9
$DIMAPOST
  1

  9
$DIMALT
 70
     0
  9
$DIMALTD
 70
     2
  9
$DIMALTF
 40
25.399999999999999
  9
$DIMLFAC
 40
1.0
  9
$DIMTOFL
 70
     0
  9
$DIMTVP
 40
0.0
  9
$DIMTIX
 70
     0
  9
$DIMSOXD
 70
     0
  9
$DIMSAH
 70
     0
  9
$DIMBLK1
  1

  9
$DIMBLK2
  1

  9
$DIMSTYLE
  2
STANDARD
  9
$DIMCLRD
 70
     0
  9
$DIMCLRE
 70
     0
  9
$DIMCLRT
 70
     0
  9
$DIMTFAC
 40
1.0
  9
$DIMGAP
 40
0.09
  9
$LUNITS
 70
     2
  9
$LUPREC
 70
     4
  9
$SKETCHINC
 40
0.1
  9
$FILLETRAD
 40
0.0
  9
$AUNITS
 70
     0
  9
$AUPREC
 70
     0
  9
$MENU
  1
.
  9
$ELEVATION
 40
0.0
  9
$PELEVATION
 40
0.0
  9
$THICKNESS
 40
0.0
  9
$LIMCHECK
 70
     0
  9
$BLIPMODE
 70
     0
  9
$CHAMFERA
 40
0.0
  9
$CHAMFERB
 40
0.0
  9
$SKPOLY
 70
     0
  9
$TDCREATE
 40
2444972.375
  9
$TDUPDATE
 40
2459095.2541974299
  9
$TDINDWG
 40
0.0000410532
  9
$TDUSRTIMER
 40
0.0000410532
  9
$USRTIMER
 70
     1
  9
$ANGBASE
 50
0.0
  9
$ANGDIR
 70
     0
  9
$PDMODE
 70
     0
  9
$PDSIZE
 40
0.0
  9
$PLINEWID
 40
0.0
  9
$COORDS
 70
     1
  9
$SPLFRAME
 70
     0
  9
$SPLINETYPE
 70
     6
  9
$SPLINESEGS
 70
     8
  9
$ATTDIA
 70
     1
  9
$ATTREQ
 70
     1
  9
$HANDLING
 70
     1
  9
$HANDSEED
  5
5F3
  9
$SURFTAB1
 70
     6
  9
$SURFTAB2
 70
     6
  9
$SURFTYPE
 70
     6
  9
$SURFU
 70
     6
  9
$SURFV
 70
     6
  9
$UCSNAME
  2

  9
$UCSORG
 10
0.0
 20
0.0
 30
0.0
  9
$UCSXDIR
 10
1.0
 20
0.0
 30
0.0
  9
$UCSYDIR
 10
0.0
 20
1.0
 30
0.0
  9
$PUCSNAME
  2

  9
$PUCSORG
 10
0.0
 20
0.0
 30
0.0
  9
$PUCSXDIR
 10
1.0
 20
0.0
 30
0.0
  9
$PUCSYDIR
 10
0.0
 20
1.0
 30
0.0
  9
$USERI1
 70
     0
  9
$USERI2
 70
     0
  9
$USERI3
 70
     0
  9
$USERI4
 70
     0
  9
$USERI5
 70
     0
  9
$USERR1
 40
0.0
  9
$USERR2
 40
0.0
  9
$USERR3
 40
0.0
  9
$USERR4
 40
0.0
  9
$USERR5
 40
0.0
  9
$WORLDVIEW
 70
     1
  9
$SHADEDGE
 70
     3
  9
$SHADEDIF
 70
    70
  9
$TILEMODE
 70
     1
  9
$MAXACTVP
 70
    48
  9
$PLIMCHECK
 70
     0
  9
$PEXTMIN
 10
1.0000000000000000E+020
 20
1.0000000000000000E+020
 30
1.0000000000000000E+020
  9
$PEXTMAX
 10
-1.0000000000000000E+020
 20
-1.0000000000000000E+020
 30
-1.0000000000000000E+020
  9
$PLIMMIN
 10
0.0
 20
0.0
  9
$PLIMMAX
 10
12.0
 20
9.0
  9
$UNITMODE
 70
     0
  9
$VISRETAIN
 70
     1
  9
$PLINEGEN
 70
     0
  9
$PSLTSCALE
 70
     1
  0
ENDSEC
  0
SECTION
  2
TABLES
  0
TABLE
  2
VPORT
 70
     1
  0
VPORT
  2
*ACTIVE
 70
     0
 10
0.0
 20
0.0
 11
1.0
 21
1.0
 12
165.63430585535349
 22
148.589
 13
0.0
 23
0.0
 14
1.0
 24
1.0
 15
0.0
 25
0.0
 16
0.0
 26
0.0
 36
1.0
 17
0.0
 27
0.0
 37
0.0
 40
279.17601342455151
 41
2.0982367758186391
 42
50.0
 43
0.0
 44
0.0
 50
0.0
 51
0.0
 71
     0
 72
   100
 73
     1
 74
     1
 75
     0
 76
     0
 77
     0
 78
     0
  0
ENDTAB
  0
TABLE
  2
LTYPE
 70
     3
  0
LTYPE
  2
CONTINUOUS
 70
     0
  3
Solid line
 72
    65
 73
     0
 40
0.0
  0
LTYPE
  2
AIGENLINE001
 70
     0
  3
generate AI->DXF Converter
 72
    65
 73
     4
 40
5.8561449999999988
 49
3.5278
 49
-0.776115
 49
0.776115
 49
-0.776115
  0
LTYPE
  2
AIGENLINE002
 70
     0
  3
generate AI->DXF Converter
 72
    65
 73
     6
 40
7.4083750000000004
 49
3.5278
 49
-0.776115
 49
0.776115
 49
-0.776115
 49
0.776115
 49
-0.776115
  0
ENDTAB
  0
TABLE
  2
LAYER
 70
     4
  0
LAYER
  2
0
 70
     0
 62
     7
  6
CONTINUOUS
  0
LAYER
  2
____
 70
     0
 62
     7
  6
CONTINUOUS
  0
LAYER
  2
_________1
 70
     0
 62
     7
  6
CONTINUOUS
  0
LAYER
  2
_________2
 70
     0
 62
     7
  6
CONTINUOUS
  0
ENDTAB
  0
TABLE
  2
STYLE
 70
     1
  0
STYLE
  2
STANDARD
 70
     0
 40
0.0
 41
0.0
 50
0.0
 71
     0
 42
0.0
  3
TXT
  4
EXTFONT.SHX
  0
ENDTAB
  0
TABLE
  2
VIEW
 70
     0
  0
ENDTAB
  0
TABLE
  2
UCS
 70
     0
  0
ENDTAB
  0
TABLE
  2
APPID
 70
     3
  0
APPID
  2
ACAD
 70
     0
  0
APPID
  2
ACAD_NAV_VCDISPLAY
 70
     0
  0
APPID
  2
ACAD_MLEADERVER
 70
     0
  0
ENDTAB
  0
TABLE
  2
DIMSTYLE
 70
     1
  0
DIMSTYLE
  2
STANDARD
 70
     0
  3

  4

  5

  6

  7

 40
1.0
 41
0.18
 42
0.0625
 43
0.38
 44
0.18
 45
0.0
 46
0.0
 47
0.0
 48
0.0
140
0.18
141
0.09
142
0.0
143
25.399999999999999
144
1.0
145
0.0
146
1.0
147
0.09
 71
     0
 72
     0
 73
     1
 74
     1
 75
     0
 76
     0
 77
     0
 78
     0
170
     0
171
     2
172
     0
173
     0
174
     0
175
     0
176
     0
177
     0
178
     0
  0
ENDTAB
  0
ENDSEC
  0
SECTION
  2
BLOCKS
  0
BLOCK
  8
0
  2
$MODEL_SPACE
 70
     0
 10
0.0
 20
0.0
 30
0.0
  3
$MODEL_SPACE
  1

  0
ENDBLK
  5
1A
  8
0
  0
BLOCK
 67
     1
  8
0
  2
$PAPER_SPACE
 70
     0
 10
0.0
 20
0.0
 30
0.0
  3
$PAPER_SPACE
  1

  0
ENDBLK
  5
17
 67
     1
  8
0
  0
BLOCK
  8
_________1
  2
AIGNBL02050012
 70
     0
 10
0.0
 20
0.0
 30
0.0
  3
AIGNBL02050012
  1

  0
LINE
  5
27
  8
_________1
 62
     7
 10
-24.7301
 20
36.186799999999998
 30
0.0
 11
-26.498799999999999
 21
35.71350000000001
 31
0.0
  0
LINE
  5
28
  8
_________1
 62
     7
 10
-26.498799999999999
 20
35.71350000000001
 30
0.0
 11
-24.7301
 21
35.239400000000003
 31
0.0
  0
LINE
  5
29
  8
_________1
 62
     7
 10
-24.7301
 20
35.239400000000003
 30
0.0
 11
-24.7301
 21
36.186799999999998
 31
0.0
  0
LINE
  5
2A
  8
_________1
 62
     7
 10
7.7332499999999991
 20
35.251100000000001
 30
0.0
 11
9.5016300000000005
 21
35.724499999999999
 31
0.0
  0
LINE
  5
2B
  8
_________1
 62
     7
 10
9.5016300000000005
 20
35.724499999999999
 30
0.0
 11
7.7332499999999991
 21
36.198500000000003
 31
0.0
  0
LINE
  5
2C
  8
_________1
 62
     7
 10
7.7332499999999991
 20
36.198500000000003
 30
0.0
 11
7.7332499999999991
 21
35.251100000000001
 31
0.0
  0
LINE
  5
2D
  8
_________1
 62
     7
 10
-26.477399999999999
 20
35.719000000000001
 30
0.0
 11
9.4802699999999991
 21
35.719000000000001
 31
0.0
  0
ENDBLK
  5
2E
  8
_________1
  0
BLOCK
  8
_________1
  2
AIGNBL02050015
 70
     0
 10
0.0
 20
0.0
 30
0.0
  3
AIGNBL02050015
  1

  0
LINE
  5
31
  8
_________1
 62
     7
 10
-22.737400000000001
 20
42.573399999999999
 30
0.0
 11
-13.6881
 21
42.573399999999999
 31
0.0
  0
LINE
  5
32
  8
_________1
 62
     7
 10
-28.4908
 20
43.041200000000003
 30
0.0
 11
-30.258800000000001
 21
42.567900000000002
 31
0.0
  0
LINE
  5
33
  8
_________1
 62
     7
 10
-30.258800000000001
 20
42.567900000000002
 30
0.0
 11
-28.4908
 21
42.093800000000002
 31
0.0
  0
LINE
  5
34
  8
_________1
 62
     7
 10
-28.4908
 20
42.093800000000002
 30
0.0
 11
-28.4908
 21
43.041200000000003
 31
0.0
  0
LINE
  5
35
  8
_________1
 62
     7
 10
-24.5062
 20
42.105499999999999
 30
0.0
 11
-22.737400000000001
 21
42.57889999999999
 31
0.0
  0
LINE
  5
36
  8
_________1
 62
     7
 10
-22.737400000000001
 20
42.57889999999999
 30
0.0
 11
-24.5062
 21
43.052900000000001
 31
0.0
  0
LINE
  5
37
  8
_________1
 62
     7
 10
-24.5062
 20
43.052900000000001
 30
0.0
 11
-24.5062
 21
42.105499999999999
 31
0.0
  0
LINE
  5
38
  8
_________1
 62
     7
 10
-30.237400000000001
 20
42.573399999999999
 30
0.0
 11
-22.759499999999999
 21
42.573399999999999
 31
0.0
  0
ENDBLK
  5
39
  8
_________1
  0
BLOCK
  8
_________1
  2
AIGNBL02050018
 70
     0
 10
0.0
 20
0.0
 30
0.0
  3
AIGNBL02050018
  1

  0
LINE
  5
3C
  8
_________1
 62
     7
 10
-36.6111
 20
65.310500000000005
 30
0.0
 11
-37.085099999999997
 21
67.0792
 31
0.0
  0
LINE
  5
3D
  8
_________1
 62
     7
 10
-37.085099999999997
 20
67.0792
 30
0.0
 11
-37.559199999999997
 21
65.310500000000005
 31
0.0
  0
LINE
  5
3E
  8
_________1
 62
     7
 10
-37.559199999999997
 20
65.310500000000005
 30
0.0
 11
-36.6111
 21
65.310500000000005
 31
0.0
  0
LINE
  5
3F
  8
_________1
 62
     7
 10
-37.547499999999999
 20
60.837299999999999
 30
0.0
 11
-37.073399999999999
 21
59.069299999999998
 31
0.0
  0
LINE
  5
40
  8
_________1
 62
     7
 10
-37.073399999999999
 20
59.069299999999998
 30
0.0
 11
-36.59940000000001
 21
60.837299999999999
 31
0.0
  0
LINE
  5
41
  8
_________1
 62
     7
 10
-36.59940000000001
 20
60.837299999999999
 30
0.0
 11
-37.547499999999999
 21
60.837299999999999
 31
0.0
  0
LINE
  5
42
  8
_________1
 62
     7
 10
-37.079599999999999
 20
67.0792
 30
0.0
 11
-37.079599999999999
 21
59.069299999999998
 31
0.0
  0
ENDBLK
  5
43
  8
_________1
  0
BLOCK
  8
_________1
  2
AIGNBL0205001B
 70
     0
 10
0.0
 20
0.0
 30
0.0
  3
AIGNBL0205001B
  1

  0
LINE
  5
46
  8
_________1
 62
     7
 10
-36.6111
 20
57.300600000000003
 30
0.0
 11
-37.085099999999997
 21
59.069299999999998
 31
0.0
  0
LINE
  5
47
  8
_________1
 62
     7
 10
-37.085099999999997
 20
59.069299999999998
 30
0.0
 11
-37.559199999999997
 21
57.300600000000003
 31
0.0
  0
LINE
  5
48
  8
_________1
 62
     7
 10
-37.559199999999997
 20
57.300600000000003
 30
0.0
 11
-36.6111
 21
57.300600000000003
 31
0.0
  0
LINE
  5
49
  8
_________1
 62
     7
 10
-37.547499999999999
 20
50.770699999999991
 30
0.0
 11
-37.073399999999999
 21
49.00269999999999
 31
0.0
  0
LINE
  5
4A
  8
_________1
 62
     7
 10
-37.073399999999999
 20
49.00269999999999
 30
0.0
 11
-36.59940000000001
 21
50.770699999999991
 31
0.0
  0
LINE
  5
4B
  8
_________1
 62
     7
 10
-36.59940000000001
 20
50.770699999999991
 30
0.0
 11
-37.547499999999999
 21
50.770699999999991
 31
0.0
  0
LINE
  5
4C
  8
_________1
 62
     7
 10
-37.079599999999999
 20
59.090699999999991
 30
0.0
 11
-37.079599999999999
 21
49.00269999999999
 31
0.0
  0
ENDBLK
  5
4D
  8
_________1
  0
BLOCK
  8
_________1
  2
AIGNBL0205001E
 70
     0
 10
0.0
 20
0.0
 30
0.0
  3
AIGNBL0205001E
  1

  0
LINE
  5
50
  8
_________1
 62
     7
 10
-9.6625199999999989
 20
50.353099999999991
 30
0.0
 11
-10.135899999999999
 21
52.121899999999989
 31
0.0
  0
LINE
  5
51
  8
_________1
 62
     7
 10
-10.135899999999999
 20
52.121899999999989
 30
0.0
 11
-10.6099
 21
50.353099999999991
 31
0.0
  0
LINE
  5
52
  8
_________1
 62
     7
 10
-10.6099
 20
50.353099999999991
 30
0.0
 11
-9.6625199999999989
 21
50.353099999999991
 31
0.0
  0
LINE
  5
53
  8
_________1
 62
     7
 10
-10.5982
 20
54.889000000000003
 30
0.0
 11
-10.1242
 21
53.121000000000002
 31
0.0
  0
LINE
  5
54
  8
_________1
 62
     7
 10
-10.1242
 20
53.121000000000002
 30
0.0
 11
-9.6508099999999981
 21
54.889000000000003
 31
0.0
  0
LINE
  5
55
  8
_________1
 62
     7
 10
-9.6508099999999981
 20
54.889000000000003
 30
0.0
 11
-10.5982
 21
54.889000000000003
 31
0.0
  0
LINE
  5
56
  8
_________1
 62
     7
 10
-10.1304
 20
59.393799999999992
 30
0.0
 11
-10.1304
 21
49.087400000000002
 31
0.0
  0
ENDBLK
  5
57
  8
_________1
  0
BLOCK
  8
_________1
  2
AIGNBL02050023
 70
     0
 10
0.0
 20
0.0
 30
0.0
  3
AIGNBL02050023
  1

  0
LINE
  5
5A
  8
_________1
 62
     7
 10
-21.976700000000001
 20
71.319400000000002
 30
0.0
 11
-20.2087
 21
71.7928
 31
0.0
  0
LINE
  5
5B
  8
_________1
 62
     7
 10
-20.2087
 20
71.7928
 30
0.0
 11
-21.976700000000001
 21
72.266800000000003
 31
0.0
  0
LINE
  5
5C
  8
_________1
 62
     7
 10
-21.976700000000001
 20
72.266800000000003
 30
0.0
 11
-21.976700000000001
 21
71.319400000000002
 31
0.0
  0
LINE
  5
5D
  8
_________1
 62
     7
 10
-31.019500000000001
 20
72.255799999999994
 30
0.0
 11
-32.787500000000001
 21
71.781800000000004
 31
0.0
  0
LINE
  5
5E
  8
_________1
 62
     7
 10
-32.787500000000001
 20
71.781800000000004
 30
0.0
 11
-31.019500000000001
 21
71.307699999999997
 31
0.0
  0
LINE
  5
5F
  8
_________1
 62
     7
 10
-31.019500000000001
 20
71.307699999999997
 30
0.0
 11
-31.019500000000001
 21
72.255799999999994
 31
0.0
  0
LINE
  5
60
  8
_________1
 62
     7
 10
-20.2301
 20
71.787300000000002
 30
0.0
 11
-32.707599999999999
 21
71.787300000000002
 31
0.0
  0
ENDBLK
  5
61
  8
_________1
  0
BLOCK
  8
_________1
  2
AIGNBL02040011
 70
     0
 10
0.0
 20
0.0
 30
0.0
  3
AIGNBL02040011
  1

  0
INSERT
  5
64
  8
_________1
 62
     7
  2
AIGNBL02050012
 10
0.0
 20
0.0
 30
0.0
  0
ENDBLK
  5
65
  8
_________1
  0
BLOCK
  8
_________1
  2
AIGNBL02040014
 70
     0
 10
0.0
 20
0.0
 30
0.0
  3
AIGNBL02040014
  1

  0
INSERT
  5
68
  8
_________1
 62
     7
  2
AIGNBL02050015
 10
0.0
 20
0.0
 30
0.0
  0
ENDBLK
  5
69
  8
_________1
  0
BLOCK
  8
_________1
  2
AIGNBL02040017
 70
     0
 10
0.0
 20
0.0
 30
0.0
  3
AIGNBL02040017
  1

  0
INSERT
  5
6C
  8
_________1
 62
     7
  2
AIGNBL02050018
 10
0.0
 20
0.0
 30
0.0
  0
ENDBLK
  5
6D
  8
_________1
  0
BLOCK
  8
_________1
  2
AIGNBL0204001A
 70
     0
 10
0.0
 20
0.0
 30
0.0
  3
AIGNBL0204001A
  1

  0
INSERT
  5
70
  8
_________1
 62
     7
  2
AIGNBL0205001B
 10
0.0
 20
0.0
 30
0.0
  0
ENDBLK
  5
71
  8
_________1
  0
BLOCK
  8
_________1
  2
AIGNBL0204001D
 70
     0
 10
0.0
 20
0.0
 30
0.0
  3
AIGNBL0204001D
  1

  0
INSERT
  5
74
  8
_________1
 62
     7
  2
AIGNBL0205001E
 10
0.0
 20
0.0
 30
0.0
  0
ENDBLK
  5
75
  8
_________1
  0
BLOCK
  8
_________1
  2
AIGNBL02040020
 70
     0
 10
0.0
 20
0.0
 30
0.0
  3
AIGNBL02040020
  1

  0
LINE
  5
78
  8
_________1
 62
     7
 10
7.6629699999999987
 20
52.151499999999999
 30
0.0
 11
7.6674499999999988
 21
52.151499999999999
 31
0.0
  0
LINE
  5
79
  8
_________1
 62
     7
 10
7.0414799999999991
 20
52.141800000000003
 30
0.0
 11
7.5744300000000004
 21
52.141800000000003
 31
0.0
  0
LINE
  5
7A
  8
_________1
 62
     7
 10
7.0414799999999991
 20
53.087200000000003
 30
0.0
 11
7.5744300000000004
 21
53.087200000000003
 31
0.0
  0
ARC
  5
7B
  8
_________1
 62
     7
 10
7.8276149999999989
 20
51.978473000000001
 30
0.0
 40
0.251803
 50
157.079635
 51
179.82537600000001
  0
ARC
  5
7C
  8
_________1
 62
     7
 10
7.765263
 20
51.995075
 30
0.0
 40
0.188123
 50
106.65652
 51
154.34015299999999
  0
ARC
  5
7D
  8
_________1
 62
     7
 10
7.8421229999999991
 20
51.795594000000001
 30
0.0
 40
0.4016030000000001
 50
88.083088000000004
 51
109.004983
  0
ARC
  5
7E
  8
_________1
 62
     7
 10
7.8617939999999997
 20
51.790449000000002
 30
0.0
 40
0.40657
 50
73.498393000000007
 51
90.878998999999993
  0
ARC
  5
7F
  8
_________1
 62
     7
 10
7.906788999999999
 20
51.961888000000002
 30
0.0
 40
0.22948
 50
25.081801000000009
 51
72.111568000000005
  0
ARC
  5
80
  8
_________1
 62
     7
 10
7.8142209999999999
 20
53.236072
 30
0.0
 40
0.239422
 50
182.98212499999991
 51
206.034817
  0
ARC
  5
81
  8
_________1
 62
     7
 10
7.7637830000000001
 20
53.221633999999987
 30
0.0
 40
0.187988
 50
208.829486
 51
256.161202
  0
ARC
  5
82
  8
_________1
 62
     7
 10
7.8429219999999988
 20
53.452064999999997
 30
0.0
 40
0.4312060000000001
 50
253.273268
 51
271.67902900000001
  0
ARC
  5
83
  8
_________1
 62
     7
 10
7.8559859999999988
 20
53.455125000000002
 30
0.0
 40
0.4340810000000001
 50
269.94327900000002
 51
286.82288299999999
  0
ARC
  5
84
  8
_________1
 62
     7
 10
7.91256
 20
53.251641000000014
 30
0.0
 40
0.222983
 50
288.04055399999999
 51
335.40868799999998
  0
ARC
  5
85
  8
_________1
 62
     7
 10
7.8728020000000001
 20
52.724334999999989
 30
0.0
 40
0.297209
 50
93.326368000000016
 51
177.79153299999999
  0
ARC
  5
86
  8
_________1
 62
     7
 10
7.856272999999999
 20
52.761251000000001
 30
0.0
 40
0.259794
 50
26.736908
 51
90.158012999999997
  0
ARC
  5
87
  8
_________1
 62
     7
 10
7.7867439999999997
 20
52.707889000000002
 30
0.0
 40
0.346283
 50
8.6389929999999993
 51
29.447424999999999
  0
ARC
  5
88
  8
_________1
 62
     7
 10
7.8709949999999989
 20
52.49349999999999
 30
0.0
 40
0.29693
 50
184.84001000000001
 51
267.01964500000003
  0
ARC
  5
89
  8
_________1
 62
     7
 10
7.8555710000000003
 20
52.628799000000001
 30
0.0
 40
0.431827
 50
269.99801600000001
 51
286.71117900000002
  0
ARC
  5
8A
  8
_________1
 62
     7
 10
7.9099429999999993
 20
52.427706999999998
 30
0.0
 40
0.223668
 50
288.183787
 51
348.47206699999998
  0
LINE
  5
8B
  8
_________1
 62
     7
 10
7.9316899999999988
 20
51.937899999999992
 30
0.0
 11
7.5744300000000004
 21
51.937899999999992
 31
0.0
  0
LINE
  5
8C
  8
_________1
 62
     7
 10
8.1290999999999993
 20
53.087200000000003
 30
0.0
 11
8.1290999999999993
 21
52.135599999999997
 31
0.0
  0
ARC
  5
8D
  8
_________1
 62
     7
 10
7.9237899999999986
 20
52.143194000000001
 30
0.0
 40
0.205447
 50
272.20466099999999
 51
357.89525400000002
  0
LINE
  5
8E
  8
_________1
 62
     7
 10
7.9316899999999988
 20
53.284300000000002
 30
0.0
 11
7.5744300000000004
 21
53.284300000000002
 31
0.0
  0
ARC
  5
8F
  8
_________1
 62
     7
 10
7.9241580000000003
 20
53.07929699999999
 30
0.0
 40
0.205092
 50
2.205592999999999
 51
87.894476999999995
  0
LINE
  5
90
  8
_________1
 62
     7
 10
7.5744300000000004
 20
53.284300000000002
 30
0.0
 11
7.5744300000000004
 21
51.937899999999992
 31
0.0
  0
ENDBLK
  5
91
  8
_________1
  0
BLOCK
  8
_________1
  2
AIGNBL02040022
 70
     0
 10
0.0
 20
0.0
 30
0.0
  3
AIGNBL02040022
  1

  0
INSERT
  5
94
  8
_________1
 62
     7
  2
AIGNBL02050023
 10
0.0
 20
0.0
 30
0.0
  0
ENDBLK
  5
95
  8
_________1
  0
BLOCK
  8
_________1
  2
AIGNBL02030010
 70
     0
 10
0.0
 20
0.0
 30
0.0
  3
AIGNBL02030010
  1

  0
INSERT
  5
98
  8
_________1
 62
     7
  2
AIGNBL02040011
 10
0.0
 20
0.0
 30
0.0
  0
ENDBLK
  5
99
  8
_________1
  0
BLOCK
  8
_________1
  2
AIGNBL02030013
 70
     0
 10
0.0
 20
0.0
 30
0.0
  3
AIGNBL02030013
  1

  0
INSERT
  5
9C
  8
_________1
 62
     7
  2
AIGNBL02040014
 10
0.0
 20
0.0
 30
0.0
  0
ENDBLK
  5
9D
  8
_________1
  0
BLOCK
  8
_________1
  2
AIGNBL02030016
 70
     0
 10
0.0
 20
0.0
 30
0.0
  3
AIGNBL02030016
  1

  0
INSERT
  5
A0
  8
_________1
 62
     7
  2
AIGNBL02040017
 10
0.0
 20
0.0
 30
0.0
  0
ENDBLK
  5
A1
  8
_________1
  0
BLOCK
  8
_________1
  2
AIGNBL02030019
 70
     0
 10
0.0
 20
0.0
 30
0.0
  3
AIGNBL02030019
  1

  0
INSERT
  5
A4
  8
_________1
 62
     7
  2
AIGNBL0204001A
 10
0.0
 20
0.0
 30
0.0
  0
ENDBLK
  5
A5
  8
_________1
  0
BLOCK
  8
_________1
  2
AIGNBL0203001C
 70
     0
 10
0.0
 20
0.0
 30
0.0
  3
AIGNBL0203001C
  1

  0
INSERT
  5
A8
  8
_________1
 62
     7
  2
AIGNBL0204001D
 10
0.0
 20
0.0
 30
0.0
  0
ENDBLK
  5
A9
  8
_________1
  0
BLOCK
  8
_________1
  2
AIGNBL0203001F
 70
     0
 10
0.0
 20
0.0
 30
0.0
  3
AIGNBL0203001F
  1

  0
LINE
  5
AC
  8
_________1
 62
     7
 10
7.5744300000000004
 20
52.2624
 30
0.0
 11
7.0414799999999991
 21
52.2624
 31
0.0
  0
LINE
  5
AD
  8
_________1
 62
     7
 10
7.5744300000000004
 20
52.968000000000011
 30
0.0
 11
7.0414799999999991
 21
52.968000000000011
 31
0.0
  0
INSERT
  5
AE
  8
_________1
 62
     7
  2
AIGNBL02040020
 10
0.0
 20
0.0
 30
0.0
  0
LINE
  5
AF
  8
_________1
 62
     7
 10
6.9543100000000004
 20
52.16940000000001
 30
0.0
 11
6.9550000000000001
 21
52.16940000000001
 31
0.0
  0
LINE
  5
B0
  8
_________1
 62
     7
 10
7.0414799999999991
 20
53.299399999999999
 30
0.0
 11
6.8399399999999986
 21
53.472999999999999
 31
0.0
  0
LINE
  5
B1
  8
_________1
 62
     7
 10
7.0414799999999991
 20
51.953099999999999
 30
0.0
 11
6.8399399999999986
 21
51.781500000000001
 31
0.0
  0
LINE
  5
B2
  8
_________1
 62
     7
 10
4.306049999999999
 20
51.781500000000001
 30
0.0
 11
4.1045099999999994
 21
51.953099999999999
 31
0.0
  0
LINE
  5
B3
  8
_________1
 62
     7
 10
4.306049999999999
 20
53.471699999999998
 30
0.0
 11
4.1045099999999994
 21
53.299399999999999
 31
0.0
  0
LINE
  5
B4
  8
_________1
 62
     7
 10
4.1045099999999994
 20
53.299399999999999
 30
0.0
 11
4.1045099999999994
 21
51.953099999999999
 31
0.0
  0
ARC
  5
B5
  8
_________1
 62
     7
 10
4.7094420000000001
 20
52.134084999999992
 30
0.0
 40
0.352595
 50
239.63368500000001
 51
269.89343000000002
  0
ARC
  5
B6
  8
_________1
 62
     7
 10
4.7838690000000001
 20
52.276464000000011
 30
0.0
 40
0.5131250000000001
 50
222.37933100000001
 51
240.50017800000001
  0
ARC
  5
B7
  8
_________1
 62
     7
 10
5.0056010000000004
 20
52.487582999999987
 30
0.0
 40
0.8192459999999998
 50
200.65539699999999
 51
222.833798
  0
ARC
  5
B8
  8
_________1
 62
     7
 10
5.3121830000000001
 20
52.630142999999997
 30
0.0
 40
1.156682999999999
 50
179.954724
 51
201.906251
  0
ARC
  5
B9
  8
_________1
 62
     7
 10
5.342306999999999
 20
52.629154
 30
0.0
 40
1.1868080000000001
 50
151.70014800000001
 51
179.908151
  0
ARC
  5
BA
  8
_________1
 62
     7
 10
4.9295910000000003
 20
52.840761999999998
 30
0.0
 40
0.7231600000000001
 50
128.06763100000001
 51
150.959598
  0
ARC
  5
BB
  8
_________1
 62
     7
 10
4.7177129999999989
 20
53.086944999999993
 30
0.0
 40
0.398985
 50
105.367448
 51
125.91109899999999
  0
ARC
  5
BC
  8
_________1
 62
     7
 10
6.4760929999999988
 20
53.106166999999999
 30
0.0
 40
0.370058
 50
50.136723000000003
 51
80.995834000000002
  0
ARC
  5
BD
  8
_________1
 62
     7
 10
6.335748999999999
 20
52.91201199999999
 30
0.0
 40
0.6092710000000001
 50
34.480646
 51
51.709319999999998
  0
ARC
  5
BE
  8
_________1
 62
     7
 10
6.0386309999999987
 20
52.696688999999999
 30
0.0
 40
0.9761359999999999
 50
14.177581999999999
 51
35.025818999999998
  0
ARC
  5
BF
  8
_________1
 62
     7
 10
5.8218519999999989
 20
52.619124999999997
 30
0.0
 40
1.2055109999999989
 50
0.272358
 51
15.228313
  0
ARC
  5
C0
  8
_________1
 62
     7
 10
5.851945999999999
 20
52.626469999999998
 30
0.0
 40
1.175405
 50
331.664152
 51
359.92130400000002
  0
ARC
  5
C1
  8
_________1
 62
     7
 10
6.2470840000000001
 20
52.423412999999996
 30
0.0
 40
0.7312870000000001
 50
308.36041499999999
 51
330.97297099999997
  0
ARC
  5
C2
  8
_________1
 62
     7
 10
6.4623609999999996
 20
52.173937000000002
 30
0.0
 40
0.4023080000000001
 50
282.71223199999997
 51
306.36945200000002
  0
LINE
  5
C3
  8
_________1
 62
     7
 10
4.2950299999999997
 20
52.712400000000002
 30
0.0
 11
5.4915199999999986
 21
52.712400000000002
 31
0.0
  0
LINE
  5
C4
  8
_________1
 62
     7
 10
4.2950299999999997
 20
52.540100000000002
 30
0.0
 11
5.4915199999999986
 21
52.540100000000002
 31
0.0
  0
ARC
  5
C5
  8
_________1
 62
     7
 10
5.0026469999999996
 20
52.612528000000012
 30
0.0
 40
0.713583
 50
112.65499699999999
 51
179.010177
  0
ARC
  5
C6
  8
_________1
 62
     7
 10
4.8946930000000002
 20
52.794097999999991
 30
0.0
 40
0.5053130000000001
 50
90.180612999999994
 51
109.28695
  0
ARC
  5
C7
  8
_________1
 62
     7
 10
4.8914479999999996
 20
52.781131000000009
 30
0.0
 40
0.51828
 50
54.270740000000011
 51
89.817377000000008
  0
ARC
  5
C8
  8
_________1
 62
     7
 10
4.7788209999999989
 20
52.614532999999987
 30
0.0
 40
0.719315
 50
0.822211
 51
54.737286000000012
  0
ARC
  5
C9
  8
_________1
 62
     7
 10
4.7889650000000001
 20
52.637295000000002
 30
0.0
 40
0.709207
 50
292.34706199999999
 51
358.99499900000001
  0
ARC
  5
CA
  8
_________1
 62
     7
 10
4.8914650000000002
 20
52.460908000000003
 30
0.0
 40
0.507853
 50
270.18441999999999
 51
289.21613400000001
  0
ARC
  5
CB
  8
_________1
 62
     7
 10
4.8947510000000003
 20
52.471091000000001
 30
0.0
 40
0.518037
 50
234.3079680000001
 51
269.81742200000002
  0
ARC
  5
CC
  8
_________1
 62
     7
 10
5.0059760000000004
 20
52.63600799999999
 30
0.0
 40
0.716892
 50
180.89139800000001
 51
234.77819400000001
  0
LINE
  5
CD
  8
_________1
 62
     7
 10
4.3022599999999986
 20
51.781500000000001
 30
0.0
 11
6.8433799999999998
 21
51.781500000000001
 31
0.0
  0
LINE
  5
CE
  8
_________1
 62
     7
 10
4.306049999999999
 20
53.471699999999998
 30
0.0
 11
6.8416600000000001
 21
53.471699999999998
 31
0.0
  0
LINE
  5
CF
  8
_________1
 62
     7
 10
7.0414799999999991
 20
53.299399999999999
 30
0.0
 11
7.0414799999999991
 21
51.953099999999999
 31
0.0
  0
ENDBLK
  5
D0
  8
_________1
  0
BLOCK
  8
_________1
  2
AIGNBL02030021
 70
     0
 10
0.0
 20
0.0
 30
0.0
  3
AIGNBL02030021
  1

  0
INSERT
  5
D3
  8
_________1
 62
     7
  2
AIGNBL02040022
 10
0.0
 20
0.0
 30
0.0
  0
ENDBLK
  5
D4
  8
_________1
  0
BLOCK
  8
_________1
  2
AIGNBL0202000F
 70
     0
 10
0.0
 20
0.0
 30
0.0
  3
AIGNBL0202000F
  1

  0
INSERT
  5
D7
  8
_________1
 62
     7
  2
AIGNBL02030010
 10
0.0
 20
0.0
 30
0.0
  0
LINE
  5
D8
  8
_________1
 62
     7
 10
9.5016300000000005
 20
51.375
 30
0.0
 11
9.5016300000000005
 21
35.0244
 31
0.0
  0
INSERT
  5
D9
  8
_________1
 62
     7
  2
AIGNBL02030013
 10
0.0
 20
0.0
 30
0.0
  0
LINE
  5
DA
  8
_________1
 62
     7
 10
-30.258800000000001
 20
48.335700000000003
 30
0.0
 11
-30.258800000000001
 21
42.052500000000002
 31
0.0
  0
LINE
  5
DB
  8
_________1
 62
     7
 10
-22.737400000000001
 20
48.335700000000003
 30
0.0
 11
-22.737400000000001
 21
42.108999999999988
 31
0.0
  0
INSERT
  5
DC
  8
_________1
 62
     7
  2
AIGNBL02030016
 10
0.0
 20
0.0
 30
0.0
  0
INSERT
  5
DD
  8
_________1
 62
     7
  2
AIGNBL02030019
 10
0.0
 20
0.0
 30
0.0
  0
LINE
  5
DE
  8
_________1
 62
     7
 10
-31.386900000000001
 20
49.00269999999999
 30
0.0
 11
-37.4221
 21
49.00269999999999
 31
0.0
  0
LINE
  5
DF
  8
_________1
 62
     7
 10
-33.533900000000003
 20
59.069299999999998
 30
0.0
 11
-37.4221
 21
59.069299999999998
 31
0.0
  0
LINE
  5
E0
  8
_________1
 62
     7
 10
-33.6111
 20
67.0792
 30
0.0
 11
-37.424799999999998
 21
67.0792
 31
0.0
  0
LINE
  5
E1
  8
_________1
 62
     7
 10
-20.2087
 20
66.832499999999996
 30
0.0
 11
-20.2087
 21
66.731899999999996
 31
0.0
  0
ARC
  5
E2
  8
_________1
 62
     7
 10
-17.873422000000001
 20
53.855080000000008
 30
0.0
 40
5.1192349999999989
 50
197.79385099999999
 51
205.456209
  0
ARC
  5
E3
  8
_________1
 62
     7
 10
-20.747651999999999
 20
52.510789000000003
 30
0.0
 40
1.9463680000000001
 50
206.09278499999999
 51
211.00056599999999
  0
ARC
  5
E4
  8
_________1
 62
     7
 10
-21.813141000000002
 20
51.860233000000001
 30
0.0
 40
0.698061
 50
210.27364900000001
 51
225.39328699999999
  0
ARC
  5
E5
  8
_________1
 62
     7
 10
-20.422858000000002
 20
52.931240000000003
 30
0.0
 40
2.2834089999999989
 50
149.49268799999999
 51
157.23764700000001
  0
ARC
  5
E6
  8
_________1
 62
     7
 10
-18.769196000000001
 20
52.201780999999997
 30
0.0
 40
4.0906459999999987
 50
156.7778129999999
 51
168.870071
  0
LINE
  5
E7
  8
_________1
 62
     7
 10
-16.801500000000001
 20
54.6402
 30
0.0
 11
-17.265899999999998
 21
54.6402
 31
0.0
  0
LINE
  5
E8
  8
_________1
 62
     7
 10
-18.351099999999999
 20
50.677
 30
0.0
 11
-19.0594
 21
50.677
 31
0.0
  0
LINE
  5
E9
  8
_________1
 62
     7
 10
-16.793900000000001
 20
50.677
 30
0.0
 11
-17.212800000000001
 21
50.677
 31
0.0
  0
ARC
  5
EA
  8
_________1
 62
     7
 10
-17.800802000000001
 20
50.608544000000002
 30
0.0
 40
0.856685
 50
71.079227000000003
 51
90.030982999999992
  0
ARC
  5
EB
  8
_________1
 62
     7
 10
-17.717907999999991
 20
50.908147
 30
0.0
 40
0.546712
 50
15.048963000000001
 51
69.115506000000011
  0
ARC
  5
EC
  8
_________1
 62
     7
 10
-18.054590999999999
 20
50.803435999999991
 30
0.0
 40
0.8991399999999998
 50
358.79156799999998
 51
15.922105
  0
ARC
  5
ED
  8
_________1
 62
     7
 10
-17.232543
 20
50.784902000000002
 30
0.0
 40
0.076894
 50
340.23881299999999
 51
359.68055299999997
  0
ARC
  5
EE
  8
_________1
 62
     7
 10
-17.323596999999999
 20
50.81503699999999
 30
0.0
 40
0.172791
 50
326.44246900000002
 51
341.04307300000011
  0
ARC
  5
EF
  8
_________1
 62
     7
 10
-17.489094000000001
 20
50.922144000000003
 30
0.0
 40
0.369918
 50
315.87787100000003
 51
326.78745300000003
  0
ARC
  5
F0
  8
_________1
 62
     7
 10
-17.734483000000001
 20
51.159348000000001
 30
0.0
 40
0.711211
 50
300.00293599999998
 51
315.922822
  0
ARC
  5
F1
  8
_________1
 62
     7
 10
-17.843364000000001
 20
51.318173999999999
 30
0.0
 40
0.9033229999999999
 50
271.49043899999998
 51
300.946237
  0
ARC
  5
F2
  8
_________1
 62
     7
 10
-17.818308999999999
 20
51.051796000000003
 30
0.0
 40
0.6366410000000001
 50
238.04926499999999
 51
269.85963700000002
  0
ARC
  5
F3
  8
_________1
 62
     7
 10
-17.758845999999998
 20
51.177756000000002
 30
0.0
 40
0.775155
 50
216.7405399999999
 51
239.24687299999999
  0
ARC
  5
F4
  8
_________1
 62
     7
 10
-18.092313000000001
 20
50.924542999999993
 30
0.0
 40
0.356476
 50
203.98812899999999
 51
216.18838
  0
ARC
  5
F5
  8
_________1
 62
     7
 10
-18.319458999999998
 20
50.826147999999989
 30
0.0
 40
0.108975
 50
183.074724
 51
205.275891
  0
ARC
  5
F6
  8
_________1
 62
     7
 10
-17.310123000000001
 20
50.821356000000002
 30
0.0
 40
1.1181540000000001
 50
169.31718900000001
 51
180.05399399999999
  0
ARC
  5
F7
  8
_________1
 62
     7
 10
-17.809359000000001
 20
50.909154000000001
 30
0.0
 40
0.6113270000000001
 50
143.520591
 51
168.729749
  0
ARC
  5
F8
  8
_________1
 62
     7
 10
-17.929148999999999
 20
50.972189999999998
 30
0.0
 40
0.4779720000000001
 50
101.738801
 51
141.05838600000001
  0
ARC
  5
F9
  8
_________1
 62
     7
 10
-17.817164999999999
 20
50.584425000000003
 30
0.0
 40
0.8809469999999999
 50
88.965817999999985
 51
103.739203
  0
ARC
  5
FA
  8
_________1
 62
     7
 10
-17.855953
 20
53.001173000000001
 30
0.0
 40
1.7637890000000001
 50
76.622818999999993
 51
90.014088999999984
  0
ARC
  5
FB
  8
_________1
 62
     7
 10
-17.617332999999999
 20
54.047536999999998
 30
0.0
 40
0.6906790000000002
 50
59.889006000000009
 51
75.798098999999993
  0
ARC
  5
FC
  8
_________1
 62
     7
 10
-17.371214999999999
 20
54.481679999999997
 30
0.0
 40
0.191713
 50
29.407636
 51
58.426393999999988
  0
ARC
  5
FD
  8
_________1
 62
     7
 10
-17.28200799999999
 20
54.539866000000004
 30
0.0
 40
0.085707
 50
0.317384
 51
24.799139
  0
ARC
  5
FE
  8
_________1
 62
     7
 10
-18.434691999999998
 20
54.539912999999999
 30
0.0
 40
1.2383889999999991
 50
344.521458
 51
0.019753
  0
ARC
  5
FF
  8
_________1
 62
     7
 10
-17.930776000000002
 20
54.415684999999989
 30
0.0
 40
0.719747
 50
319.05866800000001
 51
343.34634499999999
  0
ARC
  5
100
  8
_________1
 62
     7
 10
-17.788129000000001
 20
54.316439000000003
 30
0.0
 40
0.5472730000000001
 50
268.624595
 51
317.12087300000002
  0
ARC
  5
101
  8
_________1
 62
     7
 10
-17.794955000000002
 20
54.389297999999997
 30
0.0
 40
0.6200070000000001
 50
212.58928399999999
 51
269.41688399999998
  0
ARC
  5
102
  8
_________1
 62
     7
 10
-17.647333
 20
54.491782999999991
 30
0.0
 40
0.799616
 50
190.57864799999999
 51
213.079275
  0
ARC
  5
103
  8
_________1
 62
     7
 10
-17.381679999999999
 20
54.556806999999992
 30
0.0
 40
1.072797999999999
 50
179.66506899999999
 51
191.38775000000001
  0
ARC
  5
104
  8
_________1
 62
     7
 10
-18.397015
 20
54.563027000000012
 30
0.0
 40
0.057444
 50
159.63521700000001
 51
179.948408
  0
ARC
  5
105
  8
_________1
 62
     7
 10
-18.362414000000001
 20
54.549638999999999
 30
0.0
 40
0.094543
 50
138.68355500000001
 51
159.326448
  0
ARC
  5
106
  8
_________1
 62
     7
 10
-18.286318999999999
 20
54.483688000000001
 30
0.0
 40
0.195239
 50
124.285814
 51
138.89040800000001
  0
ARC
  5
107
  8
_________1
 62
     7
 10
-18.171710000000001
 20
54.319357999999987
 30
0.0
 40
0.395583
 50
114.19512400000001
 51
124.59347099999999
  0
ARC
  5
108
  8
_________1
 62
     7
 10
-18.000516999999999
 20
53.936765000000001
 30
0.0
 40
0.8147300000000001
 50
99.289972999999975
 51
114.149432
  0
ARC
  5
109
  8
_________1
 62
     7
 10
-17.866510000000002
 20
53.295465999999998
 30
0.0
 40
1.469530999999999
 50
89.605311999999998
 51
100.409947
  0
ARC
  5
10A
  8
_________1
 62
     7
 10
-17.802658999999998
 20
53.067993999999992
 30
0.0
 40
0.479465
 50
54.535920999999981
 51
89.833426999999986
  0
ARC
  5
10B
  8
_________1
 62
     7
 10
-17.912868
 20
52.894846999999999
 30
0.0
 40
0.684516
 50
31.438330000000011
 51
55.431220999999987
  0
ARC
  5
10C
  8
_________1
 62
     7
 10
-18.208375
 20
52.693966000000003
 30
0.0
 40
1.0415620000000001
 50
4.8693669999999987
 51
32.387931999999999
  0
ARC
  5
10D
  8
_________1
 62
     7
 10
-18.446154
 20
52.645316000000001
 30
0.0
 40
1.2829250000000001
 50
359.97858400000001
 51
6.1329050000000001
  0
ARC
  5
10E
  8
_________1
 62
     7
 10
-18.373801
 20
52.646084999999999
 30
0.0
 40
1.2105719999999991
 50
331.61258500000002
 51
359.9409490000001
  0
ARC
  5
10F
  8
_________1
 62
     7
 10
-17.984369000000001
 20
52.460765000000002
 30
0.0
 40
0.780175
 50
307.38971800000002
 51
329.988471
  0
ARC
  5
110
  8
_________1
 62
     7
 10
-17.814243000000001
 20
52.257793999999997
 30
0.0
 40
0.5157410000000001
 50
271.44187899999997
 51
306.06545599999998
  0
ARC
  5
111
  8
_________1
 62
     7
 10
-17.799858999999991
 20
52.221196999999997
 30
0.0
 40
0.4789830000000001
 50
234.517503
 51
269.831751
  0
ARC
  5
112
  8
_________1
 62
     7
 10
-17.686672000000002
 20
52.399051
 30
0.0
 40
0.6895970000000001
 50
210.80902000000009
 51
235.437174
  0
ARC
  5
113
  8
_________1
 62
     7
 10
-17.387148
 20
52.599662000000002
 30
0.0
 40
1.0497700000000001
 50
184.43253000000001
 51
211.840114
  0
ARC
  5
114
  8
_________1
 62
     7
 10
-17.161152999999999
 20
52.644426000000003
 30
0.0
 40
1.278837
 50
179.981582
 51
185.64969099999999
  0
ARC
  5
115
  8
_________1
 62
     7
 10
-17.233094999999999
 20
52.643595999999988
 30
0.0
 40
1.2068950000000001
 50
151.51857799999999
 51
179.94107500000001
  0
ARC
  5
116
  8
_________1
 62
     7
 10
-17.617201999999999
 20
52.827188
 30
0.0
 40
0.78203
 50
127.359899
 51
149.92132899999999
  0
ARC
  5
117
  8
_________1
 62
     7
 10
-17.787952000000001
 20
53.031370999999993
 30
0.0
 40
0.5162580000000001
 50
91.47770899999999
 51
126.048333
  0
INSERT
  5
118
  8
_________1
 62
     7
  2
AIGNBL0203001C
 10
0.0
 20
0.0
 30
0.0
  0
INSERT
  5
119
  8
_________1
 62
     7
  2
AIGNBL0203001F
 10
0.0
 20
0.0
 30
0.0
  0
LINE
  5
11A
  8
_________1
 62
     7
 10
-32.787500000000001
 20
68.020399999999995
 30
0.0
 11
-32.787500000000001
 21
72.132499999999993
 31
0.0
  0
LINE
  5
11B
  8
_________1
 62
     7
 10
-32.540900000000001
 20
67.0792
 30
0.0
 11
-20.456099999999999
 21
67.0792
 31
0.0
  0
ARC
  5
11C
  8
_________1
 62
     7
 10
-20.465586999999999
 20
66.822288
 30
0.0
 40
0.257077
 50
2.280692999999999
 51
87.879118000000005
  0
ARC
  5
11D
  8
_________1
 62
     7
 10
-32.532406999999999
 20
66.823357000000001
 30
0.0
 40
0.255283
 50
91.896366
 51
177.94333700000001
  0
LINE
  5
11E
  8
_________1
 62
     7
 10
-32.787500000000001
 20
66.731899999999996
 30
0.0
 11
-32.787500000000001
 21
66.832499999999996
 31
0.0
  0
LINE
  5
11F
  8
_________1
 62
     7
 10
-22.576899999999998
 20
60.3977
 30
0.0
 11
-22.503900000000002
 21
60.3977
 31
0.0
  0
LINE
  5
120
  8
_________1
 62
     7
 10
-22.898
 20
60.720199999999998
 30
0.0
 11
-22.898
 21
62.476500000000001
 31
0.0
  0
ARC
  5
121
  8
_________1
 62
     7
 10
-22.564449
 20
60.731202000000003
 30
0.0
 40
0.333705
 50
181.89070599999999
 51
267.863946
  0
LINE
  5
122
  8
_________1
 62
     7
 10
-30.089300000000001
 20
60.720199999999998
 30
0.0
 11
-30.089300000000001
 21
62.476500000000001
 31
0.0
  0
LINE
  5
123
  8
_________1
 62
     7
 10
-30.493099999999998
 20
60.3977
 30
0.0
 11
-30.410399999999999
 21
60.3977
 31
0.0
  0
ARC
  5
124
  8
_________1
 62
     7
 10
-30.424149
 20
60.732512
 30
0.0
 40
0.335065
 50
272.35257999999999
 51
357.892808
  0
LINE
  5
125
  8
_________1
 62
     7
 10
-22.576899999999998
 20
62.797600000000003
 30
0.0
 11
-22.503900000000002
 21
62.797600000000003
 31
0.0
  0
ARC
  5
126
  8
_________1
 62
     7
 10
-22.564546
 20
62.464171999999991
 30
0.0
 40
0.333654
 50
92.119619999999983
 51
177.88035099999999
  0
LINE
  5
127
  8
_________1
 62
     7
 10
-30.493099999999998
 20
62.797600000000003
 30
0.0
 11
-30.410399999999999
 21
62.797600000000003
 31
0.0
  0
ARC
  5
128
  8
_________1
 62
     7
 10
-30.422734999999999
 20
62.464171999999991
 30
0.0
 40
0.333654
 50
2.1196470000000001
 51
87.880343000000011
  0
LINE
  5
129
  8
_________1
 62
     7
 10
-30.493099999999998
 20
62.797600000000003
 30
0.0
 11
-30.493099999999998
 21
64.868099999999998
 31
0.0
  0
LINE
  5
12A
  8
_________1
 62
     7
 10
-30.493099999999998
 20
59.998100000000001
 30
0.0
 11
-30.493099999999998
 21
60.3977
 31
0.0
  0
LINE
  5
12B
  8
_________1
 62
     7
 10
-30.493099999999998
 20
64.868099999999998
 30
0.0
 11
-30.6419
 21
65.023799999999994
 31
0.0
  0
LINE
  5
12C
  8
_________1
 62
     7
 10
-22.391500000000001
 20
65.023799999999994
 30
0.0
 11
-22.503900000000002
 21
64.868099999999998
 31
0.0
  0
LINE
  5
12D
  8
_________1
 62
     7
 10
-22.503900000000002
 20
60.3977
 30
0.0
 11
-22.503900000000002
 21
59.998100000000001
 31
0.0
  0
LINE
  5
12E
  8
_________1
 62
     7
 10
-22.503900000000002
 20
64.868099999999998
 30
0.0
 11
-22.503900000000002
 21
62.797600000000003
 31
0.0
  0
LINE
  5
12F
  8
_________1
 62
     7
 10
-32.787500000000001
 20
66.731899999999996
 30
0.0
 11
-20.187999999999999
 21
66.731899999999996
 31
0.0
  0
LINE
  5
130
  8
_________1
 62
     7
 10
-16.5548
 20
50.924300000000002
 30
0.0
 11
-16.5548
 21
54.395000000000003
 31
0.0
  0
ARC
  5
131
  8
_________1
 62
     7
 10
-16.804158999999999
 20
50.933875
 30
0.0
 40
0.257093
 50
272.28403199999991
 51
357.87579899999997
  0
ARC
  5
132
  8
_________1
 62
     7
 10
-16.810942000000001
 20
54.384070999999999
 30
0.0
 40
0.256352
 50
2.4335779999999989
 51
87.887395999999995
  0
LINE
  5
133
  8
_________1
 62
     7
 10
-22.3309
 20
50.807899999999997
 30
0.0
 11
-30.666
 21
50.807899999999997
 31
0.0
  0
LINE
  5
134
  8
_________1
 62
     7
 10
-20.474
 20
59.078899999999997
 30
0.0
 11
-32.5229
 21
59.078899999999997
 31
0.0
  0
LINE
  5
135
  8
_________1
 62
     7
 10
-19.9145
 20
54.262700000000002
 30
0.0
 11
-19.9145
 21
50.980200000000004
 31
0.0
  0
LINE
  5
136
  8
_________1
 62
     7
 10
-20.2087
 20
67.823999999999984
 30
0.0
 11
-20.2087
 21
72.132499999999993
 31
0.0
  0
INSERT
  5
137
  8
_________1
 62
     7
  2
AIGNBL02030021
 10
0.0
 20
0.0
 30
0.0
  0
LINE
  5
138
  8
_________1
 62
     7
 10
-26.498799999999999
 20
46.560099999999998
 30
0.0
 11
-26.498799999999999
 21
34.905900000000003
 31
0.0
  0
LINE
  5
139
  8
_________1
 62
     7
 10
8.1311699999999991
 20
52.107399999999998
 30
0.0
 11
9.288730000000001
 21
52.107399999999998
 31
0.0
  0
LINE
  5
13A
  8
_________1
 62
     7
 10
-16.554099999999998
 20
52.121899999999989
 30
0.0
 11
5.2558699999999989
 21
52.121899999999989
 31
0.0
  0
LINE
  5
13B
  8
_________1
  6
AIGENLINE001
 62
     7
 10
-24.001100000000001
 20
52.621400000000001
 30
0.0
 11
11.1904
 21
52.621400000000001
 31
0.0
  0
LINE
  5
13C
  8
_________1
 62
     7
 10
8.1311699999999991
 20
53.10649999999999
 30
0.0
 11
9.288730000000001
 21
53.10649999999999
 31
0.0
  0
LINE
  5
13D
  8
_________1
 62
     7
 10
-16.554099999999998
 20
53.121000000000002
 30
0.0
 11
5.2558699999999989
 21
53.121000000000002
 31
0.0
  0
ARC
  5
13E
  8
_________1
 62
     7
 10
-22.027004999999999
 20
50.626019999999997
 30
0.0
 40
0.35417
 50
90.787019999999984
 51
149.10001
  0
LINE
  5
13F
  8
_________1
 62
     7
 10
-19.145600000000002
 20
50.763800000000003
 30
0.0
 11
-19.145600000000002
 21
54.47829999999999
 31
0.0
  0
ARC
  5
140
  8
_________1
 62
     7
 10
-21.972628
 20
54.620968999999988
 30
0.0
 40
0.358543
 50
182.20471900000001
 51
267.90978799999999
  0
LINE
  5
141
  8
_________1
 62
     7
 10
-19.145600000000002
 20
50.763800000000003
 30
0.0
 11
-19.0594
 21
50.677
 31
0.0
  0
LINE
  5
142
  8
_________1
 62
     7
 10
-19.0594
 20
54.563099999999999
 30
0.0
 11
-19.145600000000002
 21
54.47829999999999
 31
0.0
  0
LINE
  5
143
  8
_________1
 62
     7
 10
-21.985700000000001
 20
54.262700000000002
 30
0.0
 11
-19.145600000000002
 21
54.262700000000002
 31
0.0
  0
LINE
  5
144
  8
_________1
 62
     7
 10
-19.145600000000002
 20
50.980200000000004
 30
0.0
 11
-22.0319
 21
50.980200000000004
 31
0.0
  0
LINE
  5
145
  8
_________1
 62
     7
 10
-19.566500000000001
 20
54.060099999999998
 30
0.0
 11
-19.145600000000002
 21
54.060099999999998
 31
0.0
  0
LINE
  5
146
  8
_________1
 62
     7
 10
-19.145600000000002
 20
51.18
 30
0.0
 11
-19.566500000000001
 21
51.18
 31
0.0
  0
LINE
  5
147
  8
_________1
 62
     7
 10
9.288730000000001
 20
53.10649999999999
 30
0.0
 11
9.288730000000001
 21
52.107399999999998
 31
0.0
  0
ARC
  5
148
  8
_________1
 62
     7
 10
-21.129718
 20
65.022033999999991
 30
0.0
 40
1.261822999999999
 50
152.32709700000001
 51
179.91834499999999
  0
ARC
  5
149
  8
_________1
 62
     7
 10
-20.678252000000001
 20
64.812570999999991
 30
0.0
 40
1.759093
 50
131.91711599999999
 51
153.11427900000001
  0
ARC
  5
14A
  8
_________1
 62
     7
 10
-20.211752000000001
 20
64.346360000000004
 30
0.0
 40
2.4179169999999992
 50
98.762539000000004
 51
132.76248899999999
  0
ARC
  5
14B
  8
_________1
 62
     7
 10
-32.734619000000002
 20
64.603341999999998
 30
0.0
 40
2.1510910000000001
 50
60.907572999999992
 51
82.505166000000003
  0
ARC
  5
14C
  8
_________1
 62
     7
 10
-32.815069999999999
 20
64.378794999999997
 30
0.0
 40
2.386741999999999
 50
41.049269000000002
 51
61.840916000000007
  0
ARC
  5
14D
  8
_________1
 62
     7
 10
-32.322501000000003
 20
64.835845999999989
 30
0.0
 40
1.7152559999999999
 50
19.774521
 51
40.340798999999997
  0
ARC
  5
14E
  8
_________1
 62
     7
 10
-31.912799
 20
65.010249000000002
 30
0.0
 40
1.270964999999999
 50
0.6123440000000001
 51
18.624493000000001
  0
LINE
  5
14F
  8
_________1
 62
     7
 10
-24.998799999999999
 20
60.898000000000003
 30
0.0
 11
-24.998799999999999
 21
62.298099999999998
 31
0.0
  0
LINE
  5
150
  8
_________1
 62
     7
 10
-27.998799999999999
 20
60.898000000000003
 30
0.0
 11
-27.998799999999999
 21
62.298099999999998
 31
0.0
  0
LINE
  5
151
  8
_________1
  6
AIGENLINE001
 62
     7
 10
-26.498799999999999
 20
47.382100000000001
 30
0.0
 11
-26.498799999999999
 21
68.204400000000007
 31
0.0
  0
ARC
  5
152
  8
_________1
 62
     7
 10
-31.694821999999998
 20
59.483966000000002
 30
0.0
 40
0.526354
 50
180.58722700000001
 51
230.30881600000009
  0
ARC
  5
153
  8
_________1
 62
     7
 10
-31.681705999999998
 20
59.458678999999997
 30
0.0
 40
0.539809
 50
92.187875000000005
 51
177.88813500000001
  0
ARC
  5
154
  8
_________1
 62
     7
 10
-21.313295
 20
59.461368000000007
 30
0.0
 40
0.5371020000000001
 50
1.8355399999999999
 51
87.859685999999996
  0
ARC
  5
155
  8
_________1
 62
     7
 10
-21.301154
 20
59.482607999999992
 30
0.0
 40
0.524701
 50
309.70593400000001
 51
359.55926199999999
  0
LINE
  5
156
  8
_________1
 62
     7
 10
-22.3309
 20
57.334299999999999
 30
0.0
 11
-22.3309
 21
54.607199999999999
 31
0.0
  0
ARC
  5
157
  8
_________1
 62
     7
 10
-31.547270000000001
 20
57.325093999999993
 30
0.0
 40
0.8812959999999998
 50
0.600513
 51
59.353631999999998
  0
ARC
  5
158
  8
_________1
 62
     7
 10
-21.448139999999999
 20
57.324218000000002
 30
0.0
 40
0.8828229999999999
 50
120.702133
 51
179.343681
  0
LINE
  5
159
  8
_________1
 62
     7
 10
-30.666
 20
50.807899999999997
 30
0.0
 11
-30.666
 21
57.334299999999999
 31
0.0
  0
LINE
  5
15A
  8
_________1
 62
     7
 10
-19.566500000000001
 20
51.18
 30
0.0
 11
-19.9145
 21
50.980200000000004
 31
0.0
  0
LINE
  5
15B
  8
_________1
 62
     7
 10
-22.737400000000001
 20
49.079099999999997
 30
0.0
 11
-22.737400000000001
 21
50.289099999999991
 31
0.0
  0
LINE
  5
15C
  8
_________1
 62
     7
 10
-30.493099999999998
 20
49.313400000000001
 30
0.0
 11
-22.503900000000002
 21
49.313400000000001
 31
0.0
  0
LINE
  5
15D
  8
_________1
 62
     7
 10
-20.474
 20
58.905299999999997
 30
0.0
 11
-21.898900000000001
 21
58.083300000000001
 31
0.0
  0
LINE
  5
15E
  8
_________1
 62
     7
 10
-20.474
 20
58.905299999999997
 30
0.0
 11
-20.474
 21
59.078899999999997
 31
0.0
  0
LINE
  5
15F
  8
_________1
 62
     7
 10
-22.503900000000002
 20
50.289099999999991
 30
0.0
 11
-30.450399999999998
 21
50.289099999999991
 31
0.0
  0
LINE
  5
160
  8
_________1
 62
     7
 10
-22.5473
 20
50.289099999999991
 30
0.0
 11
-22.5473
 21
50.807899999999997
 31
0.0
  0
LINE
  5
161
  8
_________1
 62
     7
 10
-30.450399999999998
 20
50.289099999999991
 30
0.0
 11
-30.450399999999998
 21
50.807899999999997
 31
0.0
  0
LINE
  5
162
  8
_________1
 62
     7
 10
-30.493099999999998
 20
49.313400000000001
 30
0.0
 11
-30.258800000000001
 21
49.079099999999997
 31
0.0
  0
LINE
  5
163
  8
_________1
 62
     7
 10
-22.503900000000002
 20
49.313400000000001
 30
0.0
 11
-22.737400000000001
 21
49.079099999999997
 31
0.0
  0
LINE
  5
164
  8
_________1
 62
     7
 10
-22.503900000000002
 20
50.289099999999991
 30
0.0
 11
-22.503900000000002
 21
49.313400000000001
 31
0.0
  0
LINE
  5
165
  8
_________1
 62
     7
 10
-30.493099999999998
 20
49.313400000000001
 30
0.0
 11
-30.493099999999998
 21
50.289099999999991
 31
0.0
  0
LINE
  5
166
  8
_________1
 62
     7
 10
-22.737400000000001
 20
49.079099999999997
 30
0.0
 11
-30.258800000000001
 21
49.079099999999997
 31
0.0
  0
LINE
  5
167
  8
_________1
 62
     7
 10
-32.5229
 20
58.905299999999997
 30
0.0
 11
-31.097999999999999
 21
58.083300000000001
 31
0.0
  0
LINE
  5
168
  8
_________1
 62
     7
 10
-32.5229
 20
58.905299999999997
 30
0.0
 11
-32.5229
 21
59.078899999999997
 31
0.0
  0
LINE
  5
169
  8
_________1
 62
     7
 10
9.4602899999999988
 20
52.278999999999989
 30
0.0
 11
9.288730000000001
 21
52.107399999999998
 31
0.0
  0
LINE
  5
16A
  8
_________1
 62
     7
 10
9.288730000000001
 20
53.10649999999999
 30
0.0
 11
9.4602899999999988
 21
52.9328
 31
0.0
  0
LINE
  5
16B
  8
_________1
 62
     7
 10
9.4602899999999988
 20
52.278999999999989
 30
0.0
 11
9.4602899999999988
 21
52.9328
 31
0.0
  0
LINE
  5
16C
  8
_________1
 62
     7
 10
-30.258800000000001
 20
49.079099999999997
 30
0.0
 11
-30.258800000000001
 21
50.289099999999991
 31
0.0
  0
LINE
  5
16D
  8
_________1
 62
     7
 10
-27.4986
 20
62.797600000000003
 30
0.0
 11
-25.498699999999999
 21
62.797600000000003
 31
0.0
  0
LINE
  5
16E
  8
_________1
 62
     7
 10
-27.4986
 20
60.3977
 30
0.0
 11
-25.498699999999999
 21
60.3977
 31
0.0
  0
LINE
  5
16F
  8
_________1
 62
     7
 10
-31.702300000000001
 20
59.998100000000001
 30
0.0
 11
-21.293199999999999
 21
59.998100000000001
 31
0.0
  0
LINE
  5
170
  8
_________1
 62
     7
 10
-19.566500000000001
 20
50.980200000000004
 30
0.0
 11
-19.566500000000001
 21
54.262700000000002
 31
0.0
  0
LINE
  5
171
  8
_________1
 62
     7
 10
-19.9145
 20
54.262700000000002
 30
0.0
 11
-19.566500000000001
 21
54.060099999999998
 31
0.0
  0
LINE
  5
172
  8
_________1
 62
     7
 10
-18.454499999999999
 20
54.563099999999999
 30
0.0
 11
-19.0594
 21
54.563099999999999
 31
0.0
  0
ENDBLK
  5
173
  8
_________1
  0
BLOCK
  8
_________1
  2
AIGNBL02010002
 70
     0
 10
0.0
 20
0.0
 30
0.0
  3
AIGNBL02010002
  1

  0
LINE
  5
176
  8
_________1
 62
     7
 10
70.831599999999995
 20
125.40000000000001
 30
0.0
 11
73.042299999999997
 21
125.991
 31
0.0
  0
LINE
  5
177
  8
_________1
 62
     7
 10
73.042299999999997
 20
125.991
 30
0.0
 11
70.831599999999995
 21
126.584
 31
0.0
  0
LINE
  5
178
  8
_________1
 62
     7
 10
70.831599999999995
 20
126.584
 30
0.0
 11
70.831599999999995
 21
125.40000000000001
 31
0.0
  0
LINE
  5
179
  8
_________1
 62
     7
 10
76.503
 20
126.569
 30
0.0
 11
74.292199999999994
 21
125.977
 31
0.0
  0
LINE
  5
17A
  8
_________1
 62
     7
 10
74.292199999999994
 20
125.977
 30
0.0
 11
76.503
 21
125.38500000000001
 31
0.0
  0
LINE
  5
17B
  8
_________1
 62
     7
 10
76.503
 20
125.38500000000001
 30
0.0
 11
76.503
 21
126.569
 31
0.0
  0
LINE
  5
17C
  8
_________1
 62
     7
 10
80.707700000000017
 20
125.98399999999999
 30
0.0
 11
69.922399999999996
 21
125.98399999999999
 31
0.0
  0
ENDBLK
  5
17D
  8
_________1
  0
BLOCK
  8
_________1
  2
AIGNBL02010003
 70
     0
 10
0.0
 20
0.0
 30
0.0
  3
AIGNBL02010003
  1

  0
LINE
  5
180
  8
_________1
 62
     7
 10
26.669699999999999
 20
175.07900000000001
 30
0.0
 11
26.077500000000001
 21
177.28899999999999
 31
0.0
  0
LINE
  5
181
  8
_________1
 62
     7
 10
26.077500000000001
 20
177.28899999999999
 30
0.0
 11
25.485299999999999
 21
175.07900000000001
 31
0.0
  0
LINE
  5
182
  8
_________1
 62
     7
 10
25.485299999999999
 20
175.07900000000001
 30
0.0
 11
26.669699999999999
 21
175.07900000000001
 31
0.0
  0
LINE
  5
183
  8
_________1
 62
     7
 10
25.499700000000001
 20
90.749899999999997
 30
0.0
 11
26.091899999999999
 21
88.538799999999995
 31
0.0
  0
LINE
  5
184
  8
_________1
 62
     7
 10
26.091899999999999
 20
88.538799999999995
 30
0.0
 11
26.684200000000001
 21
90.749899999999997
 31
0.0
  0
LINE
  5
185
  8
_________1
 62
     7
 10
26.684200000000001
 20
90.749899999999997
 30
0.0
 11
25.499700000000001
 21
90.749899999999997
 31
0.0
  0
LINE
  5
186
  8
_________1
 62
     7
 10
26.084700000000002
 20
177.28899999999999
 30
0.0
 11
26.084700000000002
 21
88.538799999999995
 31
0.0
  0
ENDBLK
  5
187
  8
_________1
  0
BLOCK
  8
_________1
  2
AIGNBL02010004
 70
     0
 10
0.0
 20
0.0
 30
0.0
  3
AIGNBL02010004
  1

  0
LINE
  5
18A
  8
_________1
 62
     7
 10
91.152999999999992
 20
104.499
 30
0.0
 11
91.745199999999997
 21
102.289
 31
0.0
  0
LINE
  5
18B
  8
_________1
 62
     7
 10
91.745199999999997
 20
102.289
 30
0.0
 11
92.337400000000002
 21
104.499
 31
0.0
  0
LINE
  5
18C
  8
_________1
 62
     7
 10
92.337400000000002
 20
104.499
 30
0.0
 11
91.152999999999992
 21
104.499
 31
0.0
  0
LINE
  5
18D
  8
_________1
 62
     7
 10
92.322900000000004
 20
175.07900000000001
 30
0.0
 11
91.730699999999999
 21
177.28899999999999
 31
0.0
  0
LINE
  5
18E
  8
_________1
 62
     7
 10
91.730699999999999
 20
177.28899999999999
 30
0.0
 11
91.138499999999993
 21
175.07900000000001
 31
0.0
  0
LINE
  5
18F
  8
_________1
 62
     7
 10
91.138499999999993
 20
175.07900000000001
 30
0.0
 11
92.322900000000004
 21
175.07900000000001
 31
0.0
  0
LINE
  5
190
  8
_________1
 62
     7
 10
91.737999999999985
 20
102.289
 30
0.0
 11
91.737999999999985
 21
177.28899999999999
 31
0.0
  0
ENDBLK
  5
191
  8
_________1
  0
BLOCK
  8
_________1
  2
AIGNBL02010005
 70
     0
 10
0.0
 20
0.0
 30
0.0
  3
AIGNBL02010005
  1

  0
LINE
  5
194
  8
_________1
 62
     7
 10
49.536700000000003
 20
172.0
 30
0.0
 11
50.128500000000003
 21
169.78899999999999
 31
0.0
  0
LINE
  5
195
  8
_________1
 62
     7
 10
50.128500000000003
 20
169.78899999999999
 30
0.0
 11
50.7211
 21
172.0
 31
0.0
  0
LINE
  5
196
  8
_________1
 62
     7
 10
50.7211
 20
172.0
 30
0.0
 11
49.536700000000003
 21
172.0
 31
0.0
  0
LINE
  5
197
  8
_________1
 62
     7
 10
50.706600000000002
 20
175.07900000000001
 30
0.0
 11
50.114100000000001
 21
177.28899999999999
 31
0.0
  0
LINE
  5
198
  8
_________1
 62
     7
 10
50.114100000000001
 20
177.28899999999999
 30
0.0
 11
49.521799999999999
 21
175.07900000000001
 31
0.0
  0
LINE
  5
199
  8
_________1
 62
     7
 10
49.521799999999999
 20
175.07900000000001
 30
0.0
 11
50.706600000000002
 21
175.07900000000001
 31
0.0
  0
LINE
  5
19A
  8
_________1
 62
     7
 10
50.121600000000001
 20
169.78899999999999
 30
0.0
 11
50.121600000000001
 21
177.28899999999999
 31
0.0
  0
ENDBLK
  5
19B
  8
_________1
  0
BLOCK
  8
_________1
  2
AIGNBL02010006
 70
     0
 10
0.0
 20
0.0
 30
0.0
  3
AIGNBL02010006
  1

  0
LINE
  5
19E
  8
_________1
 62
     7
 10
74.581599999999995
 20
171.99799999999999
 30
0.0
 11
76.792400000000001
 21
172.59100000000001
 31
0.0
  0
LINE
  5
19F
  8
_________1
 62
     7
 10
76.792400000000001
 20
172.59100000000001
 30
0.0
 11
74.581599999999995
 21
173.18199999999999
 31
0.0
  0
LINE
  5
1A0
  8
_________1
 62
     7
 10
74.581599999999995
 20
173.18199999999999
 30
0.0
 11
74.581599999999995
 21
171.99799999999999
 31
0.0
  0
LINE
  5
1A1
  8
_________1
 62
     7
 10
67.753100000000003
 20
173.16800000000001
 30
0.0
 11
65.542299999999997
 21
172.57599999999999
 31
0.0
  0
LINE
  5
1A2
  8
_________1
 62
     7
 10
65.542299999999997
 20
172.57599999999999
 30
0.0
 11
67.753100000000003
 21
171.98400000000001
 31
0.0
  0
LINE
  5
1A3
  8
_________1
 62
     7
 10
67.753100000000003
 20
171.98400000000001
 30
0.0
 11
67.753100000000003
 21
173.16800000000001
 31
0.0
  0
LINE
  5
1A4
  8
_________1
 62
     7
 10
81.263800000000003
 20
172.583
 30
0.0
 11
65.542299999999997
 21
172.583
 31
0.0
  0
ENDBLK
  5
1A5
  8
_________1
  0
BLOCK
  8
_________1
  2
AIGNBL02010007
 70
     0
 10
0.0
 20
0.0
 30
0.0
  3
AIGNBL02010007
  1

  0
LINE
  5
1A8
  8
_________1
 62
     7
 10
33.043500000000002
 20
186.453
 30
0.0
 11
35.287599999999998
 21
186.005
 31
0.0
  0
LINE
  5
1A9
  8
_________1
 62
     7
 10
35.287599999999998
 20
186.005
 30
0.0
 11
33.5685
 21
187.51499999999999
 31
0.0
  0
LINE
  5
1AA
  8
_________1
 62
     7
 10
33.5685
 20
187.51499999999999
 30
0.0
 11
33.043500000000002
 21
186.453
 31
0.0
  0
LINE
  5
1AB
  8
_________1
 62
     7
 10
-24.310300000000002
 20
230.376
 30
0.0
 11
-26.498799999999999
 21
229.70500000000001
 31
0.0
  0
LINE
  5
1AC
  8
_________1
 62
     7
 10
-26.498799999999999
 20
229.70500000000001
 30
0.0
 11
-24.267600000000002
 21
229.19200000000001
 31
0.0
  0
LINE
  5
1AD
  8
_________1
 62
     7
 10
-24.267600000000002
 20
229.19200000000001
 30
0.0
 11
-24.310300000000002
 21
230.376
 31
0.0
  0
LINE
  5
1AE
  8
_________1
 62
     7
 10
-28.687100000000001
 20
230.376
 30
0.0
 11
-26.4986
 21
229.70500000000001
 31
0.0
  0
LINE
  5
1AF
  8
_________1
 62
     7
 10
-26.4986
 20
229.70500000000001
 30
0.0
 11
-28.729900000000001
 21
229.19200000000001
 31
0.0
  0
LINE
  5
1B0
  8
_________1
 62
     7
 10
-28.729900000000001
 20
229.19200000000001
 30
0.0
 11
-28.687100000000001
 21
230.376
 31
0.0
  0
LINE
  5
1B1
  8
_________1
 62
     7
 10
-3.3865500000000002
 20
241.31200000000001
 30
0.0
 11
-1.5564999999999991
 21
242.68700000000001
 31
0.0
  0
LINE
  5
1B2
  8
_________1
 62
     7
 10
-1.5564999999999991
 20
242.68700000000001
 30
0.0
 11
-2.453959999999999
 21
240.58099999999999
 31
0.0
  0
LINE
  5
1B3
  8
_________1
 62
     7
 10
-2.453959999999999
 20
240.58099999999999
 30
0.0
 11
-3.3865500000000002
 21
241.31200000000001
 31
0.0
  0
LINE
  5
1B4
  8
_________1
  6
AIGENLINE002
 62
     7
 10
-25.3872
 20
251.745
 30
0.0
 11
-15.4474
 21
244.78399999999999
 31
0.0
  0
LINE
  5
1B5
  8
_________1
  6
AIGENLINE002
 62
     7
 10
-18.217600000000001
 20
261.98399999999998
 30
0.0
 11
-8.2775800000000004
 21
255.024
 31
0.0
  0
LINE
  5
1B6
  8
_________1
  6
AIGENLINE002
 62
     7
 10
-13.0105
 20
245.214
 30
0.0
 11
-7.8483199999999993
 21
252.58699999999999
 31
0.0
  0
ARC
  5
1B7
  8
_________1
  6
AIGENLINE002
 62
     7
 10
-14.443825
 20
246.21810300000001
 30
0.0
 40
1.7500679999999991
 50
235.009366
 51
324.98674099999999
  0
ARC
  5
1B8
  8
_________1
  6
AIGENLINE002
 62
     7
 10
-9.3750569999999982
 20
253.57395
 30
0.0
 40
1.818222
 50
327.10695800000002
 51
52.872033999999992
  0
LINE
  5
1B9
  8
_________1
 62
     7
 10
-0.9546419999999999
 20
242.26599999999999
 30
0.0
 11
-7.7904399999999994
 21
247.05199999999999
 31
0.0
  0
LINE
  5
1BA
  8
_________1
  6
AIGENLINE001
 62
     7
 10
-8.5091000000000001
 20
247.55600000000001
 30
0.0
 11
-26.498799999999999
 21
260.15199999999999
 31
0.0
  0
LINE
  5
1BB
  8
_________1
 62
     7
 10
-49.6111
 20
241.31200000000001
 30
0.0
 11
-51.441099999999999
 21
242.68700000000001
 31
0.0
  0
LINE
  5
1BC
  8
_________1
 62
     7
 10
-51.441099999999999
 20
242.68700000000001
 30
0.0
 11
-50.543700000000001
 21
240.58099999999999
 31
0.0
  0
LINE
  5
1BD
  8
_________1
 62
     7
 10
-50.543700000000001
 20
240.58099999999999
 30
0.0
 11
-49.6111
 21
241.31200000000001
 31
0.0
  0
LINE
  5
1BE
  8
_________1
 62
     7
 10
40.783599999999993
 20
186.28399999999999
 30
0.0
 11
38.667299999999997
 21
185.411
 31
0.0
  0
LINE
  5
1BF
  8
_________1
 62
     7
 10
38.667299999999997
 20
185.411
 30
0.0
 11
40.936599999999991
 21
185.10900000000001
 31
0.0
  0
LINE
  5
1C0
  8
_________1
 62
     7
 10
40.936599999999991
 20
185.10900000000001
 30
0.0
 11
40.783599999999993
 21
186.28399999999999
 31
0.0
  0
LINE
  5
1C1
  8
_________1
 62
     7
 10
40.87769999999999
 20
181.83199999999999
 30
0.0
 11
38.667299999999997
 21
181.24000000000001
 31
0.0
  0
LINE
  5
1C2
  8
_________1
 62
     7
 10
38.667299999999997
 20
181.24000000000001
 30
0.0
 11
40.87769999999999
 21
180.64699999999999
 31
0.0
  0
LINE
  5
1C3
  8
_________1
 62
     7
 10
40.87769999999999
 20
180.64699999999999
 30
0.0
 11
40.87769999999999
 21
181.83199999999999
 31
0.0
  0
LINE
  5
1C4
  8
_________1
 62
     7
 10
68.956800000000001
 20
180.66200000000001
 30
0.0
 11
71.167500000000004
 21
181.25399999999999
 31
0.0
  0
LINE
  5
1C5
  8
_________1
 62
     7
 10
71.167500000000004
 20
181.25399999999999
 30
0.0
 11
68.956800000000001
 21
181.84700000000001
 31
0.0
  0
LINE
  5
1C6
  8
_________1
 62
     7
 10
68.956800000000001
 20
181.84700000000001
 30
0.0
 11
68.956800000000001
 21
180.66200000000001
 31
0.0
  0
LINE
  5
1C7
  8
_________1
 62
     7
 10
38.667000000000002
 20
181.24700000000001
 30
0.0
 11
71.167500000000004
 21
181.24700000000001
 31
0.0
  0
ENDBLK
  5
1C8
  8
_________1
  0
BLOCK
  8
_________1
  2
AIGNBL02010008
 70
     0
 10
0.0
 20
0.0
 30
0.0
  3
AIGNBL02010008
  1

  0
LINE
  5
1CB
  8
_________1
 62
     7
 10
49.521799999999999
 20
179.5
 30
0.0
 11
50.114100000000001
 21
177.28899999999999
 31
0.0
  0
LINE
  5
1CC
  8
_________1
 62
     7
 10
50.114100000000001
 20
177.28899999999999
 30
0.0
 11
50.706299999999999
 21
179.5
 31
0.0
  0
LINE
  5
1CD
  8
_________1
 62
     7
 10
50.706299999999999
 20
179.5
 30
0.0
 11
49.521799999999999
 21
179.5
 31
0.0
  0
LINE
  5
1CE
  8
_________1
 62
     7
 10
50.691800000000001
 20
192.053
 30
0.0
 11
50.099600000000002
 21
194.26300000000001
 31
0.0
  0
LINE
  5
1CF
  8
_________1
 62
     7
 10
50.099600000000002
 20
194.26300000000001
 30
0.0
 11
49.50739999999999
 21
192.053
 31
0.0
  0
LINE
  5
1D0
  8
_________1
 62
     7
 10
49.50739999999999
 20
192.053
 30
0.0
 11
50.691800000000001
 21
192.053
 31
0.0
  0
LINE
  5
1D1
  8
_________1
 62
     7
 10
50.1068
 20
177.28899999999999
 30
0.0
 11
50.1068
 21
194.26300000000001
 31
0.0
  0
ENDBLK
  5
1D2
  8
_________1
  0
BLOCK
  8
_________1
  2
AIGNBL02010009
 70
     0
 10
0.0
 20
0.0
 30
0.0
  3
AIGNBL02010009
  1

  0
LINE
  5
1D5
  8
_________1
 62
     7
 10
25.499700000000001
 20
179.5
 30
0.0
 11
26.091899999999999
 21
177.28899999999999
 31
0.0
  0
LINE
  5
1D6
  8
_________1
 62
     7
 10
26.091899999999999
 20
177.28899999999999
 30
0.0
 11
26.684200000000001
 21
179.5
 31
0.0
  0
LINE
  5
1D7
  8
_________1
 62
     7
 10
26.684200000000001
 20
179.5
 30
0.0
 11
25.499700000000001
 21
179.5
 31
0.0
  0
LINE
  5
1D8
  8
_________1
 62
     7
 10
26.669699999999999
 20
193.07900000000001
 30
0.0
 11
26.077500000000001
 21
195.28999999999991
 31
0.0
  0
LINE
  5
1D9
  8
_________1
 62
     7
 10
26.077500000000001
 20
195.28999999999991
 30
0.0
 11
25.485299999999999
 21
193.07900000000001
 31
0.0
  0
LINE
  5
1DA
  8
_________1
 62
     7
 10
25.485299999999999
 20
193.07900000000001
 30
0.0
 11
26.669699999999999
 21
193.07900000000001
 31
0.0
  0
LINE
  5
1DB
  8
_________1
 62
     7
 10
26.084700000000002
 20
177.28899999999999
 30
0.0
 11
26.084700000000002
 21
195.28999999999991
 31
0.0
  0
ENDBLK
  5
1DC
  8
_________1
  0
BLOCK
  8
_________1
  2
AIGNBL0201000A
 70
     0
 10
0.0
 20
0.0
 30
0.0
  3
AIGNBL0201000A
  1

  0
LINE
  5
1DF
  8
_________1
 62
     7
 10
99.958699999999993
 20
179.5
 30
0.0
 11
100.551
 21
177.28899999999999
 31
0.0
  0
LINE
  5
1E0
  8
_________1
 62
     7
 10
100.551
 20
177.28899999999999
 30
0.0
 11
101.143
 21
179.5
 31
0.0
  0
LINE
  5
1E1
  8
_________1
 62
     7
 10
101.143
 20
179.5
 30
0.0
 11
99.958699999999993
 21
179.5
 31
0.0
  0
LINE
  5
1E2
  8
_________1
 62
     7
 10
101.129
 20
212.07900000000001
 30
0.0
 11
100.536
 21
214.28899999999999
 31
0.0
  0
LINE
  5
1E3
  8
_________1
 62
     7
 10
100.536
 20
214.28899999999999
 30
0.0
 11
99.944199999999995
 21
212.07900000000001
 31
0.0
  0
LINE
  5
1E4
  8
_________1
 62
     7
 10
99.944199999999995
 20
212.07900000000001
 30
0.0
 11
101.129
 21
212.07900000000001
 31
0.0
  0
LINE
  5
1E5
  8
_________1
 62
     7
 10
100.544
 20
177.28899999999999
 30
0.0
 11
100.544
 21
214.28899999999999
 31
0.0
  0
ENDBLK
  5
1E6
  8
_________1
  0
BLOCK
  8
_________1
  2
AIGNBL0201000B
 70
     0
 10
0.0
 20
0.0
 30
0.0
  3
AIGNBL0201000B
  1

  0
LINE
  5
1E9
  8
_________1
 62
     7
 10
91.152999999999992
 20
179.5
 30
0.0
 11
91.745199999999997
 21
177.28899999999999
 31
0.0
  0
LINE
  5
1EA
  8
_________1
 62
     7
 10
91.745199999999997
 20
177.28899999999999
 30
0.0
 11
92.337400000000002
 21
179.5
 31
0.0
  0
LINE
  5
1EB
  8
_________1
 62
     7
 10
92.337400000000002
 20
179.5
 30
0.0
 11
91.152999999999992
 21
179.5
 31
0.0
  0
LINE
  5
1EC
  8
_________1
 62
     7
 10
92.322900000000004
 20
206.82900000000001
 30
0.0
 11
91.730699999999999
 21
209.03899999999999
 31
0.0
  0
LINE
  5
1ED
  8
_________1
 62
     7
 10
91.730699999999999
 20
209.03899999999999
 30
0.0
 11
91.138499999999993
 21
206.82900000000001
 31
0.0
  0
LINE
  5
1EE
  8
_________1
 62
     7
 10
91.138499999999993
 20
206.82900000000001
 30
0.0
 11
92.322900000000004
 21
206.82900000000001
 31
0.0
  0
LINE
  5
1EF
  8
_________1
 62
     7
 10
91.737999999999985
 20
177.28899999999999
 30
0.0
 11
91.737999999999985
 21
209.03899999999999
 31
0.0
  0
ENDBLK
  5
1F0
  8
_________1
  0
BLOCK
  8
_________1
  2
AIGNBL0201000C
 70
     0
 10
0.0
 20
0.0
 30
0.0
  3
AIGNBL0201000C
  1

  0
LINE
  5
1F3
  8
_________1
 62
     7
 10
-22.459599999999998
 20
181.29599999999999
 30
0.0
 11
-20.248999999999999
 21
181.88800000000001
 31
0.0
  0
LINE
  5
1F4
  8
_________1
 62
     7
 10
-20.248999999999999
 20
181.88800000000001
 30
0.0
 11
-22.459599999999998
 21
182.47999999999999
 31
0.0
  0
LINE
  5
1F5
  8
_________1
 62
     7
 10
-22.459599999999998
 20
182.47999999999999
 30
0.0
 11
-22.459599999999998
 21
181.29599999999999
 31
0.0
  0
LINE
  5
1F6
  8
_________1
 62
     7
 10
-30.538599999999999
 20
182.465
 30
0.0
 11
-32.748899999999999
 21
181.87299999999999
 31
0.0
  0
LINE
  5
1F7
  8
_________1
 62
     7
 10
-32.748899999999999
 20
181.87299999999999
 30
0.0
 11
-30.538599999999999
 21
181.28099999999989
 31
0.0
  0
LINE
  5
1F8
  8
_________1
 62
     7
 10
-30.538599999999999
 20
181.28099999999989
 30
0.0
 11
-30.538599999999999
 21
182.465
 31
0.0
  0
LINE
  5
1F9
  8
_________1
 62
     7
 10
-20.248999999999999
 20
181.88
 30
0.0
 11
-37.038800000000002
 21
181.88
 31
0.0
  0
ENDBLK
  5
1FA
  8
_________1
  0
BLOCK
  8
_________1
  2
AIGNBL0201000D
 70
     0
 10
0.0
 20
0.0
 30
0.0
  3
AIGNBL0201000D
  1

  0
LINE
  5
1FD
  8
_________1
  6
AIGENLINE002
 62
     7
 10
56.281199999999998
 20
213.23099999999999
 30
0.0
 11
57.369100000000003
 21
214.26400000000001
 31
0.0
  0
LINE
  5
1FE
  8
_________1
  6
AIGENLINE002
 62
     7
 10
63.092199999999991
 20
205.87299999999999
 30
0.0
 11
56.276699999999998
 21
213.054
 31
0.0
  0
ARC
  5
1FF
  8
_________1
  6
AIGENLINE002
 62
     7
 10
56.373971999999988
 20
213.140455
 30
0.0
 40
0.129943
 50
135.58309299999999
 51
221.519295
  0
LINE
  5
200
  8
_________1
  6
AIGENLINE002
 62
     7
 10
64.286199999999994
 20
207.15700000000001
 30
0.0
 11
57.546199999999999
 21
214.25899999999999
 31
0.0
  0
ARC
  5
201
  8
_________1
  6
AIGENLINE002
 62
     7
 10
57.455154
 20
214.166134
 30
0.0
 40
0.130357
 50
45.695359000000003
 51
131.295613
  0
LINE
  5
202
  8
_________1
  6
AIGENLINE002
 62
     7
 10
78.238600000000005
 20
199.935
 30
0.0
 11
65.601200000000006
 21
206.18700000000001
 31
0.0
  0
LINE
  5
203
  8
_________1
  6
AIGENLINE002
 62
     7
 10
77.463499999999996
 20
198.08699999999999
 30
0.0
 11
78.295500000000004
 21
199.767
 31
0.0
  0
ARC
  5
204
  8
_________1
  6
AIGENLINE002
 62
     7
 10
78.177784000000003
 20
199.820615
 30
0.0
 40
0.129526
 50
342.49796400000002
 51
61.990051999999999
  0
LINE
  5
205
  8
_________1
  6
AIGENLINE002
 62
     7
 10
65.250200000000007
 20
204.40799999999999
 30
0.0
 11
64.727900000000005
 21
204.666
 31
0.0
  0
LINE
  5
206
  8
_________1
  6
AIGENLINE002
 62
     7
 10
65.355599999999995
 20
201.80199999999999
 30
0.0
 11
65.816599999999994
 21
202.733
 31
0.0
  0
ARC
  5
207
  8
_________1
  6
AIGENLINE002
 62
     7
 10
64.739743999999988
 20
203.26498000000001
 30
0.0
 40
1.2008570000000001
 50
333.72779800000001
 51
341.04238800000002
  0
ARC
  5
208
  8
_________1
  6
AIGENLINE002
 62
     7
 10
64.643457999999995
 20
203.26655
 30
0.0
 40
1.292773999999999
 50
342.36303800000002
 51
62.010128000000002
  0
ARC
  5
209
  8
_________1
  6
AIGENLINE002
 62
     7
 10
67.307085999999984
 20
209.873411
 30
0.0
 40
5.8110039999999996
 50
223.50320500000001
 51
243.642922
  0
ARC
  5
20A
  8
_________1
  6
AIGENLINE002
 62
     7
 10
67.676529000000002
 20
210.37651399999999
 30
0.0
 40
4.6756599999999988
 50
223.5232980000001
 51
243.65018800000001
  0
LINE
  5
20B
  8
_________1
  6
AIGENLINE002
 62
     7
 10
77.463499999999996
 20
198.08699999999999
 30
0.0
 11
71.405199999999994
 21
198.809
 31
0.0
  0
LINE
  5
20C
  8
_________1
  6
AIGENLINE002
 62
     7
 10
71.405199999999994
 20
198.809
 30
0.0
 11
65.355599999999995
 21
201.80199999999999
 31
0.0
  0
ENDBLK
  5
20D
  8
_________1
  0
BLOCK
  8
_________1
  2
AIGNBL0201000E
 70
     0
 10
0.0
 20
0.0
 30
0.0
  3
AIGNBL0201000E
  1

  0
INSERT
  5
210
  8
_________1
 62
     7
  2
AIGNBL0202000F
 10
0.0
 20
0.0
 30
0.0
  0
ENDBLK
  5
211
  8
_________1
  0
BLOCK
  8
_________1
  2
AIGNBL02010024
 70
     0
 10
0.0
 20
0.0
 30
0.0
  3
AIGNBL02010024
  1

  0
LINE
  5
214
  8
_________1
 62
     7
 10
75.441199999999995
 20
80.112799999999993
 30
0.0
 11
73.230099999999993
 21
79.520200000000003
 31
0.0
  0
LINE
  5
215
  8
_________1
 62
     7
 10
73.230099999999993
 20
79.520200000000003
 30
0.0
 11
75.441199999999995
 21
78.928299999999993
 31
0.0
  0
LINE
  5
216
  8
_________1
 62
     7
 10
75.441199999999995
 20
78.928299999999993
 30
0.0
 11
75.441199999999995
 21
80.112799999999993
 31
0.0
  0
LINE
  5
217
  8
_________1
 62
     7
 10
66.894499999999994
 20
78.942099999999996
 30
0.0
 11
69.104900000000001
 21
79.534700000000001
 31
0.0
  0
LINE
  5
218
  8
_________1
 62
     7
 10
69.104900000000001
 20
79.534700000000001
 30
0.0
 11
66.894499999999994
 21
80.127199999999988
 31
0.0
  0
LINE
  5
219
  8
_________1
 62
     7
 10
66.894499999999994
 20
80.127199999999988
 30
0.0
 11
66.894499999999994
 21
78.942099999999996
 31
0.0
  0
LINE
  5
21A
  8
_________1
 62
     7
 10
58.246299999999991
 20
79.527799999999999
 30
0.0
 11
76.945999999999998
 21
79.527799999999999
 31
0.0
  0
ENDBLK
  5
21B
  8
_________1
  0
BLOCK
  8
_________1
  2
AIGNBL02010025
 70
     0
 10
0.0
 20
0.0
 30
0.0
  3
AIGNBL02010025
  1

  0
LINE
  5
21E
  8
_________1
 62
     7
 10
69.612399999999994
 20
259.25900000000001
 30
0.0
 11
68.697400000000002
 21
257.673
 31
0.0
  0
LINE
  5
21F
  8
_________1
 62
     7
 10
68.697400000000002
 20
257.673
 30
0.0
 11
70.282799999999995
 21
258.589
 31
0.0
  0
LINE
  5
220
  8
_________1
 62
     7
 10
70.282799999999995
 20
258.589
 30
0.0
 11
69.612399999999994
 21
259.25900000000001
 31
0.0
  0
LINE
  5
221
  8
_________1
 62
     7
 10
72.727500000000006
 20
261.04199999999997
 30
0.0
 11
73.642499999999998
 21
262.62700000000001
 31
0.0
  0
LINE
  5
222
  8
_________1
 62
     7
 10
73.642499999999998
 20
262.62700000000001
 30
0.0
 11
72.057000000000002
 21
261.71199999999999
 31
0.0
  0
LINE
  5
223
  8
_________1
 62
     7
 10
72.057000000000002
 20
261.71199999999999
 30
0.0
 11
72.727500000000006
 21
261.04199999999997
 31
0.0
  0
LINE
  5
224
  8
_________1
 62
     7
 10
65.122699999999995
 20
254.107
 30
0.0
 11
73.642499999999998
 21
262.62700000000001
 31
0.0
  0
ENDBLK
  5
225
  8
_________1
  0
BLOCK
  8
_________2
  2
AIGNBL03010002
 70
     0
 10
0.0
 20
0.0
 30
0.0
  3
AIGNBL03010002
  1

  0
LINE
  5
228
  8
_________2
 62
     7
 10
186.649
 20
51.052199999999999
 30
0.0
 11
184.46299999999999
 21
51.052199999999999
 31
0.0
  0
LINE
  5
229
  8
_________2
 62
     7
 10
187.142
 20
51.052199999999999
 30
0.0
 11
186.88900000000001
 21
51.052199999999999
 31
0.0
  0
LINE
  5
22A
  8
_________2
 62
     7
 10
187.63399999999999
 20
51.052199999999999
 30
0.0
 11
190.559
 21
51.052199999999999
 31
0.0
  0
LINE
  5
22B
  8
_________2
 62
     7
 10
187.142
 20
51.052199999999999
 30
0.0
 11
187.39400000000001
 21
51.052199999999999
 31
0.0
  0
LINE
  5
22C
  8
_________2
 62
     7
 10
180.745
 20
51.052199999999999
 30
0.0
 11
178.55799999999999
 21
51.052199999999999
 31
0.0
  0
LINE
  5
22D
  8
_________2
 62
     7
 10
181.23699999999999
 20
51.052199999999999
 30
0.0
 11
180.98599999999999
 21
51.052199999999999
 31
0.0
  0
LINE
  5
22E
  8
_________2
 62
     7
 10
181.23699999999999
 20
51.544800000000002
 30
0.0
 11
181.23699999999999
 21
53.7318
 31
0.0
  0
LINE
  5
22F
  8
_________2
 62
     7
 10
181.23699999999999
 20
51.052199999999999
 30
0.0
 11
181.23699999999999
 21
51.304299999999998
 31
0.0
  0
LINE
  5
230
  8
_________2
 62
     7
 10
181.72999999999999
 20
51.052199999999999
 30
0.0
 11
183.917
 21
51.052199999999999
 31
0.0
  0
LINE
  5
231
  8
_________2
 62
     7
 10
181.23699999999999
 20
51.052199999999999
 30
0.0
 11
181.489
 21
51.052199999999999
 31
0.0
  0
LINE
  5
232
  8
_________2
 62
     7
 10
181.23699999999999
 20
50.560200000000002
 30
0.0
 11
181.23699999999999
 21
48.373199999999997
 31
0.0
  0
LINE
  5
233
  8
_________2
 62
     7
 10
181.23699999999999
 20
51.052199999999999
 30
0.0
 11
181.23699999999999
 21
50.800699999999999
 31
0.0
  0
LINE
  5
234
  8
_________2
 62
     7
 10
184.94799999999989
 20
49.832599999999999
 30
0.0
 11
190.12599999999989
 21
48.9679
 31
0.0
  0
LINE
  5
235
  8
_________2
 62
     7
 10
184.94799999999989
 20
52.271700000000003
 30
0.0
 11
190.12599999999989
 21
53.137099999999997
 31
0.0
  0
LINE
  5
236
  8
_________2
 62
     7
 10
190.12599999999989
 20
48.9679
 30
0.0
 11
190.12599999999989
 21
53.137099999999997
 31
0.0
  0
LINE
  5
237
  8
_________2
 62
     7
 10
184.94799999999989
 20
49.832599999999999
 30
0.0
 11
184.94799999999989
 21
52.271700000000003
 31
0.0
  0
ARC
  5
238
  8
_________2
 62
     7
 10
181.190651
 20
51.004810999999989
 30
0.0
 40
1.2677780000000001
 50
2.1403449999999991
 51
87.892005999999995
  0
ARC
  5
239
  8
_________2
 62
     7
 10
181.28420199999999
 20
51.005241999999988
 30
0.0
 40
1.2673579999999991
 50
92.121564999999975
 51
177.87840600000001
  0
ARC
  5
23A
  8
_________2
 62
     7
 10
181.28381400000001
 20
51.098689
 30
0.0
 40
1.2669559999999991
 50
182.10473099999999
 51
267.89529900000002
  0
ARC
  5
23B
  8
_________2
 62
     7
 10
181.19038399999999
 20
51.099775000000001
 30
0.0
 40
1.268054
 50
272.11960599999998
 51
357.84804300000002
  0
ARC
  5
23C
  8
_________2
 62
     7
 10
181.23728399999999
 20
51.05215900000001
 30
0.0
 40
2.0849849999999992
 50
0.00001
 51
89.999980000000008
  0
ARC
  5
23D
  8
_________2
 62
     7
 10
181.317331
 20
50.972827000000002
 30
0.0
 40
2.1657969999999991
 50
92.118111999999996
 51
177.90079600000001
  0
ARC
  5
23E
  8
_________2
 62
     7
 10
181.31728799999999
 20
51.132162999999998
 30
0.0
 40
2.1657779999999991
 50
182.11700400000001
 51
267.88302499999998
  0
ARC
  5
23F
  8
_________2
 62
     7
 10
181.15730300000001
 20
51.132855999999997
 30
0.0
 40
2.166469999999999
 50
272.115725
 51
357.86534699999999
  0
ENDBLK
  5
240
  8
_________2
  0
ENDSEC
  0
SECTION
  2
ENTITIES
  0
TEXT
  5
241
  8
____
 62
     7
 10
-12.569476
 20
81.458399999999983
 30
0.0
 40
3.0923400000000001
  1
水側
 41
0.5
 72
     2
 11
-9.2709799999999998
 21
81.458399999999983
 31
0.0
  0
TEXT
  5
242
  8
____
 62
     7
 10
-43.735199999999999
 20
81.458399999999983
 30
0.0
 40
3.0923400000000001
  1
湯側
 41
0.5
  0
TEXT
  5
243
  8
____
 62
     7
 10
58.755400000000002
 20
254.80699999999999
 30
0.0
 40
3.0923400000000001
  1
%%c35
 41
0.5
  0
TEXT
  5
244
  8
____
 62
     7
 10
-0.362771
 20
240.749
 30
0.0
 40
3.0923400000000001
  1
水
 41
0.5
  0
TEXT
  5
245
  8
____
 62
     7
 10
-54.471392000000002
 20
240.749
 30
0.0
 40
3.0923400000000001
  1
湯
 41
0.5
 72
     2
 11
-53.028300000000002
 21
240.749
 31
0.0
  0
TEXT
  5
246
  8
____
 62
     7
 10
50.281586000000011
 20
208.381
 30
0.0
 40
3.0923400000000001
  1
閉
 41
0.5
 72
     2
 11
51.621600000000001
 21
208.381
 31
0.0
  0
TEXT
  5
247
  8
____
 62
     7
 10
54.335485999999989
 20
213.75899999999999
 30
0.0
 40
3.0923400000000001
  1
開
 41
0.5
 72
     2
 11
55.6755
 21
213.75899999999999
 31
0.0
  0
TEXT
  5
248
  8
____
 62
     7
 10
-76.908600000000007
 20
21.115100000000002
 30
0.0
 40
3.6545800000000002
  1
・国産洗面器とのセットの場合は国産の排水ヘッド部を別途準備してください。
 41
0.5
  0
TEXT
  5
249
  8
____
 62
     7
 10
-10.9682175
 20
36.426600000000001
 30
0.0
 40
3.0923400000000001
  1
180
 41
0.5
 72
     1
 11
-9.2932000000000006
 21
36.426600000000001
 31
0.0
  0
TEXT
  5
24A
  8
____
 62
     7
 10
-10.830399999999999
 20
56.816850000000002
 30
0.0
 40
3.0923400000000001
  1
%%c5
 50
90.0
 41
0.5
 72
     2
 11
-10.830399999999999
 21
59.393799999999992
 31
0.0
  0
TEXT
  5
24B
  8
____
 62
     7
 10
-21.059282
 20
43.4099
 30
0.0
 40
3.0923400000000001
  1
G1 1/4
 41
0.5
 72
     2
 11
-13.946899999999999
 21
43.4099
 31
0.0
  0
TEXT
  5
24C
  8
____
 62
     7
 10
-37.956099999999999
 20
52.296172499999997
 30
0.0
 40
3.0923400000000001
  1
50
 50
90.0
 41
0.5
 72
     1
 11
-37.956099999999999
 21
53.455800000000004
 31
0.0
  0
TEXT
  5
24D
  8
____
 62
     7
 10
-38.296399999999998
 20
59.5364225
 30
0.0
 40
3.0923400000000001
  1
max.50
 50
90.0
 41
0.5
 72
     1
 11
-38.296399999999998
 21
63.27300000000001
 31
0.0
  0
TEXT
  5
24E
  8
____
 62
     7
 10
-28.309560000000001
 20
72.487300000000005
 30
0.0
 40
3.0923400000000001
  1
%%c63
 41
0.5
 72
     1
 11
-26.248000000000001
 21
72.487300000000005
 31
0.0
  0
TEXT
  5
24F
  8
____
 62
     7
 10
58.246299999999991
 20
80.227800000000002
 30
0.0
 40
3.0923400000000001
  1
PF 3/8
 41
0.5
  0
TEXT
  5
250
  8
____
 62
     7
 10
49.086399999999998
 20
169.22584499999999
 30
0.0
 40
3.0923400000000001
  1
max.40
 50
90.0
 41
0.5
 72
     2
 11
49.086399999999998
 21
176.69900000000001
 31
0.0
  0
TEXT
  5
251
  8
____
 62
     7
 10
78.488349999999997
 20
173.358
 30
0.0
 40
3.0923400000000001
  1
45
 41
0.5
 72
     2
 11
81.065299999999993
 21
173.358
 31
0.0
  0
TEXT
  5
252
  8
____
 62
     7
 10
78.079149999999998
 20
126.735
 30
0.0
 40
3.0923400000000001
  1
%%c5
 41
0.5
 72
     2
 11
80.656099999999995
 21
126.735
 31
0.0
  0
TEXT
  5
253
  8
____
 62
     7
 10
-14.476065
 20
234.52199999999999
 30
0.0
 40
3.0923400000000001
  1
55%%d
 41
0.5
 72
     1
 11
-12.6722
 21
234.52199999999999
 31
0.0
  0
TEXT
  5
254
  8
____
 62
     7
 10
-41.926065000000001
 20
234.52199999999999
 30
0.0
 40
3.0923400000000001
  1
55%%d
 41
0.5
 72
     1
 11
-40.122199999999999
 21
234.52199999999999
 31
0.0
  0
TEXT
  5
255
  8
____
 62
     7
 10
34.335765000000002
 20
181.739
 30
0.0
 40
3.0923400000000001
  1
20%%d
 41
0.5
 72
     2
 11
37.6858
 21
181.739
 31
0.0
  0
TEXT
  5
256
  8
____
 62
     7
 10
53.007282499999988
 20
182.12299999999999
 30
0.0
 40
3.0923400000000001
  1
130
 41
0.5
 72
     1
 11
54.682299999999998
 21
182.12299999999999
 31
0.0
  0
TEXT
  5
257
  8
____
 62
     7
 10
-36.860500000000002
 20
182.70099999999999
 30
0.0
 40
3.0923400000000001
  1
50
 41
0.5
  0
TEXT
  5
258
  8
____
 62
     7
 10
25.430800000000001
 20
130.85244
 30
0.0
 40
3.0923400000000001
  1
355
 50
90.0
 41
0.5
 72
     1
 11
25.430800000000001
 21
132.91399999999999
 31
0.0
  0
TEXT
  5
259
  8
____
 62
     7
 10
49.086399999999998
 20
185.361525
 30
0.0
 40
3.0923400000000001
  1
68
 50
90.0
 41
0.5
 72
     1
 11
49.086399999999998
 21
186.65000000000001
 31
0.0
  0
TEXT
  5
25A
  8
____
 62
     7
 10
25.430800000000001
 20
185.15752499999999
 30
0.0
 40
3.0923400000000001
  1
72
 50
90.0
 41
0.5
 72
     1
 11
25.430800000000001
 21
186.446
 31
0.0
  0
TEXT
  5
25B
  8
____
 62
     7
 10
99.902900000000017
 20
190.840135
 30
0.0
 40
3.0923400000000001
  1
148
 50
90.0
 41
0.5
 72
     1
 11
99.902900000000017
 21
192.64400000000001
 31
0.0
  0
TEXT
  5
25C
  8
____
 62
     7
 10
91.097200000000015
 20
190.840135
 30
0.0
 40
3.0923400000000001
  1
127
 50
90.0
 41
0.5
 72
     1
 11
91.097200000000015
 21
192.64400000000001
 31
0.0
  0
TEXT
  5
25D
  8
____
 62
     7
 10
91.097200000000015
 20
139.02613500000001
 30
0.0
 40
3.0923400000000001
  1
300
 50
90.0
 41
0.5
 72
     1
 11
91.097200000000015
 21
140.83000000000001
 31
0.0
  0
TEXT
  5
25E
  8
____
 62
     7
 10
64.879741999999993
 20
246.76599999999999
 30
0.0
 40
3.0923400000000001
  1
水栓金具取付穴
 41
0.5
 72
     1
 11
71.167500000000004
 21
246.76599999999999
 31
0.0
  0
LINE
  5
25F
  8
_________1
 62
     7
 10
-16.1523
 20
80.758399999999995
 30
0.0
 11
-9.2709799999999998
 21
80.758399999999995
 31
0.0
  0
LINE
  5
260
  8
_________1
 62
     7
 10
-22.018599999999999
 20
85.953599999999994
 30
0.0
 11
-22.933599999999998
 21
87.539100000000005
 31
0.0
  0
LINE
  5
261
  8
_________1
 62
     7
 10
-22.933599999999998
 20
87.539100000000005
 30
0.0
 11
-21.348199999999999
 21
86.623999999999995
 31
0.0
  0
LINE
  5
262
  8
_________1
 62
     7
 10
-21.348199999999999
 20
86.623999999999995
 30
0.0
 11
-22.018599999999999
 21
85.953599999999994
 31
0.0
  0
LINE
  5
263
  8
_________1
 62
     7
 10
-16.1523
 20
80.758399999999995
 30
0.0
 11
-22.933599999999998
 21
87.539100000000005
 31
0.0
  0
LINE
  5
264
  8
_________1
 62
     7
 10
-36.853999999999999
 20
80.758399999999995
 30
0.0
 11
-43.735199999999999
 21
80.758399999999995
 31
0.0
  0
LINE
  5
265
  8
_________1
 62
     7
 10
-30.9876
 20
85.953599999999994
 30
0.0
 11
-30.072600000000001
 21
87.539100000000005
 31
0.0
  0
LINE
  5
266
  8
_________1
 62
     7
 10
-30.072600000000001
 20
87.539100000000005
 30
0.0
 11
-31.658000000000001
 21
86.623999999999995
 31
0.0
  0
LINE
  5
267
  8
_________1
 62
     7
 10
-31.658000000000001
 20
86.623999999999995
 30
0.0
 11
-30.9876
 21
85.953599999999994
 31
0.0
  0
LINE
  5
268
  8
_________1
 62
     7
 10
-36.853999999999999
 20
80.758399999999995
 30
0.0
 11
-30.072600000000001
 21
87.539100000000005
 31
0.0
  0
ARC
  5
269
  8
_________1
 62
     7
 10
-26.794367999999999
 20
260.725458
 30
0.0
 40
31.02195
 50
270.54590000000002
 51
324.44410800000003
  0
ARC
  5
26A
  8
_________1
 62
     7
 10
-26.223904999999998
 20
260.68671000000001
 30
0.0
 40
30.983013
 50
215.48135400000001
 51
269.49163299999998
  0
LINE
  5
26B
  8
_________1
 62
     7
 10
65.122699999999995
 20
254.107
 30
0.0
 11
58.755400000000002
 21
254.107
 31
0.0
  0
LINE
  5
26C
  8
_________1
 62
     7
 10
75.085599999999999
 20
177.28899999999999
 30
0.0
 11
74.408699999999996
 21
175.87899999999999
 31
0.0
  0
LINE
  5
26D
  8
_________1
 62
     7
 10
74.292199999999994
 20
175.36699999999999
 30
0.0
 11
74.292199999999994
 21
169.78899999999999
 31
0.0
  0
ARC
  5
26E
  8
_________1
 62
     7
 10
75.483063000000001
 20
175.36532800000001
 30
0.0
 40
1.190833
 50
154.45063500000001
 51
179.904111
  0
LINE
  5
26F
  8
_________1
  6
AIGENLINE001
 62
     7
 10
79.622200000000007
 20
188.185
 30
0.0
 11
73.852299999999985
 21
176.16399999999999
 31
0.0
  0
ARC
  5
270
  8
_________1
  6
AIGENLINE001
 62
     7
 10
75.550792999999999
 20
175.34977799999999
 30
0.0
 40
1.8835059999999999
 50
154.392627
 51
179.948398
  0
LINE
  5
271
  8
_________1
 62
     7
 10
83.792500000000004
 20
187.91399999999999
 30
0.0
 11
80.343199999999996
 21
187.91399999999999
 31
0.0
  0
LINE
  5
272
  8
_________1
 62
     7
 10
80.117599999999996
 20
187.77199999999999
 30
0.0
 11
76.792400000000001
 21
180.845
 31
0.0
  0
ARC
  5
273
  8
_________1
 62
     7
 10
80.345729999999989
 20
187.65951000000001
 30
0.0
 40
0.254596
 50
90.561507999999989
 51
153.65343799999999
  0
LINE
  5
274
  8
_________1
  6
AIGENLINE001
 62
     7
 10
84.687899999999999
 20
188.53899999999999
 30
0.0
 11
80.1858
 21
188.53899999999999
 31
0.0
  0
ARC
  5
275
  8
_________1
  6
AIGENLINE001
 62
     7
 10
80.194406999999998
 20
187.90066300000001
 30
0.0
 40
0.6387770000000002
 50
90.772658999999976
 51
153.61506700000001
  0
LINE
  5
276
  8
_________1
 62
     7
 10
73.699299999999994
 20
177.28899999999999
 30
0.0
 11
73.288700000000006
 21
176.434
 31
0.0
  0
LINE
  5
277
  8
_________1
 62
     7
 10
73.042299999999997
 20
175.352
 30
0.0
 11
73.042299999999997
 21
169.78899999999999
 31
0.0
  0
ARC
  5
278
  8
_________1
 62
     7
 10
75.550151999999997
 20
175.34970100000001
 30
0.0
 40
2.5078099999999992
 50
154.392506
 51
179.95160799999999
  0
LINE
  5
279
  8
_________1
 62
     7
 10
83.792500000000004
 20
189.16399999999999
 30
0.0
 11
80.1858
 21
189.16399999999999
 31
0.0
  0
LINE
  5
27A
  8
_________1
 62
     7
 10
79.058899999999994
 20
188.45500000000001
 30
0.0
 11
76.792400000000001
 21
183.733
 31
0.0
  0
ARC
  5
27B
  8
_________1
 62
     7
 10
80.203004000000007
 20
187.88719599999999
 30
0.0
 40
1.277247
 50
90.772050000000007
 51
153.606382
  0
LINE
  5
27C
  8
_________1
 62
     7
 10
83.792500000000004
 20
187.91399999999999
 30
0.0
 11
83.792500000000004
 21
189.16399999999999
 31
0.0
  0
LINE
  5
27D
  8
_________1
 62
     7
 10
-22.995799999999999
 20
176.28999999999999
 30
0.0
 11
-24.245999999999999
 21
176.28999999999999
 31
0.0
  0
LINE
  5
27E
  8
_________1
 62
     7
 10
-25.495899999999999
 20
176.28999999999999
 30
0.0
 11
-24.245999999999999
 21
176.28999999999999
 31
0.0
  0
ARC
  5
27F
  8
_________1
 62
     7
 10
70.167451
 20
175.61721299999999
 30
0.0
 40
0.7188100000000001
 50
110.631292
 51
146.46524700000001
  0
ARC
  5
280
  8
_________1
 62
     7
 10
69.996627000000004
 20
175.75685899999999
 30
0.0
 40
0.4997580000000001
 50
148.99189899999999
 51
161.457785
  0
LINE
  5
281
  8
_________1
 62
     7
 10
69.522800000000004
 20
175.916
 30
0.0
 11
69.489400000000003
 21
175.81599999999989
 31
0.0
  0
LINE
  5
282
  8
_________1
 62
     7
 10
69.489400000000003
 20
175.81599999999989
 30
0.0
 11
69.489400000000003
 21
175.666
 31
0.0
  0
LINE
  5
283
  8
_________1
 62
     7
 10
69.489400000000003
 20
175.666
 30
0.0
 11
69.539000000000001
 21
175.49100000000001
 31
0.0
  0
LINE
  5
284
  8
_________1
 62
     7
 10
72.814599999999999
 20
175.49100000000001
 30
0.0
 11
72.7898
 21
175.49100000000001
 31
0.0
  0
ARC
  5
285
  8
_________1
 62
     7
 10
-34.373716000000002
 20
190.7719679999999
 30
0.0
 40
108.272147
 50
351.88630000000001
 51
351.97983900000003
  0
LINE
  5
286
  8
_________1
 62
     7
 10
72.839399999999998
 20
175.666
 30
0.0
 11
72.839399999999998
 21
175.81599999999989
 31
0.0
  0
LINE
  5
287
  8
_________1
 62
     7
 10
72.839399999999998
 20
175.81599999999989
 30
0.0
 11
72.807000000000002
 21
175.916
 31
0.0
  0
ARC
  5
288
  8
_________1
 62
     7
 10
71.746623
 20
175.56116
 30
0.0
 40
1.118144
 50
18.490876
 51
23.307995000000009
  0
ARC
  5
289
  8
_________1
 62
     7
 10
72.335786999999996
 20
175.81627800000001
 30
0.0
 40
0.476119
 50
23.165880999999999
 51
42.317667
  0
ARC
  5
28A
  8
_________1
 62
     7
 10
72.405135000000001
 20
175.86082099999999
 30
0.0
 40
0.395092
 50
44.312365999999997
 51
54.714800999999987
  0
ARC
  5
28B
  8
_________1
 62
     7
 10
72.212733
 20
175.583606
 30
0.0
 40
0.732526
 50
54.955430000000007
 51
62.393439000000001
  0
ARC
  5
28C
  8
_________1
 62
     7
 10
70.448559000000003
 20
172.21359699999999
 30
0.0
 40
4.5363749999999987
 50
62.372341000000013
 51
63.972895999999999
  0
LINE
  5
28D
  8
_________1
 62
     7
 10
72.439099999999996
 20
176.28999999999999
 30
0.0
 11
72.414299999999997
 21
176.28999999999999
 31
0.0
  0
LINE
  5
28E
  8
_________1
 62
     7
 10
72.614500000000007
 20
173.065
 30
0.0
 11
71.164400000000001
 21
173.065
 31
0.0
  0
LINE
  5
28F
  8
_________1
 62
     7
 10
71.164400000000001
 20
173.065
 30
0.0
 11
69.738799999999998
 21
173.065
 31
0.0
  0
LINE
  5
290
  8
_________1
 62
     7
 10
69.489400000000003
 20
172.51499999999999
 30
0.0
 11
69.489400000000003
 21
172.63999999999999
 31
0.0
  0
LINE
  5
291
  8
_________1
 62
     7
 10
69.489400000000003
 20
172.63999999999999
 30
0.0
 11
69.5642
 21
172.76599999999999
 31
0.0
  0
LINE
  5
292
  8
_________1
 62
     7
 10
72.864599999999996
 20
172.51499999999999
 30
0.0
 11
72.839399999999998
 21
172.63999999999999
 31
0.0
  0
LINE
  5
293
  8
_________1
 62
     7
 10
72.839399999999998
 20
172.63999999999999
 30
0.0
 11
72.7898
 21
172.76599999999999
 31
0.0
  0
LINE
  5
294
  8
_________1
 62
     7
 10
72.864599999999996
 20
171.815
 30
0.0
 11
69.489400000000003
 21
171.815
 31
0.0
  0
LINE
  5
295
  8
_________1
 62
     7
 10
72.864599999999996
 20
171.815
 30
0.0
 11
72.864599999999996
 21
172.51499999999999
 31
0.0
  0
LINE
  5
296
  8
_________1
 62
     7
 10
69.489400000000003
 20
171.815
 30
0.0
 11
69.489400000000003
 21
172.51499999999999
 31
0.0
  0
LINE
  5
297
  8
_________1
 62
     7
 10
72.7898
 20
172.76599999999999
 30
0.0
 11
72.614500000000007
 21
173.065
 31
0.0
  0
LINE
  5
298
  8
_________1
 62
     7
 10
69.5642
 20
172.76599999999999
 30
0.0
 11
69.738799999999998
 21
173.065
 31
0.0
  0
LINE
  5
299
  8
_________1
 62
     7
 10
69.738799999999998
 20
175.066
 30
0.0
 11
69.539000000000001
 21
175.49100000000001
 31
0.0
  0
LINE
  5
29A
  8
_________1
 62
     7
 10
72.614500000000007
 20
173.065
 30
0.0
 11
72.614500000000007
 21
175.066
 31
0.0
  0
LINE
  5
29B
  8
_________1
 62
     7
 10
69.738799999999998
 20
173.065
 30
0.0
 11
69.738799999999998
 21
175.066
 31
0.0
  0
LINE
  5
29C
  8
_________1
 62
     7
 10
69.738799999999998
 20
175.066
 30
0.0
 11
72.614500000000007
 21
175.066
 31
0.0
  0
LINE
  5
29D
  8
_________1
 62
     7
 10
72.614500000000007
 20
175.066
 30
0.0
 11
72.7898
 21
175.49100000000001
 31
0.0
  0
ARC
  5
29E
  8
_________1
 62
     7
 10
-29.748873
 20
175.61721299999999
 30
0.0
 40
0.7188100000000001
 50
110.631292
 51
146.46524700000001
  0
ARC
  5
29F
  8
_________1
 62
     7
 10
-29.919698
 20
175.75685899999999
 30
0.0
 40
0.4997580000000001
 50
148.99189899999999
 51
161.457785
  0
LINE
  5
2A0
  8
_________1
 62
     7
 10
-30.3935
 20
175.916
 30
0.0
 11
-30.4269
 21
175.81599999999989
 31
0.0
  0
LINE
  5
2A1
  8
_________1
 62
     7
 10
-30.4269
 20
175.81599999999989
 30
0.0
 11
-30.4269
 21
175.666
 31
0.0
  0
LINE
  5
2A2
  8
_________1
 62
     7
 10
-30.4269
 20
175.666
 30
0.0
 11
-30.377300000000002
 21
175.49100000000001
 31
0.0
  0
LINE
  5
2A3
  8
_________1
 62
     7
 10
-27.101700000000001
 20
175.49100000000001
 30
0.0
 11
-27.1265
 21
175.49100000000001
 31
0.0
  0
ARC
  5
2A4
  8
_________1
 62
     7
 10
-134.29004
 20
190.7719679999999
 30
0.0
 40
108.272147
 50
351.88630000000001
 51
351.97983900000003
  0
LINE
  5
2A5
  8
_________1
 62
     7
 10
-27.076899999999998
 20
175.666
 30
0.0
 11
-27.076899999999998
 21
175.81599999999989
 31
0.0
  0
LINE
  5
2A6
  8
_________1
 62
     7
 10
-27.076899999999998
 20
175.81599999999989
 30
0.0
 11
-27.109300000000001
 21
175.916
 31
0.0
  0
ARC
  5
2A7
  8
_________1
 62
     7
 10
-28.169702000000001
 20
175.56116
 30
0.0
 40
1.118144
 50
18.490876
 51
23.307995000000009
  0
ARC
  5
2A8
  8
_________1
 62
     7
 10
-27.580914
 20
175.816036
 30
0.0
 40
0.47656
 50
23.174828000000002
 51
42.308720000000001
  0
ARC
  5
2A9
  8
_________1
 62
     7
 10
-27.511189000000002
 20
175.86082099999999
 30
0.0
 40
0.395092
 50
44.312365999999997
 51
54.714800999999987
  0
ARC
  5
2AA
  8
_________1
 62
     7
 10
-27.703592
 20
175.583606
 30
0.0
 40
0.732526
 50
54.955430000000007
 51
62.393439000000001
  0
ARC
  5
2AB
  8
_________1
 62
     7
 10
-29.467766000000001
 20
172.21359699999999
 30
0.0
 40
4.5363749999999987
 50
62.372341000000013
 51
63.972895999999999
  0
LINE
  5
2AC
  8
_________1
 62
     7
 10
-27.4772
 20
176.28999999999999
 30
0.0
 11
-27.501999999999999
 21
176.28999999999999
 31
0.0
  0
LINE
  5
2AD
  8
_________1
 62
     7
 10
-27.3019
 20
173.065
 30
0.0
 11
-28.751899999999999
 21
173.065
 31
0.0
  0
LINE
  5
2AE
  8
_________1
 62
     7
 10
-28.751899999999999
 20
173.065
 30
0.0
 11
-30.177499999999998
 21
173.065
 31
0.0
  0
LINE
  5
2AF
  8
_________1
 62
     7
 10
-30.4269
 20
172.51499999999999
 30
0.0
 11
-30.4269
 21
172.63999999999999
 31
0.0
  0
LINE
  5
2B0
  8
_________1
 62
     7
 10
-30.4269
 20
172.63999999999999
 30
0.0
 11
-30.3522
 21
172.76599999999999
 31
0.0
  0
LINE
  5
2B1
  8
_________1
 62
     7
 10
-27.0517
 20
172.51499999999999
 30
0.0
 11
-27.076899999999998
 21
172.63999999999999
 31
0.0
  0
LINE
  5
2B2
  8
_________1
 62
     7
 10
-27.076899999999998
 20
172.63999999999999
 30
0.0
 11
-27.1265
 21
172.76599999999999
 31
0.0
  0
LINE
  5
2B3
  8
_________1
 62
     7
 10
-27.0517
 20
171.815
 30
0.0
 11
-30.4269
 21
171.815
 31
0.0
  0
LINE
  5
2B4
  8
_________1
 62
     7
 10
-27.0517
 20
171.815
 30
0.0
 11
-27.0517
 21
172.51499999999999
 31
0.0
  0
LINE
  5
2B5
  8
_________1
 62
     7
 10
-30.4269
 20
171.815
 30
0.0
 11
-30.4269
 21
172.51499999999999
 31
0.0
  0
LINE
  5
2B6
  8
_________1
 62
     7
 10
-27.1265
 20
172.76599999999999
 30
0.0
 11
-27.3019
 21
173.065
 31
0.0
  0
LINE
  5
2B7
  8
_________1
 62
     7
 10
-30.3522
 20
172.76599999999999
 30
0.0
 11
-30.177499999999998
 21
173.065
 31
0.0
  0
LINE
  5
2B8
  8
_________1
 62
     7
 10
-30.177499999999998
 20
175.066
 30
0.0
 11
-30.377300000000002
 21
175.49100000000001
 31
0.0
  0
LINE
  5
2B9
  8
_________1
 62
     7
 10
-27.3019
 20
173.065
 30
0.0
 11
-27.3019
 21
175.066
 31
0.0
  0
LINE
  5
2BA
  8
_________1
 62
     7
 10
-30.177499999999998
 20
173.065
 30
0.0
 11
-30.177499999999998
 21
175.066
 31
0.0
  0
LINE
  5
2BB
  8
_________1
 62
     7
 10
-27.124099999999999
 20
177.28899999999999
 30
0.0
 11
-27.124099999999999
 21
175.95500000000001
 31
0.0
  0
LINE
  5
2BC
  8
_________1
 62
     7
 10
-27.124099999999999
 20
175.49100000000001
 30
0.0
 11
-27.124099999999999
 21
172.76599999999999
 31
0.0
  0
LINE
  5
2BD
  8
_________1
 62
     7
 10
-27.124099999999999
 20
171.815
 30
0.0
 11
-27.124099999999999
 21
169.78899999999999
 31
0.0
  0
LINE
  5
2BE
  8
_________1
 62
     7
 10
-31.502500000000001
 20
90.414299999999997
 30
0.0
 11
-31.502500000000001
 21
87.788499999999999
 31
0.0
  0
LINE
  5
2BF
  8
_________1
 62
     7
 10
-30.126899999999999
 20
90.414299999999997
 30
0.0
 11
-30.126899999999999
 21
87.788499999999999
 31
0.0
  0
ARC
  5
2C0
  8
_________1
 62
     7
 10
-28.135376000000001
 20
95.610302000000004
 30
0.0
 40
8.5157759999999971
 50
246.709216
 51
248.356031
  0
ARC
  5
2C1
  8
_________1
 62
     7
 10
-30.588592999999999
 20
89.462206999999992
 30
0.0
 40
1.896361999999999
 50
248.73662899999999
 51
258.21285899999998
  0
ARC
  5
2C2
  8
_________1
 62
     7
 10
-30.794609000000001
 20
88.553243999999978
 30
0.0
 40
0.9646139999999999
 50
259.16278199999999
 51
269.53432299999997
  0
ARC
  5
2C3
  8
_________1
 62
     7
 10
-30.802592000000001
 20
88.494682999999995
 30
0.0
 40
0.9060219999999999
 50
270.00904800000001
 51
282.46904999999998
  0
ARC
  5
2C4
  8
_________1
 62
     7
 10
-30.925498999999999
 20
89.11982900000001
 30
0.0
 40
1.543032
 50
281.91324900000001
 51
292.81865800000003
  0
ARC
  5
2C5
  8
_________1
 62
     7
 10
-31.385870000000001
 20
90.295196999999987
 30
0.0
 40
2.805127999999999
 50
292.17554799999999
 51
296.66826700000001
  0
ARC
  5
2C6
  8
_________1
 62
     7
 10
-30.881768000000001
 20
89.299088999999995
 30
0.0
 40
1.346730999999999
 50
55.906326
 51
82.633775
  0
ARC
  5
2C7
  8
_________1
 62
     7
 10
-30.803343999999999
 20
89.740568999999994
 30
0.0
 40
0.8990889999999998
 50
83.983249000000001
 51
89.942948000000001
  0
ARC
  5
2C8
  8
_________1
 62
     7
 10
-30.801655
 20
89.72058100000001
 30
0.0
 40
0.919076
 50
90.049487999999997
 51
102.187471
  0
ARC
  5
2C9
  8
_________1
 62
     7
 10
-30.71025800000001
 20
89.250129999999984
 30
0.0
 40
1.398255
 50
101.77851699999999
 51
113.39099899999999
  0
ARC
  5
2CA
  8
_________1
 62
     7
 10
-30.48161
 20
88.677784000000003
 30
0.0
 40
2.0144129999999998
 50
112.89702699999999
 51
120.450315
  0
LINE
  5
2CB
  8
_________1
 62
     7
 10
-27.2516
 20
171.815
 30
0.0
 11
-27.2516
 21
169.78899999999999
 31
0.0
  0
LINE
  5
2CC
  8
_________1
 62
     7
 10
-30.252300000000002
 20
171.815
 30
0.0
 11
-30.252300000000002
 21
169.78899999999999
 31
0.0
  0
LINE
  5
2CD
  8
_________1
 62
     7
 10
-27.2516
 20
161.28899999999999
 30
0.0
 11
-27.2516
 21
95.290599999999984
 31
0.0
  0
LINE
  5
2CE
  8
_________1
 62
     7
 10
-30.252300000000002
 20
167.91399999999999
 30
0.0
 11
-30.252300000000002
 21
95.290599999999984
 31
0.0
  0
LINE
  5
2CF
  8
_________1
 62
     7
 10
-27.3766
 20
90.414299999999997
 30
0.0
 11
-27.3766
 21
87.788499999999999
 31
0.0
  0
ARC
  5
2D0
  8
_________1
 62
     7
 10
-24.087636
 20
95.426203999999998
 30
0.0
 40
8.3157859999999992
 50
246.70213899999999
 51
248.34815
  0
ARC
  5
2D1
  8
_________1
 62
     7
 10
-26.420017999999999
 20
89.574366999999995
 30
0.0
 40
2.0162869999999988
 50
248.59500800000001
 51
257.763261
  0
ARC
  5
2D2
  8
_________1
 62
     7
 10
-26.691261000000001
 20
88.392859999999985
 30
0.0
 40
0.804267
 50
258.80755299999998
 51
269.25448999999998
  0
LINE
  5
2D3
  8
_________1
 62
     7
 10
-26.701699999999999
 20
87.588699999999989
 30
0.0
 11
-26.641100000000002
 21
87.591399999999993
 31
0.0
  0
ARC
  5
2D4
  8
_________1
 62
     7
 10
-26.695436999999998
 20
89.882429000000016
 30
0.0
 40
0.757255
 50
85.087018999999998
 51
90.475797999999983
  0
ARC
  5
2D5
  8
_________1
 62
     7
 10
-26.701000000000001
 20
89.871480000000005
 30
0.0
 40
0.7681770000000001
 50
90.054118000000003
 51
103.848376
  0
ARC
  5
2D6
  8
_________1
 62
     7
 10
-26.558536
 20
89.197436999999994
 30
0.0
 40
1.456909
 50
102.94337899999999
 51
114.17415800000001
  0
ARC
  5
2D7
  8
_________1
 62
     7
 10
-26.314039000000001
 20
88.592235000000002
 30
0.0
 40
2.1093079999999991
 50
113.500985
 51
120.249076
  0
ARC
  5
2D8
  8
_________1
 62
     7
 10
-31.444451000000001
 20
81.195098000000016
 30
0.0
 40
6.7237410000000004
 50
76.798084000000003
 51
78.699136999999993
  0
ARC
  5
2D9
  8
_________1
 62
     7
 10
-28.425639
 20
93.374662999999998
 30
0.0
 40
5.8255069999999991
 50
255.24964399999999
 51
261.38730199999998
  0
ARC
  5
2DA
  8
_________1
 62
     7
 10
-28.951747999999998
 20
89.879514999999984
 30
0.0
 40
2.290988
 50
261.30629199999998
 51
269.380044
  0
LINE
  5
2DB
  8
_________1
 62
     7
 10
-28.976500000000001
 20
87.588699999999989
 30
0.0
 11
-28.5273
 21
87.588699999999989
 31
0.0
  0
ARC
  5
2DC
  8
_________1
 62
     7
 10
-28.527619999999999
 20
89.549564999999987
 30
0.0
 40
1.960904
 50
270.00955199999999
 51
278.46026000000001
  0
ARC
  5
2DD
  8
_________1
 62
     7
 10
-28.742025000000002
 20
91.207235999999995
 30
0.0
 40
3.6322190000000001
 50
277.95846499999999
 51
281.4444299999999
  0
ARC
  5
2DE
  8
_________1
 62
     7
 10
-30.155629999999999
 20
98.074518000000026
 30
0.0
 40
10.643471999999999
 50
281.56777
 51
283.46171600000002
  0
ARC
  5
2DF
  8
_________1
 62
     7
 10
-26.264666999999999
 20
81.905242999999984
 30
0.0
 40
5.9873959999999986
 50
100.702889
 51
103.652396
  0
ARC
  5
2E0
  8
_________1
 62
     7
 10
-28.632117000000001
 20
86.705099000000004
 30
0.0
 40
3.9159649999999999
 50
71.300250000000005
 51
77.148271999999992
  0
ARC
  5
2E1
  8
_________1
 62
     7
 10
-28.857683999999999
 20
85.893163999999985
 30
0.0
 40
4.7578949999999987
 50
76.67477199999999
 51
85.667164
  0
ARC
  5
2E2
  8
_________1
 62
     7
 10
-28.644815000000001
 20
88.357904000000005
 30
0.0
 40
2.2842660000000001
 50
86.320594999999997
 51
92.687359000000015
  0
ARC
  5
2E3
  8
_________1
 62
     7
 10
-28.835284999999999
 20
89.221818999999996
 30
0.0
 40
1.420288
 50
86.634839999999997
 51
91.033788999999985
  0
ARC
  5
2E4
  8
_________1
 62
     7
 10
-28.820785000000001
 20
88.055412999999987
 30
0.0
 40
2.5867729999999991
 50
90.888774999999995
 51
94.809208000000012
  0
ARC
  5
2E5
  8
_________1
 62
     7
 10
-28.624714000000001
 20
85.755500999999995
 30
0.0
 40
4.8950269999999989
 50
94.839179999999999
 51
107.870824
  0
LINE
  5
2E6
  8
_________1
 62
     7
 10
-30.002099999999999
 20
90.815399999999997
 30
0.0
 11
-28.751899999999999
 21
90.815399999999997
 31
0.0
  0
LINE
  5
2E7
  8
_________1
 62
     7
 10
-27.501999999999999
 20
90.815399999999997
 30
0.0
 11
-28.751899999999999
 21
90.815399999999997
 31
0.0
  0
LINE
  5
2E8
  8
_________1
 62
     7
 10
-26.4513
 20
87.539100000000005
 30
0.0
 11
-28.751899999999999
 21
87.539100000000005
 31
0.0
  0
LINE
  5
2E9
  8
_________1
 62
     7
 10
-28.751899999999999
 20
87.539100000000005
 30
0.0
 11
-31.052600000000002
 21
87.539100000000005
 31
0.0
  0
LINE
  5
2EA
  8
_________1
 62
     7
 10
-31.352599999999999
 20
87.738899999999987
 30
0.0
 11
-31.052600000000002
 21
87.563900000000004
 31
0.0
  0
LINE
  5
2EB
  8
_________1
 62
     7
 10
-31.052600000000002
 20
87.563900000000004
 30
0.0
 11
-31.052600000000002
 21
87.539100000000005
 31
0.0
  0
LINE
  5
2EC
  8
_________1
 62
     7
 10
-31.502500000000001
 20
87.788499999999999
 30
0.0
 11
-31.052600000000002
 21
87.563900000000004
 31
0.0
  0
LINE
  5
2ED
  8
_________1
 62
     7
 10
-26.4513
 20
90.664500000000004
 30
0.0
 11
-31.052600000000002
 21
90.664500000000004
 31
0.0
  0
LINE
  5
2EE
  8
_________1
 62
     7
 10
-27.201599999999999
 20
90.789199999999994
 30
0.0
 11
-30.302199999999999
 21
90.789199999999994
 31
0.0
  0
ARC
  5
2EF
  8
_________1
 62
     7
 10
-29.748873
 20
91.488067999999998
 30
0.0
 40
0.7188100000000001
 50
213.53475299999999
 51
249.368708
  0
ARC
  5
2F0
  8
_________1
 62
     7
 10
-29.919698
 20
91.348422999999997
 30
0.0
 40
0.4997580000000001
 50
198.542215
 51
211.00810100000001
  0
LINE
  5
2F1
  8
_________1
 62
     7
 10
-30.3935
 20
91.189499999999995
 30
0.0
 11
-30.4269
 21
91.289400000000001
 31
0.0
  0
LINE
  5
2F2
  8
_________1
 62
     7
 10
-30.4269
 20
91.289400000000001
 30
0.0
 11
-30.4269
 21
91.439599999999984
 31
0.0
  0
LINE
  5
2F3
  8
_________1
 62
     7
 10
-30.4269
 20
91.439599999999984
 30
0.0
 11
-30.377300000000002
 21
91.614599999999996
 31
0.0
  0
LINE
  5
2F4
  8
_________1
 62
     7
 10
-27.101700000000001
 20
91.614599999999996
 30
0.0
 11
-27.1265
 21
91.614599999999996
 31
0.0
  0
ARC
  5
2F5
  8
_________1
 62
     7
 10
-134.29004
 20
76.333314000000001
 30
0.0
 40
108.272147
 50
8.0201609999999999
 51
8.1136999999999997
  0
LINE
  5
2F6
  8
_________1
 62
     7
 10
-27.076899999999998
 20
91.439599999999984
 30
0.0
 11
-27.076899999999998
 21
91.289400000000001
 31
0.0
  0
LINE
  5
2F7
  8
_________1
 62
     7
 10
-27.076899999999998
 20
91.289400000000001
 30
0.0
 11
-27.109300000000001
 21
91.189499999999995
 31
0.0
  0
ARC
  5
2F8
  8
_________1
 62
     7
 10
-28.169702000000001
 20
91.544121000000004
 30
0.0
 40
1.118144
 50
336.69200499999999
 51
341.5091240000001
  0
ARC
  5
2F9
  8
_________1
 62
     7
 10
-27.580914
 20
91.289245999999991
 30
0.0
 40
0.47656
 50
317.69128000000001
 51
336.82517200000001
  0
ARC
  5
2FA
  8
_________1
 62
     7
 10
-27.511189000000002
 20
91.244461000000001
 30
0.0
 40
0.395092
 50
305.28519900000009
 51
315.687634
  0
ARC
  5
2FB
  8
_________1
 62
     7
 10
-27.703592
 20
91.521675000000002
 30
0.0
 40
0.732526
 50
297.606561
 51
305.04457000000002
  0
ARC
  5
2FC
  8
_________1
 62
     7
 10
-29.467766000000001
 20
94.891683999999998
 30
0.0
 40
4.5363749999999987
 50
296.02710400000001
 51
297.62765899999999
  0
LINE
  5
2FD
  8
_________1
 62
     7
 10
-27.4772
 20
90.815399999999997
 30
0.0
 11
-27.501999999999999
 21
90.815399999999997
 31
0.0
  0
LINE
  5
2FE
  8
_________1
 62
     7
 10
-27.3019
 20
92.039799999999985
 30
0.0
 11
-30.177499999999998
 21
92.039799999999985
 31
0.0
  0
LINE
  5
2FF
  8
_________1
 62
     7
 10
-27.3019
 20
94.040000000000006
 30
0.0
 11
-28.751899999999999
 21
94.040000000000006
 31
0.0
  0
LINE
  5
300
  8
_________1
 62
     7
 10
-28.751899999999999
 20
94.040000000000006
 30
0.0
 11
-30.177499999999998
 21
94.040000000000006
 31
0.0
  0
LINE
  5
301
  8
_________1
 62
     7
 10
-30.4269
 20
94.589799999999997
 30
0.0
 11
-30.4269
 21
94.465100000000007
 31
0.0
  0
LINE
  5
302
  8
_________1
 62
     7
 10
-30.4269
 20
94.465100000000007
 30
0.0
 11
-30.3522
 21
94.339699999999993
 31
0.0
  0
LINE
  5
303
  8
_________1
 62
     7
 10
-27.0517
 20
94.589799999999997
 30
0.0
 11
-27.076899999999998
 21
94.465100000000007
 31
0.0
  0
LINE
  5
304
  8
_________1
 62
     7
 10
-27.076899999999998
 20
94.465100000000007
 30
0.0
 11
-27.1265
 21
94.339699999999993
 31
0.0
  0
LINE
  5
305
  8
_________1
 62
     7
 10
-27.0517
 20
95.290599999999984
 30
0.0
 11
-30.4269
 21
95.290599999999984
 31
0.0
  0
LINE
  5
306
  8
_________1
 62
     7
 10
-27.0517
 20
95.290599999999984
 30
0.0
 11
-27.0517
 21
94.589799999999997
 31
0.0
  0
LINE
  5
307
  8
_________1
 62
     7
 10
-30.4269
 20
95.290599999999984
 30
0.0
 11
-30.4269
 21
94.589799999999997
 31
0.0
  0
LINE
  5
308
  8
_________1
 62
     7
 10
-31.052600000000002
 20
90.664500000000004
 30
0.0
 11
-31.502500000000001
 21
90.414299999999997
 31
0.0
  0
LINE
  5
309
  8
_________1
 62
     7
 10
-27.1265
 20
94.339699999999993
 30
0.0
 11
-27.3019
 21
94.040000000000006
 31
0.0
  0
LINE
  5
30A
  8
_________1
 62
     7
 10
-27.3019
 20
92.039799999999985
 30
0.0
 11
-27.1265
 21
91.614599999999996
 31
0.0
  0
LINE
  5
30B
  8
_________1
 62
     7
 10
-30.3522
 20
94.339699999999993
 30
0.0
 11
-30.177499999999998
 21
94.040000000000006
 31
0.0
  0
LINE
  5
30C
  8
_________1
 62
     7
 10
-30.177499999999998
 20
92.039799999999985
 30
0.0
 11
-30.377300000000002
 21
91.614599999999996
 31
0.0
  0
LINE
  5
30D
  8
_________1
 62
     7
 10
-27.3019
 20
94.040000000000006
 30
0.0
 11
-27.3019
 21
92.039799999999985
 31
0.0
  0
LINE
  5
30E
  8
_________1
 62
     7
 10
-30.177499999999998
 20
94.040000000000006
 30
0.0
 11
-30.177499999999998
 21
92.039799999999985
 31
0.0
  0
LINE
  5
30F
  8
_________1
 62
     7
 10
-27.201599999999999
 20
90.789199999999994
 30
0.0
 11
-27.201599999999999
 21
90.664500000000004
 31
0.0
  0
LINE
  5
310
  8
_________1
 62
     7
 10
-30.302199999999999
 20
90.789199999999994
 30
0.0
 11
-30.302199999999999
 21
90.664500000000004
 31
0.0
  0
LINE
  5
311
  8
_________1
 62
     7
 10
-31.502500000000001
 20
87.788499999999999
 30
0.0
 11
-31.052600000000002
 21
87.539100000000005
 31
0.0
  0
ARC
  5
312
  8
_________1
 62
     7
 10
-23.249088
 20
175.61721299999999
 30
0.0
 40
0.7188100000000001
 50
33.534733000000003
 51
69.368688000000006
  0
ARC
  5
313
  8
_________1
 62
     7
 10
-23.079037
 20
175.75650200000001
 30
0.0
 40
0.500605
 50
18.552779999999998
 51
30.997496000000002
  0
LINE
  5
314
  8
_________1
 62
     7
 10
-22.604399999999998
 20
175.916
 30
0.0
 11
-22.571000000000002
 21
175.81599999999989
 31
0.0
  0
LINE
  5
315
  8
_________1
 62
     7
 10
-22.571000000000002
 20
175.81599999999989
 30
0.0
 11
-22.571000000000002
 21
175.666
 31
0.0
  0
LINE
  5
316
  8
_________1
 62
     7
 10
-22.571000000000002
 20
175.666
 30
0.0
 11
-22.6206
 21
175.49100000000001
 31
0.0
  0
LINE
  5
317
  8
_________1
 62
     7
 10
-25.8963
 20
175.49100000000001
 30
0.0
 11
-25.871500000000001
 21
175.49100000000001
 31
0.0
  0
ARC
  5
318
  8
_________1
 62
     7
 10
3.9411389999999988
 20
179.808842
 30
0.0
 40
30.148250000000001
 50
187.89898600000001
 51
188.234915
  0
LINE
  5
319
  8
_________1
 62
     7
 10
-25.921099999999999
 20
175.666
 30
0.0
 11
-25.921099999999999
 21
175.81599999999989
 31
0.0
  0
LINE
  5
31A
  8
_________1
 62
     7
 10
-25.921099999999999
 20
175.81599999999989
 30
0.0
 11
-25.8887
 21
175.916
 31
0.0
  0
ARC
  5
31B
  8
_________1
 62
     7
 10
-24.826846
 20
175.56068300000001
 30
0.0
 40
1.1196360000000001
 50
156.69831300000001
 51
161.50890899999999
  0
ARC
  5
31C
  8
_________1
 62
     7
 10
-25.417138999999999
 20
175.81607700000001
 30
0.0
 40
0.4764640000000001
 50
137.68750800000001
 51
156.82562899999999
  0
ARC
  5
31D
  8
_________1
 62
     7
 10
-25.486771999999998
 20
175.86082099999999
 30
0.0
 40
0.395092
 50
125.285179
 51
135.687614
  0
ARC
  5
31E
  8
_________1
 62
     7
 10
-25.295078
 20
175.58477099999999
 30
0.0
 40
0.731165
 50
117.59961199999999
 51
125.051479
  0
ARC
  5
31F
  8
_________1
 62
     7
 10
-23.542043
 20
172.23702299999999
 30
0.0
 40
4.5101269999999989
 50
116.022426
 51
117.63229699999989
  0
LINE
  5
320
  8
_________1
 62
     7
 10
-25.520700000000001
 20
176.28999999999999
 30
0.0
 11
-25.495899999999999
 21
176.28999999999999
 31
0.0
  0
LINE
  5
321
  8
_________1
 62
     7
 10
-30.177499999999998
 20
175.066
 30
0.0
 11
-27.3019
 21
175.066
 31
0.0
  0
LINE
  5
322
  8
_________1
 62
     7
 10
-25.696100000000001
 20
175.066
 30
0.0
 11
-22.820499999999999
 21
175.066
 31
0.0
  0
LINE
  5
323
  8
_________1
 62
     7
 10
-25.696100000000001
 20
173.065
 30
0.0
 11
-24.245999999999999
 21
173.065
 31
0.0
  0
LINE
  5
324
  8
_________1
 62
     7
 10
-24.245999999999999
 20
173.065
 30
0.0
 11
-22.820499999999999
 21
173.065
 31
0.0
  0
LINE
  5
325
  8
_________1
 62
     7
 10
-22.571000000000002
 20
172.51499999999999
 30
0.0
 11
-22.571000000000002
 21
172.63999999999999
 31
0.0
  0
LINE
  5
326
  8
_________1
 62
     7
 10
-22.571000000000002
 20
172.63999999999999
 30
0.0
 11
-22.645800000000001
 21
172.76599999999999
 31
0.0
  0
LINE
  5
327
  8
_________1
 62
     7
 10
-25.946200000000001
 20
172.51499999999999
 30
0.0
 11
-25.921099999999999
 21
172.63999999999999
 31
0.0
  0
LINE
  5
328
  8
_________1
 62
     7
 10
-25.921099999999999
 20
172.63999999999999
 30
0.0
 11
-25.871500000000001
 21
172.76599999999999
 31
0.0
  0
LINE
  5
329
  8
_________1
 62
     7
 10
-25.946200000000001
 20
171.815
 30
0.0
 11
-22.571000000000002
 21
171.815
 31
0.0
  0
LINE
  5
32A
  8
_________1
 62
     7
 10
-25.946200000000001
 20
171.815
 30
0.0
 11
-25.946200000000001
 21
172.51499999999999
 31
0.0
  0
LINE
  5
32B
  8
_________1
 62
     7
 10
-22.571000000000002
 20
171.815
 30
0.0
 11
-22.571000000000002
 21
172.51499999999999
 31
0.0
  0
LINE
  5
32C
  8
_________1
 62
     7
 10
-25.871500000000001
 20
172.76599999999999
 30
0.0
 11
-25.696100000000001
 21
173.065
 31
0.0
  0
LINE
  5
32D
  8
_________1
 62
     7
 10
-27.3019
 20
175.066
 30
0.0
 11
-27.1265
 21
175.49100000000001
 31
0.0
  0
LINE
  5
32E
  8
_________1
 62
     7
 10
-25.696100000000001
 20
175.066
 30
0.0
 11
-25.871500000000001
 21
175.49100000000001
 31
0.0
  0
LINE
  5
32F
  8
_________1
 62
     7
 10
-22.645800000000001
 20
172.76599999999999
 30
0.0
 11
-22.820499999999999
 21
173.065
 31
0.0
  0
LINE
  5
330
  8
_________1
 62
     7
 10
-22.820499999999999
 20
175.066
 30
0.0
 11
-22.6206
 21
175.49100000000001
 31
0.0
  0
LINE
  5
331
  8
_________1
 62
     7
 10
-25.696100000000001
 20
173.065
 30
0.0
 11
-25.696100000000001
 21
175.066
 31
0.0
  0
LINE
  5
332
  8
_________1
 62
     7
 10
-22.820499999999999
 20
173.065
 30
0.0
 11
-22.820499999999999
 21
175.066
 31
0.0
  0
INSERT
  5
333
  8
_________1
 62
     7
  2
AIGNBL02010002
 10
0.0
 20
0.0
 30
0.0
  0
INSERT
  5
334
  8
_________1
 62
     7
  2
AIGNBL02010003
 10
0.0
 20
0.0
 30
0.0
  0
LINE
  5
335
  8
_________1
 62
     7
 10
67.341399999999993
 20
88.538799999999995
 30
0.0
 11
25.384
 21
88.538799999999995
 31
0.0
  0
INSERT
  5
336
  8
_________1
 62
     7
  2
AIGNBL02010004
 10
0.0
 20
0.0
 30
0.0
  0
LINE
  5
337
  8
_________1
 62
     7
 10
92.437299999999993
 20
102.289
 30
0.0
 11
75.106000000000009
 21
102.289
 31
0.0
  0
INSERT
  5
338
  8
_________1
 62
     7
  2
AIGNBL02010005
 10
0.0
 20
0.0
 30
0.0
  0
LINE
  5
339
  8
_________1
 62
     7
 10
49.420900000000003
 20
169.78899999999999
 30
0.0
 11
64.554299999999984
 21
169.78899999999999
 31
0.0
  0
LINE
  5
33A
  8
_________1
 62
     7
 10
76.792400000000001
 20
176.67400000000001
 30
0.0
 11
76.792400000000001
 21
171.88399999999999
 31
0.0
  0
LINE
  5
33B
  8
_________1
 62
     7
 10
65.542299999999997
 20
176.67400000000001
 30
0.0
 11
65.542299999999997
 21
171.88399999999999
 31
0.0
  0
INSERT
  5
33C
  8
_________1
 62
     7
  2
AIGNBL02010006
 10
0.0
 20
0.0
 30
0.0
  0
INSERT
  5
33D
  8
_________1
 62
     7
  2
AIGNBL02010007
 10
0.0
 20
0.0
 30
0.0
  0
LINE
  5
33E
  8
_________1
 62
     7
 10
38.667299999999997
 20
180.547
 30
0.0
 11
38.667299999999997
 21
194.483
 31
0.0
  0
ARC
  5
33F
  8
_________1
 62
     7
 10
38.701318999999998
 20
195.378908
 30
0.0
 40
9.9675779999999996
 50
228.675645
 51
269.80449900000002
  0
ARC
  5
340
  8
_________1
 62
     7
 10
38.661138000000001
 20
195.374042
 30
0.0
 40
9.9626559999999991
 50
270.03548799999999
 51
289.45128599999998
  0
LINE
  5
341
  8
_________1
 62
     7
 10
37.917299999999997
 20
193.22900000000001
 30
0.0
 11
35.087499999999999
 21
185.45400000000001
 31
0.0
  0
INSERT
  5
342
  8
_________1
 62
     7
  2
AIGNBL02010008
 10
0.0
 20
0.0
 30
0.0
  0
INSERT
  5
343
  8
_________1
 62
     7
  2
AIGNBL02010009
 10
0.0
 20
0.0
 30
0.0
  0
LINE
  5
344
  8
_________1
 62
     7
 10
50.806899999999999
 20
194.26300000000001
 30
0.0
 11
42.186100000000003
 21
194.26300000000001
 31
0.0
  0
LINE
  5
345
  8
_________1
 62
     7
 10
37.47120000000001
 20
195.28999999999991
 30
0.0
 11
25.384
 21
195.28999999999991
 31
0.0
  0
LINE
  5
346
  8
_________1
 62
     7
 10
64.387500000000003
 20
177.28899999999999
 30
0.0
 11
25.384
 21
177.28899999999999
 31
0.0
  0
INSERT
  5
347
  8
_________1
 62
     7
  2
AIGNBL0201000A
 10
0.0
 20
0.0
 30
0.0
  0
INSERT
  5
348
  8
_________1
 62
     7
  2
AIGNBL0201000B
 10
0.0
 20
0.0
 30
0.0
  0
LINE
  5
349
  8
_________1
 62
     7
 10
92.437299999999993
 20
209.03899999999999
 30
0.0
 11
54.215800000000002
 21
209.03899999999999
 31
0.0
  0
LINE
  5
34A
  8
_________1
 62
     7
 10
101.236
 20
214.28899999999999
 30
0.0
 11
59.013800000000003
 21
214.28899999999999
 31
0.0
  0
LINE
  5
34B
  8
_________1
 62
     7
 10
101.251
 20
177.28899999999999
 30
0.0
 11
77.677099999999996
 21
177.28899999999999
 31
0.0
  0
INSERT
  5
34C
  8
_________1
 62
     7
  2
AIGNBL0201000C
 10
0.0
 20
0.0
 30
0.0
  0
LINE
  5
34D
  8
_________1
  6
AIGENLINE002
 62
     7
 10
-27.610399999999998
 20
251.745
 30
0.0
 11
-37.550199999999997
 21
244.78399999999999
 31
0.0
  0
LINE
  5
34E
  8
_________1
  6
AIGENLINE002
 62
     7
 10
-34.780000000000001
 20
261.98399999999998
 30
0.0
 11
-44.719900000000003
 21
255.024
 31
0.0
  0
LINE
  5
34F
  8
_________1
  6
AIGENLINE002
 62
     7
 10
-39.987099999999998
 20
245.214
 30
0.0
 11
-45.14929999999999
 21
252.58699999999999
 31
0.0
  0
ARC
  5
350
  8
_________1
  6
AIGENLINE002
 62
     7
 10
-38.553792000000001
 20
246.21810300000001
 30
0.0
 40
1.7500679999999991
 50
215.01327900000001
 51
304.99065400000001
  0
ARC
  5
351
  8
_________1
  6
AIGENLINE002
 62
     7
 10
-43.622636
 20
253.57388599999999
 30
0.0
 40
1.818122999999999
 50
127.12048299999999
 51
212.89267000000001
  0
LINE
  5
352
  8
_________1
 62
     7
 10
-52.043100000000003
 20
242.26599999999999
 30
0.0
 11
-45.207299999999989
 21
247.05199999999999
 31
0.0
  0
LINE
  5
353
  8
_________1
  6
AIGENLINE001
 62
     7
 10
-44.488500000000002
 20
247.55600000000001
 30
0.0
 11
-26.498799999999999
 21
260.15199999999999
 31
0.0
  0
LINE
  5
354
  8
_________1
 62
     7
 10
-20.248999999999999
 20
264.02699999999999
 30
0.0
 11
-20.248999999999999
 21
225.72499999999999
 31
0.0
  0
LINE
  5
355
  8
_________1
 62
     7
 10
-32.748899999999999
 20
264.02699999999999
 30
0.0
 11
-32.748899999999999
 21
225.72499999999999
 31
0.0
  0
LINE
  5
356
  8
_________1
 62
     7
 10
-21.998799999999999
 20
223.97499999999999
 30
0.0
 11
-30.998799999999999
 21
223.97499999999999
 31
0.0
  0
ARC
  5
357
  8
_________1
 62
     7
 10
-22.066424999999999
 20
225.79238799999999
 30
0.0
 40
1.818649
 50
272.13112599999999
 51
357.88016299999998
  0
ARC
  5
358
  8
_________1
 62
     7
 10
-30.931981
 20
225.791957
 30
0.0
 40
1.8181889999999989
 50
182.106796
 51
267.89323400000001
  0
LINE
  5
359
  8
_________1
 62
     7
 10
-21.998799999999999
 20
224.541
 30
0.0
 11
-30.998799999999999
 21
224.541
 31
0.0
  0
ARC
  5
35A
  8
_________1
 62
     7
 10
-21.998968999999999
 20
226.29132200000001
 30
0.0
 40
1.7499480000000001
 50
270.00565999999998
 51
0.00563
  0
ARC
  5
35B
  8
_________1
 62
     7
 10
-30.998821
 20
226.291494
 30
0.0
 40
1.7501189999999991
 50
179.99996999999999
 51
270.00002000000001
  0
LINE
  5
35C
  8
_________1
 62
     7
 10
-21.998799999999999
 20
240.535
 30
0.0
 11
-30.998799999999999
 21
240.535
 31
0.0
  0
ARC
  5
35D
  8
_________1
 62
     7
 10
-21.998797
 20
242.28510700000001
 30
0.0
 40
1.7497750000000001
 50
270.00002000000001
 51
359.99999000000003
  0
LINE
  5
35E
  8
_________1
 62
     7
 10
-21.998799999999999
 20
241.292
 30
0.0
 11
-30.998799999999999
 21
241.292
 31
0.0
  0
ARC
  5
35F
  8
_________1
 62
     7
 10
-21.998968999999999
 20
243.041482
 30
0.0
 40
1.7499480000000001
 50
270.00565999999998
 51
0.00563
  0
ARC
  5
360
  8
_________1
 62
     7
 10
-30.998992999999999
 20
242.28527800000001
 30
0.0
 40
1.7499469999999999
 50
180.00565
 51
270.00565999999998
  0
ARC
  5
361
  8
_________1
 62
     7
 10
-30.998821
 20
243.04165399999999
 30
0.0
 40
1.7501189999999991
 50
179.99996999999999
 51
270.00002000000001
  0
LINE
  5
362
  8
_________1
  6
AIGENLINE001
 62
     7
 10
-17.874300000000002
 20
260.15199999999999
 30
0.0
 11
-35.026899999999998
 21
260.15199999999999
 31
0.0
  0
LINE
  5
363
  8
_________1
 62
     7
 10
-21.998799999999999
 20
265.77699999999999
 30
0.0
 11
-30.998799999999999
 21
265.77699999999999
 31
0.0
  0
ARC
  5
364
  8
_________1
 62
     7
 10
-21.998968999999999
 20
264.02741300000002
 30
0.0
 40
1.7499480000000001
 50
359.99437
 51
89.994339999999994
  0
ARC
  5
365
  8
_________1
 62
     7
 10
-30.998819999999998
 20
264.027241
 30
0.0
 40
1.7501199999999999
 50
90.0
 51
179.99996999999999
  0
LINE
  5
366
  8
_________1
 62
     7
 10
-25.873899999999999
 20
272.16699999999997
 30
0.0
 11
-25.873899999999999
 21
265.77699999999999
 31
0.0
  0
LINE
  5
367
  8
_________1
 62
     7
 10
-27.124099999999999
 20
272.16699999999997
 30
0.0
 11
-27.124099999999999
 21
265.77699999999999
 31
0.0
  0
LINE
  5
368
  8
_________1
 62
     7
 10
-25.873899999999999
 20
272.16699999999997
 30
0.0
 11
-27.124099999999999
 21
272.16699999999997
 31
0.0
  0
LINE
  5
369
  8
_________1
  6
AIGENLINE001
 62
     7
 10
-26.498799999999999
 20
221.27000000000001
 30
0.0
 11
-26.498799999999999
 21
273.90899999999999
 31
0.0
  0
ARC
  5
36A
  8
_________1
 62
     7
 10
-20.354606
 20
208.83954499999999
 30
0.0
 40
0.105586
 50
0.196729
 51
35.475132000000002
  0
ARC
  5
36B
  8
_________1
 62
     7
 10
-20.418268000000001
 20
208.79585499999999
 30
0.0
 40
0.182791
 50
35.047035999999999
 51
67.009298000000001
  0
ARC
  5
36C
  8
_________1
 62
     7
 10
-20.491817000000001
 20
208.65465499999999
 30
0.0
 40
0.341732
 50
64.903425999999996
 51
91.169489999999996
  0
ARC
  5
36D
  8
_________1
 62
     7
 10
-32.49750800000001
 20
208.62667500000001
 30
0.0
 40
0.369644
 50
90.204117000000025
 51
118.818286
  0
ARC
  5
36E
  8
_________1
 62
     7
 10
-32.587038
 20
208.80353700000001
 30
0.0
 40
0.171664
 50
121.09226
 51
153.211772
  0
ARC
  5
36F
  8
_________1
 62
     7
 10
-32.645945000000012
 20
208.839562
 30
0.0
 40
0.102996
 50
156.33405500000001
 51
179.80746600000001
  0
LINE
  5
370
  8
_________1
 62
     7
 10
-20.498799999999999
 20
208.99600000000001
 30
0.0
 11
-32.498800000000003
 21
208.99600000000001
 31
0.0
  0
ARC
  5
371
  8
_________1
 62
     7
 10
-20.353982999999999
 20
207.32645600000001
 30
0.0
 40
0.104963
 50
0.194754
 51
35.583708000000001
  0
ARC
  5
372
  8
_________1
 62
     7
 10
-20.418661
 20
207.281792
 30
0.0
 40
0.183557
 50
35.174211
 51
66.97748
  0
ARC
  5
373
  8
_________1
 62
     7
 10
-20.492103
 20
207.139453
 30
0.0
 40
0.343489
 50
64.988088000000005
 51
91.11591700000001
  0
ARC
  5
374
  8
_________1
 62
     7
 10
-32.497506999999999
 20
207.11292599999999
 30
0.0
 40
0.369953
 50
90.204124000000007
 51
118.79212800000001
  0
ARC
  5
375
  8
_________1
 62
     7
 10
-32.587074000000001
 20
207.29000500000001
 30
0.0
 40
0.171761
 50
121.058801
 51
153.12142
  0
ARC
  5
376
  8
_________1
 62
     7
 10
-32.646584999999988
 20
207.32644999999999
 30
0.0
 40
0.102356
 50
156.258995
 51
179.797023
  0
LINE
  5
377
  8
_________1
 62
     7
 10
-20.498799999999999
 20
207.483
 30
0.0
 11
-32.498800000000003
 21
207.483
 31
0.0
  0
ARC
  5
378
  8
_________1
 62
     7
 10
-20.353982999999999
 20
202.11916099999999
 30
0.0
 40
0.104963
 50
0.194754
 51
35.583708000000001
  0
ARC
  5
379
  8
_________1
 62
     7
 10
-20.418661
 20
202.07449700000001
 30
0.0
 40
0.183557
 50
35.174211
 51
66.97748
  0
ARC
  5
37A
  8
_________1
 62
     7
 10
-20.492103
 20
201.93215799999999
 30
0.0
 40
0.343489
 50
64.988088000000005
 51
91.11591700000001
  0
ARC
  5
37B
  8
_________1
 62
     7
 10
-32.497506999999999
 20
201.905631
 30
0.0
 40
0.369953
 50
90.204124000000007
 51
118.79212800000001
  0
ARC
  5
37C
  8
_________1
 62
     7
 10
-32.587074000000001
 20
202.08271099999999
 30
0.0
 40
0.171761
 50
121.058801
 51
153.12142
  0
ARC
  5
37D
  8
_________1
 62
     7
 10
-32.646584999999988
 20
202.11915500000001
 30
0.0
 40
0.102356
 50
156.258995
 51
179.797023
  0
LINE
  5
37E
  8
_________1
 62
     7
 10
-20.498799999999999
 20
202.27600000000001
 30
0.0
 11
-32.498800000000003
 21
202.27600000000001
 31
0.0
  0
ARC
  5
37F
  8
_________1
 62
     7
 10
-20.353982999999999
 20
197.41898699999999
 30
0.0
 40
0.104963
 50
0.194754
 51
35.583708000000001
  0
ARC
  5
380
  8
_________1
 62
     7
 10
-20.418661
 20
197.374324
 30
0.0
 40
0.183557
 50
35.174211
 51
66.97748
  0
ARC
  5
381
  8
_________1
 62
     7
 10
-20.492103
 20
197.23198400000001
 30
0.0
 40
0.343489
 50
64.988088000000005
 51
91.11591700000001
  0
ARC
  5
382
  8
_________1
 62
     7
 10
-32.497506999999999
 20
197.205457
 30
0.0
 40
0.369953
 50
90.204124000000007
 51
118.79212800000001
  0
ARC
  5
383
  8
_________1
 62
     7
 10
-32.587074000000001
 20
197.38253700000001
 30
0.0
 40
0.171761
 50
121.058801
 51
153.12142
  0
ARC
  5
384
  8
_________1
 62
     7
 10
-32.646584999999988
 20
197.418982
 30
0.0
 40
0.102356
 50
156.258995
 51
179.797023
  0
ARC
  5
385
  8
_________1
 62
     7
 10
-24.038761000000001
 20
195.289366
 30
0.0
 40
0.039902
 50
0.296239
 51
29.217666000000001
  0
ARC
  5
386
  8
_________1
 62
     7
 10
-24.073751999999999
 20
195.26929200000001
 30
0.0
 40
0.080242
 50
29.531637
 51
50.871584999999989
  0
ARC
  5
387
  8
_________1
 62
     7
 10
-24.165389999999999
 20
195.156679
 30
0.0
 40
0.225428
 50
50.866405
 51
64.978785000000002
  0
ARC
  5
388
  8
_________1
 62
     7
 10
-24.33531
 20
194.80677800000001
 30
0.0
 40
0.6143900000000001
 50
64.420913999999996
 51
72.500258000000002
  0
ARC
  5
389
  8
_________1
 62
     7
 10
-24.612953999999998
 20
193.95042100000001
 30
0.0
 40
1.5146189999999999
 50
72.224626999999998
 51
77.546340000000001
  0
ARC
  5
38A
  8
_________1
 62
     7
 10
-24.997802
 20
192.245732
 30
0.0
 40
3.2621999999999991
 50
77.402721
 51
80.825490000000002
  0
ARC
  5
38B
  8
_________1
 62
     7
 10
-25.442426999999999
 20
189.517054
 30
0.0
 40
6.0268639999999989
 50
80.788692999999995
 51
83.425965000000005
  0
ARC
  5
38C
  8
_________1
 62
     7
 10
-26.048398000000009
 20
184.17873599999999
 30
0.0
 40
11.399461000000001
 50
83.472106000000025
 51
87.51360600000001
  0
ARC
  5
38D
  8
_________1
 62
     7
 10
-26.473352999999999
 20
176.53246100000001
 30
0.0
 40
19.057198
 50
87.234467000000009
 51
90.076523999999992
  0
ARC
  5
38E
  8
_________1
 62
     7
 10
-26.502151000000001
 20
176.458573
 30
0.0
 40
19.131070000000001
 50
89.989979000000005
 51
94.029173
  0
ARC
  5
38F
  8
_________1
 62
     7
 10
-27.197474
 20
186.78489300000001
 30
0.0
 40
8.7814740000000011
 50
94.237766000000008
 51
98.662240999999995
  0
ARC
  5
390
  8
_________1
 62
     7
 10
-28.024733000000001
 20
192.379805
 30
0.0
 40
3.1258870000000001
 50
99.117260000000016
 51
102.951324
  0
ARC
  5
391
  8
_________1
 62
     7
 10
-28.424648999999999
 20
194.09745699999999
 30
0.0
 40
1.3623080000000001
 50
102.750451
 51
108.967117
  0
ARC
  5
392
  8
_________1
 62
     7
 10
-28.715047999999999
 20
194.93402900000001
 30
0.0
 40
0.476779
 50
108.639661
 51
119.24549399999999
  0
ARC
  5
393
  8
_________1
 62
     7
 10
-28.877261000000001
 20
195.221113
 30
0.0
 40
0.147044
 50
118.74678900000001
 51
137.605029
  0
ARC
  5
394
  8
_________1
 62
     7
 10
-28.949052999999999
 20
195.28672499999999
 30
0.0
 40
0.049786
 50
137.66262800000001
 51
176.72126800000001
  0
ARC
  5
395
  8
_________1
 62
     7
 10
-28.95881
 20
195.289781
 30
0.0
 40
0.039948
 50
180.299216
 51
209.18479500000001
  0
ARC
  5
396
  8
_________1
 62
     7
 10
-28.923794999999998
 20
195.30990499999999
 30
0.0
 40
0.080333
 50
209.537204
 51
230.8502
  0
ARC
  5
397
  8
_________1
 62
     7
 10
-28.832076000000001
 20
195.42268999999999
 30
0.0
 40
0.225704
 50
230.87033199999999
 51
244.963066
  0
ARC
  5
398
  8
_________1
 62
     7
 10
-28.662506
 20
195.77179099999989
 30
0.0
 40
0.6137930000000001
 50
244.41270299999999
 51
252.498042
  0
ARC
  5
399
  8
_________1
 62
     7
 10
-28.384754000000001
 20
196.62830700000001
 30
0.0
 40
1.5142059999999991
 50
252.221553
 51
257.54373299999997
  0
ARC
  5
39A
  8
_________1
 62
     7
 10
-28.000070999999998
 20
198.33198899999999
 30
0.0
 40
3.2607689999999989
 50
257.40047499999997
 51
260.82418799999999
  0
ARC
  5
39B
  8
_________1
 62
     7
 10
-27.555458000000002
 20
201.060316
 30
0.0
 40
6.0250849999999989
 50
260.78755899999999
 51
263.42530599999998
  0
ARC
  5
39C
  8
_________1
 62
     7
 10
-26.949518999999999
 20
206.398224
 30
0.0
 40
11.397270000000001
 50
263.47170399999999
 51
267.51392700000002
  0
ARC
  5
39D
  8
_________1
 62
     7
 10
-26.524321
 20
214.05031500000001
 30
0.0
 40
19.060828999999998
 50
267.23474599999997
 51
270.07669800000002
  0
ARC
  5
39E
  8
_________1
 62
     7
 10
-26.495471999999999
 20
214.11632900000001
 30
0.0
 40
19.126826000000001
 50
269.99001700000002
 51
274.02963999999997
  0
ARC
  5
39F
  8
_________1
 62
     7
 10
-25.800529999999998
 20
203.79723200000001
 30
0.0
 40
8.7844619999999995
 50
274.23785299999997
 51
278.66117200000002
  0
ARC
  5
3A0
  8
_________1
 62
     7
 10
-24.97343
 20
198.20228
 30
0.0
 40
3.1288599999999991
 50
279.11678699999999
 51
282.94788499999999
  0
ARC
  5
3A1
  8
_________1
 62
     7
 10
-24.573277000000001
 20
196.482843
 30
0.0
 40
1.3634889999999991
 50
282.74976800000002
 51
288.96213599999999
  0
ARC
  5
3A2
  8
_________1
 62
     7
 10
-24.282677
 20
195.6454169999999
 30
0.0
 40
0.477086
 50
288.636233
 51
299.23760199999998
  0
ARC
  5
3A3
  8
_________1
 62
     7
 10
-24.120398000000002
 20
195.358103
 30
0.0
 40
0.147118
 50
298.74206299999997
 51
317.59397000000001
  0
ARC
  5
3A4
  8
_________1
 62
     7
 10
-24.048601000000001
 20
195.29244199999999
 30
0.0
 40
0.049825
 50
317.66864399999997
 51
356.69821000000007
  0
ARC
  5
3A5
  8
_________1
 62
     7
 10
-23.572032
 20
195.28876500000001
 30
0.0
 40
0.073236
 50
0.6321750000000002
 51
42.88167399999999
  0
ARC
  5
3A6
  8
_________1
 62
     7
 10
-23.660491
 20
195.22033500000001
 30
0.0
 40
0.184895
 50
39.765053000000002
 51
54.256995999999987
  0
ARC
  5
3A7
  8
_________1
 62
     7
 10
-23.786290000000001
 20
195.048742
 30
0.0
 40
0.397657
 50
53.987918999999991
 51
64.104168000000001
  0
ARC
  5
3A8
  8
_________1
 62
     7
 10
-24.001501999999999
 20
194.61433299999999
 30
0.0
 40
0.882446
 50
63.852193000000007
 51
70.498033000000007
  0
ARC
  5
3A9
  8
_________1
 62
     7
 10
-24.313302
 20
193.73356699999999
 30
0.0
 40
1.8167729999999991
 50
70.501865000000009
 51
75.581101000000004
  0
ARC
  5
3AA
  8
_________1
 62
     7
 10
-24.704279
 20
192.236018
 30
0.0
 40
3.3645129999999992
 50
75.483059999999995
 51
78.826779999999999
  0
ARC
  5
3AB
  8
_________1
 62
     7
 10
-25.322935999999999
 20
189.06229400000001
 30
0.0
 40
6.5979679999999981
 50
78.896764000000005
 51
84.117209000000003
  0
ARC
  5
3AC
  8
_________1
 62
     7
 10
-26.142095000000001
 20
182.04106899999999
 30
0.0
 40
13.666506999999999
 50
83.718024999999983
 51
87.460905999999994
  0
ARC
  5
3AD
  8
_________1
 62
     7
 10
-26.479925000000001
 20
175.884884
 30
0.0
 40
19.831720000000001
 50
87.273768000000004
 51
90.054544999999976
  0
ARC
  5
3AE
  8
_________1
 62
     7
 10
-26.495909000000001
 20
175.71041299999999
 30
0.0
 40
20.006181999999999
 50
90.008294999999976
 51
94.015585000000002
  0
ARC
  5
3AF
  8
_________1
 62
     7
 10
-27.061823
 20
184.27628100000001
 30
0.0
 40
11.421768
 50
94.192793000000009
 51
98.096666000000013
  0
ARC
  5
3B0
  8
_________1
 62
     7
 10
-27.982099999999999
 20
190.835465
 30
0.0
 40
4.7983679999999991
 50
98.248509999999996
 51
104.135167
  0
ARC
  5
3B1
  8
_________1
 62
     7
 10
-28.81470800000001
 20
194.173846
 30
0.0
 40
1.357758
 50
104.467234
 51
115.29825599999999
  0
ARC
  5
3B2
  8
_________1
 62
     7
 10
-29.239944999999999
 20
195.09528499999999
 30
0.0
 40
0.343098
 50
116.852268
 51
129.53459599999999
  0
ARC
  5
3B3
  8
_________1
 62
     7
 10
-29.366842999999999
 20
195.24950899999999
 30
0.0
 40
0.143379
 50
129.65497199999999
 51
146.88713100000001
  0
ARC
  5
3B4
  8
_________1
 62
     7
 10
-29.425715000000011
 20
195.28784999999999
 30
0.0
 40
0.073122
 50
146.85095699999999
 51
178.65037000000001
  0
ARC
  5
3B5
  8
_________1
 62
     7
 10
-29.425749
 20
195.29030399999999
 30
0.0
 40
0.073072
 50
180.57310000000001
 51
222.91908100000001
  0
ARC
  5
3B6
  8
_________1
 62
     7
 10
-29.337001000000001
 20
195.35893799999999
 30
0.0
 40
0.18508
 50
219.76845700000001
 51
234.24461299999999
  0
ARC
  5
3B7
  8
_________1
 62
     7
 10
-29.210923000000001
 20
195.53102699999999
 30
0.0
 40
0.398409
 50
233.99172599999989
 51
244.08682400000001
  0
ARC
  5
3B8
  8
_________1
 62
     7
 10
-28.995515999999999
 20
195.96619200000001
 30
0.0
 40
0.8839629999999999
 50
243.854895
 51
250.48835199999999
  0
ARC
  5
3B9
  8
_________1
 62
     7
 10
-28.684291999999999
 20
196.845552
 30
0.0
 40
1.8167729999999991
 50
250.49949599999999
 51
255.57792200000009
  0
ARC
  5
3BA
  8
_________1
 62
     7
 10
-28.293281
 20
198.34330800000001
 30
0.0
 40
3.364720999999999
 50
255.48166000000001
 51
258.824727
  0
ARC
  5
3BB
  8
_________1
 62
     7
 10
-27.674883999999999
 20
201.515806
 30
0.0
 40
6.5969220000000002
 50
258.89589599999999
 51
264.11675200000002
  0
ARC
  5
3BC
  8
_________1
 62
     7
 10
-26.855820000000001
 20
208.536305
 30
0.0
 40
13.66473
 50
263.717848
 51
267.46128299999998
  0
ARC
  5
3BD
  8
_________1
 62
     7
 10
-26.517741999999998
 20
214.69775000000001
 30
0.0
 40
19.835208999999999
 50
267.27402499999999
 51
270.05470200000002
  0
ARC
  5
3BE
  8
_________1
 62
     7
 10
-26.501715000000001
 20
214.864474
 30
0.0
 40
20.001923999999999
 50
270.00833599999999
 51
274.01603299999999
  0
ARC
  5
3BF
  8
_________1
 62
     7
 10
-25.936176
 20
206.30558600000001
 30
0.0
 40
11.424499000000001
 50
274.19294400000001
 51
278.096045
  0
ARC
  5
3C0
  8
_________1
 62
     7
 10
-25.01587
 20
199.745498
 30
0.0
 40
4.8002000000000002
 50
278.24812400000002
 51
284.13316299999991
  0
ARC
  5
3C1
  8
_________1
 62
     7
 10
-24.183026000000002
 20
196.40575200000001
 30
0.0
 40
1.3582069999999991
 50
284.464403
 51
295.29376100000002
  0
ARC
  5
3C2
  8
_________1
 62
     7
 10
-23.757846000000001
 20
195.48412200000001
 30
0.0
 40
0.3434
 50
296.85528399999998
 51
309.52716500000002
  0
ARC
  5
3C3
  8
_________1
 62
     7
 10
-23.630552000000002
 20
195.329465
 30
0.0
 40
0.143094
 50
309.625563
 51
326.895152
  0
ARC
  5
3C4
  8
_________1
 62
     7
 10
-23.571838
 20
195.29128399999999
 30
0.0
 40
0.073058
 50
326.82865399999997
 51
358.65800899999999
  0
ARC
  5
3C5
  8
_________1
 62
     7
 10
-23.572047999999999
 20
197.051286
 30
0.0
 40
0.073253
 50
0.63247
 51
42.870525999999991
  0
ARC
  5
3C6
  8
_________1
 62
     7
 10
-23.660620999999999
 20
196.98273
 30
0.0
 40
0.18508
 50
39.768436999999999
 51
54.244593000000002
  0
ARC
  5
3C7
  8
_________1
 62
     7
 10
-23.786306
 20
196.811296
 30
0.0
 40
0.397647
 50
53.982011999999997
 51
64.096497999999997
  0
ARC
  5
3C8
  8
_________1
 62
     7
 10
-24.001618000000001
 20
196.37663499999999
 30
0.0
 40
0.8827059999999999
 50
63.850149999999999
 51
70.493057999999991
  0
ARC
  5
3C9
  8
_________1
 62
     7
 10
-24.313331000000002
 20
195.496115
 30
0.0
 40
1.8167729999999991
 50
70.499476999999999
 51
75.577902000000009
  0
ARC
  5
3CA
  8
_________1
 62
     7
 10
-24.704340999999999
 20
193.99835999999999
 30
0.0
 40
3.364720999999999
 50
75.481639999999985
 51
78.824706999999975
  0
ARC
  5
3CB
  8
_________1
 62
     7
 10
-25.322738000000001
 20
190.825862
 30
0.0
 40
6.5969220000000002
 50
78.895876000000001
 51
84.116731999999999
  0
ARC
  5
3CC
  8
_________1
 62
     7
 10
-26.141801999999998
 20
183.805363
 30
0.0
 40
13.66473
 50
83.717827999999997
 51
87.461263000000002
  0
ARC
  5
3CD
  8
_________1
 62
     7
 10
-26.479859999999999
 20
177.644758
 30
0.0
 40
19.834367999999991
 50
87.273945999999995
 51
90.054726000000002
  0
ARC
  5
3CE
  8
_________1
 62
     7
 10
-26.495908
 20
177.477205
 30
0.0
 40
20.001912999999998
 50
90.00830000000002
 51
94.016014000000027
  0
ARC
  5
3CF
  8
_________1
 62
     7
 10
-27.061371000000001
 20
186.03548499999999
 30
0.0
 40
11.425098999999999
 50
94.193083000000001
 51
98.095951999999997
  0
ARC
  5
3D0
  8
_________1
 62
     7
 10
-27.981691000000001
 20
192.595821
 30
0.0
 40
4.800552999999999
 50
98.248168000000007
 51
104.13283699999999
  0
ARC
  5
3D1
  8
_________1
 62
     7
 10
-28.814506000000002
 20
195.9357
 30
0.0
 40
1.3584379999999989
 50
104.465824
 51
115.29311800000001
  0
ARC
  5
3D2
  8
_________1
 62
     7
 10
-29.239885999999998
 20
196.85769400000001
 30
0.0
 40
0.343216
 50
116.84923999999999
 51
129.52871400000001
  0
ARC
  5
3D3
  8
_________1
 62
     7
 10
-29.366803000000012
 20
197.011965
 30
0.0
 40
0.143448
 50
129.64697799999999
 51
146.87369799999999
  0
ARC
  5
3D4
  8
_________1
 62
     7
 10
-29.425715000000011
 20
197.05037200000001
 30
0.0
 40
0.073122
 50
146.85095699999999
 51
178.65037000000001
  0
LINE
  5
3D5
  8
_________1
 62
     7
 10
-28.748799999999999
 20
177.28999999999999
 30
0.0
 11
-28.748799999999999
 21
176.28999999999999
 31
0.0
  0
LINE
  5
3D6
  8
_________1
 62
     7
 10
-27.341799999999999
 20
176.28999999999999
 30
0.0
 11
-30.156099999999999
 21
176.28999999999999
 31
0.0
  0
LINE
  5
3D7
  8
_________1
 62
     7
 10
-30.156099999999999
 20
177.28999999999999
 30
0.0
 11
-30.156099999999999
 21
176.28999999999999
 31
0.0
  0
LINE
  5
3D8
  8
_________1
 62
     7
 10
-27.341799999999999
 20
177.28999999999999
 30
0.0
 11
-27.341799999999999
 21
176.28999999999999
 31
0.0
  0
LINE
  5
3D9
  8
_________1
 62
     7
 10
-20.248999999999999
 20
208.84
 30
0.0
 11
-20.248999999999999
 21
177.28899999999999
 31
0.0
  0
LINE
  5
3DA
  8
_________1
 62
     7
 10
-32.748899999999999
 20
208.84
 30
0.0
 11
-32.748899999999999
 21
177.28899999999999
 31
0.0
  0
LINE
  5
3DB
  8
_________1
 62
     7
 10
-20.498799999999999
 20
197.57499999999999
 30
0.0
 11
-32.498800000000003
 21
197.57499999999999
 31
0.0
  0
LINE
  5
3DC
  8
_________1
 62
     7
 10
-24.248799999999999
 20
177.28999999999999
 30
0.0
 11
-24.248799999999999
 21
176.28999999999999
 31
0.0
  0
LINE
  5
3DD
  8
_________1
 62
     7
 10
-22.841799999999999
 20
176.28999999999999
 30
0.0
 11
-25.656099999999999
 21
176.28999999999999
 31
0.0
  0
LINE
  5
3DE
  8
_________1
 62
     7
 10
-25.656099999999999
 20
177.28999999999999
 30
0.0
 11
-25.656099999999999
 21
176.28999999999999
 31
0.0
  0
LINE
  5
3DF
  8
_________1
 62
     7
 10
-22.841799999999999
 20
177.28999999999999
 30
0.0
 11
-22.841799999999999
 21
176.28999999999999
 31
0.0
  0
LINE
  5
3E0
  8
_________1
 62
     7
 10
-26.498799999999999
 20
164.03899999999999
 30
0.0
 11
-26.498799999999999
 21
161.28899999999999
 31
0.0
  0
LINE
  5
3E1
  8
_________1
 62
     7
 10
-25.873899999999999
 20
161.28899999999999
 30
0.0
 11
-25.873899999999999
 21
154.53899999999999
 31
0.0
  0
LINE
  5
3E2
  8
_________1
 62
     7
 10
-25.873899999999999
 20
177.28899999999999
 30
0.0
 11
-25.873899999999999
 21
175.95500000000001
 31
0.0
  0
LINE
  5
3E3
  8
_________1
 62
     7
 10
-25.873899999999999
 20
175.49100000000001
 30
0.0
 11
-25.873899999999999
 21
172.76599999999999
 31
0.0
  0
LINE
  5
3E4
  8
_________1
 62
     7
 10
-25.873899999999999
 20
171.815
 30
0.0
 11
-25.873899999999999
 21
169.78899999999999
 31
0.0
  0
LINE
  5
3E5
  8
_________1
 62
     7
 10
-27.248799999999999
 20
154.53899999999999
 30
0.0
 11
-27.248799999999999
 21
151.03899999999999
 31
0.0
  0
LINE
  5
3E6
  8
_________1
 62
     7
 10
-25.748799999999999
 20
154.53899999999999
 30
0.0
 11
-25.748799999999999
 21
151.03899999999999
 31
0.0
  0
LINE
  5
3E7
  8
_________1
 62
     7
 10
-25.748799999999999
 20
154.53899999999999
 30
0.0
 11
-27.248799999999999
 21
154.53899999999999
 31
0.0
  0
LINE
  5
3E8
  8
_________1
 62
     7
 10
-25.748799999999999
 20
151.03899999999999
 30
0.0
 11
-27.248799999999999
 21
151.03899999999999
 31
0.0
  0
LINE
  5
3E9
  8
_________1
 62
     7
 10
-25.873899999999999
 20
151.03899999999999
 30
0.0
 11
-25.873899999999999
 21
102.289
 31
0.0
  0
LINE
  5
3EA
  8
_________1
 62
     7
 10
-25.873899999999999
 20
102.289
 30
0.0
 11
-27.123799999999999
 21
102.289
 31
0.0
  0
LINE
  5
3EB
  8
_________1
 62
     7
 10
-27.123799999999999
 20
151.03899999999999
 30
0.0
 11
-27.123799999999999
 21
102.289
 31
0.0
  0
LINE
  5
3EC
  8
_________1
 62
     7
 10
-27.123799999999999
 20
161.28899999999999
 30
0.0
 11
-27.123799999999999
 21
154.53999999999999
 31
0.0
  0
LINE
  5
3ED
  8
_________1
 62
     7
 10
-27.998799999999999
 20
167.53899999999999
 30
0.0
 11
-27.998799999999999
 21
161.28899999999999
 31
0.0
  0
LINE
  5
3EE
  8
_________1
 62
     7
 10
-24.998799999999999
 20
167.53899999999999
 30
0.0
 11
-24.998799999999999
 21
161.28899999999999
 31
0.0
  0
LINE
  5
3EF
  8
_________1
 62
     7
 10
-27.998799999999999
 20
161.28899999999999
 30
0.0
 11
-24.998799999999999
 21
161.28899999999999
 31
0.0
  0
LINE
  5
3F0
  8
_________1
 62
     7
 10
-27.998799999999999
 20
164.03899999999999
 30
0.0
 11
-24.998799999999999
 21
164.03899999999999
 31
0.0
  0
LINE
  5
3F1
  8
_________1
 62
     7
 10
-24.998799999999999
 20
167.53899999999999
 30
0.0
 11
-23.998999999999999
 21
167.91399999999999
 31
0.0
  0
LINE
  5
3F2
  8
_________1
 62
     7
 10
-28.998899999999999
 20
167.91399999999999
 30
0.0
 11
-27.998799999999999
 21
167.53899999999999
 31
0.0
  0
LINE
  5
3F3
  8
_________1
 62
     7
 10
-27.998799999999999
 20
167.53899999999999
 30
0.0
 11
-24.998799999999999
 21
167.53899999999999
 31
0.0
  0
LINE
  5
3F4
  8
_________1
 62
     7
 10
-32.999099999999999
 20
169.78899999999999
 30
0.0
 11
-32.999099999999999
 21
167.91399999999999
 31
0.0
  0
LINE
  5
3F5
  8
_________1
 62
     7
 10
-19.998899999999999
 20
169.78899999999999
 30
0.0
 11
-19.998899999999999
 21
167.91399999999999
 31
0.0
  0
LINE
  5
3F6
  8
_________1
 62
     7
 10
-32.999099999999999
 20
167.91399999999999
 30
0.0
 11
-19.998899999999999
 21
167.91399999999999
 31
0.0
  0
LINE
  5
3F7
  8
_________1
 62
     7
 10
74.292199999999994
 20
168.43000000000001
 30
0.0
 11
74.292199999999994
 21
154.53899999999999
 31
0.0
  0
LINE
  5
3F8
  8
_________1
 62
     7
 10
69.417400000000001
 20
167.53899999999999
 30
0.0
 11
69.917599999999993
 21
168.17599999999999
 31
0.0
  0
LINE
  5
3F9
  8
_________1
 62
     7
 10
65.417299999999997
 20
169.78899999999999
 30
0.0
 11
65.417299999999997
 21
167.91399999999999
 31
0.0
  0
LINE
  5
3FA
  8
_________1
 62
     7
 10
65.417299999999997
 20
167.91399999999999
 30
0.0
 11
76.167400000000001
 21
168.53899999999999
 31
0.0
  0
LINE
  5
3FB
  8
_________1
 62
     7
 10
-32.999099999999999
 20
169.28899999999999
 30
0.0
 11
-19.998899999999999
 21
169.28899999999999
 31
0.0
  0
LINE
  5
3FC
  8
_________1
 62
     7
 10
-32.999099999999999
 20
169.78899999999999
 30
0.0
 11
-19.998899999999999
 21
169.78899999999999
 31
0.0
  0
LINE
  5
3FD
  8
_________1
  6
AIGENLINE001
 62
     7
 10
-26.498799999999999
 20
100.876
 30
0.0
 11
-26.498799999999999
 21
211.691
 31
0.0
  0
LINE
  5
3FE
  8
_________1
 62
     7
 10
-20.248999999999999
 20
177.28899999999999
 30
0.0
 11
-32.748899999999999
 21
177.28899999999999
 31
0.0
  0
LINE
  5
3FF
  8
_________1
 62
     7
 10
70.417500000000004
 20
177.28999999999999
 30
0.0
 11
70.417500000000004
 21
176.28999999999999
 31
0.0
  0
LINE
  5
400
  8
_________1
 62
     7
 10
71.917500000000004
 20
177.28999999999999
 30
0.0
 11
71.917500000000004
 21
176.28999999999999
 31
0.0
  0
LINE
  5
401
  8
_________1
 62
     7
 10
72.792199999999994
 20
176.28999999999999
 30
0.0
 11
69.542400000000001
 21
176.28999999999999
 31
0.0
  0
LINE
  5
402
  8
_________1
 62
     7
 10
69.542400000000001
 20
177.28999999999999
 30
0.0
 11
69.542400000000001
 21
176.28999999999999
 31
0.0
  0
LINE
  5
403
  8
_________1
 62
     7
 10
72.792199999999994
 20
177.28999999999999
 30
0.0
 11
72.792199999999994
 21
176.28999999999999
 31
0.0
  0
LINE
  5
404
  8
_________1
 62
     7
 10
72.917299999999997
 20
154.53899999999999
 30
0.0
 11
72.917299999999997
 21
151.03899999999999
 31
0.0
  0
LINE
  5
405
  8
_________1
 62
     7
 10
74.417299999999983
 20
154.53899999999999
 30
0.0
 11
74.417299999999983
 21
151.03899999999999
 31
0.0
  0
LINE
  5
406
  8
_________1
 62
     7
 10
74.417299999999983
 20
154.53899999999999
 30
0.0
 11
72.917299999999997
 21
154.53899999999999
 31
0.0
  0
LINE
  5
407
  8
_________1
 62
     7
 10
74.417299999999983
 20
151.03899999999999
 30
0.0
 11
72.917299999999997
 21
151.03899999999999
 31
0.0
  0
LINE
  5
408
  8
_________1
 62
     7
 10
67.667299999999983
 20
161.78899999999999
 30
0.0
 11
68.167500000000004
 21
161.78899999999999
 31
0.0
  0
LINE
  5
409
  8
_________1
 62
     7
 10
67.167400000000001
 20
161.28899999999999
 30
0.0
 11
67.167400000000001
 21
164.03899999999999
 31
0.0
  0
LINE
  5
40A
  8
_________1
 62
     7
 10
68.667400000000001
 20
161.28899999999999
 30
0.0
 11
68.667400000000001
 21
164.03899999999999
 31
0.0
  0
LINE
  5
40B
  8
_________1
 62
     7
 10
67.667299999999983
 20
161.28899999999999
 30
0.0
 11
67.667299999999983
 21
161.78899999999999
 31
0.0
  0
LINE
  5
40C
  8
_________1
 62
     7
 10
68.167500000000004
 20
161.28899999999999
 30
0.0
 11
68.167500000000004
 21
161.78899999999999
 31
0.0
  0
LINE
  5
40D
  8
_________1
 62
     7
 10
69.542400000000001
 20
161.28899999999999
 30
0.0
 11
69.542400000000001
 21
164.03899999999999
 31
0.0
  0
LINE
  5
40E
  8
_________1
 62
     7
 10
66.292299999999983
 20
161.28899999999999
 30
0.0
 11
66.292299999999983
 21
164.03899999999999
 31
0.0
  0
LINE
  5
40F
  8
_________1
 62
     7
 10
68.167500000000004
 20
161.28899999999999
 30
0.0
 11
69.542400000000001
 21
161.28899999999999
 31
0.0
  0
LINE
  5
410
  8
_________1
 62
     7
 10
66.292299999999983
 20
161.28899999999999
 30
0.0
 11
67.667299999999983
 21
161.28899999999999
 31
0.0
  0
LINE
  5
411
  8
_________1
 62
     7
 10
66.292299999999983
 20
164.03899999999999
 30
0.0
 11
69.542400000000001
 21
164.03899999999999
 31
0.0
  0
LINE
  5
412
  8
_________1
 62
     7
 10
65.667400000000001
 20
167.53899999999999
 30
0.0
 11
65.417299999999997
 21
167.91399999999999
 31
0.0
  0
LINE
  5
413
  8
_________1
 62
     7
 10
35.601799999999997
 20
197.697
 30
0.0
 11
36.152000000000001
 21
202.166
 31
0.0
  0
LINE
  5
414
  8
_________1
 62
     7
 10
35.708599999999997
 20
197.559
 30
0.0
 11
62.3018
 21
193.81899999999999
 31
0.0
  0
ARC
  5
415
  8
_________1
 62
     7
 10
35.731118000000002
 20
197.68631300000001
 30
0.0
 40
0.129748
 50
175.1134689999999
 51
260.023707
  0
LINE
  5
416
  8
_________1
 62
     7
 10
76.6828
 20
197.303
 30
0.0
 11
36.291200000000003
 21
202.27500000000001
 31
0.0
  0
ARC
  5
417
  8
_________1
 62
     7
 10
36.280415999999988
 20
202.14528799999999
 30
0.0
 40
0.130053
 50
85.239178999999993
 51
170.82427899999999
  0
LINE
  5
418
  8
_________1
 62
     7
 10
76.792400000000001
 20
197.179
 30
0.0
 11
76.792400000000001
 21
177.28899999999999
 31
0.0
  0
ARC
  5
419
  8
_________1
 62
     7
 10
76.663201000000001
 20
197.17518899999999
 30
0.0
 40
0.129205
 50
1.6346810000000001
 51
81.275777000000005
  0
INSERT
  5
41A
  8
_________1
 62
     7
  2
AIGNBL0201000D
 10
0.0
 20
0.0
 30
0.0
  0
LINE
  5
41B
  8
_________1
 62
     7
 10
52.174900000000001
 20
207.59399999999999
 30
0.0
 11
52.860199999999999
 21
208.928
 31
0.0
  0
LINE
  5
41C
  8
_________1
 62
     7
 10
61.035400000000003
 20
202.90199999999999
 30
0.0
 11
52.228999999999999
 21
207.42599999999999
 31
0.0
  0
ARC
  5
41D
  8
_________1
 62
     7
 10
52.292389
 20
207.538951
 30
0.0
 40
0.12979
 50
154.829183
 51
240.77065899999999
  0
LINE
  5
41E
  8
_________1
 62
     7
 10
61.737900000000003
 20
204.50800000000001
 30
0.0
 11
53.02859999999999
 21
208.983
 31
0.0
  0
ARC
  5
41F
  8
_________1
 62
     7
 10
52.973731000000008
 20
208.864105
 30
0.0
 40
0.130533
 50
65.132384000000002
 51
150.46743799999999
  0
LINE
  5
420
  8
_________1
 62
     7
 10
77.293300000000002
 20
202.30500000000001
 30
0.0
 11
63.299900000000001
 21
204.02699999999999
 31
0.0
  0
LINE
  5
421
  8
_________1
 62
     7
 10
77.173000000000002
 20
200.30500000000001
 30
0.0
 11
77.402100000000004
 21
202.16499999999999
 31
0.0
  0
ARC
  5
422
  8
_________1
 62
     7
 10
77.274056000000002
 20
202.177133
 30
0.0
 40
0.129169
 50
1.6448240000000001
 51
81.444185999999988
  0
ARC
  5
423
  8
_________1
 62
     7
 10
70.603977999999998
 20
198.04784799999999
 30
0.0
 40
5.541726999999999
 50
353.1149200000001
 51
359.98100800000009
  0
ARC
  5
424
  8
_________1
 62
     7
 10
70.642538999999999
 20
198.04772299999999
 30
0.0
 40
5.4965250000000001
 50
162.524799
 51
173.10612
  0
ARC
  5
425
  8
_________1
 62
     7
 10
70.630098000000004
 20
198.04350700000001
 30
0.0
 40
5.5156070000000001
 50
0.026012
 51
20.735054999999999
  0
LINE
  5
426
  8
_________1
 62
     7
 10
63.556600000000003
 20
202.233
 30
0.0
 11
62.978099999999998
 21
202.303
 31
0.0
  0
LINE
  5
427
  8
_________1
 62
     7
 10
64.517399999999995
 20
199.80799999999999
 30
0.0
 11
64.644499999999994
 21
200.839
 31
0.0
  0
ARC
  5
428
  8
_________1
 62
     7
 10
63.423731999999987
 20
200.989969
 30
0.0
 40
1.230095999999999
 50
352.94880799999999
 51
0.091357
  0
ARC
  5
429
  8
_________1
 62
     7
 10
63.361041
 20
200.95403999999999
 30
0.0
 40
1.2933410000000001
 50
1.6788110000000001
 51
81.305189999999996
  0
ARC
  5
42A
  8
_________1
 62
     7
 10
63.690008999999989
 20
208.069729
 30
0.0
 40
5.8100629999999986
 50
242.813076
 51
262.95864
  0
ARC
  5
42B
  8
_________1
 62
     7
 10
63.876553999999999
 20
208.67850100000001
 30
0.0
 40
4.6870310000000002
 50
242.85638599999999
 51
262.93285100000003
  0
LINE
  5
42C
  8
_________1
 62
     7
 10
77.173000000000002
 20
200.30500000000001
 30
0.0
 11
71.216800000000006
 21
198.983
 31
0.0
  0
LINE
  5
42D
  8
_________1
 62
     7
 10
71.216800000000006
 20
198.983
 30
0.0
 11
64.517399999999995
 21
199.80799999999999
 31
0.0
  0
LINE
  5
42E
  8
_________1
  6
AIGENLINE001
 62
     7
 10
73.667299999999997
 20
175.351
 30
0.0
 11
73.667299999999997
 21
100.649
 31
0.0
  0
LINE
  5
42F
  8
_________1
 62
     7
 10
64.446399999999997
 20
191.535
 30
0.0
 11
65.542299999999997
 21
177.28899999999999
 31
0.0
  0
ARC
  5
430
  8
_________1
 62
     7
 10
61.881580999999997
 20
191.2757189999999
 30
0.0
 40
2.5779649999999998
 50
5.7819050000000001
 51
80.617669000000006
  0
LINE
  5
431
  8
_________1
 62
     7
 10
69.417400000000001
 20
167.53899999999999
 30
0.0
 11
69.417400000000001
 21
164.03899999999999
 31
0.0
  0
LINE
  5
432
  8
_________1
 62
     7
 10
66.417400000000001
 20
167.53899999999999
 30
0.0
 11
66.417400000000001
 21
164.03899999999999
 31
0.0
  0
LINE
  5
433
  8
_________1
 62
     7
 10
69.417400000000001
 20
167.53899999999999
 30
0.0
 11
65.667400000000001
 21
167.53899999999999
 31
0.0
  0
LINE
  5
434
  8
_________1
 62
     7
 10
74.292199999999994
 20
151.03899999999999
 30
0.0
 11
74.292199999999994
 21
102.289
 31
0.0
  0
LINE
  5
435
  8
_________1
 62
     7
 10
74.292199999999994
 20
102.289
 30
0.0
 11
73.042299999999997
 21
102.289
 31
0.0
  0
LINE
  5
436
  8
_________1
 62
     7
 10
73.042299999999997
 20
151.03899999999999
 30
0.0
 11
73.042299999999997
 21
102.289
 31
0.0
  0
LINE
  5
437
  8
_________1
 62
     7
 10
73.042299999999997
 20
168.358
 30
0.0
 11
73.042299999999997
 21
154.53999999999999
 31
0.0
  0
LINE
  5
438
  8
_________1
 62
     7
 10
68.792400000000001
 20
177.28899999999999
 30
0.0
 11
68.792400000000001
 21
169.78899999999999
 31
0.0
  0
LINE
  5
439
  8
_________1
 62
     7
 10
67.042299999999983
 20
177.28899999999999
 30
0.0
 11
67.042299999999983
 21
169.78899999999999
 31
0.0
  0
LINE
  5
43A
  8
_________1
 62
     7
 10
65.417299999999997
 20
169.28899999999999
 30
0.0
 11
76.167400000000001
 21
169.28899999999999
 31
0.0
  0
LINE
  5
43B
  8
_________1
 62
     7
 10
65.417299999999997
 20
169.78899999999999
 30
0.0
 11
76.167400000000001
 21
169.78899999999999
 31
0.0
  0
LINE
  5
43C
  8
_________1
  6
AIGENLINE001
 62
     7
 10
67.917400000000001
 20
179.56299999999999
 30
0.0
 11
67.917400000000001
 21
159.71100000000001
 31
0.0
  0
LINE
  5
43D
  8
_________1
  6
AIGENLINE001
 62
     7
 10
71.167500000000004
 20
204.86799999999999
 30
0.0
 11
71.167500000000004
 21
86.327100000000016
 31
0.0
  0
LINE
  5
43E
  8
_________1
 62
     7
 10
76.167400000000001
 20
169.78899999999999
 30
0.0
 11
76.167400000000001
 21
168.53899999999999
 31
0.0
  0
LINE
  5
43F
  8
_________1
  6
AIGENLINE001
 62
     7
 10
38.101999999999997
 20
193.73699999999999
 30
0.0
 11
39.8566
 21
198.55799999999999
 31
0.0
  0
LINE
  5
440
  8
_________1
 62
     7
 10
40.066399999999987
 20
195.84399999999999
 30
0.0
 11
37.952100000000002
 21
196.614
 31
0.0
  0
LINE
  5
441
  8
_________1
 62
     7
 10
-29.498799999999999
 20
195.28999999999991
 30
0.0
 11
-29.498799999999999
 21
197.05199999999999
 31
0.0
  0
LINE
  5
442
  8
_________1
 62
     7
 10
-23.498799999999999
 20
195.28999999999991
 30
0.0
 11
-23.498799999999999
 21
197.05199999999999
 31
0.0
  0
LINE
  5
443
  8
_________1
 62
     7
 10
37.609999999999999
 20
195.67400000000001
 30
0.0
 11
37.952100000000002
 21
196.614
 31
0.0
  0
LINE
  5
444
  8
_________1
 62
     7
 10
39.724299999999999
 20
194.905
 30
0.0
 11
40.066399999999987
 21
195.84399999999999
 31
0.0
  0
LINE
  5
445
  8
_________1
 62
     7
 10
35.848199999999999
 20
196.316
 30
0.0
 11
36.271599999999999
 21
197.47900000000001
 31
0.0
  0
LINE
  5
446
  8
_________1
 62
     7
 10
41.4861
 20
194.26300000000001
 30
0.0
 11
42.345999999999997
 21
196.625
 31
0.0
  0
LINE
  5
447
  8
_________1
 62
     7
 10
41.4861
 20
194.26300000000001
 30
0.0
 11
35.848199999999999
 21
196.316
 31
0.0
  0
LINE
  5
448
  8
_________1
 62
     7
 10
-21.498899999999999
 20
193.53899999999999
 30
0.0
 11
-31.499099999999999
 21
193.53899999999999
 31
0.0
  0
LINE
  5
449
  8
_________1
 62
     7
 10
76.792400000000001
 20
177.28899999999999
 30
0.0
 11
65.542299999999997
 21
177.28899999999999
 31
0.0
  0
ARC
  5
44A
  8
_________1
 62
     7
 10
-25.518350000000002
 20
60.917260999999989
 30
0.0
 40
0.519904
 50
272.167012
 51
357.87247100000002
  0
ARC
  5
44B
  8
_________1
 62
     7
 10
-27.498581999999999
 20
60.897959999999991
 30
0.0
 40
0.5002310000000002
 50
179.99996999999999
 51
270.00002000000001
  0
ARC
  5
44C
  8
_________1
 62
     7
 10
-25.517987000000002
 20
62.278402
 30
0.0
 40
0.519554
 50
2.1678989999999998
 51
87.871592000000007
  0
ARC
  5
44D
  8
_________1
 62
     7
 10
-27.480345
 20
62.279103999999997
 30
0.0
 40
0.518814
 50
92.014409999999998
 51
177.906586
  0
INSERT
  5
44E
  8
_________1
 62
     7
  2
AIGNBL0201000E
 10
0.0
 20
0.0
 30
0.0
  0
INSERT
  5
44F
  8
_________1
 62
     7
  2
AIGNBL02010024
 10
0.0
 20
0.0
 30
0.0
  0
LINE
  5
450
  8
_________1
 62
     7
 10
72.667900000000003
 20
95.290599999999984
 30
0.0
 11
72.667900000000003
 21
168.33600000000001
 31
0.0
  0
LINE
  5
451
  8
_________1
 62
     7
 10
72.667900000000003
 20
169.78899999999999
 30
0.0
 11
72.667900000000003
 21
171.815
 31
0.0
  0
LINE
  5
452
  8
_________1
 62
     7
 10
69.667199999999994
 20
171.815
 30
0.0
 11
69.667199999999994
 21
169.78899999999999
 31
0.0
  0
LINE
  5
453
  8
_________1
 62
     7
 10
69.667199999999994
 20
167.857
 30
0.0
 11
69.667199999999994
 21
95.290599999999984
 31
0.0
  0
LINE
  5
454
  8
_________1
 62
     7
 10
71.167500000000004
 20
87.788499999999999
 30
0.0
 11
71.167500000000004
 21
90.413700000000006
 31
0.0
  0
LINE
  5
455
  8
_________1
 62
     7
 10
68.792100000000005
 20
87.788499999999999
 30
0.0
 11
68.792100000000005
 21
90.413700000000006
 31
0.0
  0
ARC
  5
456
  8
_________1
 62
     7
 10
74.503920999999991
 20
110.60290000000001
 30
0.0
 40
23.518560999999998
 50
255.944354
 51
256.94191599999999
  0
ARC
  5
457
  8
_________1
 62
     7
 10
70.286688999999996
 20
92.542168000000004
 30
0.0
 40
4.9720930000000001
 50
257.25949700000001
 51
263.09643
  0
ARC
  5
458
  8
_________1
 62
     7
 10
70.003107999999997
 20
90.418464999999998
 30
0.0
 40
2.8298229999999989
 50
263.62808000000001
 51
269.7897779999999
  0
ARC
  5
459
  8
_________1
 62
     7
 10
69.991410000000002
 20
90.109624999999994
 30
0.0
 40
2.5209639999999989
 50
270.02988299999998
 51
277.20705500000003
  0
ARC
  5
45A
  8
_________1
 62
     7
 10
69.779567
 20
91.904333999999992
 30
0.0
 40
4.3280969999999996
 50
277.00867599999998
 51
283.59992599999998
  0
ARC
  5
45B
  8
_________1
 62
     7
 10
66.997407999999993
 20
103.976118
 30
0.0
 40
16.716142999999999
 50
283.13919600000003
 51
284.445897
  0
ARC
  5
45C
  8
_________1
 62
     7
 10
69.55583
 20
85.706321000000003
 30
0.0
 40
4.9755940000000001
 50
71.100011999999992
 51
78.890784999999994
  0
ARC
  5
45D
  8
_________1
 62
     7
 10
69.961568999999983
 20
87.624679999999998
 30
0.0
 40
3.0151379999999999
 50
79.432513
 51
89.407935999999992
  0
ARC
  5
45E
  8
_________1
 62
     7
 10
69.994740000000007
 20
87.738864000000007
 30
0.0
 40
2.900793999999999
 50
90.039799000000002
 51
100.818735
  0
ARC
  5
45F
  8
_________1
 62
     7
 10
70.238441000000009
 20
86.285540999999995
 30
0.0
 40
4.3741570000000003
 50
100.380926
 51
109.30856199999999
  0
ARC
  5
460
  8
_________1
 62
     7
 10
76.831918000000002
 20
110.413366
 30
0.0
 40
23.323187999999998
 50
255.94425799999999
 51
256.95048500000001
  0
ARC
  5
461
  8
_________1
 62
     7
 10
72.664368999999994
 20
92.553646000000001
 30
0.0
 40
4.9837610000000003
 50
257.26457299999998
 51
263.086364
  0
ARC
  5
462
  8
_________1
 62
     7
 10
72.378034
 20
90.409672999999998
 30
0.0
 40
2.8210309999999992
 50
263.617998
 51
269.78492499999999
  0
ARC
  5
463
  8
_________1
 62
     7
 10
72.366129999999998
 20
90.112187000000006
 30
0.0
 40
2.523525999999999
 50
270.02984900000001
 51
277.20339100000001
  0
ARC
  5
464
  8
_________1
 62
     7
 10
72.154220999999993
 20
91.906993
 30
0.0
 40
4.3307630000000001
 50
277.00735100000003
 51
283.59615200000002
  0
ARC
  5
465
  8
_________1
 62
     7
 10
69.316079999999999
 20
104.22436500000001
 30
0.0
 40
16.970697000000001
 50
283.13388300000003
 51
284.42230799999999
  0
LINE
  5
466
  8
_________1
 62
     7
 10
73.542900000000003
 20
87.788499999999999
 30
0.0
 11
73.542900000000003
 21
90.413700000000006
 31
0.0
  0
ARC
  5
467
  8
_________1
 62
     7
 10
71.929233999999994
 20
85.697541000000001
 30
0.0
 40
4.9845489999999986
 50
71.110899000000003
 51
78.890288999999996
  0
ARC
  5
468
  8
_________1
 62
     7
 10
72.336596
 20
87.622927000000004
 30
0.0
 40
3.0168879999999998
 50
79.435923999999986
 51
89.414125999999996
  0
ARC
  5
469
  8
_________1
 62
     7
 10
72.369460000000004
 20
87.744602
 30
0.0
 40
2.8950559999999999
 50
90.039878000000002
 51
100.82948399999999
  0
ARC
  5
46A
  8
_________1
 62
     7
 10
72.615778000000006
 20
86.278920999999997
 30
0.0
 40
4.3810409999999997
 50
100.392011
 51
109.303746
  0
LINE
  5
46B
  8
_________1
 62
     7
 10
73.542900000000003
 20
87.588699999999989
 30
0.0
 11
73.542900000000003
 21
87.788499999999999
 31
0.0
  0
LINE
  5
46C
  8
_________1
 62
     7
 10
73.542900000000003
 20
90.413700000000006
 30
0.0
 11
73.542900000000003
 21
90.639700000000005
 31
0.0
  0
LINE
  5
46D
  8
_________1
 62
     7
 10
68.792100000000005
 20
87.588699999999989
 30
0.0
 11
68.792100000000005
 21
87.788499999999999
 31
0.0
  0
LINE
  5
46E
  8
_________1
 62
     7
 10
68.792100000000005
 20
90.413700000000006
 30
0.0
 11
68.792100000000005
 21
90.639700000000005
 31
0.0
  0
LINE
  5
46F
  8
_________1
 62
     7
 10
72.418099999999995
 20
90.813999999999993
 30
0.0
 11
71.167500000000004
 21
90.813999999999993
 31
0.0
  0
LINE
  5
470
  8
_________1
 62
     7
 10
71.167500000000004
 20
90.813999999999993
 30
0.0
 11
69.918000000000006
 21
90.813999999999993
 31
0.0
  0
LINE
  5
471
  8
_________1
 62
     7
 10
73.542900000000003
 20
87.588699999999989
 30
0.0
 11
73.467799999999997
 21
87.539100000000005
 31
0.0
  0
LINE
  5
472
  8
_________1
 62
     7
 10
73.467799999999997
 20
87.539100000000005
 30
0.0
 11
68.867199999999997
 21
87.539100000000005
 31
0.0
  0
LINE
  5
473
  8
_________1
 62
     7
 10
68.867199999999997
 20
87.539100000000005
 30
0.0
 11
68.792100000000005
 21
87.588699999999989
 31
0.0
  0
ARC
  5
474
  8
_________1
 62
     7
 10
73.524422000000001
 20
90.605914999999996
 30
0.0
 40
0.038479
 50
61.269488000000003
 51
90.14337900000001
  0
ARC
  5
475
  8
_________1
 62
     7
 10
73.363043999999988
 20
89.288915000000003
 30
0.0
 40
1.36504
 50
83.214554000000007
 51
88.389174999999994
  0
ARC
  5
476
  8
_________1
 62
     7
 10
72.821239000000006
 20
75.952641999999983
 30
0.0
 40
14.712218
 50
87.739943999999994
 51
89.360992000000024
  0
ARC
  5
477
  8
_________1
 62
     7
 10
71.883240000000001
 20
8.6154689999999992
 30
0.0
 40
82.055878000000007
 50
89.230439000000004
 51
89.925381000000002
  0
ARC
  5
478
  8
_________1
 62
     7
 10
71.301779999999994
 20
-309.44125000000003
 30
0.0
 40
400.11311899999993
 50
89.901425000000003
 51
90.348621000000009
  0
LINE
  5
479
  8
_________1
 62
     7
 10
68.867199999999997
 20
90.664500000000004
 30
0.0
 11
68.792100000000005
 21
90.639700000000005
 31
0.0
  0
LINE
  5
47A
  8
_________1
 62
     7
 10
72.717799999999997
 20
90.664500000000004
 30
0.0
 11
72.717799999999997
 21
90.789199999999994
 31
0.0
  0
LINE
  5
47B
  8
_________1
 62
     7
 10
72.717799999999997
 20
90.789199999999994
 30
0.0
 11
69.617199999999997
 21
90.789199999999994
 31
0.0
  0
LINE
  5
47C
  8
_________1
 62
     7
 10
69.617199999999997
 20
90.664500000000004
 30
0.0
 11
69.617199999999997
 21
90.789199999999994
 31
0.0
  0
LINE
  5
47D
  8
_________1
 62
     7
 10
69.918000000000006
 20
90.813999999999993
 30
0.0
 11
69.542400000000001
 21
91.115099999999998
 31
0.0
  0
LINE
  5
47E
  8
_________1
 62
     7
 10
69.542400000000001
 20
91.115099999999998
 30
0.0
 11
69.517300000000006
 21
91.614599999999996
 31
0.0
  0
LINE
  5
47F
  8
_________1
 62
     7
 10
72.818799999999996
 20
91.614599999999996
 30
0.0
 11
72.792599999999993
 21
91.115099999999998
 31
0.0
  0
LINE
  5
480
  8
_________1
 62
     7
 10
72.792599999999993
 20
91.115099999999998
 30
0.0
 11
72.418099999999995
 21
90.813999999999993
 31
0.0
  0
LINE
  5
481
  8
_________1
 62
     7
 10
72.617900000000006
 20
92.039799999999985
 30
0.0
 11
69.718100000000007
 21
92.039799999999985
 31
0.0
  0
LINE
  5
482
  8
_________1
 62
     7
 10
69.718100000000007
 20
92.039799999999985
 30
0.0
 11
69.517300000000006
 21
91.614599999999996
 31
0.0
  0
LINE
  5
483
  8
_________1
 62
     7
 10
72.818799999999996
 20
91.614599999999996
 30
0.0
 11
72.617900000000006
 21
92.039799999999985
 31
0.0
  0
LINE
  5
484
  8
_________1
 62
     7
 10
72.617900000000006
 20
94.040000000000006
 30
0.0
 11
69.718100000000007
 21
94.040000000000006
 31
0.0
  0
LINE
  5
485
  8
_________1
 62
     7
 10
69.104900000000001
 20
79.138499999999993
 30
0.0
 11
69.104900000000001
 21
87.098799999999997
 31
0.0
  0
LINE
  5
486
  8
_________1
 62
     7
 10
73.230099999999993
 20
79.138499999999993
 30
0.0
 11
73.230099999999993
 21
87.098799999999997
 31
0.0
  0
LINE
  5
487
  8
_________1
 62
     7
 10
69.718100000000007
 20
92.039799999999985
 30
0.0
 11
69.718100000000007
 21
94.040000000000006
 31
0.0
  0
LINE
  5
488
  8
_________1
 62
     7
 10
72.617900000000006
 20
92.039799999999985
 30
0.0
 11
72.617900000000006
 21
94.040000000000006
 31
0.0
  0
LINE
  5
489
  8
_________1
 62
     7
 10
69.718100000000007
 20
94.040000000000006
 30
0.0
 11
69.542400000000001
 21
94.340400000000017
 31
0.0
  0
LINE
  5
48A
  8
_________1
 62
     7
 10
72.792599999999993
 20
94.340400000000017
 30
0.0
 11
72.617900000000006
 21
94.040000000000006
 31
0.0
  0
LINE
  5
48B
  8
_________1
 62
     7
 10
69.542400000000001
 20
94.340400000000017
 30
0.0
 11
69.492099999999994
 21
94.465100000000007
 31
0.0
  0
LINE
  5
48C
  8
_________1
 62
     7
 10
69.492099999999994
 20
94.465100000000007
 30
0.0
 11
69.492099999999994
 21
94.589799999999997
 31
0.0
  0
ARC
  5
48D
  8
_________1
 62
     7
 10
72.249810999999994
 20
94.648666000000006
 30
0.0
 40
0.620659
 50
339.66158999999999
 51
354.56033300000001
  0
ARC
  5
48E
  8
_________1
 62
     7
 10
72.171079000000006
 20
94.658259999999984
 30
0.0
 40
0.69806
 50
332.912893
 51
341.16943100000009
  0
LINE
  5
48F
  8
_________1
 62
     7
 10
72.867699999999999
 20
94.589799999999997
 30
0.0
 11
72.867699999999999
 21
95.290599999999984
 31
0.0
  0
LINE
  5
490
  8
_________1
 62
     7
 10
72.867699999999999
 20
95.290599999999984
 30
0.0
 11
69.492099999999994
 21
95.290599999999984
 31
0.0
  0
LINE
  5
491
  8
_________1
 62
     7
 10
69.492099999999994
 20
94.589799999999997
 30
0.0
 11
69.492099999999994
 21
95.290599999999984
 31
0.0
  0
ARC
  5
492
  8
_________1
 62
     7
 10
71.167508999999995
 20
260.15234600000002
 30
0.0
 40
3.5002399999999998
 50
270.00002000000001
 51
359.99999000000003
  0
ARC
  5
493
  8
_________1
 62
     7
 10
71.167854000000005
 20
260.15200099999998
 30
0.0
 40
3.4998939999999998
 50
179.99432999999999
 51
269.99437999999998
  0
ARC
  5
494
  8
_________1
 62
     7
 10
71.167682999999997
 20
260.15251699999999
 30
0.0
 40
3.4997229999999999
 50
90.002820000000014
 51
180.00282999999999
  0
ARC
  5
495
  8
_________1
 62
     7
 10
71.167681999999999
 20
260.152173
 30
0.0
 40
3.500067
 50
0.00283
 51
90.002800000000008
  0
LINE
  5
496
  8
_________1
  6
AIGENLINE001
 62
     7
 10
-28.748799999999999
 20
85.314899999999994
 30
0.0
 11
-28.748799999999999
 21
179.07400000000001
 31
0.0
  0
LINE
  5
497
  8
_________1
  6
AIGENLINE001
 62
     7
 10
-24.248799999999999
 20
85.314899999999994
 30
0.0
 11
-24.248799999999999
 21
179.07400000000001
 31
0.0
  0
LINE
  5
498
  8
_________1
 62
     7
 10
-21.4955
 20
90.414299999999997
 30
0.0
 11
-21.4955
 21
87.788499999999999
 31
0.0
  0
LINE
  5
499
  8
_________1
 62
     7
 10
-22.871099999999998
 20
90.414299999999997
 30
0.0
 11
-22.871099999999998
 21
87.788499999999999
 31
0.0
  0
ARC
  5
49A
  8
_________1
 62
     7
 10
-24.860643
 20
95.605788000000004
 30
0.0
 40
8.5108619999999995
 50
291.64301499999999
 51
293.29081500000001
  0
ARC
  5
49B
  8
_________1
 62
     7
 10
-22.409410999999999
 20
89.462308999999991
 30
0.0
 40
1.896471
 50
281.78779100000003
 51
291.26332000000002
  0
ARC
  5
49C
  8
_________1
 62
     7
 10
-22.203353
 20
88.553243999999978
 30
0.0
 40
0.9646139999999999
 50
270.46569699999998
 51
280.83723800000001
  0
ARC
  5
49D
  8
_________1
 62
     7
 10
-22.195374999999999
 20
88.494631999999996
 30
0.0
 40
0.9059709999999999
 50
257.530618
 51
269.99132400000002
  0
ARC
  5
49E
  8
_________1
 62
     7
 10
-22.072462000000002
 20
89.11982900000001
 30
0.0
 40
1.543032
 50
247.18136200000001
 51
258.086771
  0
ARC
  5
49F
  8
_________1
 62
     7
 10
-21.612090999999999
 20
90.295196999999987
 30
0.0
 40
2.805127999999999
 50
243.33175299999999
 51
247.82447099999999
  0
ARC
  5
4A0
  8
_________1
 62
     7
 10
-22.117336000000002
 20
89.302109000000002
 30
0.0
 40
1.343588999999999
 50
97.334382000000005
 51
124.125478
  0
ARC
  5
4A1
  8
_________1
 62
     7
 10
-22.194627000000001
 20
89.740747999999996
 30
0.0
 40
0.89891
 50
90.056438999999997
 51
96.017324000000016
  0
ARC
  5
4A2
  8
_________1
 62
     7
 10
-22.196313
 20
89.720574999999997
 30
0.0
 40
0.919083
 50
77.812549000000004
 51
89.950112999999988
  0
ARC
  5
4A3
  8
_________1
 62
     7
 10
-22.287739999999999
 20
89.249999000000017
 30
0.0
 40
1.39839
 50
66.609766000000008
 51
78.221337000000005
  0
ARC
  5
4A4
  8
_________1
 62
     7
 10
-22.516926000000002
 20
88.676641000000004
 30
0.0
 40
2.0156900000000002
 50
59.552059999999997
 51
67.100557999999992
  0
LINE
  5
4A5
  8
_________1
 62
     7
 10
-25.746400000000001
 20
171.815
 30
0.0
 11
-25.746400000000001
 21
169.78899999999999
 31
0.0
  0
LINE
  5
4A6
  8
_________1
 62
     7
 10
-22.745699999999999
 20
171.815
 30
0.0
 11
-22.745699999999999
 21
169.78899999999999
 31
0.0
  0
LINE
  5
4A7
  8
_________1
 62
     7
 10
-25.746400000000001
 20
161.28899999999999
 30
0.0
 11
-25.746400000000001
 21
95.290599999999984
 31
0.0
  0
LINE
  5
4A8
  8
_________1
 62
     7
 10
-22.745699999999999
 20
167.91399999999999
 30
0.0
 11
-22.745699999999999
 21
95.290599999999984
 31
0.0
  0
LINE
  5
4A9
  8
_________1
 62
     7
 10
-26.995899999999999
 20
90.414299999999997
 30
0.0
 11
-26.995899999999999
 21
87.788499999999999
 31
0.0
  0
LINE
  5
4AA
  8
_________1
 62
     7
 10
-25.621300000000002
 20
90.414299999999997
 30
0.0
 11
-25.621300000000002
 21
87.788499999999999
 31
0.0
  0
ARC
  5
4AB
  8
_________1
 62
     7
 10
-29.011032
 20
95.66963299999999
 30
0.0
 40
8.5791979999999999
 50
291.67714100000001
 51
293.27260999999999
  0
ARC
  5
4AC
  8
_________1
 62
     7
 10
-26.577943000000001
 20
89.574366999999995
 30
0.0
 40
2.0162869999999988
 50
282.23675900000012
 51
291.405012
  0
ARC
  5
4AD
  8
_________1
 62
     7
 10
-26.306716999999999
 20
88.39302099999999
 30
0.0
 40
0.8044279999999998
 50
270.74658299999999
 51
281.19141400000001
  0
ARC
  5
4AE
  8
_________1
 62
     7
 10
-26.295428000000001
 20
88.494213999999999
 30
0.0
 40
0.9055530000000001
 50
257.79862100000003
 51
269.94890800000002
  0
ARC
  5
4AF
  8
_________1
 62
     7
 10
-26.196190000000001
 20
89.028301999999996
 30
0.0
 40
1.448637
 50
252.9329109999999
 51
258.42680100000001
  0
ARC
  5
4B0
  8
_________1
 62
     7
 10
-25.947279000000002
 20
89.835961999999995
 30
0.0
 40
2.2937829999999999
 50
248.53865200000001
 51
252.91022899999999
  0
ARC
  5
4B1
  8
_________1
 62
     7
 10
-24.472809000000002
 20
93.549199000000002
 30
0.0
 40
6.2890449999999989
 50
246.34714399999999
 51
248.414196
  0
ARC
  5
4B2
  8
_________1
 62
     7
 10
-25.98725
 20
88.686372000000006
 30
0.0
 40
2.0008369999999989
 50
107.934827
 51
120.27382
  0
ARC
  5
4B3
  8
_________1
 62
     7
 10
-26.271740999999999
 20
89.513813999999996
 30
0.0
 40
1.1261099999999991
 50
91.246347999999998
 51
107.12744499999999
  0
ARC
  5
4B4
  8
_________1
 62
     7
 10
-26.296961
 20
89.871480000000005
 30
0.0
 40
0.7681770000000001
 50
76.151604000000006
 51
89.945862000000005
  0
ARC
  5
4B5
  8
_________1
 62
     7
 10
-26.43939
 20
89.197579999999988
 30
0.0
 40
1.4567619999999999
 50
65.825008999999994
 51
77.056725999999983
  0
ARC
  5
4B6
  8
_________1
 62
     7
 10
-26.683503999999999
 20
88.593019999999996
 30
0.0
 40
2.108417999999999
 50
59.749975999999997
 51
66.501046999999986
  0
ARC
  5
4B7
  8
_________1
 62
     7
 10
-21.563915999999999
 20
81.242843000000008
 30
0.0
 40
6.6748830000000003
 50
101.29356899999991
 51
103.208584
  0
ARC
  5
4B8
  8
_________1
 62
     7
 10
-24.572609
 20
93.375989000000004
 30
0.0
 40
5.826859999999999
 50
278.61355800000001
 51
284.74973599999998
  0
ARC
  5
4B9
  8
_________1
 62
     7
 10
-24.046233000000001
 20
89.879746999999995
 30
0.0
 40
2.29122
 50
270.620385
 51
278.69331800000009
  0
LINE
  5
4BA
  8
_________1
 62
     7
 10
-24.0214
 20
87.588699999999989
 30
0.0
 11
-24.470700000000001
 21
87.588699999999989
 31
0.0
  0
ARC
  5
4BB
  8
_________1
 62
     7
 10
-24.470347
 20
89.549487999999997
 30
0.0
 40
1.9608259999999991
 50
261.53959300000002
 51
269.990634
  0
ARC
  5
4BC
  8
_________1
 62
     7
 10
-24.256103
 20
91.206368999999995
 30
0.0
 40
3.6313379999999991
 50
258.55536000000001
 51
262.04225500000001
  0
ARC
  5
4BD
  8
_________1
 62
     7
 10
-22.842337000000001
 20
98.074518000000026
 30
0.0
 40
10.643471999999999
 50
256.53830399999998
 51
258.43224900000001
  0
ARC
  5
4BE
  8
_________1
 62
     7
 10
-26.738862999999998
 20
81.879557999999989
 30
0.0
 40
6.013668
 50
76.353842
 51
79.290409999999994
  0
ARC
  5
4BF
  8
_________1
 62
     7
 10
-24.369712
 20
86.718787999999989
 30
0.0
 40
3.9017589999999989
 50
102.841053
 51
108.710385
  0
ARC
  5
4C0
  8
_________1
 62
     7
 10
-24.140277000000001
 20
85.893163999999985
 30
0.0
 40
4.7578949999999987
 50
94.332815999999994
 51
103.325208
  0
ARC
  5
4C1
  8
_________1
 62
     7
 10
-24.353148000000001
 20
88.357986999999994
 30
0.0
 40
2.2841830000000001
 50
87.312504999999987
 51
93.679501000000016
  0
ARC
  5
4C2
  8
_________1
 62
     7
 10
-24.162706
 20
89.223193000000009
 30
0.0
 40
1.418914
 50
88.964226999999994
 51
93.367219999999989
  0
ARC
  5
4C3
  8
_________1
 62
     7
 10
-24.177181999999998
 20
88.055412999999987
 30
0.0
 40
2.5867729999999991
 50
85.190771999999996
 51
89.111204999999998
  0
ARC
  5
4C4
  8
_________1
 62
     7
 10
-24.373259999999998
 20
85.755431000000002
 30
0.0
 40
4.8950979999999991
 50
72.129273000000012
 51
85.160791000000003
  0
LINE
  5
4C5
  8
_________1
 62
     7
 10
-22.995799999999999
 20
90.815399999999997
 30
0.0
 11
-24.245999999999999
 21
90.815399999999997
 31
0.0
  0
LINE
  5
4C6
  8
_________1
 62
     7
 10
-25.495899999999999
 20
90.815399999999997
 30
0.0
 11
-24.245999999999999
 21
90.815399999999997
 31
0.0
  0
LINE
  5
4C7
  8
_________1
 62
     7
 10
-26.546700000000001
 20
87.539100000000005
 30
0.0
 11
-24.245999999999999
 21
87.539100000000005
 31
0.0
  0
LINE
  5
4C8
  8
_________1
 62
     7
 10
-24.245999999999999
 20
87.539100000000005
 30
0.0
 11
-21.945399999999999
 21
87.539100000000005
 31
0.0
  0
LINE
  5
4C9
  8
_________1
 62
     7
 10
-21.645299999999999
 20
87.738899999999987
 30
0.0
 11
-21.945399999999999
 21
87.563900000000004
 31
0.0
  0
LINE
  5
4CA
  8
_________1
 62
     7
 10
-21.945399999999999
 20
87.563900000000004
 30
0.0
 11
-21.945399999999999
 21
87.539100000000005
 31
0.0
  0
LINE
  5
4CB
  8
_________1
 62
     7
 10
-21.4955
 20
87.788499999999999
 30
0.0
 11
-21.945399999999999
 21
87.563900000000004
 31
0.0
  0
LINE
  5
4CC
  8
_________1
 62
     7
 10
-26.995899999999999
 20
87.788499999999999
 30
0.0
 11
-26.546700000000001
 21
87.539100000000005
 31
0.0
  0
LINE
  5
4CD
  8
_________1
 62
     7
 10
-26.546700000000001
 20
90.664500000000004
 30
0.0
 11
-21.945399999999999
 21
90.664500000000004
 31
0.0
  0
LINE
  5
4CE
  8
_________1
 62
     7
 10
-25.796299999999999
 20
90.789199999999994
 30
0.0
 11
-22.695699999999999
 21
90.789199999999994
 31
0.0
  0
ARC
  5
4CF
  8
_________1
 62
     7
 10
-23.249088
 20
91.488067999999998
 30
0.0
 40
0.7188100000000001
 50
290.63131199999998
 51
326.46526699999998
  0
ARC
  5
4D0
  8
_________1
 62
     7
 10
-23.079037
 20
91.348779000000007
 30
0.0
 40
0.500605
 50
329.00250399999999
 51
341.44722000000002
  0
LINE
  5
4D1
  8
_________1
 62
     7
 10
-22.604399999999998
 20
91.189499999999995
 30
0.0
 11
-22.571000000000002
 21
91.289400000000001
 31
0.0
  0
LINE
  5
4D2
  8
_________1
 62
     7
 10
-22.571000000000002
 20
91.289400000000001
 30
0.0
 11
-22.571000000000002
 21
91.439599999999984
 31
0.0
  0
LINE
  5
4D3
  8
_________1
 62
     7
 10
-22.571000000000002
 20
91.439599999999984
 30
0.0
 11
-22.6206
 21
91.614599999999996
 31
0.0
  0
LINE
  5
4D4
  8
_________1
 62
     7
 10
-25.8963
 20
91.614599999999996
 30
0.0
 11
-25.871500000000001
 21
91.614599999999996
 31
0.0
  0
ARC
  5
4D5
  8
_________1
 62
     7
 10
3.9411389999999988
 20
87.296439000000007
 30
0.0
 40
30.148250000000001
 50
171.765085
 51
172.10101399999999
  0
LINE
  5
4D6
  8
_________1
 62
     7
 10
-25.921099999999999
 20
91.439599999999984
 30
0.0
 11
-25.921099999999999
 21
91.289400000000001
 31
0.0
  0
LINE
  5
4D7
  8
_________1
 62
     7
 10
-25.921099999999999
 20
91.289400000000001
 30
0.0
 11
-25.8887
 21
91.189499999999995
 31
0.0
  0
ARC
  5
4D8
  8
_________1
 62
     7
 10
-24.826846
 20
91.544597999999993
 30
0.0
 40
1.1196360000000001
 50
198.49109100000001
 51
203.30168699999999
  0
ARC
  5
4D9
  8
_________1
 62
     7
 10
-25.417138999999999
 20
91.289203999999998
 30
0.0
 40
0.4764640000000001
 50
203.17437100000001
 51
222.31249199999999
  0
ARC
  5
4DA
  8
_________1
 62
     7
 10
-25.486771999999998
 20
91.244461000000001
 30
0.0
 40
0.395092
 50
224.31238599999989
 51
234.714821
  0
ARC
  5
4DB
  8
_________1
 62
     7
 10
-25.295078
 20
91.520510999999985
 30
0.0
 40
0.731165
 50
234.948521
 51
242.40038799999999
  0
ARC
  5
4DC
  8
_________1
 62
     7
 10
-23.542043
 20
94.868258999999995
 30
0.0
 40
4.5101269999999989
 50
242.36770300000001
 51
243.977574
  0
LINE
  5
4DD
  8
_________1
 62
     7
 10
-25.520700000000001
 20
90.815399999999997
 30
0.0
 11
-25.495899999999999
 21
90.815399999999997
 31
0.0
  0
LINE
  5
4DE
  8
_________1
 62
     7
 10
-25.696100000000001
 20
92.039799999999985
 30
0.0
 11
-22.820499999999999
 21
92.039799999999985
 31
0.0
  0
LINE
  5
4DF
  8
_________1
 62
     7
 10
-25.696100000000001
 20
94.040000000000006
 30
0.0
 11
-24.245999999999999
 21
94.040000000000006
 31
0.0
  0
LINE
  5
4E0
  8
_________1
 62
     7
 10
-24.245999999999999
 20
94.040000000000006
 30
0.0
 11
-22.820499999999999
 21
94.040000000000006
 31
0.0
  0
LINE
  5
4E1
  8
_________1
 62
     7
 10
-22.571000000000002
 20
94.589799999999997
 30
0.0
 11
-22.571000000000002
 21
94.465100000000007
 31
0.0
  0
LINE
  5
4E2
  8
_________1
 62
     7
 10
-22.571000000000002
 20
94.465100000000007
 30
0.0
 11
-22.645800000000001
 21
94.339699999999993
 31
0.0
  0
LINE
  5
4E3
  8
_________1
 62
     7
 10
-25.946200000000001
 20
94.589799999999997
 30
0.0
 11
-25.921099999999999
 21
94.465100000000007
 31
0.0
  0
LINE
  5
4E4
  8
_________1
 62
     7
 10
-25.921099999999999
 20
94.465100000000007
 30
0.0
 11
-25.871500000000001
 21
94.339699999999993
 31
0.0
  0
LINE
  5
4E5
  8
_________1
 62
     7
 10
-25.946200000000001
 20
95.290599999999984
 30
0.0
 11
-22.571000000000002
 21
95.290599999999984
 31
0.0
  0
LINE
  5
4E6
  8
_________1
 62
     7
 10
-25.946200000000001
 20
95.290599999999984
 30
0.0
 11
-25.946200000000001
 21
94.589799999999997
 31
0.0
  0
LINE
  5
4E7
  8
_________1
 62
     7
 10
-22.571000000000002
 20
95.290599999999984
 30
0.0
 11
-22.571000000000002
 21
94.589799999999997
 31
0.0
  0
LINE
  5
4E8
  8
_________1
 62
     7
 10
-21.945399999999999
 20
90.664500000000004
 30
0.0
 11
-21.4955
 21
90.414299999999997
 31
0.0
  0
LINE
  5
4E9
  8
_________1
 62
     7
 10
-26.546700000000001
 20
90.664500000000004
 30
0.0
 11
-26.995899999999999
 21
90.414299999999997
 31
0.0
  0
LINE
  5
4EA
  8
_________1
 62
     7
 10
-25.871500000000001
 20
94.339699999999993
 30
0.0
 11
-25.696100000000001
 21
94.040000000000006
 31
0.0
  0
LINE
  5
4EB
  8
_________1
 62
     7
 10
-25.696100000000001
 20
92.039799999999985
 30
0.0
 11
-25.871500000000001
 21
91.614599999999996
 31
0.0
  0
LINE
  5
4EC
  8
_________1
 62
     7
 10
-22.645800000000001
 20
94.339699999999993
 30
0.0
 11
-22.820499999999999
 21
94.040000000000006
 31
0.0
  0
LINE
  5
4ED
  8
_________1
 62
     7
 10
-22.820499999999999
 20
92.039799999999985
 30
0.0
 11
-22.6206
 21
91.614599999999996
 31
0.0
  0
LINE
  5
4EE
  8
_________1
 62
     7
 10
-25.696100000000001
 20
94.040000000000006
 30
0.0
 11
-25.696100000000001
 21
92.039799999999985
 31
0.0
  0
LINE
  5
4EF
  8
_________1
 62
     7
 10
-22.820499999999999
 20
94.040000000000006
 30
0.0
 11
-22.820499999999999
 21
92.039799999999985
 31
0.0
  0
LINE
  5
4F0
  8
_________1
 62
     7
 10
-25.796299999999999
 20
90.789199999999994
 30
0.0
 11
-25.796299999999999
 21
90.664500000000004
 31
0.0
  0
LINE
  5
4F1
  8
_________1
 62
     7
 10
-22.695699999999999
 20
90.789199999999994
 30
0.0
 11
-22.695699999999999
 21
90.664500000000004
 31
0.0
  0
LINE
  5
4F2
  8
_________1
 62
     7
 10
-26.995899999999999
 20
87.788499999999999
 30
0.0
 11
-26.546700000000001
 21
87.539100000000005
 31
0.0
  0
LINE
  5
4F3
  8
_________1
 62
     7
 10
-21.4955
 20
87.788499999999999
 30
0.0
 11
-21.945399999999999
 21
87.539100000000005
 31
0.0
  0
LINE
  5
4F4
  8
_________1
  6
AIGENLINE001
 62
     7
 10
77.269499999999994
 20
260.15199999999999
 30
0.0
 11
65.090299999999999
 21
260.15199999999999
 31
0.0
  0
INSERT
  5
4F5
  8
_________1
 62
     7
  2
AIGNBL02010025
 10
0.0
 20
0.0
 30
0.0
  0
LINE
  5
4F6
  8
_________1
  6
AIGENLINE001
 62
     7
 10
71.167500000000004
 20
254.00399999999999
 30
0.0
 11
71.167500000000004
 21
266.50400000000002
 31
0.0
  0
TEXT
  5
4F7
  8
_________2
 62
     7
 10
169.50999999999999
 20
118.48
 30
0.0
 40
3.9357000000000002
  1
※快適にお使いいただくためには、0.2～0.3MPa程度の圧力をおすすめします。
 41
0.5
  0
TEXT
  5
4F8
  8
_________2
 62
     7
 10
169.50999999999999
 20
124.56
 30
0.0
 40
3.9357000000000002
  1
0.5MPa（流動圧）
 41
0.5
  0
TEXT
  5
4F9
  8
_________2
 62
     7
 10
129.49600000000001
 20
132.18199999999999
 30
0.0
 40
3.9357000000000002
  1
給水圧力
 41
0.5
  0
TEXT
  5
4FA
  8
_________2
 62
     7
 10
129.49600000000001
 20
139.94399999999999
 30
0.0
 40
3.9357000000000002
  1
用途
 41
0.5
  0
TEXT
  5
4FB
  8
_________2
 62
     7
 10
169.50999999999999
 20
139.94399999999999
 30
0.0
 40
3.9357000000000002
  1
一般住宅用（屋内用）
 41
0.5
  0
LINE
  5
4FC
  8
_________2
 62
     7
 10
145.64099999999999
 20
137.83600000000001
 30
0.0
 11
145.64099999999999
 21
116.5
 31
0.0
  0
LINE
  5
4FD
  8
_________2
 62
     7
 10
166.97200000000001
 20
145.59899999999999
 30
0.0
 11
166.97200000000001
 21
61.980800000000002
 31
0.0
  0
LINE
  5
4FE
  8
_________2
 62
     7
 10
290.16199999999998
 20
145.59899999999999
 30
0.0
 11
126.95699999999999
 21
145.59899999999999
 31
0.0
  0
LINE
  5
4FF
  8
_________2
 62
     7
 10
126.95699999999999
 20
145.59899999999999
 30
0.0
 11
126.95699999999999
 21
61.980800000000002
 31
0.0
  0
LINE
  5
500
  8
_________2
 62
     7
 10
126.95699999999999
 20
61.980800000000002
 30
0.0
 11
290.16199999999998
 21
61.980800000000002
 31
0.0
  0
LINE
  5
501
  8
_________2
 62
     7
 10
290.16199999999998
 20
61.980800000000002
 30
0.0
 11
290.16199999999998
 21
145.59899999999999
 31
0.0
  0
TEXT
  5
502
  8
_________2
 62
     7
 10
147.41499999999999
 20
132.18199999999999
 30
0.0
 40
3.9357000000000002
  1
最低必要水圧
 41
0.5
  0
TEXT
  5
503
  8
_________2
 62
     7
 10
169.50999999999999
 20
132.18199999999999
 30
0.0
 40
3.9357000000000002
  1
0.1MPa（流動圧）
 41
0.5
  0
LINE
  5
504
  8
_________2
 62
     7
 10
126.95699999999999
 20
137.83600000000001
 30
0.0
 11
290.16199999999998
 21
137.83600000000001
 31
0.0
  0
TEXT
  5
505
  8
_________2
 62
     7
 10
129.49600000000001
 20
110.845
 30
0.0
 40
3.9357000000000002
  1
使用可能水質
 41
0.5
  0
TEXT
  5
506
  8
_________2
 62
     7
 10
169.50999999999999
 20
110.845
 30
0.0
 40
3.9357000000000002
  1
水道水
 41
0.5
  0
LINE
  5
507
  8
_________2
 62
     7
 10
126.95699999999999
 20
116.5
 30
0.0
 11
290.16199999999998
 21
116.5
 31
0.0
  0
TEXT
  5
508
  8
_________2
 62
     7
 10
147.41499999999999
 20
124.56
 30
0.0
 40
3.9357000000000002
  1
最高水圧
 41
0.5
  0
LINE
  5
509
  8
_________2
 62
     7
 10
145.64099999999999
 20
130.07400000000001
 30
0.0
 11
290.16199999999998
 21
130.07400000000001
 31
0.0
  0
TEXT
  5
50A
  8
_________2
 62
     7
 10
129.49600000000001
 20
103.223
 30
0.0
 40
3.9357000000000002
  1
使用環境温度
 41
0.5
  0
TEXT
  5
50B
  8
_________2
 62
     7
 10
129.49600000000001
 20
89.649199999999993
 30
0.0
 40
3.9357000000000002
  1
最高給湯温度
 41
0.5
  0
TEXT
  5
50C
  8
_________2
 62
     7
 10
129.49600000000001
 20
75.946600000000004
 30
0.0
 40
3.9357000000000002
  1
特記事項
 41
0.5
  0
TEXT
  5
50D
  8
_________2
 62
     7
 10
169.50999999999999
 20
97.142999999999986
 30
0.0
 40
3.9357000000000002
  1
※寒冷地仕様ではありません、凍結が予想される場合は凍結予防をしてください。
 41
0.5
  0
TEXT
  5
50E
  8
_________2
 62
     7
 10
169.50999999999999
 20
103.223
 30
0.0
 40
3.9357000000000002
  1
1～40℃
 41
0.5
  0
LINE
  5
50F
  8
_________2
 62
     7
 10
126.95699999999999
 20
108.73699999999999
 30
0.0
 11
290.16199999999998
 21
108.73699999999999
 31
0.0
  0
TEXT
  5
510
  8
_________2
 62
     7
 10
169.50999999999999
 20
83.568899999999985
 30
0.0
 40
3.9357000000000002
  1
※安全のため給湯温度は60℃以下でのご使用をおすすめします。
 41
0.5
  0
TEXT
  5
511
  8
_________2
 62
     7
 10
169.50999999999999
 20
89.649199999999993
 30
0.0
 40
3.9357000000000002
  1
80℃
 41
0.5
  0
TEXT
  5
512
  8
_________2
 62
     7
 10
169.50999999999999
 20
63.786000000000001
 30
0.0
 40
3.9357000000000002
  1
（3）フレキホース寸法公差\U+00B120
 41
0.5
  0
TEXT
  5
513
  8
_________2
 62
     7
 10
169.50999999999999
 20
69.866299999999995
 30
0.0
 40
3.9357000000000002
  1
（2）湯水を逆に配管しないでください。
 41
0.5
  0
TEXT
  5
514
  8
_________2
 62
     7
 10
169.50999999999999
 20
75.946600000000004
 30
0.0
 40
3.9357000000000002
  1
（1）水圧は湯水ほぼ同圧、且つ湯圧が水圧より高くならないように設定してください。
 41
0.5
  0
LINE
  5
515
  8
_________2
 62
     7
 10
126.95699999999999
 20
95.1631
 30
0.0
 11
290.16199999999998
 21
95.1631
 31
0.0
  0
LINE
  5
516
  8
_________2
 62
     7
 10
126.95699999999999
 20
81.588999999999999
 30
0.0
 11
290.16199999999998
 21
81.588999999999999
 31
0.0
  0
TEXT
  5
517
  8
_________2
 62
     7
 10
200.4570586666666
 20
34.465299999999999
 30
0.0
 40
3.6545800000000002
  1
1 ： 4
 41
0.5
 72
     1
 11
203.86799999999999
 21
34.465299999999999
 31
0.0
  0
TEXT
  5
518
  8
_________2
 62
     7
 10
247.22647499999999
 20
30.3553
 30
0.0
 40
3.9357000000000002
  1
ZU7212T
 41
0.5
 72
     1
 11
253.458
 21
30.3553
 31
0.0
  0
TEXT
  5
519
  8
_________2
 62
     7
 10
149.27189066666671
 20
34.850499999999997
 30
0.0
 40
3.6545800000000002
  1
井伊
 41
0.5
 72
     1
 11
151.221
 21
34.850499999999997
 31
0.0
  0
TEXT
  5
51A
  8
_________2
 62
     7
 10
130.69789066666669
 20
34.850499999999997
 30
0.0
 40
3.6545800000000002
  1
木場
 41
0.5
 72
     1
 11
132.64699999999999
 21
34.850499999999997
 31
0.0
  0
TEXT
  5
51B
  8
_________2
 62
     7
 10
177.69399999999999
 20
34.465299999999999
 30
0.0
 40
3.6545800000000002
  1
20.09.01
 41
0.5
  0
TEXT
  5
51C
  8
_________2
 62
     7
 10
290.64778333333328
 20
12.808299999999999
 30
0.0
 40
3.3734599999999988
  1
A3
 41
0.5
 72
     2
 11
293.459
 21
12.808299999999999
 31
0.0
  0
TEXT
  5
51D
  8
_________2
 62
     7
 10
134.495
 20
21.954699999999999
 30
0.0
 40
3.9357000000000002
  1
（社）日本水道協会認証品
 41
0.5
  0
LINE
  5
51E
  8
_________2
 62
     7
 10
315.209
 20
148.65899999999999
 30
0.0
 11
293.459
 21
148.65899999999999
 31
0.0
  0
LINE
  5
51F
  8
_________2
 62
     7
 10
105.20699999999999
 20
17.156300000000002
 30
0.0
 11
105.20699999999999
 21
0.176045
 31
0.0
  0
LINE
  5
520
  8
_________2
 62
     7
 10
105.20699999999999
 20
297.178
 30
0.0
 11
105.20699999999999
 21
280.15800000000002
 31
0.0
  0
LINE
  5
521
  8
_________2
 62
     7
 10
-83.043899999999994
 20
148.65899999999999
 30
0.0
 11
-104.794
 21
148.65899999999999
 31
0.0
  0
INSERT
  5
522
  8
_________2
 62
     7
  2
AIGNBL03010002
 10
0.0
 20
0.0
 30
0.0
  0
TEXT
  5
523
  8
_________2
 62
     7
 10
214.51300000000001
 20
22.9269
 30
0.0
 40
3.0923400000000001
  1
図番
 41
0.5
  0
LINE
  5
524
  8
_________2
 62
     7
 10
213.458
 20
27.156099999999999
 30
0.0
 11
293.459
 21
27.156099999999999
 31
0.0
  0
TEXT
  5
525
  8
_________2
 62
     7
 10
214.51300000000001
 20
32.926699999999997
 30
0.0
 40
3.0923400000000001
  1
品番
 41
0.5
  0
TEXT
  5
526
  8
_________2
 62
     7
 10
214.51300000000001
 20
53.0655
 30
0.0
 40
3.0923400000000001
  1
名称
 41
0.5
  0
TEXT
  5
527
  8
_________2
 62
     7
 10
201.75325833333329
 20
48.069400000000002
 30
0.0
 40
3.6545800000000002
  1
mm
 41
0.5
 72
     1
 11
203.27600000000001
 21
48.069400000000002
 31
0.0
  0
TEXT
  5
528
  8
_________2
 62
     7
 10
195.55099999999999
 20
53.0655
 30
0.0
 40
3.0923400000000001
  1
単位
 41
0.5
  0
TEXT
  5
529
  8
_________2
 62
     7
 10
195.55099999999999
 20
40.658200000000001
 30
0.0
 40
3.0923400000000001
  1
尺度
 41
0.5
  0
TEXT
  5
52A
  8
_________2
 62
     7
 10
247.22647499999999
 20
20.354800000000001
 30
0.0
 40
3.9357000000000002
  1
ZU7212T
 41
0.5
 72
     1
 11
253.458
 21
20.354800000000001
 31
0.0
  0
TEXT
  5
52B
  8
_________2
 62
     7
 10
219.08699999999999
 20
45.473100000000002
 30
0.0
 40
3.9357000000000002
  1
ソフト 湯水混合水栓
 41
0.5
  0
TEXT
  5
52C
  8
_________2
 62
     7
 10
176.501
 20
40.658200000000001
 30
0.0
 40
3.0923400000000001
  1
日付
 41
0.5
  0
TEXT
  5
52D
  8
_________2
 62
     7
 10
139.547
 20
40.658200000000001
 30
0.0
 40
3.0923400000000001
  1
検図
 41
0.5
  0
TEXT
  5
52E
  8
_________2
 62
     7
 10
127.929
 20
26.4588
 30
0.0
 40
3.0923400000000001
  1
備考
 41
0.5
  0
TEXT
  5
52F
  8
_________2
 62
     7
 10
127.929
 20
40.658200000000001
 30
0.0
 40
3.0923400000000001
  1
製図
 41
0.5
  0
TEXT
  5
530
  8
_________2
 62
     7
 10
133.69596533333331
 20
49.184199999999997
 30
0.0
 40
4.4979399999999989
  1
セラトレーディング株式会社
 41
0.5
 72
     1
 11
151.08799999999999
 21
49.184199999999997
 31
0.0
  0
LINE
  5
531
  8
_________2
 62
     7
 10
293.459
 20
17.156300000000002
 30
0.0
 11
-83.043899999999994
 21
17.156300000000002
 31
0.0
  0
LINE
  5
532
  8
_________2
 62
     7
 10
-83.043899999999994
 20
17.156300000000002
 30
0.0
 11
-83.043899999999994
 21
280.15800000000002
 31
0.0
  0
LINE
  5
533
  8
_________2
 62
     7
 10
-83.043899999999994
 20
280.15800000000002
 30
0.0
 11
293.459
 21
280.15800000000002
 31
0.0
  0
LINE
  5
534
  8
_________2
 62
     7
 10
293.459
 20
280.15800000000002
 30
0.0
 11
293.459
 21
17.156300000000002
 31
0.0
  0
LINE
  5
535
  8
_________2
 62
     7
 10
175.458
 20
30.656400000000001
 30
0.0
 11
175.458
 21
57.156199999999998
 31
0.0
  0
LINE
  5
536
  8
_________2
 62
     7
 10
194.458
 20
30.656400000000001
 30
0.0
 11
194.458
 21
57.156199999999998
 31
0.0
  0
LINE
  5
537
  8
_________2
 62
     7
 10
126.95699999999999
 20
17.156300000000002
 30
0.0
 11
126.95699999999999
 21
57.156199999999998
 31
0.0
  0
LINE
  5
538
  8
_________2
 62
     7
 10
213.458
 20
17.156300000000002
 30
0.0
 11
213.458
 21
57.156199999999998
 31
0.0
  0
LINE
  5
539
  8
_________2
 62
     7
 10
138.45699999999999
 20
30.656400000000001
 30
0.0
 11
138.45699999999999
 21
44.65659999999999
 31
0.0
  0
LINE
  5
53A
  8
_________2
 62
     7
 10
126.95699999999999
 20
30.656400000000001
 30
0.0
 11
213.458
 21
30.656400000000001
 31
0.0
  0
LINE
  5
53B
  8
_________2
 62
     7
 10
126.95699999999999
 20
44.65659999999999
 30
0.0
 11
213.458
 21
44.65659999999999
 31
0.0
  0
LINE
  5
53C
  8
_________2
 62
     7
 10
213.458
 20
37.15590000000001
 30
0.0
 11
293.459
 21
37.15590000000001
 31
0.0
  0
LINE
  5
53D
  8
_________2
 62
     7
 10
126.95699999999999
 20
57.156199999999998
 30
0.0
 11
293.459
 21
57.156199999999998
 31
0.0
  0
ENDSEC
  0
EOF
