  0
SECTION
  2
HEADER
  9
$ACADVER
  1
AC1009
  9
$LUNITS
 70
2
  9
$LUPREC
 70
4
  9
$LTSCALE
 40
1.0
  9
$EXTMIN
 10
-30.3177
 20
33.3285
 30
0
  9
$EXTMAX
 10
251.6749
 20
230.337
 30
0
  0
ENDSEC
  0
SECTION
  2
TABLES
  0
TABLE
  2
LTYPE
 70
256
  0
LTYPE
  2
AIGENLINE001
 70
64
  3
generate AI->DXF Converter
 72
65
 73
4
 40
0.5753
 49
0.2876
 49
-0.2876
 49
0
 49
0
  0
ENDTAB
  0
TABLE
  2
LAYER
 70
1
  0
LAYER
  2
LAYER_1
 70
64
 62
7
  6
CONTINUOUS
  0
ENDTAB
  0
TABLE
  2
STYLE
 70
6
  0
STYLE
  2
STANDARD
 70
0
 40
0
 50
0
 71
0
 41
0
 42
0
  3
TXT
  4
BIGFONT
  0
ENDTAB
  0
ENDSEC
  0
SECTION
  2
BLOCKS
  0
BLOCK
  8
LAYER_1
  2
AIGNBL01040006
 70
64
 10
0
 20
0
 30
0
  3
AIGNBL01040006
  0
POLYLINE
  8
LAYER_1
 40
0.05
 41
0.05
 66
1
 10
0
 20
0
 30
0
 70
1
  0
VERTEX
  8
LAYER_1
 10
105.4311
 20
39.1418
  0
VERTEX
  8
LAYER_1
 10
104.9422
 20
37.9567
  0
VERTEX
  8
LAYER_1
 10
104.3142
 20
37.9567
  0
VERTEX
  8
LAYER_1
 10
105.9137
 20
41.7225
  0
VERTEX
  8
LAYER_1
 10
106.6468
 20
41.7225
  0
VERTEX
  8
LAYER_1
 10
108.2533
 20
37.9567
  0
VERTEX
  8
LAYER_1
 10
107.6032
 20
37.9567
  0
VERTEX
  8
LAYER_1
 10
107.1006
 20
39.1418
  0
SEQEND
  0
POLYLINE
  8
LAYER_1
 40
0.05
 41
0.05
 66
1
 10
0
 20
0
 30
0
 70
1
  0
VERTEX
  8
LAYER_1
 10
106.9748
 20
39.5207
  0
VERTEX
  8
LAYER_1
 10
106.5138
 20
40.6056
  0
VERTEX
  8
LAYER_1
 10
106.2692
 20
41.2926
  0
VERTEX
  8
LAYER_1
 10
106.2555
 20
41.2926
  0
VERTEX
  8
LAYER_1
 10
106.0178
 20
40.6101
  0
VERTEX
  8
LAYER_1
 10
105.5571
 20
39.5207
  0
SEQEND
  0
ENDBLK
  0
BLOCK
  8
LAYER_1
  2
AIGNBL01040007
 70
64
 10
0
 20
0
 30
0
  3
AIGNBL01040007
  0
POLYLINE
  8
LAYER_1
 40
0.05
 41
0.05
 66
1
 10
0
 20
0
 30
0
 70
1
  0
VERTEX
  8
LAYER_1
 10
112.6186
 20
37.4034
 42
-0.0155848755
  0
VERTEX
  8
LAYER_1
 10
110.8164
 20
37.8395
  0
VERTEX
  8
LAYER_1
 10
110.5298
 20
37.895
 42
-0.08356944747
  0
VERTEX
  8
LAYER_1
 10
109.6658
 20
38.0612
 42
-0.0975043791
  0
VERTEX
  8
LAYER_1
 10
109.0046
 20
38.4671
 42
-0.2129077902
  0
VERTEX
  8
LAYER_1
 10
108.4559
 20
39.7998
 42
-0.0968494152
  0
VERTEX
  8
LAYER_1
 10
108.6005
 20
40.5732
 42
-0.2046438079
  0
VERTEX
  8
LAYER_1
 10
109.648
 20
41.5974
 42
-0.09824750395
  0
VERTEX
  8
LAYER_1
 10
110.649
 20
41.7838
 42
-0.08554009695
  0
VERTEX
  8
LAYER_1
 10
111.5176
 20
41.6425
 42
-0.1004336034
  0
VERTEX
  8
LAYER_1
 10
112.1827
 20
41.2483
 42
-0.2141019095
  0
VERTEX
  8
LAYER_1
 10
112.7581
 20
39.8784
 42
-0.09540850229
  0
VERTEX
  8
LAYER_1
 10
112.6192
 20
39.1106
 42
-0.2143210227
  0
VERTEX
  8
LAYER_1
 10
111.5963
 20
38.1321
 42
-0.02338900436
  0
VERTEX
  8
LAYER_1
 10
111.4172
 20
38.0738
  0
VERTEX
  8
LAYER_1
 10
111.4172
 20
38.0514
 42
0.01711211955
  0
VERTEX
  8
LAYER_1
 10
112.7936
 20
37.8113
  0
SEQEND
  0
POLYLINE
  8
LAYER_1
 40
0.05
 41
0.05
 66
1
 10
0
 20
0
 30
0
 70
1
  0
VERTEX
  8
LAYER_1
 10
112.1159
 20
39.857
 42
0.1071543648
  0
VERTEX
  8
LAYER_1
 10
111.9646
 20
40.5618
 42
0.2976507644
  0
VERTEX
  8
LAYER_1
 10
110.6276
 20
41.3873
 42
0.1072356843
  0
VERTEX
  8
LAYER_1
 10
109.9378
 20
41.2478
 42
0.2385874916
  0
VERTEX
  8
LAYER_1
 10
109.1508
 20
40.2422
 42
0.05751786988
  0
VERTEX
  8
LAYER_1
 10
109.1052
 20
39.8122
 42
0.2180663696
  0
VERTEX
  8
LAYER_1
 10
109.6358
 20
38.6168
 42
0.1772758138
  0
VERTEX
  8
LAYER_1
 10
110.5997
 20
38.2912
 42
0.1075185771
  0
VERTEX
  8
LAYER_1
 10
111.2811
 20
38.4302
 42
0.2370926009
  0
VERTEX
  8
LAYER_1
 10
112.0682
 20
39.4298
 42
0.05601310134
  0
SEQEND
  0
ENDBLK
  0
BLOCK
  8
LAYER_1
  2
AIGNBL01040008
 70
64
 10
0
 20
0
 30
0
  3
AIGNBL01040008
  0
POLYLINE
  8
LAYER_1
 40
0.05
 41
0.05
 66
1
 10
0
 20
0
 30
0
 70
1
  0
VERTEX
  8
LAYER_1
 10
114.0855
 20
41.7225
  0
VERTEX
  8
LAYER_1
 10
114.0855
 20
39.4932
 42
0.1145199457
  0
VERTEX
  8
LAYER_1
 10
114.2194
 20
38.8274
 42
0.1464896694
  0
VERTEX
  8
LAYER_1
 10
114.5697
 20
38.4422
 42
0.1362580474
  0
VERTEX
  8
LAYER_1
 10
115.1821
 20
38.2912
 42
0.1219300979
  0
VERTEX
  8
LAYER_1
 10
115.8052
 20
38.4259
 42
0.1503016186
  0
VERTEX
  8
LAYER_1
 10
116.177
 20
38.7949
 42
0.1256239276
  0
VERTEX
  8
LAYER_1
 10
116.3276
 20
39.4932
  0
VERTEX
  8
LAYER_1
 10
116.3276
 20
41.7225
  0
VERTEX
  8
LAYER_1
 10
116.9422
 20
41.7225
  0
VERTEX
  8
LAYER_1
 10
116.9422
 20
39.5266
 42
-0.09997665689
  0
VERTEX
  8
LAYER_1
 10
116.8073
 20
38.7839
 42
-0.1215019174
  0
VERTEX
  8
LAYER_1
 10
116.434
 20
38.2772
 42
-0.1106228669
  0
VERTEX
  8
LAYER_1
 10
115.8085
 20
37.9706
 42
-0.06128517916
  0
VERTEX
  8
LAYER_1
 10
115.161
 20
37.895
 42
-0.09418763513
  0
VERTEX
  8
LAYER_1
 10
114.3419
 20
38.0331
 42
-0.2431628294
  0
VERTEX
  8
LAYER_1
 10
113.5384
 20
38.9438
 42
-0.06320488118
  0
VERTEX
  8
LAYER_1
 10
113.4709
 20
39.5045
  0
VERTEX
  8
LAYER_1
 10
113.4709
 20
41.7225
  0
SEQEND
  0
ENDBLK
  0
BLOCK
  8
LAYER_1
  2
AIGNBL01040009
 70
64
 10
0
 20
0
 30
0
  3
AIGNBL01040009
  0
POLYLINE
  8
LAYER_1
 40
0.05
 41
0.05
 66
1
 10
0
 20
0
 30
0
 70
1
  0
VERTEX
  8
LAYER_1
 10
118.6885
 20
39.1418
  0
VERTEX
  8
LAYER_1
 10
118.1993
 20
37.9567
  0
VERTEX
  8
LAYER_1
 10
117.5712
 20
37.9567
  0
VERTEX
  8
LAYER_1
 10
119.1705
 20
41.7225
  0
VERTEX
  8
LAYER_1
 10
119.9036
 20
41.7225
  0
VERTEX
  8
LAYER_1
 10
121.51
 20
37.9567
  0
VERTEX
  8
LAYER_1
 10
120.8606
 20
37.9567
  0
VERTEX
  8
LAYER_1
 10
120.358
 20
39.1418
  0
SEQEND
  0
POLYLINE
  8
LAYER_1
 40
0.05
 41
0.05
 66
1
 10
0
 20
0
 30
0
 70
1
  0
VERTEX
  8
LAYER_1
 10
120.2319
 20
39.5207
  0
VERTEX
  8
LAYER_1
 10
119.7706
 20
40.6056
  0
VERTEX
  8
LAYER_1
 10
119.526
 20
41.2926
  0
VERTEX
  8
LAYER_1
 10
119.5122
 20
41.2926
  0
VERTEX
  8
LAYER_1
 10
119.2748
 20
40.6101
  0
VERTEX
  8
LAYER_1
 10
118.8139
 20
39.5207
  0
SEQEND
  0
ENDBLK
  0
BLOCK
  8
LAYER_1
  2
AIGNBL0104000A
 70
64
 10
0
 20
0
 30
0
  3
AIGNBL0104000A
  0
POLYLINE
  8
LAYER_1
 40
0.05
 41
0.05
 66
1
 10
0
 20
0
 30
0
 70
1
  0
VERTEX
  8
LAYER_1
 10
122.5508
 20
41.6777
 42
-0.03246092253
  0
VERTEX
  8
LAYER_1
 10
123.7176
 20
41.7508
 42
-0.08084549745
  0
VERTEX
  8
LAYER_1
 10
124.6741
 20
41.619
 42
-0.07819914268
  0
VERTEX
  8
LAYER_1
 10
125.0374
 20
41.4379
 42
-0.2484709269
  0
VERTEX
  8
LAYER_1
 10
125.4491
 20
40.6497
 42
-0.226147
  0
VERTEX
  8
LAYER_1
 10
125.086
 20
39.8456
 42
-0.109727648
  0
VERTEX
  8
LAYER_1
 10
124.4577
 20
39.5323
 42
-0.06565380896
  0
VERTEX
  8
LAYER_1
 10
123.6473
 20
39.4319
 42
-0.06238309955
  0
VERTEX
  8
LAYER_1
 10
123.1588
 20
39.4653
  0
VERTEX
  8
LAYER_1
 10
123.1588
 20
37.9567
  0
VERTEX
  8
LAYER_1
 10
122.5508
 20
37.9567
  0
SEQEND
  0
POLYLINE
  8
LAYER_1
 40
0.05
 41
0.05
 66
1
 10
0
 20
0
 30
0
 70
1
  0
VERTEX
  8
LAYER_1
 10
123.1588
 20
39.8622
 42
0.04203451964
  0
VERTEX
  8
LAYER_1
 10
123.6611
 20
39.8229
 42
0.1032111168
  0
VERTEX
  8
LAYER_1
 10
124.3803
 20
39.9502
 42
0.1555938032
  0
VERTEX
  8
LAYER_1
 10
124.7451
 20
40.2546
 42
0.1352673748
  0
VERTEX
  8
LAYER_1
 10
124.8421
 20
40.6273
 42
0.1737047371
  0
VERTEX
  8
LAYER_1
 10
124.7073
 20
41.0346
 42
0.1517050813
  0
VERTEX
  8
LAYER_1
 10
124.2862
 20
41.2941
 42
0.06879756253
  0
VERTEX
  8
LAYER_1
 10
123.7317
 20
41.3649
 42
0.06336983159
  0
VERTEX
  8
LAYER_1
 10
123.1588
 20
41.3257
  0
SEQEND
  0
ENDBLK
  0
BLOCK
  8
LAYER_1
  2
AIGNBL0104000B
 70
64
 10
0
 20
0
 30
0
  3
AIGNBL0104000B
  0
POLYLINE
  8
LAYER_1
 40
0.05
 41
0.05
 66
1
 10
0
 20
0
 30
0
 70
1
  0
VERTEX
  8
LAYER_1
 10
127.0011
 20
41.4207
 42
-0.2767461975
  0
VERTEX
  8
LAYER_1
 10
126.8616
 20
41.1806
 42
-0.1265294091
  0
VERTEX
  8
LAYER_1
 10
126.6094
 20
41.1189
 42
-0.2237518698
  0
VERTEX
  8
LAYER_1
 10
126.2991
 20
41.2513
 42
-0.1708341408
  0
VERTEX
  8
LAYER_1
 10
126.2391
 20
41.4207
 42
-0.2643879937
  0
VERTEX
  8
LAYER_1
 10
126.3885
 20
41.6678
 42
-0.1290073663
  0
VERTEX
  8
LAYER_1
 10
126.6232
 20
41.7277
 42
-0.225342086
  0
VERTEX
  8
LAYER_1
 10
126.94
 20
41.597
 42
-0.1691136206
  0
SEQEND
  0
POLYLINE
  8
LAYER_1
 40
0.05
 41
0.05
 66
1
 10
0
 20
0
 30
0
 70
1
  0
VERTEX
  8
LAYER_1
 10
126.3156
 20
37.9567
  0
VERTEX
  8
LAYER_1
 10
126.3156
 20
40.6607
  0
VERTEX
  8
LAYER_1
 10
126.9302
 20
40.6607
  0
VERTEX
  8
LAYER_1
 10
126.9302
 20
37.9567
  0
SEQEND
  0
ENDBLK
  0
BLOCK
  8
LAYER_1
  2
AIGNBL0104000C
 70
64
 10
0
 20
0
 30
0
  3
AIGNBL0104000C
  0
POLYLINE
  8
LAYER_1
 40
0.05
 41
0.05
 66
1
 10
0
 20
0
 30
0
 70
1
  0
VERTEX
  8
LAYER_1
 10
128.8019
 20
39.1418
  0
VERTEX
  8
LAYER_1
 10
128.3137
 20
37.9567
  0
VERTEX
  8
LAYER_1
 10
127.6846
 20
37.9567
  0
VERTEX
  8
LAYER_1
 10
129.2842
 20
41.7225
  0
VERTEX
  8
LAYER_1
 10
130.018
 20
41.7225
  0
VERTEX
  8
LAYER_1
 10
131.6245
 20
37.9567
  0
VERTEX
  8
LAYER_1
 10
130.9747
 20
37.9567
  0
VERTEX
  8
LAYER_1
 10
130.4721
 20
39.1418
  0
SEQEND
  0
POLYLINE
  8
LAYER_1
 40
0.05
 41
0.05
 66
1
 10
0
 20
0
 30
0
 70
1
  0
VERTEX
  8
LAYER_1
 10
130.346
 20
39.5207
  0
VERTEX
  8
LAYER_1
 10
129.885
 20
40.6056
  0
VERTEX
  8
LAYER_1
 10
129.6411
 20
41.2926
  0
VERTEX
  8
LAYER_1
 10
129.6263
 20
41.2926
  0
VERTEX
  8
LAYER_1
 10
129.3893
 20
40.6101
  0
VERTEX
  8
LAYER_1
 10
128.9283
 20
39.5207
  0
SEQEND
  0
ENDBLK
  0
BLOCK
  8
LAYER_1
  2
AIGNBL01030005
 70
64
 10
0
 20
0
 30
0
  3
AIGNBL01030005
  0
INSERT
  8
LAYER_1
  2
AIGNBL01040006
 10
0
 20
0
 30
0
  0
INSERT
  8
LAYER_1
  2
AIGNBL01040007
 10
0
 20
0
 30
0
  0
INSERT
  8
LAYER_1
  2
AIGNBL01040008
 10
0
 20
0
 30
0
  0
INSERT
  8
LAYER_1
  2
AIGNBL01040009
 10
0
 20
0
 30
0
  0
INSERT
  8
LAYER_1
  2
AIGNBL0104000A
 10
0
 20
0
 30
0
  0
INSERT
  8
LAYER_1
  2
AIGNBL0104000B
 10
0
 20
0
 30
0
  0
INSERT
  8
LAYER_1
  2
AIGNBL0104000C
 10
0
 20
0
 30
0
  0
ENDBLK
  0
BLOCK
  8
LAYER_1
  2
AIGNBL0103000E
 70
64
 10
0
 20
0
 30
0
  3
AIGNBL0103000E
  0
POLYLINE
  8
LAYER_1
 40
0.05
 41
0.05
 66
1
 10
0
 20
0
 30
0
 70
1
  0
VERTEX
  8
LAYER_1
 10
104.4241
 20
36.0574
  0
VERTEX
  8
LAYER_1
 10
104.9773
 20
36.0574
  0
VERTEX
  8
LAYER_1
 10
104.9773
 20
35.9637
  0
VERTEX
  8
LAYER_1
 10
104.319
 20
35.9637
  0
VERTEX
  8
LAYER_1
 10
104.319
 20
36.9969
  0
VERTEX
  8
LAYER_1
 10
104.9598
 20
36.9969
  0
VERTEX
  8
LAYER_1
 10
104.9598
 20
36.9035
  0
VERTEX
  8
LAYER_1
 10
104.4241
 20
36.9035
  0
VERTEX
  8
LAYER_1
 10
104.4241
 20
36.549
  0
VERTEX
  8
LAYER_1
 10
104.9246
 20
36.549
  0
VERTEX
  8
LAYER_1
 10
104.9246
 20
36.4557
  0
VERTEX
  8
LAYER_1
 10
104.4241
 20
36.4557
  0
SEQEND
  0
ENDBLK
  0
BLOCK
  8
LAYER_1
  2
AIGNBL0103000F
 70
64
 10
0
 20
0
 30
0
  3
AIGNBL0103000F
  0
POLYLINE
  8
LAYER_1
 40
0.05
 41
0.05
 66
1
 10
0
 20
0
 30
0
 70
1
  0
VERTEX
  8
LAYER_1
 10
106.117
 20
36.117
  0
VERTEX
  8
LAYER_1
 10
106.1197
 20
36.117
  0
VERTEX
  8
LAYER_1
 10
106.1197
 20
36.9969
  0
VERTEX
  8
LAYER_1
 10
106.2248
 20
36.9969
  0
VERTEX
  8
LAYER_1
 10
106.2248
 20
35.9637
  0
VERTEX
  8
LAYER_1
 10
106.0939
 20
35.9637
  0
VERTEX
  8
LAYER_1
 10
105.4927
 20
36.8525
  0
VERTEX
  8
LAYER_1
 10
105.4893
 20
36.8525
  0
VERTEX
  8
LAYER_1
 10
105.4893
 20
35.9637
  0
VERTEX
  8
LAYER_1
 10
105.3845
 20
35.9637
  0
VERTEX
  8
LAYER_1
 10
105.3845
 20
36.9969
  0
VERTEX
  8
LAYER_1
 10
105.5158
 20
36.9969
  0
SEQEND
  0
ENDBLK
  0
BLOCK
  8
LAYER_1
  2
AIGNBL01030010
 70
64
 10
0
 20
0
 30
0
  3
AIGNBL01030010
  0
POLYLINE
  8
LAYER_1
 40
0.05
 41
0.05
 66
1
 10
0
 20
0
 30
0
 70
1
  0
VERTEX
  8
LAYER_1
 10
106.6978
 20
36.1756
  0
VERTEX
  8
LAYER_1
 10
106.7523
 20
36.0725
 42
0.1804993832
  0
VERTEX
  8
LAYER_1
 10
106.8656
 20
36.0309
  0
VERTEX
  8
LAYER_1
 10
106.9548
 20
36.0505
  0
VERTEX
  8
LAYER_1
 10
107.011
 20
36.1039
  0
VERTEX
  8
LAYER_1
 10
107.0399
 20
36.1804
  0
VERTEX
  8
LAYER_1
 10
107.0482
 20
36.27
  0
VERTEX
  8
LAYER_1
 10
107.0482
 20
36.9969
  0
VERTEX
  8
LAYER_1
 10
107.1533
 20
36.9969
  0
VERTEX
  8
LAYER_1
 10
107.1533
 20
36.2614
  0
VERTEX
  8
LAYER_1
 10
107.1419
 20
36.1535
  0
VERTEX
  8
LAYER_1
 10
107.1006
 20
36.0485
  0
VERTEX
  8
LAYER_1
 10
107.0158
 20
35.9689
  0
VERTEX
  8
LAYER_1
 10
106.877
 20
35.9375
 42
-0.1845892347
  0
VERTEX
  8
LAYER_1
 10
106.6923
 20
35.9974
 42
-0.176191571
  0
VERTEX
  8
LAYER_1
 10
106.6
 20
36.149
  0
SEQEND
  0
ENDBLK
  0
BLOCK
  8
LAYER_1
  2
AIGNBL01030011
 70
64
 10
0
 20
0
 30
0
  3
AIGNBL01030011
  0
POLYLINE
  8
LAYER_1
 40
0.05
 41
0.05
 66
1
 10
0
 20
0
 30
0
 70
1
  0
VERTEX
  8
LAYER_1
 10
108.6416
 20
36.4805
 42
-0.10394313
  0
VERTEX
  8
LAYER_1
 10
108.6005
 20
36.2631
 42
-0.1002538824
  0
VERTEX
  8
LAYER_1
 10
108.4879
 20
36.0915
  0
VERTEX
  8
LAYER_1
 10
108.317
 20
35.9785
 42
-0.09506675375
  0
VERTEX
  8
LAYER_1
 10
108.1031
 20
35.9375
 42
-0.1010866674
  0
VERTEX
  8
LAYER_1
 10
107.8895
 20
35.9785
 42
-0.1005668876
  0
VERTEX
  8
LAYER_1
 10
107.7186
 20
36.0915
 42
-0.09506076213
  0
VERTEX
  8
LAYER_1
 10
107.6053
 20
36.2631
 42
-0.09316585798
  0
VERTEX
  8
LAYER_1
 10
107.5646
 20
36.4805
 42
-0.1029152058
  0
VERTEX
  8
LAYER_1
 10
107.6053
 20
36.6978
 42
-0.1008913794
  0
VERTEX
  8
LAYER_1
 10
107.7186
 20
36.8694
 42
-0.09625543395
  0
VERTEX
  8
LAYER_1
 10
107.8895
 20
36.9824
 42
-0.09521573462
  0
VERTEX
  8
LAYER_1
 10
108.1031
 20
37.0234
 42
-0.101175466
  0
VERTEX
  8
LAYER_1
 10
108.317
 20
36.9824
 42
-0.09853409661
  0
VERTEX
  8
LAYER_1
 10
108.4879
 20
36.8694
 42
-0.09556553869
  0
VERTEX
  8
LAYER_1
 10
108.6005
 20
36.6978
 42
-0.09420719768
  0
SEQEND
  0
POLYLINE
  8
LAYER_1
 40
0.05
 41
0.05
 66
1
 10
0
 20
0
 30
0
 70
1
  0
VERTEX
  8
LAYER_1
 10
108.5306
 20
36.4798
  0
VERTEX
  8
LAYER_1
 10
108.5017
 20
36.6517
  0
VERTEX
  8
LAYER_1
 10
108.4169
 20
36.795
  0
VERTEX
  8
LAYER_1
 10
108.2819
 20
36.8932
  0
VERTEX
  8
LAYER_1
 10
108.1031
 20
36.93
  0
VERTEX
  8
LAYER_1
 10
107.9243
 20
36.8932
  0
VERTEX
  8
LAYER_1
 10
107.7896
 20
36.795
  0
VERTEX
  8
LAYER_1
 10
107.7048
 20
36.6517
  0
VERTEX
  8
LAYER_1
 10
107.6755
 20
36.4798
  0
VERTEX
  8
LAYER_1
 10
107.7048
 20
36.3079
  0
VERTEX
  8
LAYER_1
 10
107.7896
 20
36.1649
  0
VERTEX
  8
LAYER_1
 10
107.9243
 20
36.0674
 42
0.1008280473
  0
VERTEX
  8
LAYER_1
 10
108.1031
 20
36.0309
  0
VERTEX
  8
LAYER_1
 10
108.2819
 20
36.0674
  0
VERTEX
  8
LAYER_1
 10
108.4169
 20
36.1649
  0
VERTEX
  8
LAYER_1
 10
108.5017
 20
36.3079
  0
SEQEND
  0
ENDBLK
  0
BLOCK
  8
LAYER_1
  2
AIGNBL01030012
 70
64
 10
0
 20
0
 30
0
  3
AIGNBL01030012
  0
POLYLINE
  8
LAYER_1
 40
0.05
 41
0.05
 66
1
 10
0
 20
0
 30
0
 70
1
  0
VERTEX
  8
LAYER_1
 10
109.4163
 20
35.9637
  0
VERTEX
  8
LAYER_1
 10
109.3116
 20
35.9637
  0
VERTEX
  8
LAYER_1
 10
109.3116
 20
36.4091
  0
VERTEX
  8
LAYER_1
 10
108.9247
 20
36.9969
  0
VERTEX
  8
LAYER_1
 10
109.056
 20
36.9969
  0
VERTEX
  8
LAYER_1
 10
109.3671
 20
36.4967
  0
VERTEX
  8
LAYER_1
 10
109.6806
 20
36.9969
  0
VERTEX
  8
LAYER_1
 10
109.8029
 20
36.9969
  0
VERTEX
  8
LAYER_1
 10
109.4163
 20
36.4091
  0
SEQEND
  0
ENDBLK
  0
BLOCK
  8
LAYER_1
  2
AIGNBL01030013
 70
64
 10
0
 20
0
 30
0
  3
AIGNBL01030013
  0
POLYLINE
  8
LAYER_1
 40
0.05
 41
0.05
 66
1
 10
0
 20
0
 30
0
 70
1
  0
VERTEX
  8
LAYER_1
 10
110.7079
 20
36.9969
  0
VERTEX
  8
LAYER_1
 10
111.0155
 20
36.9969
  0
VERTEX
  8
LAYER_1
 10
111.1341
 20
36.9845
  0
VERTEX
  8
LAYER_1
 10
111.2409
 20
36.9421
  0
VERTEX
  8
LAYER_1
 10
111.3187
 20
36.8611
  0
VERTEX
  8
LAYER_1
 10
111.3483
 20
36.733
 42
-0.1790346201
  0
VERTEX
  8
LAYER_1
 10
111.2984
 20
36.5907
 42
-0.1642259289
  0
VERTEX
  8
LAYER_1
 10
111.1651
 20
36.5111
  0
VERTEX
  8
LAYER_1
 10
111.1651
 20
36.5084
 42
-0.1734673322
  0
VERTEX
  8
LAYER_1
 10
111.3318
 20
36.4302
 42
-0.1921994171
  0
VERTEX
  8
LAYER_1
 10
111.3979
 20
36.2496
  0
VERTEX
  8
LAYER_1
 10
111.3708
 20
36.1325
  0
VERTEX
  8
LAYER_1
 10
111.2946
 20
36.0419
  0
VERTEX
  8
LAYER_1
 10
111.1737
 20
35.9844
  0
VERTEX
  8
LAYER_1
 10
111.0138
 20
35.9637
  0
VERTEX
  8
LAYER_1
 10
110.7079
 20
35.9637
  0
SEQEND
  0
POLYLINE
  8
LAYER_1
 40
0.05
 41
0.05
 66
1
 10
0
 20
0
 30
0
 70
1
  0
VERTEX
  8
LAYER_1
 10
110.813
 20
36.5445
  0
VERTEX
  8
LAYER_1
 10
111.0245
 20
36.5445
  0
VERTEX
  8
LAYER_1
 10
111.1013
 20
36.5535
  0
VERTEX
  8
LAYER_1
 10
111.1716
 20
36.5831
  0
VERTEX
  8
LAYER_1
 10
111.2236
 20
36.6396
  0
VERTEX
  8
LAYER_1
 10
111.2433
 20
36.7258
  0
VERTEX
  8
LAYER_1
 10
111.2236
 20
36.8095
  0
VERTEX
  8
LAYER_1
 10
111.1706
 20
36.8656
  0
VERTEX
  8
LAYER_1
 10
111.0917
 20
36.897
  0
VERTEX
  8
LAYER_1
 10
110.9952
 20
36.9066
  0
VERTEX
  8
LAYER_1
 10
110.813
 20
36.9066
  0
SEQEND
  0
POLYLINE
  8
LAYER_1
 40
0.05
 41
0.05
 66
1
 10
0
 20
0
 30
0
 70
1
  0
VERTEX
  8
LAYER_1
 10
110.813
 20
36.0543
  0
VERTEX
  8
LAYER_1
 10
111.0087
 20
36.0543
  0
VERTEX
  8
LAYER_1
 10
111.1172
 20
36.0653
  0
VERTEX
  8
LAYER_1
 10
111.2078
 20
36.1001
  0
VERTEX
  8
LAYER_1
 10
111.2695
 20
36.1632
  0
VERTEX
  8
LAYER_1
 10
111.2929
 20
36.2559
 42
0.2557371221
  0
VERTEX
  8
LAYER_1
 10
111.2236
 20
36.4081
 42
0.1381508151
  0
VERTEX
  8
LAYER_1
 10
111.0276
 20
36.4584
  0
VERTEX
  8
LAYER_1
 10
110.813
 20
36.4584
  0
SEQEND
  0
ENDBLK
  0
BLOCK
  8
LAYER_1
  2
AIGNBL01030014
 70
64
 10
0
 20
0
 30
0
  3
AIGNBL01030014
  0
POLYLINE
  8
LAYER_1
 40
0.05
 41
0.05
 66
1
 10
0
 20
0
 30
0
 70
1
  0
VERTEX
  8
LAYER_1
 10
111.83
 20
35.9637
  0
VERTEX
  8
LAYER_1
 10
111.7146
 20
35.9637
  0
VERTEX
  8
LAYER_1
 10
112.1614
 20
36.9969
  0
VERTEX
  8
LAYER_1
 10
112.2637
 20
36.9969
  0
VERTEX
  8
LAYER_1
 10
112.7071
 20
35.9637
  0
VERTEX
  8
LAYER_1
 10
112.5903
 20
35.9637
  0
VERTEX
  8
LAYER_1
 10
112.4763
 20
36.2352
  0
VERTEX
  8
LAYER_1
 10
111.9423
 20
36.2352
  0
SEQEND
  0
POLYLINE
  8
LAYER_1
 40
0.05
 41
0.05
 66
1
 10
0
 20
0
 30
0
 70
1
  0
VERTEX
  8
LAYER_1
 10
111.9815
 20
36.3316
  0
VERTEX
  8
LAYER_1
 10
112.437
 20
36.3316
  0
VERTEX
  8
LAYER_1
 10
112.2093
 20
36.8804
  0
SEQEND
  0
ENDBLK
  0
BLOCK
  8
LAYER_1
  2
AIGNBL01030015
 70
64
 10
0
 20
0
 30
0
  3
AIGNBL01030015
  0
POLYLINE
  8
LAYER_1
 40
0.05
 41
0.05
 66
1
 10
0
 20
0
 30
0
 70
1
  0
VERTEX
  8
LAYER_1
 10
113.3916
 20
35.9637
  0
VERTEX
  8
LAYER_1
 10
113.2865
 20
35.9637
  0
VERTEX
  8
LAYER_1
 10
113.2865
 20
36.9035
  0
VERTEX
  8
LAYER_1
 10
112.9403
 20
36.9035
  0
VERTEX
  8
LAYER_1
 10
112.9403
 20
36.9969
  0
VERTEX
  8
LAYER_1
 10
113.7372
 20
36.9969
  0
VERTEX
  8
LAYER_1
 10
113.7372
 20
36.9035
  0
VERTEX
  8
LAYER_1
 10
113.3916
 20
36.9035
  0
SEQEND
  0
ENDBLK
  0
BLOCK
  8
LAYER_1
  2
AIGNBL01030016
 70
64
 10
0
 20
0
 30
0
  3
AIGNBL01030016
  0
POLYLINE
  8
LAYER_1
 40
0.05
 41
0.05
 66
1
 10
0
 20
0
 30
0
 70
1
  0
VERTEX
  8
LAYER_1
 10
114.0934
 20
36.9969
  0
VERTEX
  8
LAYER_1
 10
114.1981
 20
36.9969
  0
VERTEX
  8
LAYER_1
 10
114.1981
 20
36.549
  0
VERTEX
  8
LAYER_1
 10
114.7618
 20
36.549
  0
VERTEX
  8
LAYER_1
 10
114.7618
 20
36.9969
  0
VERTEX
  8
LAYER_1
 10
114.8668
 20
36.9969
  0
VERTEX
  8
LAYER_1
 10
114.8668
 20
35.9637
  0
VERTEX
  8
LAYER_1
 10
114.7618
 20
35.9637
  0
VERTEX
  8
LAYER_1
 10
114.7618
 20
36.4529
  0
VERTEX
  8
LAYER_1
 10
114.1981
 20
36.4529
  0
VERTEX
  8
LAYER_1
 10
114.1981
 20
35.9637
  0
VERTEX
  8
LAYER_1
 10
114.0934
 20
35.9637
  0
SEQEND
  0
ENDBLK
  0
BLOCK
  8
LAYER_1
  2
AIGNBL01030017
 70
64
 10
0
 20
0
 30
0
  3
AIGNBL01030017
  0
POLYLINE
  8
LAYER_1
 40
0.05
 41
0.05
 66
1
 10
0
 20
0
 30
0
 70
1
  0
VERTEX
  8
LAYER_1
 10
115.4473
 20
35.9637
  0
VERTEX
  8
LAYER_1
 10
115.3423
 20
35.9637
  0
VERTEX
  8
LAYER_1
 10
115.3423
 20
36.9969
  0
VERTEX
  8
LAYER_1
 10
115.6461
 20
36.9969
  0
VERTEX
  8
LAYER_1
 10
115.7867
 20
36.9824
  0
VERTEX
  8
LAYER_1
 10
115.8993
 20
36.9349
  0
VERTEX
  8
LAYER_1
 10
115.9727
 20
36.8494
  0
VERTEX
  8
LAYER_1
 10
115.9989
 20
36.7213
  0
VERTEX
  8
LAYER_1
 10
115.9789
 20
36.6176
  0
VERTEX
  8
LAYER_1
 10
115.9235
 20
36.5366
  0
VERTEX
  8
LAYER_1
 10
115.8401
 20
36.4818
  0
VERTEX
  8
LAYER_1
 10
115.735
 20
36.4557
  0
VERTEX
  8
LAYER_1
 10
116.0371
 20
35.9637
  0
VERTEX
  8
LAYER_1
 10
115.9086
 20
35.9637
  0
VERTEX
  8
LAYER_1
 10
115.6227
 20
36.4467
  0
VERTEX
  8
LAYER_1
 10
115.4473
 20
36.4467
  0
SEQEND
  0
POLYLINE
  8
LAYER_1
 40
0.05
 41
0.05
 66
1
 10
0
 20
0
 30
0
 70
1
  0
VERTEX
  8
LAYER_1
 10
115.4473
 20
36.5373
  0
VERTEX
  8
LAYER_1
 10
115.6299
 20
36.5373
 42
0.1654500383
  0
VERTEX
  8
LAYER_1
 10
115.8256
 20
36.5831
 42
0.2503949893
  0
VERTEX
  8
LAYER_1
 10
115.8942
 20
36.7213
  0
VERTEX
  8
LAYER_1
 10
115.8749
 20
36.8071
  0
VERTEX
  8
LAYER_1
 10
115.8225
 20
36.8643
  0
VERTEX
  8
LAYER_1
 10
115.7409
 20
36.8963
  0
VERTEX
  8
LAYER_1
 10
115.6344
 20
36.9066
  0
VERTEX
  8
LAYER_1
 10
115.4473
 20
36.9066
  0
SEQEND
  0
ENDBLK
  0
BLOCK
  8
LAYER_1
  2
AIGNBL01030018
 70
64
 10
0
 20
0
 30
0
  3
AIGNBL01030018
  0
POLYLINE
  8
LAYER_1
 40
0.05
 41
0.05
 66
1
 10
0
 20
0
 30
0
 70
1
  0
VERTEX
  8
LAYER_1
 10
117.4393
 20
36.4805
 42
-0.1005163161
  0
VERTEX
  8
LAYER_1
 10
117.3986
 20
36.2631
 42
-0.1003846159
  0
VERTEX
  8
LAYER_1
 10
117.2853
 20
36.0915
 42
-0.09584766738
  0
VERTEX
  8
LAYER_1
 10
117.1147
 20
35.9785
 42
-0.09506713234
  0
VERTEX
  8
LAYER_1
 10
116.9008
 20
35.9375
 42
-0.101175466
  0
VERTEX
  8
LAYER_1
 10
116.6869
 20
35.9785
 42
-0.09967088569
  0
VERTEX
  8
LAYER_1
 10
116.5163
 20
36.0915
 42
-0.09574135652
  0
VERTEX
  8
LAYER_1
 10
116.4033
 20
36.2631
 42
-0.09293305267
  0
VERTEX
  8
LAYER_1
 10
116.3627
 20
36.4805
 42
-0.1024980643
  0
VERTEX
  8
LAYER_1
 10
116.4033
 20
36.6978
 42
-0.1015030268
  0
VERTEX
  8
LAYER_1
 10
116.5163
 20
36.8694
 42
-0.09577113234
  0
VERTEX
  8
LAYER_1
 10
116.6869
 20
36.9824
 42
-0.09506675375
  0
VERTEX
  8
LAYER_1
 10
116.9008
 20
37.0234
 42
-0.1014233705
  0
VERTEX
  8
LAYER_1
 10
117.1147
 20
36.9824
 42
-0.1017041996
  0
VERTEX
  8
LAYER_1
 10
117.2853
 20
36.8694
 42
-0.09506500802
  0
VERTEX
  8
LAYER_1
 10
117.3986
 20
36.6978
 42
-0.09299771213
  0
SEQEND
  0
POLYLINE
  8
LAYER_1
 40
0.05
 41
0.05
 66
1
 10
0
 20
0
 30
0
 70
1
  0
VERTEX
  8
LAYER_1
 10
117.3284
 20
36.4798
  0
VERTEX
  8
LAYER_1
 10
117.2991
 20
36.6517
  0
VERTEX
  8
LAYER_1
 10
117.2143
 20
36.795
  0
VERTEX
  8
LAYER_1
 10
117.0796
 20
36.8932
  0
VERTEX
  8
LAYER_1
 10
116.9008
 20
36.93
  0
VERTEX
  8
LAYER_1
 10
116.722
 20
36.8932
  0
VERTEX
  8
LAYER_1
 10
116.587
 20
36.795
  0
VERTEX
  8
LAYER_1
 10
116.5022
 20
36.6517
  0
VERTEX
  8
LAYER_1
 10
116.4733
 20
36.4798
  0
VERTEX
  8
LAYER_1
 10
116.5022
 20
36.3079
  0
VERTEX
  8
LAYER_1
 10
116.587
 20
36.1649
  0
VERTEX
  8
LAYER_1
 10
116.722
 20
36.0674
  0
VERTEX
  8
LAYER_1
 10
116.9008
 20
36.0309
 42
0.1157330551
  0
VERTEX
  8
LAYER_1
 10
117.0796
 20
36.0674
  0
VERTEX
  8
LAYER_1
 10
117.2143
 20
36.1649
  0
VERTEX
  8
LAYER_1
 10
117.2991
 20
36.3079
  0
SEQEND
  0
ENDBLK
  0
BLOCK
  8
LAYER_1
  2
AIGNBL01030019
 70
64
 10
0
 20
0
 30
0
  3
AIGNBL01030019
  0
POLYLINE
  8
LAYER_1
 40
0.05
 41
0.05
 66
1
 10
0
 20
0
 30
0
 70
1
  0
VERTEX
  8
LAYER_1
 10
118.881
 20
36.4805
 42
-0.1041417444
  0
VERTEX
  8
LAYER_1
 10
118.84
 20
36.2631
 42
-0.1002538824
  0
VERTEX
  8
LAYER_1
 10
118.7274
 20
36.0915
 42
-0.09536265516
  0
VERTEX
  8
LAYER_1
 10
118.5565
 20
35.9785
 42
-0.09506675375
  0
VERTEX
  8
LAYER_1
 10
118.3426
 20
35.9375
 42
-0.101822328
  0
VERTEX
  8
LAYER_1
 10
118.129
 20
35.9785
 42
-0.102112669
  0
VERTEX
  8
LAYER_1
 10
117.9581
 20
36.0915
 42
-0.09462334812
  0
VERTEX
  8
LAYER_1
 10
117.8447
 20
36.2631
 42
-0.09290316602
  0
VERTEX
  8
LAYER_1
 10
117.8041
 20
36.4805
 42
-0.1018782207
  0
VERTEX
  8
LAYER_1
 10
117.8447
 20
36.6978
 42
-0.1006850025
  0
VERTEX
  8
LAYER_1
 10
117.9581
 20
36.8694
 42
-0.09625543395
  0
VERTEX
  8
LAYER_1
 10
118.129
 20
36.9824
 42
-0.09528409444
  0
VERTEX
  8
LAYER_1
 10
118.3426
 20
37.0234
 42
-0.101175466
  0
VERTEX
  8
LAYER_1
 10
118.5565
 20
36.9824
 42
-0.09853409661
  0
VERTEX
  8
LAYER_1
 10
118.7274
 20
36.8694
 42
-0.09556553869
  0
VERTEX
  8
LAYER_1
 10
118.84
 20
36.6978
 42
-0.09400765476
  0
SEQEND
  0
POLYLINE
  8
LAYER_1
 40
0.05
 41
0.05
 66
1
 10
0
 20
0
 30
0
 70
1
  0
VERTEX
  8
LAYER_1
 10
118.7701
 20
36.4798
  0
VERTEX
  8
LAYER_1
 10
118.7412
 20
36.6517
  0
VERTEX
  8
LAYER_1
 10
118.6564
 20
36.795
  0
VERTEX
  8
LAYER_1
 10
118.5214
 20
36.8932
  0
VERTEX
  8
LAYER_1
 10
118.3426
 20
36.93
  0
VERTEX
  8
LAYER_1
 10
118.1638
 20
36.8932
  0
VERTEX
  8
LAYER_1
 10
118.0291
 20
36.795
  0
VERTEX
  8
LAYER_1
 10
117.9443
 20
36.6517
  0
VERTEX
  8
LAYER_1
 10
117.9151
 20
36.4798
  0
VERTEX
  8
LAYER_1
 10
117.9443
 20
36.3079
  0
VERTEX
  8
LAYER_1
 10
118.0291
 20
36.1649
  0
VERTEX
  8
LAYER_1
 10
118.1638
 20
36.0674
 42
0.1008280473
  0
VERTEX
  8
LAYER_1
 10
118.3426
 20
36.0309
  0
VERTEX
  8
LAYER_1
 10
118.5214
 20
36.0674
  0
VERTEX
  8
LAYER_1
 10
118.6564
 20
36.1649
  0
VERTEX
  8
LAYER_1
 10
118.7412
 20
36.3079
  0
SEQEND
  0
ENDBLK
  0
BLOCK
  8
LAYER_1
  2
AIGNBL0103001A
 70
64
 10
0
 20
0
 30
0
  3
AIGNBL0103001A
  0
POLYLINE
  8
LAYER_1
 40
0.05
 41
0.05
 66
1
 10
0
 20
0
 30
0
 70
1
  0
VERTEX
  8
LAYER_1
 10
119.8119
 20
36.1418
  0
VERTEX
  8
LAYER_1
 10
119.8136
 20
36.1418
  0
VERTEX
  8
LAYER_1
 10
120.1592
 20
36.9969
  0
VERTEX
  8
LAYER_1
 10
120.3201
 20
36.9969
  0
VERTEX
  8
LAYER_1
 10
120.3201
 20
35.9637
  0
VERTEX
  8
LAYER_1
 10
120.2146
 20
35.9637
  0
VERTEX
  8
LAYER_1
 10
120.2146
 20
36.8611
  0
VERTEX
  8
LAYER_1
 10
120.2119
 20
36.8611
  0
VERTEX
  8
LAYER_1
 10
119.8384
 20
35.9637
  0
VERTEX
  8
LAYER_1
 10
119.783
 20
35.9637
  0
VERTEX
  8
LAYER_1
 10
119.4092
 20
36.8611
  0
VERTEX
  8
LAYER_1
 10
119.4064
 20
36.8611
  0
VERTEX
  8
LAYER_1
 10
119.4064
 20
35.9637
  0
VERTEX
  8
LAYER_1
 10
119.3014
 20
35.9637
  0
VERTEX
  8
LAYER_1
 10
119.3014
 20
36.9969
  0
VERTEX
  8
LAYER_1
 10
119.4619
 20
36.9969
  0
SEQEND
  0
ENDBLK
  0
BLOCK
  8
LAYER_1
  2
AIGNBL0103001B
 70
64
 10
0
 20
0
 30
0
  3
AIGNBL0103001B
  0
POLYLINE
  8
LAYER_1
 40
0.05
 41
0.05
 66
1
 10
0
 20
0
 30
0
 70
1
  0
VERTEX
  8
LAYER_1
 10
121.4666
 20
36.0574
  0
VERTEX
  8
LAYER_1
 10
122.0199
 20
36.0574
  0
VERTEX
  8
LAYER_1
 10
122.0199
 20
35.9637
  0
VERTEX
  8
LAYER_1
 10
121.3615
 20
35.9637
  0
VERTEX
  8
LAYER_1
 10
121.3615
 20
36.9969
  0
VERTEX
  8
LAYER_1
 10
122.0023
 20
36.9969
  0
VERTEX
  8
LAYER_1
 10
122.0023
 20
36.9035
  0
VERTEX
  8
LAYER_1
 10
121.4666
 20
36.9035
  0
VERTEX
  8
LAYER_1
 10
121.4666
 20
36.549
  0
VERTEX
  8
LAYER_1
 10
121.9672
 20
36.549
  0
VERTEX
  8
LAYER_1
 10
121.9672
 20
36.4557
  0
VERTEX
  8
LAYER_1
 10
121.4666
 20
36.4557
  0
SEQEND
  0
ENDBLK
  0
BLOCK
  8
LAYER_1
  2
AIGNBL0103001C
 70
64
 10
0
 20
0
 30
0
  3
AIGNBL0103001C
  0
POLYLINE
  8
LAYER_1
 40
0.05
 41
0.05
 66
1
 10
0
 20
0
 30
0
 70
1
  0
VERTEX
  8
LAYER_1
 10
122.765
 20
36.5797
  0
VERTEX
  8
LAYER_1
 10
123.0472
 20
36.9969
  0
VERTEX
  8
LAYER_1
 10
123.1723
 20
36.9969
  0
VERTEX
  8
LAYER_1
 10
122.8298
 20
36.5053
  0
VERTEX
  8
LAYER_1
 10
123.2091
 20
35.9637
  0
VERTEX
  8
LAYER_1
 10
123.0779
 20
35.9637
  0
VERTEX
  8
LAYER_1
 10
122.7623
 20
36.4295
  0
VERTEX
  8
LAYER_1
 10
122.4488
 20
35.9637
  0
VERTEX
  8
LAYER_1
 10
122.3172
 20
35.9637
  0
VERTEX
  8
LAYER_1
 10
122.6969
 20
36.5066
  0
VERTEX
  8
LAYER_1
 10
122.351
 20
36.9969
  0
VERTEX
  8
LAYER_1
 10
122.4825
 20
36.9969
  0
SEQEND
  0
ENDBLK
  0
BLOCK
  8
LAYER_1
  2
AIGNBL0103001D
 70
64
 10
0
 20
0
 30
0
  3
AIGNBL0103001D
  0
POLYLINE
  8
LAYER_1
 40
0.05
 41
0.05
 66
1
 10
0
 20
0
 30
0
 70
1
  0
VERTEX
  8
LAYER_1
 10
123.5753
 20
36.9969
  0
VERTEX
  8
LAYER_1
 10
123.8675
 20
36.9969
  0
VERTEX
  8
LAYER_1
 10
124.0105
 20
36.9804
  0
VERTEX
  8
LAYER_1
 10
124.1203
 20
36.929
  0
VERTEX
  8
LAYER_1
 10
124.1913
 20
36.8429
  0
VERTEX
  8
LAYER_1
 10
124.2158
 20
36.7213
  0
VERTEX
  8
LAYER_1
 10
124.1906
 20
36.5993
  0
VERTEX
  8
LAYER_1
 10
124.119
 20
36.5132
  0
VERTEX
  8
LAYER_1
 10
124.0081
 20
36.4615
  0
VERTEX
  8
LAYER_1
 10
123.8644
 20
36.444
  0
VERTEX
  8
LAYER_1
 10
123.6804
 20
36.444
  0
VERTEX
  8
LAYER_1
 10
123.6804
 20
35.9637
  0
VERTEX
  8
LAYER_1
 10
123.5753
 20
35.9637
  0
SEQEND
  0
POLYLINE
  8
LAYER_1
 40
0.05
 41
0.05
 66
1
 10
0
 20
0
 30
0
 70
1
  0
VERTEX
  8
LAYER_1
 10
123.6804
 20
36.5328
  0
VERTEX
  8
LAYER_1
 10
123.8582
 20
36.5328
 42
0.1829203509
  0
VERTEX
  8
LAYER_1
 10
124.0466
 20
36.581
 42
0.2345943979
  0
VERTEX
  8
LAYER_1
 10
124.111
 20
36.7213
 42
0.2650437466
  0
VERTEX
  8
LAYER_1
 10
124.0446
 20
36.8622
 42
0.1264027561
  0
VERTEX
  8
LAYER_1
 10
123.8582
 20
36.9066
  0
VERTEX
  8
LAYER_1
 10
123.6804
 20
36.9066
  0
SEQEND
  0
ENDBLK
  0
BLOCK
  8
LAYER_1
  2
AIGNBL0103001E
 70
64
 10
0
 20
0
 30
0
  3
AIGNBL0103001E
  0
POLYLINE
  8
LAYER_1
 40
0.05
 41
0.05
 66
1
 10
0
 20
0
 30
0
 70
1
  0
VERTEX
  8
LAYER_1
 10
124.7281
 20
36.0574
  0
VERTEX
  8
LAYER_1
 10
125.2813
 20
36.0574
  0
VERTEX
  8
LAYER_1
 10
125.2813
 20
35.9637
  0
VERTEX
  8
LAYER_1
 10
124.623
 20
35.9637
  0
VERTEX
  8
LAYER_1
 10
124.623
 20
36.9969
  0
VERTEX
  8
LAYER_1
 10
125.2638
 20
36.9969
  0
VERTEX
  8
LAYER_1
 10
125.2638
 20
36.9035
  0
VERTEX
  8
LAYER_1
 10
124.7281
 20
36.9035
  0
VERTEX
  8
LAYER_1
 10
124.7281
 20
36.549
  0
VERTEX
  8
LAYER_1
 10
125.2286
 20
36.549
  0
VERTEX
  8
LAYER_1
 10
125.2286
 20
36.4557
  0
VERTEX
  8
LAYER_1
 10
124.7281
 20
36.4557
  0
SEQEND
  0
ENDBLK
  0
BLOCK
  8
LAYER_1
  2
AIGNBL0103001F
 70
64
 10
0
 20
0
 30
0
  3
AIGNBL0103001F
  0
POLYLINE
  8
LAYER_1
 40
0.05
 41
0.05
 66
1
 10
0
 20
0
 30
0
 70
1
  0
VERTEX
  8
LAYER_1
 10
125.7933
 20
35.9637
  0
VERTEX
  8
LAYER_1
 10
125.6882
 20
35.9637
  0
VERTEX
  8
LAYER_1
 10
125.6882
 20
36.9969
  0
VERTEX
  8
LAYER_1
 10
125.9921
 20
36.9969
  0
VERTEX
  8
LAYER_1
 10
126.1326
 20
36.9824
  0
VERTEX
  8
LAYER_1
 10
126.2453
 20
36.9349
  0
VERTEX
  8
LAYER_1
 10
126.319
 20
36.8494
  0
VERTEX
  8
LAYER_1
 10
126.3449
 20
36.7213
  0
VERTEX
  8
LAYER_1
 10
126.3249
 20
36.6176
  0
VERTEX
  8
LAYER_1
 10
126.2694
 20
36.5366
  0
VERTEX
  8
LAYER_1
 10
126.186
 20
36.4818
  0
VERTEX
  8
LAYER_1
 10
126.0809
 20
36.4557
  0
VERTEX
  8
LAYER_1
 10
126.3831
 20
35.9637
  0
VERTEX
  8
LAYER_1
 10
126.2546
 20
35.9637
  0
VERTEX
  8
LAYER_1
 10
125.9687
 20
36.4467
  0
VERTEX
  8
LAYER_1
 10
125.7933
 20
36.4467
  0
SEQEND
  0
POLYLINE
  8
LAYER_1
 40
0.05
 41
0.05
 66
1
 10
0
 20
0
 30
0
 70
1
  0
VERTEX
  8
LAYER_1
 10
125.7933
 20
36.5373
  0
VERTEX
  8
LAYER_1
 10
125.9759
 20
36.5373
 42
0.1663801652
  0
VERTEX
  8
LAYER_1
 10
126.1716
 20
36.5831
 42
0.2503091692
  0
VERTEX
  8
LAYER_1
 10
126.2401
 20
36.7213
  0
VERTEX
  8
LAYER_1
 10
126.2212
 20
36.8071
  0
VERTEX
  8
LAYER_1
 10
126.1685
 20
36.8643
  0
VERTEX
  8
LAYER_1
 10
126.0868
 20
36.8963
  0
VERTEX
  8
LAYER_1
 10
125.9804
 20
36.9066
  0
VERTEX
  8
LAYER_1
 10
125.7933
 20
36.9066
  0
SEQEND
  0
ENDBLK
  0
BLOCK
  8
LAYER_1
  2
AIGNBL01030020
 70
64
 10
0
 20
0
 30
0
  3
AIGNBL01030020
  0
POLYLINE
  8
LAYER_1
 40
0.05
 41
0.05
 66
1
 10
0
 20
0
 30
0
 70
1
  0
VERTEX
  8
LAYER_1
 10
126.8688
 20
35.9637
  0
VERTEX
  8
LAYER_1
 10
126.7641
 20
35.9637
  0
VERTEX
  8
LAYER_1
 10
126.7641
 20
36.9969
  0
VERTEX
  8
LAYER_1
 10
126.8688
 20
36.9969
  0
SEQEND
  0
ENDBLK
  0
BLOCK
  8
LAYER_1
  2
AIGNBL01030021
 70
64
 10
0
 20
0
 30
0
  3
AIGNBL01030021
  0
POLYLINE
  8
LAYER_1
 40
0.05
 41
0.05
 66
1
 10
0
 20
0
 30
0
 70
1
  0
VERTEX
  8
LAYER_1
 10
127.4497
 20
36.0574
  0
VERTEX
  8
LAYER_1
 10
128.0026
 20
36.0574
  0
VERTEX
  8
LAYER_1
 10
128.0026
 20
35.9637
  0
VERTEX
  8
LAYER_1
 10
127.3446
 20
35.9637
  0
VERTEX
  8
LAYER_1
 10
127.3446
 20
36.9969
  0
VERTEX
  8
LAYER_1
 10
127.9854
 20
36.9969
  0
VERTEX
  8
LAYER_1
 10
127.9854
 20
36.9035
  0
VERTEX
  8
LAYER_1
 10
127.4497
 20
36.9035
  0
VERTEX
  8
LAYER_1
 10
127.4497
 20
36.549
  0
VERTEX
  8
LAYER_1
 10
127.9503
 20
36.549
  0
VERTEX
  8
LAYER_1
 10
127.9503
 20
36.4557
  0
VERTEX
  8
LAYER_1
 10
127.4497
 20
36.4557
  0
SEQEND
  0
ENDBLK
  0
BLOCK
  8
LAYER_1
  2
AIGNBL01030022
 70
64
 10
0
 20
0
 30
0
  3
AIGNBL01030022
  0
POLYLINE
  8
LAYER_1
 40
0.05
 41
0.05
 66
1
 10
0
 20
0
 30
0
 70
1
  0
VERTEX
  8
LAYER_1
 10
129.1426
 20
36.117
  0
VERTEX
  8
LAYER_1
 10
129.1454
 20
36.117
  0
VERTEX
  8
LAYER_1
 10
129.1454
 20
36.9969
  0
VERTEX
  8
LAYER_1
 10
129.2504
 20
36.9969
  0
VERTEX
  8
LAYER_1
 10
129.2504
 20
35.9637
  0
VERTEX
  8
LAYER_1
 10
129.1192
 20
35.9637
  0
VERTEX
  8
LAYER_1
 10
128.518
 20
36.8525
  0
VERTEX
  8
LAYER_1
 10
128.5149
 20
36.8525
  0
VERTEX
  8
LAYER_1
 10
128.5149
 20
35.9637
  0
VERTEX
  8
LAYER_1
 10
128.4098
 20
35.9637
  0
VERTEX
  8
LAYER_1
 10
128.4098
 20
36.9969
  0
VERTEX
  8
LAYER_1
 10
128.5414
 20
36.9969
  0
SEQEND
  0
ENDBLK
  0
BLOCK
  8
LAYER_1
  2
AIGNBL01030023
 70
64
 10
0
 20
0
 30
0
  3
AIGNBL01030023
  0
POLYLINE
  8
LAYER_1
 40
0.05
 41
0.05
 66
1
 10
0
 20
0
 30
0
 70
1
  0
VERTEX
  8
LAYER_1
 10
130.5961
 20
36.1315
  0
VERTEX
  8
LAYER_1
 10
130.5324
 20
36.0571
  0
VERTEX
  8
LAYER_1
 10
130.4463
 20
35.9954
  0
VERTEX
  8
LAYER_1
 10
130.3381
 20
35.953
  0
VERTEX
  8
LAYER_1
 10
130.2092
 20
35.9375
 42
-0.1009408553
  0
VERTEX
  8
LAYER_1
 10
129.9932
 20
35.9785
 42
-0.1036559164
  0
VERTEX
  8
LAYER_1
 10
129.8227
 20
36.0915
 42
-0.09812017057
  0
VERTEX
  8
LAYER_1
 10
129.7111
 20
36.2631
 42
-0.09255697562
  0
VERTEX
  8
LAYER_1
 10
129.6707
 20
36.4805
 42
-0.1035456296
  0
VERTEX
  8
LAYER_1
 10
129.7117
 20
36.6978
 42
-0.1005534539
  0
VERTEX
  8
LAYER_1
 10
129.8244
 20
36.8694
 42
-0.09536265516
  0
VERTEX
  8
LAYER_1
 10
129.9953
 20
36.9824
 42
-0.09506675375
  0
VERTEX
  8
LAYER_1
 10
130.2092
 20
37.0234
  0
VERTEX
  8
LAYER_1
 10
130.3208
 20
37.0114
  0
VERTEX
  8
LAYER_1
 10
130.4239
 20
36.9779
  0
VERTEX
  8
LAYER_1
 10
130.5113
 20
36.9263
  0
VERTEX
  8
LAYER_1
 10
130.5771
 20
36.8584
  0
VERTEX
  8
LAYER_1
 10
130.4896
 20
36.794
  0
VERTEX
  8
LAYER_1
 10
130.4463
 20
36.8439
  0
VERTEX
  8
LAYER_1
 10
130.3829
 20
36.8877
  0
VERTEX
  8
LAYER_1
 10
130.3033
 20
36.9183
  0
VERTEX
  8
LAYER_1
 10
130.2106
 20
36.93
  0
VERTEX
  8
LAYER_1
 10
130.0304
 20
36.8935
  0
VERTEX
  8
LAYER_1
 10
129.8954
 20
36.7954
  0
VERTEX
  8
LAYER_1
 10
129.8106
 20
36.652
  0
VERTEX
  8
LAYER_1
 10
129.7817
 20
36.4805
  0
VERTEX
  8
LAYER_1
 10
129.8116
 20
36.3089
  0
VERTEX
  8
LAYER_1
 10
129.8971
 20
36.1656
  0
VERTEX
  8
LAYER_1
 10
130.0321
 20
36.0674
 42
0.1009931409
  0
VERTEX
  8
LAYER_1
 10
130.2106
 20
36.0309
  0
VERTEX
  8
LAYER_1
 10
130.3798
 20
36.0674
 42
0.1319081761
  0
VERTEX
  8
LAYER_1
 10
130.5141
 20
36.1842
  0
SEQEND
  0
ENDBLK
  0
BLOCK
  8
LAYER_1
  2
AIGNBL01030024
 70
64
 10
0
 20
0
 30
0
  3
AIGNBL01030024
  0
POLYLINE
  8
LAYER_1
 40
0.05
 41
0.05
 66
1
 10
0
 20
0
 30
0
 70
1
  0
VERTEX
  8
LAYER_1
 10
131.0832
 20
36.0574
  0
VERTEX
  8
LAYER_1
 10
131.6365
 20
36.0574
  0
VERTEX
  8
LAYER_1
 10
131.6365
 20
35.9637
  0
VERTEX
  8
LAYER_1
 10
130.9782
 20
35.9637
  0
VERTEX
  8
LAYER_1
 10
130.9782
 20
36.9969
  0
VERTEX
  8
LAYER_1
 10
131.619
 20
36.9969
  0
VERTEX
  8
LAYER_1
 10
131.619
 20
36.9035
  0
VERTEX
  8
LAYER_1
 10
131.0832
 20
36.9035
  0
VERTEX
  8
LAYER_1
 10
131.0832
 20
36.549
  0
VERTEX
  8
LAYER_1
 10
131.5838
 20
36.549
  0
VERTEX
  8
LAYER_1
 10
131.5838
 20
36.4557
  0
VERTEX
  8
LAYER_1
 10
131.0832
 20
36.4557
  0
SEQEND
  0
ENDBLK
  0
BLOCK
  8
LAYER_1
  2
AIGNBL01020004
 70
64
 10
0
 20
0
 30
0
  3
AIGNBL01020004
  0
INSERT
  8
LAYER_1
  2
AIGNBL01030005
 10
0
 20
0
 30
0
  0
ENDBLK
  0
BLOCK
  8
LAYER_1
  2
AIGNBL0102000D
 70
64
 10
0
 20
0
 30
0
  3
AIGNBL0102000D
  0
INSERT
  8
LAYER_1
  2
AIGNBL0103000E
 10
0
 20
0
 30
0
  0
INSERT
  8
LAYER_1
  2
AIGNBL0103000F
 10
0
 20
0
 30
0
  0
INSERT
  8
LAYER_1
  2
AIGNBL01030010
 10
0
 20
0
 30
0
  0
INSERT
  8
LAYER_1
  2
AIGNBL01030011
 10
0
 20
0
 30
0
  0
INSERT
  8
LAYER_1
  2
AIGNBL01030012
 10
0
 20
0
 30
0
  0
INSERT
  8
LAYER_1
  2
AIGNBL01030013
 10
0
 20
0
 30
0
  0
INSERT
  8
LAYER_1
  2
AIGNBL01030014
 10
0
 20
0
 30
0
  0
INSERT
  8
LAYER_1
  2
AIGNBL01030015
 10
0
 20
0
 30
0
  0
INSERT
  8
LAYER_1
  2
AIGNBL01030016
 10
0
 20
0
 30
0
  0
INSERT
  8
LAYER_1
  2
AIGNBL01030017
 10
0
 20
0
 30
0
  0
INSERT
  8
LAYER_1
  2
AIGNBL01030018
 10
0
 20
0
 30
0
  0
INSERT
  8
LAYER_1
  2
AIGNBL01030019
 10
0
 20
0
 30
0
  0
INSERT
  8
LAYER_1
  2
AIGNBL0103001A
 10
0
 20
0
 30
0
  0
INSERT
  8
LAYER_1
  2
AIGNBL0103001B
 10
0
 20
0
 30
0
  0
INSERT
  8
LAYER_1
  2
AIGNBL0103001C
 10
0
 20
0
 30
0
  0
INSERT
  8
LAYER_1
  2
AIGNBL0103001D
 10
0
 20
0
 30
0
  0
INSERT
  8
LAYER_1
  2
AIGNBL0103001E
 10
0
 20
0
 30
0
  0
INSERT
  8
LAYER_1
  2
AIGNBL0103001F
 10
0
 20
0
 30
0
  0
INSERT
  8
LAYER_1
  2
AIGNBL01030020
 10
0
 20
0
 30
0
  0
INSERT
  8
LAYER_1
  2
AIGNBL01030021
 10
0
 20
0
 30
0
  0
INSERT
  8
LAYER_1
  2
AIGNBL01030022
 10
0
 20
0
 30
0
  0
INSERT
  8
LAYER_1
  2
AIGNBL01030023
 10
0
 20
0
 30
0
  0
INSERT
  8
LAYER_1
  2
AIGNBL01030024
 10
0
 20
0
 30
0
  0
ENDBLK
  0
BLOCK
  8
LAYER_1
  2
AIGNBL01010002
 70
64
 10
0
 20
0
 30
0
  3
AIGNBL01010002
  0
POLYLINE
  8
LAYER_1
 40
0.7056
 41
0.7056
 66
1
 10
0
 20
0
 30
0
 70
1
  0
VERTEX
  8
LAYER_1
 10
251.6749
 20
230.337
  0
VERTEX
  8
LAYER_1
 10
251.6749
 20
33.3285
  0
VERTEX
  8
LAYER_1
 10
-30.3177
 20
33.3285
  0
VERTEX
  8
LAYER_1
 10
-30.3177
 20
230.337
  0
SEQEND
  0
ENDBLK
  0
BLOCK
  8
LAYER_1
  2
AIGNBL01010003
 70
64
 10
0
 20
0
 30
0
  3
AIGNBL01010003
  0
INSERT
  8
LAYER_1
  2
AIGNBL01020004
 10
0
 20
0
 30
0
  0
INSERT
  8
LAYER_1
  2
AIGNBL0102000D
 10
0
 20
0
 30
0
  0
ENDBLK
  0
BLOCK
  8
LAYER_1
  2
AIGNBL01010025
 70
64
 10
0
 20
0
 30
0
  3
AIGNBL01010025
  0
POLYLINE
  8
LAYER_1
 40
0.0882
 41
0.0882
 66
1
 10
0
 20
0
 30
0
  0
VERTEX
  8
LAYER_1
 10
116.6539
 20
115.287
  0
VERTEX
  8
LAYER_1
 10
182.0984
 20
115.287
  0
SEQEND
  0
ENDBLK
  0
BLOCK
  8
LAYER_1
  2
AIGNBL01010026
 70
64
 10
0
 20
0
 30
0
  3
AIGNBL01010026
  0
POLYLINE
  8
LAYER_1
 40
0.0882
 41
0.0882
 66
1
 10
0
 20
0
 30
0
 70
1
  0
VERTEX
  8
LAYER_1
 10
184.8982
 20
115.2859
  0
VERTEX
  8
LAYER_1
 10
182.1186
 20
115.2859
  0
VERTEX
  8
LAYER_1
 10
181.8308
 20
113.463
  0
VERTEX
  8
LAYER_1
 10
181.7758
 20
113.0894
  0
VERTEX
  8
LAYER_1
 10
181.7029
 20
112.7188
  0
VERTEX
  8
LAYER_1
 10
181.6301
 20
112.3482
  0
VERTEX
  8
LAYER_1
 10
181.5395
 20
111.9815
  0
VERTEX
  8
LAYER_1
 10
181.449
 20
111.6149
  0
VERTEX
  8
LAYER_1
 10
181.341
 20
111.253
  0
VERTEX
  8
LAYER_1
 10
181.233
 20
110.8911
  0
VERTEX
  8
LAYER_1
 10
181.1077
 20
110.5348
 42
-0.04143340843
  0
VERTEX
  8
LAYER_1
 10
179.9213
 20
108.4979
 42
-0.04142344769
  0
VERTEX
  8
LAYER_1
 10
178.4153
 20
106.6846
 42
-0.04143414746
  0
VERTEX
  8
LAYER_1
 10
176.6308
 20
105.1444
 42
-0.04143103271
  0
VERTEX
  8
LAYER_1
 10
174.6169
 20
103.9195
  0
VERTEX
  8
LAYER_1
 10
174.1453
 20
103.6808
  0
VERTEX
  8
LAYER_1
 10
173.6678
 20
103.4541
  0
VERTEX
  8
LAYER_1
 10
173.1904
 20
103.2273
  0
VERTEX
  8
LAYER_1
 10
172.7073
 20
103.0128
  0
VERTEX
  8
LAYER_1
 10
172.2243
 20
102.7982
  0
VERTEX
  8
LAYER_1
 10
171.7359
 20
102.596
  0
VERTEX
  8
LAYER_1
 10
171.2476
 20
102.3937
  0
VERTEX
  8
LAYER_1
 10
170.7543
 20
102.2038
 42
0.04160213202
  0
VERTEX
  8
LAYER_1
 10
166.9362
 20
100.7492
 42
0.04160048485
  0
VERTEX
  8
LAYER_1
 10
163.4116
 20
98.6825
 42
0.04159959434
  0
VERTEX
  8
LAYER_1
 10
160.2778
 20
96.0609
 42
0.04159883366
  0
VERTEX
  8
LAYER_1
 10
157.6211
 20
92.9568
  0
VERTEX
  8
LAYER_1
 10
157.4128
 20
92.6705
  0
VERTEX
  8
LAYER_1
 10
157.1545
 20
92.4284
  0
VERTEX
  8
LAYER_1
 10
156.8962
 20
92.1862
  0
VERTEX
  8
LAYER_1
 10
156.5972
 20
91.9967
  0
VERTEX
  8
LAYER_1
 10
156.2981
 20
91.8072
  0
VERTEX
  8
LAYER_1
 10
155.9688
 20
91.6771
  0
VERTEX
  8
LAYER_1
 10
155.6396
 20
91.547
  0
VERTEX
  8
LAYER_1
 10
155.2918
 20
91.4808
  0
VERTEX
  8
LAYER_1
 10
153.4914
 20
89.6804
  0
VERTEX
  8
LAYER_1
 10
153.4914
 20
87.2799
  0
VERTEX
  8
LAYER_1
 10
161.8932
 20
87.2799
  0
VERTEX
  8
LAYER_1
 10
161.8932
 20
91.4808
  0
VERTEX
  8
LAYER_1
 10
160.8426
 20
91.4808
 42
-0.04563128742
  0
VERTEX
  8
LAYER_1
 10
162.792
 20
94.2182
 42
-0.04562876225
  0
VERTEX
  8
LAYER_1
 10
165.2056
 20
96.5566
 42
-0.04562800861
  0
VERTEX
  8
LAYER_1
 10
168.0033
 20
98.4184
 42
-0.04563006935
  0
VERTEX
  8
LAYER_1
 10
171.0923
 20
99.742
  0
VERTEX
  8
LAYER_1
 10
171.3516
 20
99.8323
  0
VERTEX
  8
LAYER_1
 10
171.6106
 20
99.9238
  0
VERTEX
  8
LAYER_1
 10
171.8696
 20
100.0153
  0
VERTEX
  8
LAYER_1
 10
172.1281
 20
100.1079
  0
VERTEX
  8
LAYER_1
 10
172.3866
 20
100.2005
  0
VERTEX
  8
LAYER_1
 10
172.6447
 20
100.2943
  0
VERTEX
  8
LAYER_1
 10
172.9029
 20
100.3881
  0
VERTEX
  8
LAYER_1
 10
173.1606
 20
100.4831
 42
0.01858507257
  0
VERTEX
  8
LAYER_1
 10
174.9803
 20
101.3254
 42
0.0185496464
  0
VERTEX
  8
LAYER_1
 10
176.7326
 20
102.3003
 42
0.01857747964
  0
VERTEX
  8
LAYER_1
 10
178.4079
 20
103.4024
 42
0.01854781507
  0
VERTEX
  8
LAYER_1
 10
179.9968
 20
104.6256
 42
0.04176202836
  0
VERTEX
  8
LAYER_1
 10
181.5767
 20
106.1953
 42
0.04176195443
  0
VERTEX
  8
LAYER_1
 10
182.8737
 20
108.0057
 42
0.04176591561
  0
VERTEX
  8
LAYER_1
 10
183.8519
 20
110.0065
 42
0.04176311813
  0
VERTEX
  8
LAYER_1
 10
184.484
 20
112.142
  0
SEQEND
  0
ENDBLK
  0
BLOCK
  8
LAYER_1
  2
AIGNBL01010027
 70
64
 10
0
 20
0
 30
0
  3
AIGNBL01010027
  0
POLYLINE
  8
LAYER_1
 40
0.0882
 41
0.0882
 66
1
 10
0
 20
0
 30
0
 70
1
  0
VERTEX
  8
LAYER_1
 10
113.8829
 20
115.2859
  0
VERTEX
  8
LAYER_1
 10
116.6624
 20
115.2859
  0
VERTEX
  8
LAYER_1
 10
116.9503
 20
113.463
  0
VERTEX
  8
LAYER_1
 10
117.0053
 20
113.0894
  0
VERTEX
  8
LAYER_1
 10
117.0781
 20
112.7188
  0
VERTEX
  8
LAYER_1
 10
117.151
 20
112.3482
  0
VERTEX
  8
LAYER_1
 10
117.2415
 20
111.9815
  0
VERTEX
  8
LAYER_1
 10
117.332
 20
111.6149
  0
VERTEX
  8
LAYER_1
 10
117.44
 20
111.253
  0
VERTEX
  8
LAYER_1
 10
117.548
 20
110.8911
  0
VERTEX
  8
LAYER_1
 10
117.6733
 20
110.5348
 42
0.04143318966
  0
VERTEX
  8
LAYER_1
 10
118.8597
 20
108.4979
 42
0.0414328411
  0
VERTEX
  8
LAYER_1
 10
120.3658
 20
106.6846
 42
0.04143689749
  0
VERTEX
  8
LAYER_1
 10
122.1502
 20
105.1444
 42
0.04143215867
  0
VERTEX
  8
LAYER_1
 10
124.1641
 20
103.9195
  0
VERTEX
  8
LAYER_1
 10
124.6357
 20
103.6808
  0
VERTEX
  8
LAYER_1
 10
125.1132
 20
103.4541
  0
VERTEX
  8
LAYER_1
 10
125.5906
 20
103.2273
  0
VERTEX
  8
LAYER_1
 10
126.0737
 20
103.0128
  0
VERTEX
  8
LAYER_1
 10
126.5568
 20
102.7982
  0
VERTEX
  8
LAYER_1
 10
127.0451
 20
102.596
  0
VERTEX
  8
LAYER_1
 10
127.5334
 20
102.3937
  0
VERTEX
  8
LAYER_1
 10
128.0267
 20
102.2038
 42
-0.04160069726
  0
VERTEX
  8
LAYER_1
 10
131.8448
 20
100.7492
 42
-0.04159761389
  0
VERTEX
  8
LAYER_1
 10
135.3694
 20
98.6825
 42
-0.0416003424
  0
VERTEX
  8
LAYER_1
 10
138.5033
 20
96.0609
 42
-0.04159813821
  0
VERTEX
  8
LAYER_1
 10
141.1599
 20
92.9568
  0
VERTEX
  8
LAYER_1
 10
141.3683
 20
92.6705
  0
VERTEX
  8
LAYER_1
 10
141.6265
 20
92.4284
  0
VERTEX
  8
LAYER_1
 10
141.8848
 20
92.1862
  0
VERTEX
  8
LAYER_1
 10
142.1839
 20
91.9967
  0
VERTEX
  8
LAYER_1
 10
142.4829
 20
91.8072
  0
VERTEX
  8
LAYER_1
 10
142.8122
 20
91.6771
  0
VERTEX
  8
LAYER_1
 10
143.1414
 20
91.547
  0
VERTEX
  8
LAYER_1
 10
143.4892
 20
91.4808
  0
VERTEX
  8
LAYER_1
 10
145.2896
 20
89.6804
  0
VERTEX
  8
LAYER_1
 10
145.2896
 20
87.2799
  0
VERTEX
  8
LAYER_1
 10
136.8878
 20
87.2799
  0
VERTEX
  8
LAYER_1
 10
136.8878
 20
91.4808
  0
VERTEX
  8
LAYER_1
 10
137.9384
 20
91.4808
 42
0.04562848827
  0
VERTEX
  8
LAYER_1
 10
135.989
 20
94.2182
 42
0.04562580439
  0
VERTEX
  8
LAYER_1
 10
133.5754
 20
96.5566
 42
0.04562803901
  0
VERTEX
  8
LAYER_1
 10
130.7777
 20
98.4184
 42
0.04563009096
  0
VERTEX
  8
LAYER_1
 10
127.6887
 20
99.742
  0
VERTEX
  8
LAYER_1
 10
127.4294
 20
99.8323
  0
VERTEX
  8
LAYER_1
 10
127.1704
 20
99.9238
  0
VERTEX
  8
LAYER_1
 10
126.9115
 20
100.0153
  0
VERTEX
  8
LAYER_1
 10
126.6529
 20
100.1079
  0
VERTEX
  8
LAYER_1
 10
126.3944
 20
100.2005
  0
VERTEX
  8
LAYER_1
 10
126.1363
 20
100.2943
  0
VERTEX
  8
LAYER_1
 10
125.8782
 20
100.3881
  0
VERTEX
  8
LAYER_1
 10
125.6205
 20
100.4831
 42
-0.01858915254
  0
VERTEX
  8
LAYER_1
 10
123.8007
 20
101.3254
 42
-0.0185496464
  0
VERTEX
  8
LAYER_1
 10
122.0484
 20
102.3003
 42
-0.01857747964
  0
VERTEX
  8
LAYER_1
 10
120.3731
 20
103.4024
 42
-0.01850121032
  0
VERTEX
  8
LAYER_1
 10
118.7842
 20
104.6256
 42
-0.04176076407
  0
VERTEX
  8
LAYER_1
 10
117.2044
 20
106.1953
 42
-0.04176547178
  0
VERTEX
  8
LAYER_1
 10
115.9073
 20
108.0057
 42
-0.04176311737
  0
VERTEX
  8
LAYER_1
 10
114.9291
 20
110.0065
 42
-0.04176037429
  0
VERTEX
  8
LAYER_1
 10
114.297
 20
112.142
  0
SEQEND
  0
ENDBLK
  0
BLOCK
  8
LAYER_1
  2
AIGNBL01010028
 70
64
 10
0
 20
0
 30
0
  3
AIGNBL01010028
  0
POLYLINE
  8
LAYER_1
 40
0.0882
 41
0.0882
 66
1
 10
0
 20
0
 30
0
  0
VERTEX
  8
LAYER_1
 10
145.3113
 20
87.3071
  0
VERTEX
  8
LAYER_1
 10
153.5088
 20
87.3071
  0
SEQEND
  0
ENDBLK
  0
BLOCK
  8
LAYER_1
  2
AIGNBL01010029
 70
64
 10
0
 20
0
 30
0
  3
AIGNBL01010029
  0
POLYLINE
  8
LAYER_1
 40
0.0882
 41
0.0882
 66
1
 10
0
 20
0
 30
0
  0
VERTEX
  8
LAYER_1
 10
145.3113
 20
89.6782
  0
VERTEX
  8
LAYER_1
 10
153.5088
 20
89.6782
  0
SEQEND
  0
ENDBLK
  0
BLOCK
  8
LAYER_1
  2
AIGNBL0101002A
 70
64
 10
0
 20
0
 30
0
  3
AIGNBL0101002A
  0
POLYLINE
  8
LAYER_1
 40
0.0882
 41
0.0882
 66
1
 10
0
 20
0
 30
0
  0
VERTEX
  8
LAYER_1
 10
143.4821
 20
91.5074
  0
VERTEX
  8
LAYER_1
 10
155.2702
 20
91.5074
  0
SEQEND
  0
ENDBLK
  0
BLOCK
  8
LAYER_1
  2
AIGNBL0101002B
 70
64
 10
0
 20
0
 30
0
  3
AIGNBL0101002B
  0
POLYLINE
  8
LAYER_1
 40
0.0882
 41
0.0882
 66
1
 10
0
 20
0
 30
0
 70
1
  0
VERTEX
  8
LAYER_1
 10
184.8762
 20
173.443
 42
0.03780923912
  0
VERTEX
  8
LAYER_1
 10
184.4672
 20
178.8544
 42
0.0374376806
  0
VERTEX
  8
LAYER_1
 10
183.2802
 20
184.0096
 42
0.05508707269
  0
VERTEX
  8
LAYER_1
 10
180.1729
 20
191.1302
 42
0.0539850615
  0
VERTEX
  8
LAYER_1
 10
175.6539
 20
197.3351
 42
0.07170956797
  0
VERTEX
  8
LAYER_1
 10
167.7842
 20
203.8324
 42
0.03646465178
  0
VERTEX
  8
LAYER_1
 10
163.1944
 20
206.1844
 42
0.09409298529
  0
VERTEX
  8
LAYER_1
 10
150.2925
 20
208.9652
 42
0.006360177173
  0
VERTEX
  8
LAYER_1
 10
149.3762
 20
208.9768
 42
0.0378807846
  0
VERTEX
  8
LAYER_1
 10
143.9699
 20
208.5674
 42
0.05603164558
  0
VERTEX
  8
LAYER_1
 10
136.3592
 20
206.512
 42
0.05472836599
  0
VERTEX
  8
LAYER_1
 10
129.5278
 20
202.9082
 42
0.05380384091
  0
VERTEX
  8
LAYER_1
 10
123.6789
 20
197.9592
 42
0.05383437176
  0
VERTEX
  8
LAYER_1
 10
119.0157
 20
191.8685
 42
0.05484744081
  0
VERTEX
  8
LAYER_1
 10
115.7414
 20
184.8397
 42
0.05631635658
  0
VERTEX
  8
LAYER_1
 10
114.0595
 20
177.0761
 42
0.02530213016
  0
VERTEX
  8
LAYER_1
 10
113.8762
 20
173.443
 42
0.03780909474
  0
VERTEX
  8
LAYER_1
 10
114.2852
 20
168.0315
 42
0.03743765523
  0
VERTEX
  8
LAYER_1
 10
115.4722
 20
162.8763
 42
0.05508718276
  0
VERTEX
  8
LAYER_1
 10
118.5795
 20
155.7558
 42
0.05398526324
  0
VERTEX
  8
LAYER_1
 10
123.0985
 20
149.5509
 42
0.07170978429
  0
VERTEX
  8
LAYER_1
 10
130.9682
 20
143.0535
 42
0.03646466015
  0
VERTEX
  8
LAYER_1
 10
135.558
 20
140.7016
 42
0.09409270399
  0
VERTEX
  8
LAYER_1
 10
148.4599
 20
137.9208
 42
0.006360138954
  0
VERTEX
  8
LAYER_1
 10
149.3762
 20
137.9092
 42
0.03788056946
  0
VERTEX
  8
LAYER_1
 10
154.7825
 20
138.3186
 42
0.05603144904
  0
VERTEX
  8
LAYER_1
 10
162.3932
 20
140.3739
 42
0.05472835476
  0
VERTEX
  8
LAYER_1
 10
169.2246
 20
143.9778
 42
0.05380398196
  0
VERTEX
  8
LAYER_1
 10
175.0735
 20
148.9268
 42
0.05383458546
  0
VERTEX
  8
LAYER_1
 10
179.7367
 20
155.0174
 42
0.05484761555
  0
VERTEX
  8
LAYER_1
 10
183.011
 20
162.0463
 42
0.05631636533
  0
VERTEX
  8
LAYER_1
 10
184.6929
 20
169.8099
 42
0.02530203345
  0
SEQEND
  0
ENDBLK
  0
BLOCK
  8
LAYER_1
  2
AIGNBL0101002C
 70
64
 10
0
 20
0
 30
0
  3
AIGNBL0101002C
  0
POLYLINE
  8
LAYER_1
 40
0.0882
 41
0.0882
 66
1
 10
0
 20
0
 30
0
 70
1
  0
VERTEX
  8
LAYER_1
 10
182.0986
 20
173.443
 42
0.03780614605
  0
VERTEX
  8
LAYER_1
 10
181.7216
 20
178.4314
 42
0.06206763589
  0
VERTEX
  8
LAYER_1
 10
179.5271
 20
186.1932
 42
0.04850794328
  0
VERTEX
  8
LAYER_1
 10
176.5101
 20
191.7572
 42
0.1438485109
  0
VERTEX
  8
LAYER_1
 10
162.1132
 20
203.625
 42
0.08128374145
  0
VERTEX
  8
LAYER_1
 10
151.8939
 20
206.1036
 42
0.01900733167
  0
VERTEX
  8
LAYER_1
 10
149.3762
 20
206.1991
 42
0.03788367498
  0
VERTEX
  8
LAYER_1
 10
144.3929
 20
205.8217
 42
0.06218185083
  0
VERTEX
  8
LAYER_1
 10
136.6392
 20
203.625
 42
0.04856631146
  0
VERTEX
  8
LAYER_1
 10
131.0809
 20
200.6049
 42
0.07169457545
  0
VERTEX
  8
LAYER_1
 10
124.1261
 20
194.2789
 42
0.04803222654
  0
VERTEX
  8
LAYER_1
 10
120.6033
 20
189.0565
 42
0.06762362228
  0
VERTEX
  8
LAYER_1
 10
117.4918
 20
180.8405
 42
0.03774777298
  0
VERTEX
  8
LAYER_1
 10
116.7493
 20
175.9633
 42
0.01896835647
  0
VERTEX
  8
LAYER_1
 10
116.6539
 20
173.443
 42
0.03780610802
  0
VERTEX
  8
LAYER_1
 10
117.0309
 20
168.4546
 42
0.06206740996
  0
VERTEX
  8
LAYER_1
 10
119.2254
 20
160.6928
 42
0.0485076779
  0
VERTEX
  8
LAYER_1
 10
122.2424
 20
155.1287
 42
0.1438479547
  0
VERTEX
  8
LAYER_1
 10
136.6392
 20
143.261
 42
0.08128425554
  0
VERTEX
  8
LAYER_1
 10
146.8585
 20
140.7823
 42
0.01900755415
  0
VERTEX
  8
LAYER_1
 10
149.3762
 20
140.6868
 42
0.03788373334
  0
VERTEX
  8
LAYER_1
 10
154.3595
 20
141.0642
 42
0.0621819695
  0
VERTEX
  8
LAYER_1
 10
162.1132
 20
143.261
 42
0.04856638095
  0
VERTEX
  8
LAYER_1
 10
167.6716
 20
146.2811
 42
0.07169458109
  0
VERTEX
  8
LAYER_1
 10
174.6264
 20
152.607
 42
0.04803215709
  0
VERTEX
  8
LAYER_1
 10
178.1492
 20
157.8295
 42
0.06762348476
  0
VERTEX
  8
LAYER_1
 10
181.2607
 20
166.0454
 42
0.03774772272
  0
VERTEX
  8
LAYER_1
 10
182.0032
 20
170.9227
 42
0.01896834977
  0
SEQEND
  0
ENDBLK
  0
BLOCK
  8
LAYER_1
  2
AIGNBL0101002D
 70
64
 10
0
 20
0
 30
0
  3
AIGNBL0101002D
  0
POLYLINE
  8
LAYER_1
 40
0.0882
 41
0.0882
 66
1
 10
0
 20
0
 30
0
 70
1
  0
VERTEX
  8
LAYER_1
 10
153.5089
 20
173.443
 42
0.4142117759
  0
VERTEX
  8
LAYER_1
 10
149.4101
 20
177.5417
 42
0.4142095982
  0
VERTEX
  8
LAYER_1
 10
145.3114
 20
173.443
 42
0.414214121
  0
VERTEX
  8
LAYER_1
 10
149.4101
 20
169.3442
 42
0.4142162984
  0
SEQEND
  0
ENDBLK
  0
BLOCK
  8
LAYER_1
  2
AIGNBL0101002E
 70
64
 10
0
 20
0
 30
0
  3
AIGNBL0101002E
  0
POLYLINE
  8
LAYER_1
 40
0.0882
 41
0.0882
 66
1
 10
0
 20
0
 30
0
 70
1
  0
VERTEX
  8
LAYER_1
 10
155.2703
 20
173.443
 42
0.3286616202
  0
VERTEX
  8
LAYER_1
 10
150.8492
 20
179.1843
 42
0.06340212773
  0
VERTEX
  8
LAYER_1
 10
149.3762
 20
179.3709
 42
0.3311737132
  0
VERTEX
  8
LAYER_1
 10
143.6678
 20
174.9245
 42
0.06270625
  0
VERTEX
  8
LAYER_1
 10
143.4822
 20
173.443
 42
0.3286530188
  0
VERTEX
  8
LAYER_1
 10
147.9032
 20
167.7016
 42
0.06340475483
  0
VERTEX
  8
LAYER_1
 10
149.3762
 20
167.515
 42
0.3311733732
  0
VERTEX
  8
LAYER_1
 10
155.0847
 20
171.9615
 42
0.06270773307
  0
SEQEND
  0
ENDBLK
  0
BLOCK
  8
LAYER_1
  2
AIGNBL0101002F
 70
64
 10
0
 20
0
 30
0
  3
AIGNBL0101002F
  0
POLYLINE
  8
LAYER_1
 40
0.05
 41
0.05
 66
1
 10
0
 20
0
 30
0
  0
VERTEX
  8
LAYER_1
 10
113.8762
 20
116.0999
  0
VERTEX
  8
LAYER_1
 10
113.8762
 20
124.1767
  0
SEQEND
  0
ENDBLK
  0
BLOCK
  8
LAYER_1
  2
AIGNBL01010030
 70
64
 10
0
 20
0
 30
0
  3
AIGNBL01010030
  0
POLYLINE
  8
LAYER_1
 40
0.05
 41
0.05
 66
1
 10
0
 20
0
 30
0
  0
VERTEX
  8
LAYER_1
 10
184.8761
 20
116.0999
  0
VERTEX
  8
LAYER_1
 10
184.8761
 20
124.1767
  0
SEQEND
  0
ENDBLK
  0
BLOCK
  8
LAYER_1
  2
AIGNBL01010031
 70
64
 10
0
 20
0
 30
0
  3
AIGNBL01010031
  0
POLYLINE
  8
LAYER_1
 40
0.05
 41
0.05
 66
1
 10
0
 20
0
 30
0
  0
VERTEX
  8
LAYER_1
 10
113.8762
 20
124.1767
  0
VERTEX
  8
LAYER_1
 10
184.8761
 20
124.1767
  0
SEQEND
  0
ENDBLK
  0
BLOCK
  8
LAYER_1
  2
AIGNBL01010032
 70
64
 10
0
 20
0
 30
0
  3
AIGNBL01010032
  0
POLYLINE
  8
LAYER_1
 40
0.05
 41
0.05
 66
1
 10
0
 20
0
 30
0
 70
1
  0
VERTEX
  8
LAYER_1
 10
114.0795
 20
124.1767
  0
VERTEX
  8
LAYER_1
 10
114.0795
 20
124.109
  0
VERTEX
  8
LAYER_1
 10
114.0795
 20
124.0412
  0
VERTEX
  8
LAYER_1
 10
114.0117
 20
124.0412
  0
VERTEX
  8
LAYER_1
 10
114.0117
 20
123.9735
  0
VERTEX
  8
LAYER_1
 10
113.944
 20
123.9735
  0
VERTEX
  8
LAYER_1
 10
113.8762
 20
123.9735
  0
VERTEX
  8
LAYER_1
 10
113.8085
 20
123.9735
  0
VERTEX
  8
LAYER_1
 10
113.7408
 20
123.9735
  0
VERTEX
  8
LAYER_1
 10
113.7408
 20
124.0412
  0
VERTEX
  8
LAYER_1
 10
113.673
 20
124.0412
  0
VERTEX
  8
LAYER_1
 10
113.673
 20
124.109
  0
VERTEX
  8
LAYER_1
 10
113.673
 20
124.1767
  0
VERTEX
  8
LAYER_1
 10
113.673
 20
124.2445
  0
VERTEX
  8
LAYER_1
 10
113.7408
 20
124.2445
  0
VERTEX
  8
LAYER_1
 10
113.7408
 20
124.3122
  0
VERTEX
  8
LAYER_1
 10
113.8085
 20
124.3122
  0
VERTEX
  8
LAYER_1
 10
113.8085
 20
124.38
  0
VERTEX
  8
LAYER_1
 10
113.8762
 20
124.38
  0
VERTEX
  8
LAYER_1
 10
113.944
 20
124.38
  0
VERTEX
  8
LAYER_1
 10
113.944
 20
124.3122
  0
VERTEX
  8
LAYER_1
 10
114.0117
 20
124.3122
  0
VERTEX
  8
LAYER_1
 10
114.0117
 20
124.2445
  0
VERTEX
  8
LAYER_1
 10
114.0795
 20
124.2445
  0
SEQEND
  0
ENDBLK
  0
BLOCK
  8
LAYER_1
  2
AIGNBL01010033
 70
64
 10
0
 20
0
 30
0
  3
AIGNBL01010033
  0
POLYLINE
  8
LAYER_1
 66
1
 10
0
 20
0
 30
0
 70
1
  0
VERTEX
  8
LAYER_1
 10
114.0795
 20
124.1767
  0
VERTEX
  8
LAYER_1
 10
114.0795
 20
124.109
  0
VERTEX
  8
LAYER_1
 10
114.0795
 20
124.0412
  0
VERTEX
  8
LAYER_1
 10
114.0117
 20
124.0412
  0
VERTEX
  8
LAYER_1
 10
114.0117
 20
123.9735
  0
VERTEX
  8
LAYER_1
 10
113.944
 20
123.9735
  0
VERTEX
  8
LAYER_1
 10
113.8762
 20
123.9735
  0
VERTEX
  8
LAYER_1
 10
113.8085
 20
123.9735
  0
VERTEX
  8
LAYER_1
 10
113.7408
 20
123.9735
  0
VERTEX
  8
LAYER_1
 10
113.7408
 20
124.0412
  0
VERTEX
  8
LAYER_1
 10
113.673
 20
124.0412
  0
VERTEX
  8
LAYER_1
 10
113.673
 20
124.109
  0
VERTEX
  8
LAYER_1
 10
113.673
 20
124.1767
  0
VERTEX
  8
LAYER_1
 10
113.673
 20
124.2445
  0
VERTEX
  8
LAYER_1
 10
113.7408
 20
124.2445
  0
VERTEX
  8
LAYER_1
 10
113.7408
 20
124.3122
  0
VERTEX
  8
LAYER_1
 10
113.8085
 20
124.3122
  0
VERTEX
  8
LAYER_1
 10
113.8085
 20
124.38
  0
VERTEX
  8
LAYER_1
 10
113.8762
 20
124.38
  0
VERTEX
  8
LAYER_1
 10
113.944
 20
124.38
  0
VERTEX
  8
LAYER_1
 10
113.944
 20
124.3122
  0
VERTEX
  8
LAYER_1
 10
114.0117
 20
124.3122
  0
VERTEX
  8
LAYER_1
 10
114.0117
 20
124.2445
  0
VERTEX
  8
LAYER_1
 10
114.0795
 20
124.2445
  0
SEQEND
  0
ENDBLK
  0
BLOCK
  8
LAYER_1
  2
AIGNBL01010034
 70
64
 10
0
 20
0
 30
0
  3
AIGNBL01010034
  0
POLYLINE
  8
LAYER_1
 40
0.05
 41
0.05
 66
1
 10
0
 20
0
 30
0
 70
1
  0
VERTEX
  8
LAYER_1
 10
114.0795
 20
124.1767
  0
VERTEX
  8
LAYER_1
 10
114.0795
 20
124.109
  0
VERTEX
  8
LAYER_1
 10
114.0795
 20
124.0412
  0
VERTEX
  8
LAYER_1
 10
114.0117
 20
124.0412
  0
VERTEX
  8
LAYER_1
 10
114.0117
 20
123.9735
  0
VERTEX
  8
LAYER_1
 10
113.944
 20
123.9735
  0
VERTEX
  8
LAYER_1
 10
113.8762
 20
123.9735
  0
VERTEX
  8
LAYER_1
 10
113.8085
 20
123.9735
  0
VERTEX
  8
LAYER_1
 10
113.7408
 20
123.9735
  0
VERTEX
  8
LAYER_1
 10
113.7408
 20
124.0412
  0
VERTEX
  8
LAYER_1
 10
113.673
 20
124.0412
  0
VERTEX
  8
LAYER_1
 10
113.673
 20
124.109
  0
VERTEX
  8
LAYER_1
 10
113.673
 20
124.1767
  0
VERTEX
  8
LAYER_1
 10
113.673
 20
124.2445
  0
VERTEX
  8
LAYER_1
 10
113.7408
 20
124.2445
  0
VERTEX
  8
LAYER_1
 10
113.7408
 20
124.3122
  0
VERTEX
  8
LAYER_1
 10
113.8085
 20
124.3122
  0
VERTEX
  8
LAYER_1
 10
113.8085
 20
124.38
  0
VERTEX
  8
LAYER_1
 10
113.8762
 20
124.38
  0
VERTEX
  8
LAYER_1
 10
113.944
 20
124.38
  0
VERTEX
  8
LAYER_1
 10
113.944
 20
124.3122
  0
VERTEX
  8
LAYER_1
 10
114.0117
 20
124.3122
  0
VERTEX
  8
LAYER_1
 10
114.0117
 20
124.2445
  0
VERTEX
  8
LAYER_1
 10
114.0795
 20
124.2445
  0
SEQEND
  0
ENDBLK
  0
BLOCK
  8
LAYER_1
  2
AIGNBL01010035
 70
64
 10
0
 20
0
 30
0
  3
AIGNBL01010035
  0
POLYLINE
  8
LAYER_1
 40
0.05
 41
0.05
 66
1
 10
0
 20
0
 30
0
 70
1
  0
VERTEX
  8
LAYER_1
 10
184.6728
 20
124.1767
  0
VERTEX
  8
LAYER_1
 10
184.6728
 20
124.2445
  0
VERTEX
  8
LAYER_1
 10
184.7406
 20
124.2445
  0
VERTEX
  8
LAYER_1
 10
184.7406
 20
124.3122
  0
VERTEX
  8
LAYER_1
 10
184.8083
 20
124.3122
  0
VERTEX
  8
LAYER_1
 10
184.8083
 20
124.38
  0
VERTEX
  8
LAYER_1
 10
184.8761
 20
124.38
  0
VERTEX
  8
LAYER_1
 10
184.9438
 20
124.38
  0
VERTEX
  8
LAYER_1
 10
184.9438
 20
124.3122
  0
VERTEX
  8
LAYER_1
 10
185.0116
 20
124.3122
  0
VERTEX
  8
LAYER_1
 10
185.0793
 20
124.3122
  0
VERTEX
  8
LAYER_1
 10
185.0793
 20
124.2445
  0
VERTEX
  8
LAYER_1
 10
185.0793
 20
124.1767
  0
VERTEX
  8
LAYER_1
 10
185.0793
 20
124.109
  0
VERTEX
  8
LAYER_1
 10
185.0793
 20
124.0412
  0
VERTEX
  8
LAYER_1
 10
185.0116
 20
124.0412
  0
VERTEX
  8
LAYER_1
 10
185.0116
 20
123.9735
  0
VERTEX
  8
LAYER_1
 10
184.9438
 20
123.9735
  0
VERTEX
  8
LAYER_1
 10
184.8761
 20
123.9735
  0
VERTEX
  8
LAYER_1
 10
184.8083
 20
123.9735
  0
VERTEX
  8
LAYER_1
 10
184.7406
 20
123.9735
  0
VERTEX
  8
LAYER_1
 10
184.7406
 20
124.0412
  0
VERTEX
  8
LAYER_1
 10
184.7406
 20
124.109
  0
VERTEX
  8
LAYER_1
 10
184.6728
 20
124.109
  0
SEQEND
  0
ENDBLK
  0
BLOCK
  8
LAYER_1
  2
AIGNBL01010036
 70
64
 10
0
 20
0
 30
0
  3
AIGNBL01010036
  0
POLYLINE
  8
LAYER_1
 66
1
 10
0
 20
0
 30
0
 70
1
  0
VERTEX
  8
LAYER_1
 10
184.6728
 20
124.1767
  0
VERTEX
  8
LAYER_1
 10
184.6728
 20
124.2445
  0
VERTEX
  8
LAYER_1
 10
184.7406
 20
124.2445
  0
VERTEX
  8
LAYER_1
 10
184.7406
 20
124.3122
  0
VERTEX
  8
LAYER_1
 10
184.8083
 20
124.3122
  0
VERTEX
  8
LAYER_1
 10
184.8083
 20
124.38
  0
VERTEX
  8
LAYER_1
 10
184.8761
 20
124.38
  0
VERTEX
  8
LAYER_1
 10
184.9438
 20
124.38
  0
VERTEX
  8
LAYER_1
 10
184.9438
 20
124.3122
  0
VERTEX
  8
LAYER_1
 10
185.0116
 20
124.3122
  0
VERTEX
  8
LAYER_1
 10
185.0793
 20
124.3122
  0
VERTEX
  8
LAYER_1
 10
185.0793
 20
124.2445
  0
VERTEX
  8
LAYER_1
 10
185.0793
 20
124.1767
  0
VERTEX
  8
LAYER_1
 10
185.0793
 20
124.109
  0
VERTEX
  8
LAYER_1
 10
185.0793
 20
124.0412
  0
VERTEX
  8
LAYER_1
 10
185.0116
 20
124.0412
  0
VERTEX
  8
LAYER_1
 10
185.0116
 20
123.9735
  0
VERTEX
  8
LAYER_1
 10
184.9438
 20
123.9735
  0
VERTEX
  8
LAYER_1
 10
184.8761
 20
123.9735
  0
VERTEX
  8
LAYER_1
 10
184.8083
 20
123.9735
  0
VERTEX
  8
LAYER_1
 10
184.7406
 20
123.9735
  0
VERTEX
  8
LAYER_1
 10
184.7406
 20
124.0412
  0
VERTEX
  8
LAYER_1
 10
184.7406
 20
124.109
  0
VERTEX
  8
LAYER_1
 10
184.6728
 20
124.109
  0
SEQEND
  0
ENDBLK
  0
BLOCK
  8
LAYER_1
  2
AIGNBL01010037
 70
64
 10
0
 20
0
 30
0
  3
AIGNBL01010037
  0
POLYLINE
  8
LAYER_1
 40
0.05
 41
0.05
 66
1
 10
0
 20
0
 30
0
 70
1
  0
VERTEX
  8
LAYER_1
 10
184.6728
 20
124.1767
  0
VERTEX
  8
LAYER_1
 10
184.6728
 20
124.2445
  0
VERTEX
  8
LAYER_1
 10
184.7406
 20
124.2445
  0
VERTEX
  8
LAYER_1
 10
184.7406
 20
124.3122
  0
VERTEX
  8
LAYER_1
 10
184.8083
 20
124.3122
  0
VERTEX
  8
LAYER_1
 10
184.8083
 20
124.38
  0
VERTEX
  8
LAYER_1
 10
184.8761
 20
124.38
  0
VERTEX
  8
LAYER_1
 10
184.9438
 20
124.38
  0
VERTEX
  8
LAYER_1
 10
184.9438
 20
124.3122
  0
VERTEX
  8
LAYER_1
 10
185.0116
 20
124.3122
  0
VERTEX
  8
LAYER_1
 10
185.0793
 20
124.3122
  0
VERTEX
  8
LAYER_1
 10
185.0793
 20
124.2445
  0
VERTEX
  8
LAYER_1
 10
185.0793
 20
124.1767
  0
VERTEX
  8
LAYER_1
 10
185.0793
 20
124.109
  0
VERTEX
  8
LAYER_1
 10
185.0793
 20
124.0412
  0
VERTEX
  8
LAYER_1
 10
185.0116
 20
124.0412
  0
VERTEX
  8
LAYER_1
 10
185.0116
 20
123.9735
  0
VERTEX
  8
LAYER_1
 10
184.9438
 20
123.9735
  0
VERTEX
  8
LAYER_1
 10
184.8761
 20
123.9735
  0
VERTEX
  8
LAYER_1
 10
184.8083
 20
123.9735
  0
VERTEX
  8
LAYER_1
 10
184.7406
 20
123.9735
  0
VERTEX
  8
LAYER_1
 10
184.7406
 20
124.0412
  0
VERTEX
  8
LAYER_1
 10
184.7406
 20
124.109
  0
VERTEX
  8
LAYER_1
 10
184.6728
 20
124.109
  0
SEQEND
  0
ENDBLK
  0
BLOCK
  8
LAYER_1
  2
AIGNBL01010038
 70
64
 10
0
 20
0
 30
0
  3
AIGNBL01010038
  0
TEXT
  8
LAYER_1
 10
146.8897
 20
125.837
 11
146.8897
 21
125.837
 40
3.6537
 41
0.5
  1
%%c355
  0
ENDBLK
  0
BLOCK
  8
LAYER_1
  2
AIGNBL01010039
 70
64
 10
0
 20
0
 30
0
  3
AIGNBL01010039
  0
POLYLINE
  8
LAYER_1
 40
0.05
 41
0.05
 66
1
 10
0
 20
0
 30
0
  0
VERTEX
  8
LAYER_1
 10
113.8762
 20
206.2998
  0
VERTEX
  8
LAYER_1
 10
113.8762
 20
214.3766
  0
SEQEND
  0
ENDBLK
  0
BLOCK
  8
LAYER_1
  2
AIGNBL0101003A
 70
64
 10
0
 20
0
 30
0
  3
AIGNBL0101003A
  0
POLYLINE
  8
LAYER_1
 40
0.05
 41
0.05
 66
1
 10
0
 20
0
 30
0
  0
VERTEX
  8
LAYER_1
 10
184.8761
 20
206.2998
  0
VERTEX
  8
LAYER_1
 10
184.8761
 20
214.3766
  0
SEQEND
  0
ENDBLK
  0
BLOCK
  8
LAYER_1
  2
AIGNBL0101003B
 70
64
 10
0
 20
0
 30
0
  3
AIGNBL0101003B
  0
POLYLINE
  8
LAYER_1
 40
0.05
 41
0.05
 66
1
 10
0
 20
0
 30
0
  0
VERTEX
  8
LAYER_1
 10
113.8762
 20
214.3766
  0
VERTEX
  8
LAYER_1
 10
184.8761
 20
214.3766
  0
SEQEND
  0
ENDBLK
  0
BLOCK
  8
LAYER_1
  2
AIGNBL0101003C
 70
64
 10
0
 20
0
 30
0
  3
AIGNBL0101003C
  0
POLYLINE
  8
LAYER_1
 40
0.05
 41
0.05
 66
1
 10
0
 20
0
 30
0
 70
1
  0
VERTEX
  8
LAYER_1
 10
114.0795
 20
214.3766
  0
VERTEX
  8
LAYER_1
 10
114.0795
 20
214.3088
  0
VERTEX
  8
LAYER_1
 10
114.0795
 20
214.2411
  0
VERTEX
  8
LAYER_1
 10
114.0117
 20
214.2411
  0
VERTEX
  8
LAYER_1
 10
114.0117
 20
214.1733
  0
VERTEX
  8
LAYER_1
 10
113.944
 20
214.1733
  0
VERTEX
  8
LAYER_1
 10
113.8762
 20
214.1733
  0
VERTEX
  8
LAYER_1
 10
113.8085
 20
214.1733
  0
VERTEX
  8
LAYER_1
 10
113.7408
 20
214.1733
  0
VERTEX
  8
LAYER_1
 10
113.7408
 20
214.2411
  0
VERTEX
  8
LAYER_1
 10
113.673
 20
214.2411
  0
VERTEX
  8
LAYER_1
 10
113.673
 20
214.3088
  0
VERTEX
  8
LAYER_1
 10
113.673
 20
214.3766
  0
VERTEX
  8
LAYER_1
 10
113.673
 20
214.4443
  0
VERTEX
  8
LAYER_1
 10
113.7408
 20
214.4443
  0
VERTEX
  8
LAYER_1
 10
113.7408
 20
214.5121
  0
VERTEX
  8
LAYER_1
 10
113.8085
 20
214.5121
  0
VERTEX
  8
LAYER_1
 10
113.8085
 20
214.5798
  0
VERTEX
  8
LAYER_1
 10
113.8762
 20
214.5798
  0
VERTEX
  8
LAYER_1
 10
113.944
 20
214.5798
  0
VERTEX
  8
LAYER_1
 10
113.944
 20
214.5121
  0
VERTEX
  8
LAYER_1
 10
114.0117
 20
214.5121
  0
VERTEX
  8
LAYER_1
 10
114.0117
 20
214.4443
  0
VERTEX
  8
LAYER_1
 10
114.0795
 20
214.4443
  0
SEQEND
  0
ENDBLK
  0
BLOCK
  8
LAYER_1
  2
AIGNBL0101003D
 70
64
 10
0
 20
0
 30
0
  3
AIGNBL0101003D
  0
POLYLINE
  8
LAYER_1
 66
1
 10
0
 20
0
 30
0
 70
1
  0
VERTEX
  8
LAYER_1
 10
114.0795
 20
214.3766
  0
VERTEX
  8
LAYER_1
 10
114.0795
 20
214.3088
  0
VERTEX
  8
LAYER_1
 10
114.0795
 20
214.2411
  0
VERTEX
  8
LAYER_1
 10
114.0117
 20
214.2411
  0
VERTEX
  8
LAYER_1
 10
114.0117
 20
214.1733
  0
VERTEX
  8
LAYER_1
 10
113.944
 20
214.1733
  0
VERTEX
  8
LAYER_1
 10
113.8762
 20
214.1733
  0
VERTEX
  8
LAYER_1
 10
113.8085
 20
214.1733
  0
VERTEX
  8
LAYER_1
 10
113.7408
 20
214.1733
  0
VERTEX
  8
LAYER_1
 10
113.7408
 20
214.2411
  0
VERTEX
  8
LAYER_1
 10
113.673
 20
214.2411
  0
VERTEX
  8
LAYER_1
 10
113.673
 20
214.3088
  0
VERTEX
  8
LAYER_1
 10
113.673
 20
214.3766
  0
VERTEX
  8
LAYER_1
 10
113.673
 20
214.4443
  0
VERTEX
  8
LAYER_1
 10
113.7408
 20
214.4443
  0
VERTEX
  8
LAYER_1
 10
113.7408
 20
214.5121
  0
VERTEX
  8
LAYER_1
 10
113.8085
 20
214.5121
  0
VERTEX
  8
LAYER_1
 10
113.8085
 20
214.5798
  0
VERTEX
  8
LAYER_1
 10
113.8762
 20
214.5798
  0
VERTEX
  8
LAYER_1
 10
113.944
 20
214.5798
  0
VERTEX
  8
LAYER_1
 10
113.944
 20
214.5121
  0
VERTEX
  8
LAYER_1
 10
114.0117
 20
214.5121
  0
VERTEX
  8
LAYER_1
 10
114.0117
 20
214.4443
  0
VERTEX
  8
LAYER_1
 10
114.0795
 20
214.4443
  0
SEQEND
  0
ENDBLK
  0
BLOCK
  8
LAYER_1
  2
AIGNBL0101003E
 70
64
 10
0
 20
0
 30
0
  3
AIGNBL0101003E
  0
POLYLINE
  8
LAYER_1
 40
0.05
 41
0.05
 66
1
 10
0
 20
0
 30
0
 70
1
  0
VERTEX
  8
LAYER_1
 10
114.0795
 20
214.3766
  0
VERTEX
  8
LAYER_1
 10
114.0795
 20
214.3088
  0
VERTEX
  8
LAYER_1
 10
114.0795
 20
214.2411
  0
VERTEX
  8
LAYER_1
 10
114.0117
 20
214.2411
  0
VERTEX
  8
LAYER_1
 10
114.0117
 20
214.1733
  0
VERTEX
  8
LAYER_1
 10
113.944
 20
214.1733
  0
VERTEX
  8
LAYER_1
 10
113.8762
 20
214.1733
  0
VERTEX
  8
LAYER_1
 10
113.8085
 20
214.1733
  0
VERTEX
  8
LAYER_1
 10
113.7408
 20
214.1733
  0
VERTEX
  8
LAYER_1
 10
113.7408
 20
214.2411
  0
VERTEX
  8
LAYER_1
 10
113.673
 20
214.2411
  0
VERTEX
  8
LAYER_1
 10
113.673
 20
214.3088
  0
VERTEX
  8
LAYER_1
 10
113.673
 20
214.3766
  0
VERTEX
  8
LAYER_1
 10
113.673
 20
214.4443
  0
VERTEX
  8
LAYER_1
 10
113.7408
 20
214.4443
  0
VERTEX
  8
LAYER_1
 10
113.7408
 20
214.5121
  0
VERTEX
  8
LAYER_1
 10
113.8085
 20
214.5121
  0
VERTEX
  8
LAYER_1
 10
113.8085
 20
214.5798
  0
VERTEX
  8
LAYER_1
 10
113.8762
 20
214.5798
  0
VERTEX
  8
LAYER_1
 10
113.944
 20
214.5798
  0
VERTEX
  8
LAYER_1
 10
113.944
 20
214.5121
  0
VERTEX
  8
LAYER_1
 10
114.0117
 20
214.5121
  0
VERTEX
  8
LAYER_1
 10
114.0117
 20
214.4443
  0
VERTEX
  8
LAYER_1
 10
114.0795
 20
214.4443
  0
SEQEND
  0
ENDBLK
  0
BLOCK
  8
LAYER_1
  2
AIGNBL0101003F
 70
64
 10
0
 20
0
 30
0
  3
AIGNBL0101003F
  0
POLYLINE
  8
LAYER_1
 40
0.05
 41
0.05
 66
1
 10
0
 20
0
 30
0
 70
1
  0
VERTEX
  8
LAYER_1
 10
184.6728
 20
214.3766
  0
VERTEX
  8
LAYER_1
 10
184.6728
 20
214.4443
  0
VERTEX
  8
LAYER_1
 10
184.7406
 20
214.4443
  0
VERTEX
  8
LAYER_1
 10
184.7406
 20
214.5121
  0
VERTEX
  8
LAYER_1
 10
184.8083
 20
214.5121
  0
VERTEX
  8
LAYER_1
 10
184.8083
 20
214.5798
  0
VERTEX
  8
LAYER_1
 10
184.8761
 20
214.5798
  0
VERTEX
  8
LAYER_1
 10
184.9438
 20
214.5798
  0
VERTEX
  8
LAYER_1
 10
184.9438
 20
214.5121
  0
VERTEX
  8
LAYER_1
 10
185.0116
 20
214.5121
  0
VERTEX
  8
LAYER_1
 10
185.0793
 20
214.5121
  0
VERTEX
  8
LAYER_1
 10
185.0793
 20
214.4443
  0
VERTEX
  8
LAYER_1
 10
185.0793
 20
214.3766
  0
VERTEX
  8
LAYER_1
 10
185.0793
 20
214.3088
  0
VERTEX
  8
LAYER_1
 10
185.0793
 20
214.2411
  0
VERTEX
  8
LAYER_1
 10
185.0116
 20
214.2411
  0
VERTEX
  8
LAYER_1
 10
185.0116
 20
214.1733
  0
VERTEX
  8
LAYER_1
 10
184.9438
 20
214.1733
  0
VERTEX
  8
LAYER_1
 10
184.8761
 20
214.1733
  0
VERTEX
  8
LAYER_1
 10
184.8083
 20
214.1733
  0
VERTEX
  8
LAYER_1
 10
184.7406
 20
214.1733
  0
VERTEX
  8
LAYER_1
 10
184.7406
 20
214.2411
  0
VERTEX
  8
LAYER_1
 10
184.7406
 20
214.3088
  0
VERTEX
  8
LAYER_1
 10
184.6728
 20
214.3088
  0
SEQEND
  0
ENDBLK
  0
BLOCK
  8
LAYER_1
  2
AIGNBL01010040
 70
64
 10
0
 20
0
 30
0
  3
AIGNBL01010040
  0
POLYLINE
  8
LAYER_1
 66
1
 10
0
 20
0
 30
0
 70
1
  0
VERTEX
  8
LAYER_1
 10
184.6728
 20
214.3766
  0
VERTEX
  8
LAYER_1
 10
184.6728
 20
214.4443
  0
VERTEX
  8
LAYER_1
 10
184.7406
 20
214.4443
  0
VERTEX
  8
LAYER_1
 10
184.7406
 20
214.5121
  0
VERTEX
  8
LAYER_1
 10
184.8083
 20
214.5121
  0
VERTEX
  8
LAYER_1
 10
184.8083
 20
214.5798
  0
VERTEX
  8
LAYER_1
 10
184.8761
 20
214.5798
  0
VERTEX
  8
LAYER_1
 10
184.9438
 20
214.5798
  0
VERTEX
  8
LAYER_1
 10
184.9438
 20
214.5121
  0
VERTEX
  8
LAYER_1
 10
185.0116
 20
214.5121
  0
VERTEX
  8
LAYER_1
 10
185.0793
 20
214.5121
  0
VERTEX
  8
LAYER_1
 10
185.0793
 20
214.4443
  0
VERTEX
  8
LAYER_1
 10
185.0793
 20
214.3766
  0
VERTEX
  8
LAYER_1
 10
185.0793
 20
214.3088
  0
VERTEX
  8
LAYER_1
 10
185.0793
 20
214.2411
  0
VERTEX
  8
LAYER_1
 10
185.0116
 20
214.2411
  0
VERTEX
  8
LAYER_1
 10
185.0116
 20
214.1733
  0
VERTEX
  8
LAYER_1
 10
184.9438
 20
214.1733
  0
VERTEX
  8
LAYER_1
 10
184.8761
 20
214.1733
  0
VERTEX
  8
LAYER_1
 10
184.8083
 20
214.1733
  0
VERTEX
  8
LAYER_1
 10
184.7406
 20
214.1733
  0
VERTEX
  8
LAYER_1
 10
184.7406
 20
214.2411
  0
VERTEX
  8
LAYER_1
 10
184.7406
 20
214.3088
  0
VERTEX
  8
LAYER_1
 10
184.6728
 20
214.3088
  0
SEQEND
  0
ENDBLK
  0
BLOCK
  8
LAYER_1
  2
AIGNBL01010041
 70
64
 10
0
 20
0
 30
0
  3
AIGNBL01010041
  0
POLYLINE
  8
LAYER_1
 40
0.05
 41
0.05
 66
1
 10
0
 20
0
 30
0
 70
1
  0
VERTEX
  8
LAYER_1
 10
184.6728
 20
214.3766
  0
VERTEX
  8
LAYER_1
 10
184.6728
 20
214.4443
  0
VERTEX
  8
LAYER_1
 10
184.7406
 20
214.4443
  0
VERTEX
  8
LAYER_1
 10
184.7406
 20
214.5121
  0
VERTEX
  8
LAYER_1
 10
184.8083
 20
214.5121
  0
VERTEX
  8
LAYER_1
 10
184.8083
 20
214.5798
  0
VERTEX
  8
LAYER_1
 10
184.8761
 20
214.5798
  0
VERTEX
  8
LAYER_1
 10
184.9438
 20
214.5798
  0
VERTEX
  8
LAYER_1
 10
184.9438
 20
214.5121
  0
VERTEX
  8
LAYER_1
 10
185.0116
 20
214.5121
  0
VERTEX
  8
LAYER_1
 10
185.0793
 20
214.5121
  0
VERTEX
  8
LAYER_1
 10
185.0793
 20
214.4443
  0
VERTEX
  8
LAYER_1
 10
185.0793
 20
214.3766
  0
VERTEX
  8
LAYER_1
 10
185.0793
 20
214.3088
  0
VERTEX
  8
LAYER_1
 10
185.0793
 20
214.2411
  0
VERTEX
  8
LAYER_1
 10
185.0116
 20
214.2411
  0
VERTEX
  8
LAYER_1
 10
185.0116
 20
214.1733
  0
VERTEX
  8
LAYER_1
 10
184.9438
 20
214.1733
  0
VERTEX
  8
LAYER_1
 10
184.8761
 20
214.1733
  0
VERTEX
  8
LAYER_1
 10
184.8083
 20
214.1733
  0
VERTEX
  8
LAYER_1
 10
184.7406
 20
214.1733
  0
VERTEX
  8
LAYER_1
 10
184.7406
 20
214.2411
  0
VERTEX
  8
LAYER_1
 10
184.7406
 20
214.3088
  0
VERTEX
  8
LAYER_1
 10
184.6728
 20
214.3088
  0
SEQEND
  0
ENDBLK
  0
BLOCK
  8
LAYER_1
  2
AIGNBL01010042
 70
64
 10
0
 20
0
 30
0
  3
AIGNBL01010042
  0
TEXT
  8
LAYER_1
 10
146.8897
 20
216.0369
 11
146.8897
 21
216.0369
 40
3.6537
 41
0.5
  1
%%c355
  0
ENDBLK
  0
BLOCK
  8
LAYER_1
  2
AIGNBL01010043
 70
64
 10
0
 20
0
 30
0
  3
AIGNBL01010043
  0
POLYLINE
  8
LAYER_1
 40
0.05
 41
0.05
 66
1
 10
0
 20
0
 30
0
  0
VERTEX
  8
LAYER_1
 10
145.3113
 20
86.4941
  0
VERTEX
  8
LAYER_1
 10
145.3113
 20
79.8548
  0
SEQEND
  0
ENDBLK
  0
BLOCK
  8
LAYER_1
  2
AIGNBL01010044
 70
64
 10
0
 20
0
 30
0
  3
AIGNBL01010044
  0
POLYLINE
  8
LAYER_1
 40
0.05
 41
0.05
 66
1
 10
0
 20
0
 30
0
  0
VERTEX
  8
LAYER_1
 10
153.5088
 20
86.4941
  0
VERTEX
  8
LAYER_1
 10
153.5088
 20
79.8548
  0
SEQEND
  0
ENDBLK
  0
BLOCK
  8
LAYER_1
  2
AIGNBL01010045
 70
64
 10
0
 20
0
 30
0
  3
AIGNBL01010045
  0
POLYLINE
  8
LAYER_1
 40
0.05
 41
0.05
 66
1
 10
0
 20
0
 30
0
  0
VERTEX
  8
LAYER_1
 10
145.3113
 20
79.8548
  0
VERTEX
  8
LAYER_1
 10
153.5088
 20
79.8548
  0
SEQEND
  0
ENDBLK
  0
BLOCK
  8
LAYER_1
  2
AIGNBL01010046
 70
64
 10
0
 20
0
 30
0
  3
AIGNBL01010046
  0
POLYLINE
  8
LAYER_1
 40
0.05
 41
0.05
 66
1
 10
0
 20
0
 30
0
 70
1
  0
VERTEX
  8
LAYER_1
 10
145.5145
 20
79.8548
  0
VERTEX
  8
LAYER_1
 10
145.5145
 20
79.787
  0
VERTEX
  8
LAYER_1
 10
145.4468
 20
79.787
  0
VERTEX
  8
LAYER_1
 10
145.4468
 20
79.7193
  0
VERTEX
  8
LAYER_1
 10
145.379
 20
79.7193
  0
VERTEX
  8
LAYER_1
 10
145.379
 20
79.6515
  0
VERTEX
  8
LAYER_1
 10
145.3113
 20
79.6515
  0
VERTEX
  8
LAYER_1
 10
145.2435
 20
79.6515
  0
VERTEX
  8
LAYER_1
 10
145.1758
 20
79.6515
  0
VERTEX
  8
LAYER_1
 10
145.1758
 20
79.7193
  0
VERTEX
  8
LAYER_1
 10
145.108
 20
79.7193
  0
VERTEX
  8
LAYER_1
 10
145.108
 20
79.787
  0
VERTEX
  8
LAYER_1
 10
145.108
 20
79.8548
  0
VERTEX
  8
LAYER_1
 10
145.108
 20
79.9225
  0
VERTEX
  8
LAYER_1
 10
145.108
 20
79.9903
  0
VERTEX
  8
LAYER_1
 10
145.1758
 20
79.9903
  0
VERTEX
  8
LAYER_1
 10
145.1758
 20
80.058
  0
VERTEX
  8
LAYER_1
 10
145.2435
 20
80.058
  0
VERTEX
  8
LAYER_1
 10
145.3113
 20
80.058
  0
VERTEX
  8
LAYER_1
 10
145.379
 20
80.058
  0
VERTEX
  8
LAYER_1
 10
145.4468
 20
79.9903
  0
VERTEX
  8
LAYER_1
 10
145.4468
 20
79.9225
  0
VERTEX
  8
LAYER_1
 10
145.5145
 20
79.9225
  0
SEQEND
  0
ENDBLK
  0
BLOCK
  8
LAYER_1
  2
AIGNBL01010047
 70
64
 10
0
 20
0
 30
0
  3
AIGNBL01010047
  0
POLYLINE
  8
LAYER_1
 66
1
 10
0
 20
0
 30
0
 70
1
  0
VERTEX
  8
LAYER_1
 10
145.5145
 20
79.8548
  0
VERTEX
  8
LAYER_1
 10
145.5145
 20
79.787
  0
VERTEX
  8
LAYER_1
 10
145.4468
 20
79.787
  0
VERTEX
  8
LAYER_1
 10
145.4468
 20
79.7193
  0
VERTEX
  8
LAYER_1
 10
145.379
 20
79.7193
  0
VERTEX
  8
LAYER_1
 10
145.379
 20
79.6515
  0
VERTEX
  8
LAYER_1
 10
145.3113
 20
79.6515
  0
VERTEX
  8
LAYER_1
 10
145.2435
 20
79.6515
  0
VERTEX
  8
LAYER_1
 10
145.1758
 20
79.6515
  0
VERTEX
  8
LAYER_1
 10
145.1758
 20
79.7193
  0
VERTEX
  8
LAYER_1
 10
145.108
 20
79.7193
  0
VERTEX
  8
LAYER_1
 10
145.108
 20
79.787
  0
VERTEX
  8
LAYER_1
 10
145.108
 20
79.8548
  0
VERTEX
  8
LAYER_1
 10
145.108
 20
79.9225
  0
VERTEX
  8
LAYER_1
 10
145.108
 20
79.9903
  0
VERTEX
  8
LAYER_1
 10
145.1758
 20
79.9903
  0
VERTEX
  8
LAYER_1
 10
145.1758
 20
80.058
  0
VERTEX
  8
LAYER_1
 10
145.2435
 20
80.058
  0
VERTEX
  8
LAYER_1
 10
145.3113
 20
80.058
  0
VERTEX
  8
LAYER_1
 10
145.379
 20
80.058
  0
VERTEX
  8
LAYER_1
 10
145.4468
 20
79.9903
  0
VERTEX
  8
LAYER_1
 10
145.4468
 20
79.9225
  0
VERTEX
  8
LAYER_1
 10
145.5145
 20
79.9225
  0
SEQEND
  0
ENDBLK
  0
BLOCK
  8
LAYER_1
  2
AIGNBL01010048
 70
64
 10
0
 20
0
 30
0
  3
AIGNBL01010048
  0
POLYLINE
  8
LAYER_1
 40
0.05
 41
0.05
 66
1
 10
0
 20
0
 30
0
 70
1
  0
VERTEX
  8
LAYER_1
 10
145.5145
 20
79.8548
  0
VERTEX
  8
LAYER_1
 10
145.5145
 20
79.787
  0
VERTEX
  8
LAYER_1
 10
145.4468
 20
79.787
  0
VERTEX
  8
LAYER_1
 10
145.4468
 20
79.7193
  0
VERTEX
  8
LAYER_1
 10
145.379
 20
79.7193
  0
VERTEX
  8
LAYER_1
 10
145.379
 20
79.6515
  0
VERTEX
  8
LAYER_1
 10
145.3113
 20
79.6515
  0
VERTEX
  8
LAYER_1
 10
145.2435
 20
79.6515
  0
VERTEX
  8
LAYER_1
 10
145.1758
 20
79.6515
  0
VERTEX
  8
LAYER_1
 10
145.1758
 20
79.7193
  0
VERTEX
  8
LAYER_1
 10
145.108
 20
79.7193
  0
VERTEX
  8
LAYER_1
 10
145.108
 20
79.787
  0
VERTEX
  8
LAYER_1
 10
145.108
 20
79.8548
  0
VERTEX
  8
LAYER_1
 10
145.108
 20
79.9225
  0
VERTEX
  8
LAYER_1
 10
145.108
 20
79.9903
  0
VERTEX
  8
LAYER_1
 10
145.1758
 20
79.9903
  0
VERTEX
  8
LAYER_1
 10
145.1758
 20
80.058
  0
VERTEX
  8
LAYER_1
 10
145.2435
 20
80.058
  0
VERTEX
  8
LAYER_1
 10
145.3113
 20
80.058
  0
VERTEX
  8
LAYER_1
 10
145.379
 20
80.058
  0
VERTEX
  8
LAYER_1
 10
145.4468
 20
79.9903
  0
VERTEX
  8
LAYER_1
 10
145.4468
 20
79.9225
  0
VERTEX
  8
LAYER_1
 10
145.5145
 20
79.9225
  0
SEQEND
  0
ENDBLK
  0
BLOCK
  8
LAYER_1
  2
AIGNBL01010049
 70
64
 10
0
 20
0
 30
0
  3
AIGNBL01010049
  0
POLYLINE
  8
LAYER_1
 40
0.05
 41
0.05
 66
1
 10
0
 20
0
 30
0
 70
1
  0
VERTEX
  8
LAYER_1
 10
153.3055
 20
79.8548
  0
VERTEX
  8
LAYER_1
 10
153.3055
 20
79.9225
  0
VERTEX
  8
LAYER_1
 10
153.3055
 20
79.9903
  0
VERTEX
  8
LAYER_1
 10
153.3733
 20
79.9903
  0
VERTEX
  8
LAYER_1
 10
153.3733
 20
80.058
  0
VERTEX
  8
LAYER_1
 10
153.4411
 20
80.058
  0
VERTEX
  8
LAYER_1
 10
153.5088
 20
80.058
  0
VERTEX
  8
LAYER_1
 10
153.5765
 20
80.058
  0
VERTEX
  8
LAYER_1
 10
153.6443
 20
80.058
  0
VERTEX
  8
LAYER_1
 10
153.6443
 20
79.9903
  0
VERTEX
  8
LAYER_1
 10
153.6443
 20
79.9225
  0
VERTEX
  8
LAYER_1
 10
153.712
 20
79.9225
  0
VERTEX
  8
LAYER_1
 10
153.712
 20
79.8548
  0
VERTEX
  8
LAYER_1
 10
153.712
 20
79.787
  0
VERTEX
  8
LAYER_1
 10
153.6443
 20
79.787
  0
VERTEX
  8
LAYER_1
 10
153.6443
 20
79.7193
  0
VERTEX
  8
LAYER_1
 10
153.5765
 20
79.7193
  0
VERTEX
  8
LAYER_1
 10
153.5765
 20
79.6515
  0
VERTEX
  8
LAYER_1
 10
153.5088
 20
79.6515
  0
VERTEX
  8
LAYER_1
 10
153.4411
 20
79.6515
  0
VERTEX
  8
LAYER_1
 10
153.3733
 20
79.6515
  0
VERTEX
  8
LAYER_1
 10
153.3733
 20
79.7193
  0
VERTEX
  8
LAYER_1
 10
153.3055
 20
79.7193
  0
VERTEX
  8
LAYER_1
 10
153.3055
 20
79.787
  0
SEQEND
  0
ENDBLK
  0
BLOCK
  8
LAYER_1
  2
AIGNBL0101004A
 70
64
 10
0
 20
0
 30
0
  3
AIGNBL0101004A
  0
POLYLINE
  8
LAYER_1
 66
1
 10
0
 20
0
 30
0
 70
1
  0
VERTEX
  8
LAYER_1
 10
153.3055
 20
79.8548
  0
VERTEX
  8
LAYER_1
 10
153.3055
 20
79.9225
  0
VERTEX
  8
LAYER_1
 10
153.3055
 20
79.9903
  0
VERTEX
  8
LAYER_1
 10
153.3733
 20
79.9903
  0
VERTEX
  8
LAYER_1
 10
153.3733
 20
80.058
  0
VERTEX
  8
LAYER_1
 10
153.4411
 20
80.058
  0
VERTEX
  8
LAYER_1
 10
153.5088
 20
80.058
  0
VERTEX
  8
LAYER_1
 10
153.5765
 20
80.058
  0
VERTEX
  8
LAYER_1
 10
153.6443
 20
80.058
  0
VERTEX
  8
LAYER_1
 10
153.6443
 20
79.9903
  0
VERTEX
  8
LAYER_1
 10
153.6443
 20
79.9225
  0
VERTEX
  8
LAYER_1
 10
153.712
 20
79.9225
  0
VERTEX
  8
LAYER_1
 10
153.712
 20
79.8548
  0
VERTEX
  8
LAYER_1
 10
153.712
 20
79.787
  0
VERTEX
  8
LAYER_1
 10
153.6443
 20
79.787
  0
VERTEX
  8
LAYER_1
 10
153.6443
 20
79.7193
  0
VERTEX
  8
LAYER_1
 10
153.5765
 20
79.7193
  0
VERTEX
  8
LAYER_1
 10
153.5765
 20
79.6515
  0
VERTEX
  8
LAYER_1
 10
153.5088
 20
79.6515
  0
VERTEX
  8
LAYER_1
 10
153.4411
 20
79.6515
  0
VERTEX
  8
LAYER_1
 10
153.3733
 20
79.6515
  0
VERTEX
  8
LAYER_1
 10
153.3733
 20
79.7193
  0
VERTEX
  8
LAYER_1
 10
153.3055
 20
79.7193
  0
VERTEX
  8
LAYER_1
 10
153.3055
 20
79.787
  0
SEQEND
  0
ENDBLK
  0
BLOCK
  8
LAYER_1
  2
AIGNBL0101004B
 70
64
 10
0
 20
0
 30
0
  3
AIGNBL0101004B
  0
POLYLINE
  8
LAYER_1
 40
0.05
 41
0.05
 66
1
 10
0
 20
0
 30
0
 70
1
  0
VERTEX
  8
LAYER_1
 10
153.3055
 20
79.8548
  0
VERTEX
  8
LAYER_1
 10
153.3055
 20
79.9225
  0
VERTEX
  8
LAYER_1
 10
153.3055
 20
79.9903
  0
VERTEX
  8
LAYER_1
 10
153.3733
 20
79.9903
  0
VERTEX
  8
LAYER_1
 10
153.3733
 20
80.058
  0
VERTEX
  8
LAYER_1
 10
153.4411
 20
80.058
  0
VERTEX
  8
LAYER_1
 10
153.5088
 20
80.058
  0
VERTEX
  8
LAYER_1
 10
153.5765
 20
80.058
  0
VERTEX
  8
LAYER_1
 10
153.6443
 20
80.058
  0
VERTEX
  8
LAYER_1
 10
153.6443
 20
79.9903
  0
VERTEX
  8
LAYER_1
 10
153.6443
 20
79.9225
  0
VERTEX
  8
LAYER_1
 10
153.712
 20
79.9225
  0
VERTEX
  8
LAYER_1
 10
153.712
 20
79.8548
  0
VERTEX
  8
LAYER_1
 10
153.712
 20
79.787
  0
VERTEX
  8
LAYER_1
 10
153.6443
 20
79.787
  0
VERTEX
  8
LAYER_1
 10
153.6443
 20
79.7193
  0
VERTEX
  8
LAYER_1
 10
153.5765
 20
79.7193
  0
VERTEX
  8
LAYER_1
 10
153.5765
 20
79.6515
  0
VERTEX
  8
LAYER_1
 10
153.5088
 20
79.6515
  0
VERTEX
  8
LAYER_1
 10
153.4411
 20
79.6515
  0
VERTEX
  8
LAYER_1
 10
153.3733
 20
79.6515
  0
VERTEX
  8
LAYER_1
 10
153.3733
 20
79.7193
  0
VERTEX
  8
LAYER_1
 10
153.3055
 20
79.7193
  0
VERTEX
  8
LAYER_1
 10
153.3055
 20
79.787
  0
SEQEND
  0
ENDBLK
  0
BLOCK
  8
LAYER_1
  2
AIGNBL0101004C
 70
64
 10
0
 20
0
 30
0
  3
AIGNBL0101004C
  0
POLYLINE
  8
LAYER_1
 40
0.05
 41
0.05
 66
1
 10
0
 20
0
 30
0
  0
VERTEX
  8
LAYER_1
 10
162.7225
 20
91.5074
  0
VERTEX
  8
LAYER_1
 10
171.3942
 20
91.5074
  0
SEQEND
  0
ENDBLK
  0
BLOCK
  8
LAYER_1
  2
AIGNBL0101004D
 70
64
 10
0
 20
0
 30
0
  3
AIGNBL0101004D
  0
POLYLINE
  8
LAYER_1
 40
0.05
 41
0.05
 66
1
 10
0
 20
0
 30
0
  0
VERTEX
  8
LAYER_1
 10
162.7225
 20
87.3071
  0
VERTEX
  8
LAYER_1
 10
171.3942
 20
87.3071
  0
SEQEND
  0
ENDBLK
  0
BLOCK
  8
LAYER_1
  2
AIGNBL0101004E
 70
64
 10
0
 20
0
 30
0
  3
AIGNBL0101004E
  0
POLYLINE
  8
LAYER_1
 40
0.05
 41
0.05
 66
1
 10
0
 20
0
 30
0
  0
VERTEX
  8
LAYER_1
 10
171.3942
 20
91.5074
  0
VERTEX
  8
LAYER_1
 10
171.3942
 20
87.3071
  0
SEQEND
  0
ENDBLK
  0
BLOCK
  8
LAYER_1
  2
AIGNBL0101004F
 70
64
 10
0
 20
0
 30
0
  3
AIGNBL0101004F
  0
POLYLINE
  8
LAYER_1
 40
0.05
 41
0.05
 66
1
 10
0
 20
0
 30
0
 70
1
  0
VERTEX
  8
LAYER_1
 10
171.3942
 20
91.3042
  0
VERTEX
  8
LAYER_1
 10
171.3265
 20
91.3042
  0
VERTEX
  8
LAYER_1
 10
171.2588
 20
91.3042
  0
VERTEX
  8
LAYER_1
 10
171.2588
 20
91.3719
  0
VERTEX
  8
LAYER_1
 10
171.191
 20
91.3719
  0
VERTEX
  8
LAYER_1
 10
171.191
 20
91.4397
  0
VERTEX
  8
LAYER_1
 10
171.191
 20
91.5074
  0
VERTEX
  8
LAYER_1
 10
171.191
 20
91.5752
  0
VERTEX
  8
LAYER_1
 10
171.2588
 20
91.5752
  0
VERTEX
  8
LAYER_1
 10
171.2588
 20
91.6429
  0
VERTEX
  8
LAYER_1
 10
171.3265
 20
91.6429
  0
VERTEX
  8
LAYER_1
 10
171.3265
 20
91.7107
  0
VERTEX
  8
LAYER_1
 10
171.3942
 20
91.7107
  0
VERTEX
  8
LAYER_1
 10
171.462
 20
91.7107
  0
VERTEX
  8
LAYER_1
 10
171.462
 20
91.6429
  0
VERTEX
  8
LAYER_1
 10
171.5297
 20
91.6429
  0
VERTEX
  8
LAYER_1
 10
171.5297
 20
91.5752
  0
VERTEX
  8
LAYER_1
 10
171.5975
 20
91.5752
  0
VERTEX
  8
LAYER_1
 10
171.5975
 20
91.5074
  0
VERTEX
  8
LAYER_1
 10
171.5975
 20
91.4397
  0
VERTEX
  8
LAYER_1
 10
171.5975
 20
91.3719
  0
VERTEX
  8
LAYER_1
 10
171.5297
 20
91.3719
  0
VERTEX
  8
LAYER_1
 10
171.5297
 20
91.3042
  0
VERTEX
  8
LAYER_1
 10
171.462
 20
91.3042
  0
SEQEND
  0
ENDBLK
  0
BLOCK
  8
LAYER_1
  2
AIGNBL01010050
 70
64
 10
0
 20
0
 30
0
  3
AIGNBL01010050
  0
POLYLINE
  8
LAYER_1
 66
1
 10
0
 20
0
 30
0
 70
1
  0
VERTEX
  8
LAYER_1
 10
171.3942
 20
91.3042
  0
VERTEX
  8
LAYER_1
 10
171.3265
 20
91.3042
  0
VERTEX
  8
LAYER_1
 10
171.2588
 20
91.3042
  0
VERTEX
  8
LAYER_1
 10
171.2588
 20
91.3719
  0
VERTEX
  8
LAYER_1
 10
171.191
 20
91.3719
  0
VERTEX
  8
LAYER_1
 10
171.191
 20
91.4397
  0
VERTEX
  8
LAYER_1
 10
171.191
 20
91.5074
  0
VERTEX
  8
LAYER_1
 10
171.191
 20
91.5752
  0
VERTEX
  8
LAYER_1
 10
171.2588
 20
91.5752
  0
VERTEX
  8
LAYER_1
 10
171.2588
 20
91.6429
  0
VERTEX
  8
LAYER_1
 10
171.3265
 20
91.6429
  0
VERTEX
  8
LAYER_1
 10
171.3265
 20
91.7107
  0
VERTEX
  8
LAYER_1
 10
171.3942
 20
91.7107
  0
VERTEX
  8
LAYER_1
 10
171.462
 20
91.7107
  0
VERTEX
  8
LAYER_1
 10
171.462
 20
91.6429
  0
VERTEX
  8
LAYER_1
 10
171.5297
 20
91.6429
  0
VERTEX
  8
LAYER_1
 10
171.5297
 20
91.5752
  0
VERTEX
  8
LAYER_1
 10
171.5975
 20
91.5752
  0
VERTEX
  8
LAYER_1
 10
171.5975
 20
91.5074
  0
VERTEX
  8
LAYER_1
 10
171.5975
 20
91.4397
  0
VERTEX
  8
LAYER_1
 10
171.5975
 20
91.3719
  0
VERTEX
  8
LAYER_1
 10
171.5297
 20
91.3719
  0
VERTEX
  8
LAYER_1
 10
171.5297
 20
91.3042
  0
VERTEX
  8
LAYER_1
 10
171.462
 20
91.3042
  0
SEQEND
  0
ENDBLK
  0
BLOCK
  8
LAYER_1
  2
AIGNBL01010051
 70
64
 10
0
 20
0
 30
0
  3
AIGNBL01010051
  0
POLYLINE
  8
LAYER_1
 40
0.05
 41
0.05
 66
1
 10
0
 20
0
 30
0
 70
1
  0
VERTEX
  8
LAYER_1
 10
171.3942
 20
91.3042
  0
VERTEX
  8
LAYER_1
 10
171.3265
 20
91.3042
  0
VERTEX
  8
LAYER_1
 10
171.2588
 20
91.3042
  0
VERTEX
  8
LAYER_1
 10
171.2588
 20
91.3719
  0
VERTEX
  8
LAYER_1
 10
171.191
 20
91.3719
  0
VERTEX
  8
LAYER_1
 10
171.191
 20
91.4397
  0
VERTEX
  8
LAYER_1
 10
171.191
 20
91.5074
  0
VERTEX
  8
LAYER_1
 10
171.191
 20
91.5752
  0
VERTEX
  8
LAYER_1
 10
171.2588
 20
91.5752
  0
VERTEX
  8
LAYER_1
 10
171.2588
 20
91.6429
  0
VERTEX
  8
LAYER_1
 10
171.3265
 20
91.6429
  0
VERTEX
  8
LAYER_1
 10
171.3265
 20
91.7107
  0
VERTEX
  8
LAYER_1
 10
171.3942
 20
91.7107
  0
VERTEX
  8
LAYER_1
 10
171.462
 20
91.7107
  0
VERTEX
  8
LAYER_1
 10
171.462
 20
91.6429
  0
VERTEX
  8
LAYER_1
 10
171.5297
 20
91.6429
  0
VERTEX
  8
LAYER_1
 10
171.5297
 20
91.5752
  0
VERTEX
  8
LAYER_1
 10
171.5975
 20
91.5752
  0
VERTEX
  8
LAYER_1
 10
171.5975
 20
91.5074
  0
VERTEX
  8
LAYER_1
 10
171.5975
 20
91.4397
  0
VERTEX
  8
LAYER_1
 10
171.5975
 20
91.3719
  0
VERTEX
  8
LAYER_1
 10
171.5297
 20
91.3719
  0
VERTEX
  8
LAYER_1
 10
171.5297
 20
91.3042
  0
VERTEX
  8
LAYER_1
 10
171.462
 20
91.3042
  0
SEQEND
  0
ENDBLK
  0
BLOCK
  8
LAYER_1
  2
AIGNBL01010052
 70
64
 10
0
 20
0
 30
0
  3
AIGNBL01010052
  0
POLYLINE
  8
LAYER_1
 40
0.05
 41
0.05
 66
1
 10
0
 20
0
 30
0
 70
1
  0
VERTEX
  8
LAYER_1
 10
171.3942
 20
87.5103
  0
VERTEX
  8
LAYER_1
 10
171.462
 20
87.4426
  0
VERTEX
  8
LAYER_1
 10
171.5297
 20
87.4426
  0
VERTEX
  8
LAYER_1
 10
171.5297
 20
87.3748
  0
VERTEX
  8
LAYER_1
 10
171.5975
 20
87.3748
  0
VERTEX
  8
LAYER_1
 10
171.5975
 20
87.3071
  0
VERTEX
  8
LAYER_1
 10
171.5975
 20
87.2393
  0
VERTEX
  8
LAYER_1
 10
171.5975
 20
87.1716
  0
VERTEX
  8
LAYER_1
 10
171.5297
 20
87.1716
  0
VERTEX
  8
LAYER_1
 10
171.5297
 20
87.1038
  0
VERTEX
  8
LAYER_1
 10
171.462
 20
87.1038
  0
VERTEX
  8
LAYER_1
 10
171.3942
 20
87.1038
  0
VERTEX
  8
LAYER_1
 10
171.3265
 20
87.1038
  0
VERTEX
  8
LAYER_1
 10
171.2588
 20
87.1038
  0
VERTEX
  8
LAYER_1
 10
171.2588
 20
87.1716
  0
VERTEX
  8
LAYER_1
 10
171.191
 20
87.1716
  0
VERTEX
  8
LAYER_1
 10
171.191
 20
87.2393
  0
VERTEX
  8
LAYER_1
 10
171.191
 20
87.3071
  0
VERTEX
  8
LAYER_1
 10
171.191
 20
87.3748
  0
VERTEX
  8
LAYER_1
 10
171.2588
 20
87.3748
  0
VERTEX
  8
LAYER_1
 10
171.2588
 20
87.4426
  0
VERTEX
  8
LAYER_1
 10
171.3265
 20
87.4426
  0
SEQEND
  0
ENDBLK
  0
BLOCK
  8
LAYER_1
  2
AIGNBL01010053
 70
64
 10
0
 20
0
 30
0
  3
AIGNBL01010053
  0
POLYLINE
  8
LAYER_1
 66
1
 10
0
 20
0
 30
0
 70
1
  0
VERTEX
  8
LAYER_1
 10
171.3942
 20
87.5103
  0
VERTEX
  8
LAYER_1
 10
171.462
 20
87.4426
  0
VERTEX
  8
LAYER_1
 10
171.5297
 20
87.4426
  0
VERTEX
  8
LAYER_1
 10
171.5297
 20
87.3748
  0
VERTEX
  8
LAYER_1
 10
171.5975
 20
87.3748
  0
VERTEX
  8
LAYER_1
 10
171.5975
 20
87.3071
  0
VERTEX
  8
LAYER_1
 10
171.5975
 20
87.2393
  0
VERTEX
  8
LAYER_1
 10
171.5975
 20
87.1716
  0
VERTEX
  8
LAYER_1
 10
171.5297
 20
87.1716
  0
VERTEX
  8
LAYER_1
 10
171.5297
 20
87.1038
  0
VERTEX
  8
LAYER_1
 10
171.462
 20
87.1038
  0
VERTEX
  8
LAYER_1
 10
171.3942
 20
87.1038
  0
VERTEX
  8
LAYER_1
 10
171.3265
 20
87.1038
  0
VERTEX
  8
LAYER_1
 10
171.2588
 20
87.1038
  0
VERTEX
  8
LAYER_1
 10
171.2588
 20
87.1716
  0
VERTEX
  8
LAYER_1
 10
171.191
 20
87.1716
  0
VERTEX
  8
LAYER_1
 10
171.191
 20
87.2393
  0
VERTEX
  8
LAYER_1
 10
171.191
 20
87.3071
  0
VERTEX
  8
LAYER_1
 10
171.191
 20
87.3748
  0
VERTEX
  8
LAYER_1
 10
171.2588
 20
87.3748
  0
VERTEX
  8
LAYER_1
 10
171.2588
 20
87.4426
  0
VERTEX
  8
LAYER_1
 10
171.3265
 20
87.4426
  0
SEQEND
  0
ENDBLK
  0
BLOCK
  8
LAYER_1
  2
AIGNBL01010054
 70
64
 10
0
 20
0
 30
0
  3
AIGNBL01010054
  0
POLYLINE
  8
LAYER_1
 40
0.05
 41
0.05
 66
1
 10
0
 20
0
 30
0
 70
1
  0
VERTEX
  8
LAYER_1
 10
171.3942
 20
87.5103
  0
VERTEX
  8
LAYER_1
 10
171.462
 20
87.4426
  0
VERTEX
  8
LAYER_1
 10
171.5297
 20
87.4426
  0
VERTEX
  8
LAYER_1
 10
171.5297
 20
87.3748
  0
VERTEX
  8
LAYER_1
 10
171.5975
 20
87.3748
  0
VERTEX
  8
LAYER_1
 10
171.5975
 20
87.3071
  0
VERTEX
  8
LAYER_1
 10
171.5975
 20
87.2393
  0
VERTEX
  8
LAYER_1
 10
171.5975
 20
87.1716
  0
VERTEX
  8
LAYER_1
 10
171.5297
 20
87.1716
  0
VERTEX
  8
LAYER_1
 10
171.5297
 20
87.1038
  0
VERTEX
  8
LAYER_1
 10
171.462
 20
87.1038
  0
VERTEX
  8
LAYER_1
 10
171.3942
 20
87.1038
  0
VERTEX
  8
LAYER_1
 10
171.3265
 20
87.1038
  0
VERTEX
  8
LAYER_1
 10
171.2588
 20
87.1038
  0
VERTEX
  8
LAYER_1
 10
171.2588
 20
87.1716
  0
VERTEX
  8
LAYER_1
 10
171.191
 20
87.1716
  0
VERTEX
  8
LAYER_1
 10
171.191
 20
87.2393
  0
VERTEX
  8
LAYER_1
 10
171.191
 20
87.3071
  0
VERTEX
  8
LAYER_1
 10
171.191
 20
87.3748
  0
VERTEX
  8
LAYER_1
 10
171.2588
 20
87.3748
  0
VERTEX
  8
LAYER_1
 10
171.2588
 20
87.4426
  0
VERTEX
  8
LAYER_1
 10
171.3265
 20
87.4426
  0
SEQEND
  0
ENDBLK
  0
BLOCK
  8
LAYER_1
  2
AIGNBL01010055
 70
64
 10
0
 20
0
 30
0
  3
AIGNBL01010055
  0
TEXT
  8
LAYER_1
 10
169.8883
 20
87.7008
 11
169.8883
 21
87.7008
 40
3.6537
 41
0.5
 50
89.99999999
  1
21
  0
ENDBLK
  0
BLOCK
  8
LAYER_1
  2
AIGNBL01010056
 70
64
 10
0
 20
0
 30
0
  3
AIGNBL01010056
  0
POLYLINE
  8
LAYER_1
 40
0.05
 41
0.05
 66
1
 10
0
 20
0
 30
0
  0
VERTEX
  8
LAYER_1
 10
185.6891
 20
115.287
  0
VERTEX
  8
LAYER_1
 10
192.5994
 20
115.287
  0
SEQEND
  0
ENDBLK
  0
BLOCK
  8
LAYER_1
  2
AIGNBL01010057
 70
64
 10
0
 20
0
 30
0
  3
AIGNBL01010057
  0
POLYLINE
  8
LAYER_1
 40
0.05
 41
0.05
 66
1
 10
0
 20
0
 30
0
  0
VERTEX
  8
LAYER_1
 10
162.7225
 20
87.3071
  0
VERTEX
  8
LAYER_1
 10
192.5994
 20
87.3071
  0
SEQEND
  0
ENDBLK
  0
BLOCK
  8
LAYER_1
  2
AIGNBL01010058
 70
64
 10
0
 20
0
 30
0
  3
AIGNBL01010058
  0
POLYLINE
  8
LAYER_1
 40
0.05
 41
0.05
 66
1
 10
0
 20
0
 30
0
  0
VERTEX
  8
LAYER_1
 10
192.5994
 20
115.287
  0
VERTEX
  8
LAYER_1
 10
192.5994
 20
87.3071
  0
SEQEND
  0
ENDBLK
  0
BLOCK
  8
LAYER_1
  2
AIGNBL01010059
 70
64
 10
0
 20
0
 30
0
  3
AIGNBL01010059
  0
POLYLINE
  8
LAYER_1
 40
0.05
 41
0.05
 66
1
 10
0
 20
0
 30
0
 70
1
  0
VERTEX
  8
LAYER_1
 10
192.5994
 20
115.0837
  0
VERTEX
  8
LAYER_1
 10
192.5316
 20
115.0837
  0
VERTEX
  8
LAYER_1
 10
192.4639
 20
115.0837
  0
VERTEX
  8
LAYER_1
 10
192.4639
 20
115.1515
  0
VERTEX
  8
LAYER_1
 10
192.3961
 20
115.1515
  0
VERTEX
  8
LAYER_1
 10
192.3961
 20
115.2192
  0
VERTEX
  8
LAYER_1
 10
192.3961
 20
115.287
  0
VERTEX
  8
LAYER_1
 10
192.3961
 20
115.3547
  0
VERTEX
  8
LAYER_1
 10
192.3961
 20
115.4225
  0
VERTEX
  8
LAYER_1
 10
192.4639
 20
115.4225
  0
VERTEX
  8
LAYER_1
 10
192.4639
 20
115.4902
  0
VERTEX
  8
LAYER_1
 10
192.5316
 20
115.4902
  0
VERTEX
  8
LAYER_1
 10
192.5994
 20
115.4902
  0
VERTEX
  8
LAYER_1
 10
192.6671
 20
115.4902
  0
VERTEX
  8
LAYER_1
 10
192.7348
 20
115.4902
  0
VERTEX
  8
LAYER_1
 10
192.7348
 20
115.4225
  0
VERTEX
  8
LAYER_1
 10
192.8026
 20
115.4225
  0
VERTEX
  8
LAYER_1
 10
192.8026
 20
115.3547
  0
VERTEX
  8
LAYER_1
 10
192.8026
 20
115.287
  0
VERTEX
  8
LAYER_1
 10
192.8026
 20
115.2192
  0
VERTEX
  8
LAYER_1
 10
192.8026
 20
115.1515
  0
VERTEX
  8
LAYER_1
 10
192.7348
 20
115.1515
  0
VERTEX
  8
LAYER_1
 10
192.7348
 20
115.0837
  0
VERTEX
  8
LAYER_1
 10
192.6671
 20
115.0837
  0
SEQEND
  0
ENDBLK
  0
BLOCK
  8
LAYER_1
  2
AIGNBL0101005A
 70
64
 10
0
 20
0
 30
0
  3
AIGNBL0101005A
  0
POLYLINE
  8
LAYER_1
 66
1
 10
0
 20
0
 30
0
 70
1
  0
VERTEX
  8
LAYER_1
 10
192.5994
 20
115.0837
  0
VERTEX
  8
LAYER_1
 10
192.5316
 20
115.0837
  0
VERTEX
  8
LAYER_1
 10
192.4639
 20
115.0837
  0
VERTEX
  8
LAYER_1
 10
192.4639
 20
115.1515
  0
VERTEX
  8
LAYER_1
 10
192.3961
 20
115.1515
  0
VERTEX
  8
LAYER_1
 10
192.3961
 20
115.2192
  0
VERTEX
  8
LAYER_1
 10
192.3961
 20
115.287
  0
VERTEX
  8
LAYER_1
 10
192.3961
 20
115.3547
  0
VERTEX
  8
LAYER_1
 10
192.3961
 20
115.4225
  0
VERTEX
  8
LAYER_1
 10
192.4639
 20
115.4225
  0
VERTEX
  8
LAYER_1
 10
192.4639
 20
115.4902
  0
VERTEX
  8
LAYER_1
 10
192.5316
 20
115.4902
  0
VERTEX
  8
LAYER_1
 10
192.5994
 20
115.4902
  0
VERTEX
  8
LAYER_1
 10
192.6671
 20
115.4902
  0
VERTEX
  8
LAYER_1
 10
192.7348
 20
115.4902
  0
VERTEX
  8
LAYER_1
 10
192.7348
 20
115.4225
  0
VERTEX
  8
LAYER_1
 10
192.8026
 20
115.4225
  0
VERTEX
  8
LAYER_1
 10
192.8026
 20
115.3547
  0
VERTEX
  8
LAYER_1
 10
192.8026
 20
115.287
  0
VERTEX
  8
LAYER_1
 10
192.8026
 20
115.2192
  0
VERTEX
  8
LAYER_1
 10
192.8026
 20
115.1515
  0
VERTEX
  8
LAYER_1
 10
192.7348
 20
115.1515
  0
VERTEX
  8
LAYER_1
 10
192.7348
 20
115.0837
  0
VERTEX
  8
LAYER_1
 10
192.6671
 20
115.0837
  0
SEQEND
  0
ENDBLK
  0
BLOCK
  8
LAYER_1
  2
AIGNBL0101005B
 70
64
 10
0
 20
0
 30
0
  3
AIGNBL0101005B
  0
POLYLINE
  8
LAYER_1
 40
0.05
 41
0.05
 66
1
 10
0
 20
0
 30
0
 70
1
  0
VERTEX
  8
LAYER_1
 10
192.5994
 20
115.0837
  0
VERTEX
  8
LAYER_1
 10
192.5316
 20
115.0837
  0
VERTEX
  8
LAYER_1
 10
192.4639
 20
115.0837
  0
VERTEX
  8
LAYER_1
 10
192.4639
 20
115.1515
  0
VERTEX
  8
LAYER_1
 10
192.3961
 20
115.1515
  0
VERTEX
  8
LAYER_1
 10
192.3961
 20
115.2192
  0
VERTEX
  8
LAYER_1
 10
192.3961
 20
115.287
  0
VERTEX
  8
LAYER_1
 10
192.3961
 20
115.3547
  0
VERTEX
  8
LAYER_1
 10
192.3961
 20
115.4225
  0
VERTEX
  8
LAYER_1
 10
192.4639
 20
115.4225
  0
VERTEX
  8
LAYER_1
 10
192.4639
 20
115.4902
  0
VERTEX
  8
LAYER_1
 10
192.5316
 20
115.4902
  0
VERTEX
  8
LAYER_1
 10
192.5994
 20
115.4902
  0
VERTEX
  8
LAYER_1
 10
192.6671
 20
115.4902
  0
VERTEX
  8
LAYER_1
 10
192.7348
 20
115.4902
  0
VERTEX
  8
LAYER_1
 10
192.7348
 20
115.4225
  0
VERTEX
  8
LAYER_1
 10
192.8026
 20
115.4225
  0
VERTEX
  8
LAYER_1
 10
192.8026
 20
115.3547
  0
VERTEX
  8
LAYER_1
 10
192.8026
 20
115.287
  0
VERTEX
  8
LAYER_1
 10
192.8026
 20
115.2192
  0
VERTEX
  8
LAYER_1
 10
192.8026
 20
115.1515
  0
VERTEX
  8
LAYER_1
 10
192.7348
 20
115.1515
  0
VERTEX
  8
LAYER_1
 10
192.7348
 20
115.0837
  0
VERTEX
  8
LAYER_1
 10
192.6671
 20
115.0837
  0
SEQEND
  0
ENDBLK
  0
BLOCK
  8
LAYER_1
  2
AIGNBL0101005C
 70
64
 10
0
 20
0
 30
0
  3
AIGNBL0101005C
  0
POLYLINE
  8
LAYER_1
 40
0.05
 41
0.05
 66
1
 10
0
 20
0
 30
0
 70
1
  0
VERTEX
  8
LAYER_1
 10
192.5994
 20
87.5103
  0
VERTEX
  8
LAYER_1
 10
192.6671
 20
87.4426
  0
VERTEX
  8
LAYER_1
 10
192.7348
 20
87.4426
  0
VERTEX
  8
LAYER_1
 10
192.7348
 20
87.3748
  0
VERTEX
  8
LAYER_1
 10
192.8026
 20
87.3748
  0
VERTEX
  8
LAYER_1
 10
192.8026
 20
87.3071
  0
VERTEX
  8
LAYER_1
 10
192.8026
 20
87.2393
  0
VERTEX
  8
LAYER_1
 10
192.8026
 20
87.1716
  0
VERTEX
  8
LAYER_1
 10
192.7348
 20
87.1716
  0
VERTEX
  8
LAYER_1
 10
192.7348
 20
87.1038
  0
VERTEX
  8
LAYER_1
 10
192.6671
 20
87.1038
  0
VERTEX
  8
LAYER_1
 10
192.5994
 20
87.1038
  0
VERTEX
  8
LAYER_1
 10
192.5316
 20
87.1038
  0
VERTEX
  8
LAYER_1
 10
192.4639
 20
87.1038
  0
VERTEX
  8
LAYER_1
 10
192.4639
 20
87.1716
  0
VERTEX
  8
LAYER_1
 10
192.3961
 20
87.1716
  0
VERTEX
  8
LAYER_1
 10
192.3961
 20
87.2393
  0
VERTEX
  8
LAYER_1
 10
192.3961
 20
87.3071
  0
VERTEX
  8
LAYER_1
 10
192.3961
 20
87.3748
  0
VERTEX
  8
LAYER_1
 10
192.4639
 20
87.3748
  0
VERTEX
  8
LAYER_1
 10
192.4639
 20
87.4426
  0
VERTEX
  8
LAYER_1
 10
192.5316
 20
87.4426
  0
SEQEND
  0
ENDBLK
  0
BLOCK
  8
LAYER_1
  2
AIGNBL0101005D
 70
64
 10
0
 20
0
 30
0
  3
AIGNBL0101005D
  0
POLYLINE
  8
LAYER_1
 66
1
 10
0
 20
0
 30
0
 70
1
  0
VERTEX
  8
LAYER_1
 10
192.5994
 20
87.5103
  0
VERTEX
  8
LAYER_1
 10
192.6671
 20
87.4426
  0
VERTEX
  8
LAYER_1
 10
192.7348
 20
87.4426
  0
VERTEX
  8
LAYER_1
 10
192.7348
 20
87.3748
  0
VERTEX
  8
LAYER_1
 10
192.8026
 20
87.3748
  0
VERTEX
  8
LAYER_1
 10
192.8026
 20
87.3071
  0
VERTEX
  8
LAYER_1
 10
192.8026
 20
87.2393
  0
VERTEX
  8
LAYER_1
 10
192.8026
 20
87.1716
  0
VERTEX
  8
LAYER_1
 10
192.7348
 20
87.1716
  0
VERTEX
  8
LAYER_1
 10
192.7348
 20
87.1038
  0
VERTEX
  8
LAYER_1
 10
192.6671
 20
87.1038
  0
VERTEX
  8
LAYER_1
 10
192.5994
 20
87.1038
  0
VERTEX
  8
LAYER_1
 10
192.5316
 20
87.1038
  0
VERTEX
  8
LAYER_1
 10
192.4639
 20
87.1038
  0
VERTEX
  8
LAYER_1
 10
192.4639
 20
87.1716
  0
VERTEX
  8
LAYER_1
 10
192.3961
 20
87.1716
  0
VERTEX
  8
LAYER_1
 10
192.3961
 20
87.2393
  0
VERTEX
  8
LAYER_1
 10
192.3961
 20
87.3071
  0
VERTEX
  8
LAYER_1
 10
192.3961
 20
87.3748
  0
VERTEX
  8
LAYER_1
 10
192.4639
 20
87.3748
  0
VERTEX
  8
LAYER_1
 10
192.4639
 20
87.4426
  0
VERTEX
  8
LAYER_1
 10
192.5316
 20
87.4426
  0
SEQEND
  0
ENDBLK
  0
BLOCK
  8
LAYER_1
  2
AIGNBL0101005E
 70
64
 10
0
 20
0
 30
0
  3
AIGNBL0101005E
  0
POLYLINE
  8
LAYER_1
 40
0.05
 41
0.05
 66
1
 10
0
 20
0
 30
0
 70
1
  0
VERTEX
  8
LAYER_1
 10
192.5994
 20
87.5103
  0
VERTEX
  8
LAYER_1
 10
192.6671
 20
87.4426
  0
VERTEX
  8
LAYER_1
 10
192.7348
 20
87.4426
  0
VERTEX
  8
LAYER_1
 10
192.7348
 20
87.3748
  0
VERTEX
  8
LAYER_1
 10
192.8026
 20
87.3748
  0
VERTEX
  8
LAYER_1
 10
192.8026
 20
87.3071
  0
VERTEX
  8
LAYER_1
 10
192.8026
 20
87.2393
  0
VERTEX
  8
LAYER_1
 10
192.8026
 20
87.1716
  0
VERTEX
  8
LAYER_1
 10
192.7348
 20
87.1716
  0
VERTEX
  8
LAYER_1
 10
192.7348
 20
87.1038
  0
VERTEX
  8
LAYER_1
 10
192.6671
 20
87.1038
  0
VERTEX
  8
LAYER_1
 10
192.5994
 20
87.1038
  0
VERTEX
  8
LAYER_1
 10
192.5316
 20
87.1038
  0
VERTEX
  8
LAYER_1
 10
192.4639
 20
87.1038
  0
VERTEX
  8
LAYER_1
 10
192.4639
 20
87.1716
  0
VERTEX
  8
LAYER_1
 10
192.3961
 20
87.1716
  0
VERTEX
  8
LAYER_1
 10
192.3961
 20
87.2393
  0
VERTEX
  8
LAYER_1
 10
192.3961
 20
87.3071
  0
VERTEX
  8
LAYER_1
 10
192.3961
 20
87.3748
  0
VERTEX
  8
LAYER_1
 10
192.4639
 20
87.3748
  0
VERTEX
  8
LAYER_1
 10
192.4639
 20
87.4426
  0
VERTEX
  8
LAYER_1
 10
192.5316
 20
87.4426
  0
SEQEND
  0
ENDBLK
  0
BLOCK
  8
LAYER_1
  2
AIGNBL0101005F
 70
64
 10
0
 20
0
 30
0
  3
AIGNBL0101005F
  0
TEXT
  8
LAYER_1
 10
191.0597
 20
98.6603
 11
191.0597
 21
98.6603
 40
3.6537
 41
0.5
 50
89.99999999
  1
140
  0
ENDBLK
  0
BLOCK
  8
LAYER_1
  2
AIGNBL01010060
 70
64
 10
0
 20
0
 30
0
  3
AIGNBL01010060
  0
POLYLINE
  8
LAYER_1
 40
0.05
 41
0.05
 66
1
 10
0
 20
0
 30
0
  0
VERTEX
  8
LAYER_1
 10
136.9271
 20
86.4941
  0
VERTEX
  8
LAYER_1
 10
136.9271
 20
69.2975
  0
SEQEND
  0
ENDBLK
  0
BLOCK
  8
LAYER_1
  2
AIGNBL01010061
 70
64
 10
0
 20
0
 30
0
  3
AIGNBL01010061
  0
POLYLINE
  8
LAYER_1
 40
0.05
 41
0.05
 66
1
 10
0
 20
0
 30
0
  0
VERTEX
  8
LAYER_1
 10
161.9095
 20
86.4941
  0
VERTEX
  8
LAYER_1
 10
161.9095
 20
69.2975
  0
SEQEND
  0
ENDBLK
  0
BLOCK
  8
LAYER_1
  2
AIGNBL01010062
 70
64
 10
0
 20
0
 30
0
  3
AIGNBL01010062
  0
POLYLINE
  8
LAYER_1
 40
0.05
 41
0.05
 66
1
 10
0
 20
0
 30
0
  0
VERTEX
  8
LAYER_1
 10
136.9271
 20
69.2975
  0
VERTEX
  8
LAYER_1
 10
161.9095
 20
69.2975
  0
SEQEND
  0
ENDBLK
  0
BLOCK
  8
LAYER_1
  2
AIGNBL01010063
 70
64
 10
0
 20
0
 30
0
  3
AIGNBL01010063
  0
POLYLINE
  8
LAYER_1
 40
0.05
 41
0.05
 66
1
 10
0
 20
0
 30
0
 70
1
  0
VERTEX
  8
LAYER_1
 10
137.1302
 20
69.2975
  0
VERTEX
  8
LAYER_1
 10
137.1302
 20
69.2298
  0
VERTEX
  8
LAYER_1
 10
137.0625
 20
69.2298
  0
VERTEX
  8
LAYER_1
 10
137.0625
 20
69.1621
  0
VERTEX
  8
LAYER_1
 10
136.9948
 20
69.1621
  0
VERTEX
  8
LAYER_1
 10
136.9948
 20
69.0944
  0
VERTEX
  8
LAYER_1
 10
136.9271
 20
69.0944
  0
VERTEX
  8
LAYER_1
 10
136.8594
 20
69.0944
  0
VERTEX
  8
LAYER_1
 10
136.8594
 20
69.1621
  0
VERTEX
  8
LAYER_1
 10
136.7917
 20
69.1621
  0
VERTEX
  8
LAYER_1
 10
136.7917
 20
69.2298
  0
VERTEX
  8
LAYER_1
 10
136.724
 20
69.2298
  0
VERTEX
  8
LAYER_1
 10
136.724
 20
69.2975
  0
VERTEX
  8
LAYER_1
 10
136.724
 20
69.3652
  0
VERTEX
  8
LAYER_1
 10
136.724
 20
69.4329
  0
VERTEX
  8
LAYER_1
 10
136.7917
 20
69.4329
  0
VERTEX
  8
LAYER_1
 10
136.7917
 20
69.5006
  0
VERTEX
  8
LAYER_1
 10
136.8594
 20
69.5006
  0
VERTEX
  8
LAYER_1
 10
136.9271
 20
69.5006
  0
VERTEX
  8
LAYER_1
 10
136.9948
 20
69.5006
  0
VERTEX
  8
LAYER_1
 10
137.0625
 20
69.5006
  0
VERTEX
  8
LAYER_1
 10
137.0625
 20
69.4329
  0
VERTEX
  8
LAYER_1
 10
137.1302
 20
69.4329
  0
VERTEX
  8
LAYER_1
 10
137.1302
 20
69.3652
  0
SEQEND
  0
ENDBLK
  0
BLOCK
  8
LAYER_1
  2
AIGNBL01010064
 70
64
 10
0
 20
0
 30
0
  3
AIGNBL01010064
  0
POLYLINE
  8
LAYER_1
 66
1
 10
0
 20
0
 30
0
 70
1
  0
VERTEX
  8
LAYER_1
 10
137.1302
 20
69.2975
  0
VERTEX
  8
LAYER_1
 10
137.1302
 20
69.2298
  0
VERTEX
  8
LAYER_1
 10
137.0625
 20
69.2298
  0
VERTEX
  8
LAYER_1
 10
137.0625
 20
69.1621
  0
VERTEX
  8
LAYER_1
 10
136.9948
 20
69.1621
  0
VERTEX
  8
LAYER_1
 10
136.9948
 20
69.0944
  0
VERTEX
  8
LAYER_1
 10
136.9271
 20
69.0944
  0
VERTEX
  8
LAYER_1
 10
136.8594
 20
69.0944
  0
VERTEX
  8
LAYER_1
 10
136.8594
 20
69.1621
  0
VERTEX
  8
LAYER_1
 10
136.7917
 20
69.1621
  0
VERTEX
  8
LAYER_1
 10
136.7917
 20
69.2298
  0
VERTEX
  8
LAYER_1
 10
136.724
 20
69.2298
  0
VERTEX
  8
LAYER_1
 10
136.724
 20
69.2975
  0
VERTEX
  8
LAYER_1
 10
136.724
 20
69.3652
  0
VERTEX
  8
LAYER_1
 10
136.724
 20
69.4329
  0
VERTEX
  8
LAYER_1
 10
136.7917
 20
69.4329
  0
VERTEX
  8
LAYER_1
 10
136.7917
 20
69.5006
  0
VERTEX
  8
LAYER_1
 10
136.8594
 20
69.5006
  0
VERTEX
  8
LAYER_1
 10
136.9271
 20
69.5006
  0
VERTEX
  8
LAYER_1
 10
136.9948
 20
69.5006
  0
VERTEX
  8
LAYER_1
 10
137.0625
 20
69.5006
  0
VERTEX
  8
LAYER_1
 10
137.0625
 20
69.4329
  0
VERTEX
  8
LAYER_1
 10
137.1302
 20
69.4329
  0
VERTEX
  8
LAYER_1
 10
137.1302
 20
69.3652
  0
SEQEND
  0
ENDBLK
  0
BLOCK
  8
LAYER_1
  2
AIGNBL01010065
 70
64
 10
0
 20
0
 30
0
  3
AIGNBL01010065
  0
POLYLINE
  8
LAYER_1
 40
0.05
 41
0.05
 66
1
 10
0
 20
0
 30
0
 70
1
  0
VERTEX
  8
LAYER_1
 10
137.1302
 20
69.2975
  0
VERTEX
  8
LAYER_1
 10
137.1302
 20
69.2298
  0
VERTEX
  8
LAYER_1
 10
137.0625
 20
69.2298
  0
VERTEX
  8
LAYER_1
 10
137.0625
 20
69.1621
  0
VERTEX
  8
LAYER_1
 10
136.9948
 20
69.1621
  0
VERTEX
  8
LAYER_1
 10
136.9948
 20
69.0944
  0
VERTEX
  8
LAYER_1
 10
136.9271
 20
69.0944
  0
VERTEX
  8
LAYER_1
 10
136.8594
 20
69.0944
  0
VERTEX
  8
LAYER_1
 10
136.8594
 20
69.1621
  0
VERTEX
  8
LAYER_1
 10
136.7917
 20
69.1621
  0
VERTEX
  8
LAYER_1
 10
136.7917
 20
69.2298
  0
VERTEX
  8
LAYER_1
 10
136.724
 20
69.2298
  0
VERTEX
  8
LAYER_1
 10
136.724
 20
69.2975
  0
VERTEX
  8
LAYER_1
 10
136.724
 20
69.3652
  0
VERTEX
  8
LAYER_1
 10
136.724
 20
69.4329
  0
VERTEX
  8
LAYER_1
 10
136.7917
 20
69.4329
  0
VERTEX
  8
LAYER_1
 10
136.7917
 20
69.5006
  0
VERTEX
  8
LAYER_1
 10
136.8594
 20
69.5006
  0
VERTEX
  8
LAYER_1
 10
136.9271
 20
69.5006
  0
VERTEX
  8
LAYER_1
 10
136.9948
 20
69.5006
  0
VERTEX
  8
LAYER_1
 10
137.0625
 20
69.5006
  0
VERTEX
  8
LAYER_1
 10
137.0625
 20
69.4329
  0
VERTEX
  8
LAYER_1
 10
137.1302
 20
69.4329
  0
VERTEX
  8
LAYER_1
 10
137.1302
 20
69.3652
  0
SEQEND
  0
ENDBLK
  0
BLOCK
  8
LAYER_1
  2
AIGNBL01010066
 70
64
 10
0
 20
0
 30
0
  3
AIGNBL01010066
  0
POLYLINE
  8
LAYER_1
 40
0.05
 41
0.05
 66
1
 10
0
 20
0
 30
0
 70
1
  0
VERTEX
  8
LAYER_1
 10
161.7064
 20
69.2975
  0
VERTEX
  8
LAYER_1
 10
161.7064
 20
69.3652
  0
VERTEX
  8
LAYER_1
 10
161.7741
 20
69.4329
  0
VERTEX
  8
LAYER_1
 10
161.7741
 20
69.5006
  0
VERTEX
  8
LAYER_1
 10
161.8418
 20
69.5006
  0
VERTEX
  8
LAYER_1
 10
161.9095
 20
69.5006
  0
VERTEX
  8
LAYER_1
 10
161.9772
 20
69.5006
  0
VERTEX
  8
LAYER_1
 10
162.0449
 20
69.5006
  0
VERTEX
  8
LAYER_1
 10
162.0449
 20
69.4329
  0
VERTEX
  8
LAYER_1
 10
162.1126
 20
69.4329
  0
VERTEX
  8
LAYER_1
 10
162.1126
 20
69.3652
  0
VERTEX
  8
LAYER_1
 10
162.1126
 20
69.2975
  0
VERTEX
  8
LAYER_1
 10
162.1126
 20
69.2298
  0
VERTEX
  8
LAYER_1
 10
162.1126
 20
69.1621
  0
VERTEX
  8
LAYER_1
 10
162.0449
 20
69.1621
  0
VERTEX
  8
LAYER_1
 10
161.9772
 20
69.1621
  0
VERTEX
  8
LAYER_1
 10
161.9772
 20
69.0944
  0
VERTEX
  8
LAYER_1
 10
161.9095
 20
69.0944
  0
VERTEX
  8
LAYER_1
 10
161.8418
 20
69.0944
  0
VERTEX
  8
LAYER_1
 10
161.8418
 20
69.1621
  0
VERTEX
  8
LAYER_1
 10
161.7741
 20
69.1621
  0
VERTEX
  8
LAYER_1
 10
161.7741
 20
69.2298
  0
VERTEX
  8
LAYER_1
 10
161.7064
 20
69.2298
  0
SEQEND
  0
ENDBLK
  0
BLOCK
  8
LAYER_1
  2
AIGNBL01010067
 70
64
 10
0
 20
0
 30
0
  3
AIGNBL01010067
  0
POLYLINE
  8
LAYER_1
 66
1
 10
0
 20
0
 30
0
 70
1
  0
VERTEX
  8
LAYER_1
 10
161.7064
 20
69.2975
  0
VERTEX
  8
LAYER_1
 10
161.7064
 20
69.3652
  0
VERTEX
  8
LAYER_1
 10
161.7741
 20
69.4329
  0
VERTEX
  8
LAYER_1
 10
161.7741
 20
69.5006
  0
VERTEX
  8
LAYER_1
 10
161.8418
 20
69.5006
  0
VERTEX
  8
LAYER_1
 10
161.9095
 20
69.5006
  0
VERTEX
  8
LAYER_1
 10
161.9772
 20
69.5006
  0
VERTEX
  8
LAYER_1
 10
162.0449
 20
69.5006
  0
VERTEX
  8
LAYER_1
 10
162.0449
 20
69.4329
  0
VERTEX
  8
LAYER_1
 10
162.1126
 20
69.4329
  0
VERTEX
  8
LAYER_1
 10
162.1126
 20
69.3652
  0
VERTEX
  8
LAYER_1
 10
162.1126
 20
69.2975
  0
VERTEX
  8
LAYER_1
 10
162.1126
 20
69.2298
  0
VERTEX
  8
LAYER_1
 10
162.1126
 20
69.1621
  0
VERTEX
  8
LAYER_1
 10
162.0449
 20
69.1621
  0
VERTEX
  8
LAYER_1
 10
161.9772
 20
69.1621
  0
VERTEX
  8
LAYER_1
 10
161.9772
 20
69.0944
  0
VERTEX
  8
LAYER_1
 10
161.9095
 20
69.0944
  0
VERTEX
  8
LAYER_1
 10
161.8418
 20
69.0944
  0
VERTEX
  8
LAYER_1
 10
161.8418
 20
69.1621
  0
VERTEX
  8
LAYER_1
 10
161.7741
 20
69.1621
  0
VERTEX
  8
LAYER_1
 10
161.7741
 20
69.2298
  0
VERTEX
  8
LAYER_1
 10
161.7064
 20
69.2298
  0
SEQEND
  0
ENDBLK
  0
BLOCK
  8
LAYER_1
  2
AIGNBL01010068
 70
64
 10
0
 20
0
 30
0
  3
AIGNBL01010068
  0
POLYLINE
  8
LAYER_1
 40
0.05
 41
0.05
 66
1
 10
0
 20
0
 30
0
 70
1
  0
VERTEX
  8
LAYER_1
 10
161.7064
 20
69.2975
  0
VERTEX
  8
LAYER_1
 10
161.7064
 20
69.3652
  0
VERTEX
  8
LAYER_1
 10
161.7741
 20
69.4329
  0
VERTEX
  8
LAYER_1
 10
161.7741
 20
69.5006
  0
VERTEX
  8
LAYER_1
 10
161.8418
 20
69.5006
  0
VERTEX
  8
LAYER_1
 10
161.9095
 20
69.5006
  0
VERTEX
  8
LAYER_1
 10
161.9772
 20
69.5006
  0
VERTEX
  8
LAYER_1
 10
162.0449
 20
69.5006
  0
VERTEX
  8
LAYER_1
 10
162.0449
 20
69.4329
  0
VERTEX
  8
LAYER_1
 10
162.1126
 20
69.4329
  0
VERTEX
  8
LAYER_1
 10
162.1126
 20
69.3652
  0
VERTEX
  8
LAYER_1
 10
162.1126
 20
69.2975
  0
VERTEX
  8
LAYER_1
 10
162.1126
 20
69.2298
  0
VERTEX
  8
LAYER_1
 10
162.1126
 20
69.1621
  0
VERTEX
  8
LAYER_1
 10
162.0449
 20
69.1621
  0
VERTEX
  8
LAYER_1
 10
161.9772
 20
69.1621
  0
VERTEX
  8
LAYER_1
 10
161.9772
 20
69.0944
  0
VERTEX
  8
LAYER_1
 10
161.9095
 20
69.0944
  0
VERTEX
  8
LAYER_1
 10
161.8418
 20
69.0944
  0
VERTEX
  8
LAYER_1
 10
161.8418
 20
69.1621
  0
VERTEX
  8
LAYER_1
 10
161.7741
 20
69.1621
  0
VERTEX
  8
LAYER_1
 10
161.7741
 20
69.2298
  0
VERTEX
  8
LAYER_1
 10
161.7064
 20
69.2298
  0
SEQEND
  0
ENDBLK
  0
ENDSEC
  0
SECTION
  2
ENTITIES
  0
TEXT
  8
LAYER_1
 10
-26.2556
 20
43.1712
 11
-26.2556
 21
43.1712
 40
3.2991
 41
0.5
  1
仕様
  0
POLYLINE
  8
LAYER_1
 40
0.3528
 41
0.3528
 66
1
 10
0
 20
0
 30
0
  0
VERTEX
  8
LAYER_1
 10
250.6748
 20
51.9507
  0
VERTEX
  8
LAYER_1
 10
-29.3346
 20
51.9507
  0
SEQEND
  0
INSERT
  8
LAYER_1
  2
AIGNBL01010002
 10
0
 20
0
 30
0
  0
POLYLINE
  8
LAYER_1
 40
0.3528
 41
0.3528
 66
1
 10
0
 20
0
 30
0
  0
VERTEX
  8
LAYER_1
 10
-29.3178
 20
229.3369
  0
VERTEX
  8
LAYER_1
 10
-29.3178
 20
34.3283
  0
VERTEX
  8
LAYER_1
 10
250.6748
 20
34.3283
  0
VERTEX
  8
LAYER_1
 10
250.6748
 20
229.3369
  0
VERTEX
  8
LAYER_1
 10
-29.3178
 20
229.3369
  0
SEQEND
  0
POLYLINE
  8
LAYER_1
 40
0.3528
 41
0.3528
 66
1
 10
0
 20
0
 30
0
  0
VERTEX
  8
LAYER_1
 10
250.6748
 20
60.4597
  0
VERTEX
  8
LAYER_1
 10
-29.3346
 20
60.4597
  0
SEQEND
  0
POLYLINE
  8
LAYER_1
 40
0.3528
 41
0.3528
 66
1
 10
0
 20
0
 30
0
  0
VERTEX
  8
LAYER_1
 10
250.6748
 20
43.4416
  0
VERTEX
  8
LAYER_1
 10
100.3837
 20
43.4416
  0
SEQEND
  0
TEXT
  8
LAYER_1
 10
188.1725
 20
45.7175
 11
188.1725
 21
45.7175
 40
3.7609
 41
0.5
  1
-
  0
TEXT
  8
LAYER_1
 10
182.8808
 20
49.4743
 11
182.8808
 21
49.4743
 40
2.1994
 41
0.5
  1
縮尺
  0
POLYLINE
  8
LAYER_1
 40
0.3528
 41
0.3528
 66
1
 10
0
 20
0
 30
0
  0
VERTEX
  8
LAYER_1
 10
181.3526
 20
43.4416
  0
VERTEX
  8
LAYER_1
 10
181.3526
 20
51.9507
  0
SEQEND
  0
TEXT
  8
LAYER_1
 10
101.641
 20
57.9834
 11
101.641
 21
57.9834
 40
2.1994
 41
0.5
  1
品番
  0
TEXT
  8
LAYER_1
 10
-28.1609
 20
57.9834
 11
-28.1609
 21
57.9834
 40
2.1994
 41
0.5
  1
品名
  0
TEXT
  8
LAYER_1
 10
101.641
 20
49.4743
 11
101.641
 21
49.4743
 40
2.1994
 41
0.5
  1
重量
  0
TEXT
  8
LAYER_1
 10
105.0013
 20
54.1714
 11
105.0013
 21
54.1714
 40
4.6883
 41
0.5
  1
SC-WBACH-35-
  0
TEXT
  8
LAYER_1
 10
107.1887
 20
45.7175
 11
107.1887
 21
45.7175
 40
3.7609
 41
0.5
  1
3.5kg
  0
POLYLINE
  8
LAYER_1
 40
0.3528
 41
0.3528
 66
1
 10
0
 20
0
 30
0
  0
VERTEX
  8
LAYER_1
 10
100.3837
 20
34.9539
  0
VERTEX
  8
LAYER_1
 10
100.3837
 20
60.4597
  0
SEQEND
  0
TEXT
  8
LAYER_1
 10
-15.2256
 20
54.786
 11
-15.2256
 21
54.786
 40
4.1459
 41
0.5
  1
Achilleion350 アヒリオン350ガラス手洗器
  0
TEXT
  8
LAYER_1
 10
-15.6835
 20
43.9625
 11
-15.6835
 21
43.9625
 40
3.5536
 41
0.5
  1
●サイズ  W355×D355×H140mm●水栓取付穴：なし
  0
TEXT
  8
LAYER_1
 10
-15.6835
 20
39.2124
 11
-15.6835
 21
39.2124
 40
3.1172
 41
0.5
  1
●オーバーフローなし●排水金具別途●設置方法：カウンター置き
  0
TEXT
  8
LAYER_1
 10
-21.3096
 20
205.1359
 11
-21.3096
 21
205.1359
 40
2.5977
 41
0.5
  1
※本製品は吹きガラスによる一品生産品ですので、
  0
TEXT
  8
LAYER_1
 10
-21.327
 20
200.3859
 11
-21.327
 21
200.3859
 40
2.9614
 41
0.5
  1
サイズ、彫刻(エングレビング)は同じ品番であっても
  0
TEXT
  8
LAYER_1
 10
-21.3096
 20
195.6359
 11
-21.3096
 21
195.6359
 40
2.5977
 41
0.5
  1
多少の違いが生じます。また、製品の特性上、小さな気泡が
  0
TEXT
  8
LAYER_1
 10
-21.3096
 20
190.8859
 11
-21.3096
 21
190.8859
 40
2.9614
 41
0.5
  1
入る場合もございます。予めご了承ください。 
  0
TEXT
  8
LAYER_1
 10
-21.3096
 20
186.1358
 11
-21.3096
 21
186.1358
 40
2.9614
 41
0.5
  1
※混合栓のご使用は可能ですが、45℃までの温度設定で
  0
TEXT
  8
LAYER_1
 10
-21.4497
 20
181.3859
 11
-21.4497
 21
181.3859
 40
2.5977
 41
0.5
  1
ご使用ください。熱湯の吐水はしないでください。
  0
TEXT
  8
LAYER_1
 10
134.702
 20
39.5359
 11
134.702
 21
39.5359
 40
3.3848
 41
0.5
  1
●TEL 0120-65-1232●FAX 06-6532-1580
  0
TEXT
  8
LAYER_1
 10
134.702
 20
36.0212
 11
134.702
 21
36.0212
 40
3.3848
 41
0.5
  1
hits@hiratatile.co.jp
  0
TEXT
  8
LAYER_1
 10
240.3591
 20
225.8432
 11
240.3591
 21
225.8432
 40
2.073
 41
0.5
  1
230907RT
  0
INSERT
  8
LAYER_1
  2
AIGNBL01010003
 10
0
 20
0
 30
0
  0
TEXT
  8
LAYER_1
 10
145.5863
 20
81.8218
 11
145.5863
 21
81.8218
 40
3.6537
 41
0.5
  1
%%c41
  0
INSERT
  8
LAYER_1
  2
AIGNBL01010025
 10
0
 20
0
 30
0
  0
INSERT
  8
LAYER_1
  2
AIGNBL01010026
 10
0
 20
0
 30
0
  0
INSERT
  8
LAYER_1
  2
AIGNBL01010027
 10
0
 20
0
 30
0
  0
INSERT
  8
LAYER_1
  2
AIGNBL01010028
 10
0
 20
0
 30
0
  0
INSERT
  8
LAYER_1
  2
AIGNBL01010029
 10
0
 20
0
 30
0
  0
INSERT
  8
LAYER_1
  2
AIGNBL0101002A
 10
0
 20
0
 30
0
  0
INSERT
  8
LAYER_1
  2
AIGNBL0101002B
 10
0
 20
0
 30
0
  0
INSERT
  8
LAYER_1
  2
AIGNBL0101002C
 10
0
 20
0
 30
0
  0
INSERT
  8
LAYER_1
  2
AIGNBL0101002D
 10
0
 20
0
 30
0
  0
INSERT
  8
LAYER_1
  2
AIGNBL0101002E
 10
0
 20
0
 30
0
  0
INSERT
  8
LAYER_1
  2
AIGNBL0101002F
 10
0
 20
0
 30
0
  0
INSERT
  8
LAYER_1
  2
AIGNBL01010030
 10
0
 20
0
 30
0
  0
INSERT
  8
LAYER_1
  2
AIGNBL01010031
 10
0
 20
0
 30
0
  0
INSERT
  8
LAYER_1
  2
AIGNBL01010032
 10
0
 20
0
 30
0
  0
INSERT
  8
LAYER_1
  2
AIGNBL01010033
 10
0
 20
0
 30
0
  0
INSERT
  8
LAYER_1
  2
AIGNBL01010034
 10
0
 20
0
 30
0
  0
INSERT
  8
LAYER_1
  2
AIGNBL01010035
 10
0
 20
0
 30
0
  0
INSERT
  8
LAYER_1
  2
AIGNBL01010036
 10
0
 20
0
 30
0
  0
INSERT
  8
LAYER_1
  2
AIGNBL01010037
 10
0
 20
0
 30
0
  0
INSERT
  8
LAYER_1
  2
AIGNBL01010038
 10
0
 20
0
 30
0
  0
INSERT
  8
LAYER_1
  2
AIGNBL01010039
 10
0
 20
0
 30
0
  0
INSERT
  8
LAYER_1
  2
AIGNBL0101003A
 10
0
 20
0
 30
0
  0
INSERT
  8
LAYER_1
  2
AIGNBL0101003B
 10
0
 20
0
 30
0
  0
INSERT
  8
LAYER_1
  2
AIGNBL0101003C
 10
0
 20
0
 30
0
  0
INSERT
  8
LAYER_1
  2
AIGNBL0101003D
 10
0
 20
0
 30
0
  0
INSERT
  8
LAYER_1
  2
AIGNBL0101003E
 10
0
 20
0
 30
0
  0
INSERT
  8
LAYER_1
  2
AIGNBL0101003F
 10
0
 20
0
 30
0
  0
INSERT
  8
LAYER_1
  2
AIGNBL01010040
 10
0
 20
0
 30
0
  0
INSERT
  8
LAYER_1
  2
AIGNBL01010041
 10
0
 20
0
 30
0
  0
INSERT
  8
LAYER_1
  2
AIGNBL01010042
 10
0
 20
0
 30
0
  0
INSERT
  8
LAYER_1
  2
AIGNBL01010043
 10
0
 20
0
 30
0
  0
INSERT
  8
LAYER_1
  2
AIGNBL01010044
 10
0
 20
0
 30
0
  0
INSERT
  8
LAYER_1
  2
AIGNBL01010045
 10
0
 20
0
 30
0
  0
INSERT
  8
LAYER_1
  2
AIGNBL01010046
 10
0
 20
0
 30
0
  0
INSERT
  8
LAYER_1
  2
AIGNBL01010047
 10
0
 20
0
 30
0
  0
INSERT
  8
LAYER_1
  2
AIGNBL01010048
 10
0
 20
0
 30
0
  0
INSERT
  8
LAYER_1
  2
AIGNBL01010049
 10
0
 20
0
 30
0
  0
INSERT
  8
LAYER_1
  2
AIGNBL0101004A
 10
0
 20
0
 30
0
  0
INSERT
  8
LAYER_1
  2
AIGNBL0101004B
 10
0
 20
0
 30
0
  0
INSERT
  8
LAYER_1
  2
AIGNBL0101004C
 10
0
 20
0
 30
0
  0
INSERT
  8
LAYER_1
  2
AIGNBL0101004D
 10
0
 20
0
 30
0
  0
INSERT
  8
LAYER_1
  2
AIGNBL0101004E
 10
0
 20
0
 30
0
  0
INSERT
  8
LAYER_1
  2
AIGNBL0101004F
 10
0
 20
0
 30
0
  0
INSERT
  8
LAYER_1
  2
AIGNBL01010050
 10
0
 20
0
 30
0
  0
INSERT
  8
LAYER_1
  2
AIGNBL01010051
 10
0
 20
0
 30
0
  0
INSERT
  8
LAYER_1
  2
AIGNBL01010052
 10
0
 20
0
 30
0
  0
INSERT
  8
LAYER_1
  2
AIGNBL01010053
 10
0
 20
0
 30
0
  0
INSERT
  8
LAYER_1
  2
AIGNBL01010054
 10
0
 20
0
 30
0
  0
INSERT
  8
LAYER_1
  2
AIGNBL01010055
 10
0
 20
0
 30
0
  0
INSERT
  8
LAYER_1
  2
AIGNBL01010056
 10
0
 20
0
 30
0
  0
INSERT
  8
LAYER_1
  2
AIGNBL01010057
 10
0
 20
0
 30
0
  0
INSERT
  8
LAYER_1
  2
AIGNBL01010058
 10
0
 20
0
 30
0
  0
INSERT
  8
LAYER_1
  2
AIGNBL01010059
 10
0
 20
0
 30
0
  0
INSERT
  8
LAYER_1
  2
AIGNBL0101005A
 10
0
 20
0
 30
0
  0
INSERT
  8
LAYER_1
  2
AIGNBL0101005B
 10
0
 20
0
 30
0
  0
INSERT
  8
LAYER_1
  2
AIGNBL0101005C
 10
0
 20
0
 30
0
  0
INSERT
  8
LAYER_1
  2
AIGNBL0101005D
 10
0
 20
0
 30
0
  0
INSERT
  8
LAYER_1
  2
AIGNBL0101005E
 10
0
 20
0
 30
0
  0
INSERT
  8
LAYER_1
  2
AIGNBL0101005F
 10
0
 20
0
 30
0
  0
TEXT
  8
LAYER_1
 10
143.6395
 20
70.9089
 11
143.6395
 21
70.9089
 40
3.6537
 41
0.5
  1
%%c125
  0
INSERT
  8
LAYER_1
  2
AIGNBL01010060
 10
0
 20
0
 30
0
  0
INSERT
  8
LAYER_1
  2
AIGNBL01010061
 10
0
 20
0
 30
0
  0
INSERT
  8
LAYER_1
  2
AIGNBL01010062
 10
0
 20
0
 30
0
  0
INSERT
  8
LAYER_1
  2
AIGNBL01010063
 10
0
 20
0
 30
0
  0
INSERT
  8
LAYER_1
  2
AIGNBL01010064
 10
0
 20
0
 30
0
  0
INSERT
  8
LAYER_1
  2
AIGNBL01010065
 10
0
 20
0
 30
0
  0
INSERT
  8
LAYER_1
  2
AIGNBL01010066
 10
0
 20
0
 30
0
  0
INSERT
  8
LAYER_1
  2
AIGNBL01010067
 10
0
 20
0
 30
0
  0
INSERT
  8
LAYER_1
  2
AIGNBL01010068
 10
0
 20
0
 30
0
  0
CIRCLE
  8
LAYER_1
  6
AIGENLINE001
 62
1
 10
149.4101
 20
173.443
 40
5.3
  0
TEXT
  8
LAYER_1
 10
138.2054
 20
162.7828
 11
138.2054
 21
162.7828
 40
3.1022
 41
0.5
  1
カウンター開口
  0
TEXT
  8
LAYER_1
 10
138.2054
 20
159.0557
 11
138.2054
 21
159.0557
 40
3.6606
 41
0.5
  1
53-55mm
  0
ENDSEC
  0
EOF
