  0
SECTION
  2
HEADER
  9
$ACADVER
  1
AC1009
  9
$LUNITS
 70
2
  9
$LUPREC
 70
4
  9
$LTSCALE
 40
1.0
  9
$EXTMIN
 10
-33.2277
 20
49.7179
 30
0
  9
$EXTMAX
 10
245.4165
 20
241.3791
 30
0
  0
ENDSEC
  0
SECTION
  2
TABLES
  0
TABLE
  2
LTYPE
 70
256
  0
ENDTAB
  0
TABLE
  2
LAYER
 70
1
  0
LAYER
  2
LAYER_1
 70
64
 62
7
  6
CONTINUOUS
  0
ENDTAB
  0
TABLE
  2
STYLE
 70
6
  0
STYLE
  2
STANDARD
 70
0
 40
0
 50
0
 71
0
 41
0
 42
0
  3
TXT
  4
BIGFONT
  0
ENDTAB
  0
ENDSEC
  0
SECTION
  2
BLOCKS
  0
BLOCK
  8
LAYER_1
  2
AIGNBL01040009
 70
64
 10
0
 20
0
 30
0
  3
AIGNBL01040009
  0
POLYLINE
  8
LAYER_1
 40
0.05
 41
0.05
 66
1
 10
0
 20
0
 30
0
 70
1
  0
VERTEX
  8
LAYER_1
 10
157.5551
 20
53.6067
  0
VERTEX
  8
LAYER_1
 10
157.0662
 20
52.4216
  0
VERTEX
  8
LAYER_1
 10
156.4382
 20
52.4216
  0
VERTEX
  8
LAYER_1
 10
158.0377
 20
56.1874
  0
VERTEX
  8
LAYER_1
 10
158.7709
 20
56.1874
  0
VERTEX
  8
LAYER_1
 10
160.3773
 20
52.4216
  0
VERTEX
  8
LAYER_1
 10
159.7272
 20
52.4216
  0
VERTEX
  8
LAYER_1
 10
159.2246
 20
53.6067
  0
SEQEND
  0
POLYLINE
  8
LAYER_1
 40
0.05
 41
0.05
 66
1
 10
0
 20
0
 30
0
 70
1
  0
VERTEX
  8
LAYER_1
 10
159.0988
 20
53.9856
  0
VERTEX
  8
LAYER_1
 10
158.6379
 20
55.0705
  0
VERTEX
  8
LAYER_1
 10
158.3933
 20
55.7575
  0
VERTEX
  8
LAYER_1
 10
158.3795
 20
55.7575
  0
VERTEX
  8
LAYER_1
 10
158.1418
 20
55.075
  0
VERTEX
  8
LAYER_1
 10
157.6812
 20
53.9856
  0
SEQEND
  0
ENDBLK
  0
BLOCK
  8
LAYER_1
  2
AIGNBL0104000A
 70
64
 10
0
 20
0
 30
0
  3
AIGNBL0104000A
  0
POLYLINE
  8
LAYER_1
 40
0.05
 41
0.05
 66
1
 10
0
 20
0
 30
0
 70
1
  0
VERTEX
  8
LAYER_1
 10
164.7426
 20
51.8683
 42
-0.01559967508
  0
VERTEX
  8
LAYER_1
 10
162.9405
 20
52.3044
  0
VERTEX
  8
LAYER_1
 10
162.6538
 20
52.3599
 42
-0.08356944747
  0
VERTEX
  8
LAYER_1
 10
161.7898
 20
52.5261
 42
-0.0975043791
  0
VERTEX
  8
LAYER_1
 10
161.1286
 20
52.932
 42
-0.2129077902
  0
VERTEX
  8
LAYER_1
 10
160.5799
 20
54.2647
 42
-0.09684612991
  0
VERTEX
  8
LAYER_1
 10
160.7245
 20
55.0381
 42
-0.2046351071
  0
VERTEX
  8
LAYER_1
 10
161.772
 20
56.0624
 42
-0.09825619238
  0
VERTEX
  8
LAYER_1
 10
162.773
 20
56.2488
 42
-0.08554836282
  0
VERTEX
  8
LAYER_1
 10
163.6416
 20
56.1075
 42
-0.1004347897
  0
VERTEX
  8
LAYER_1
 10
164.3067
 20
55.7132
 42
-0.2140895568
  0
VERTEX
  8
LAYER_1
 10
164.8821
 20
54.3433
 42
-0.09539620281
  0
VERTEX
  8
LAYER_1
 10
164.7432
 20
53.5755
 42
-0.2143310008
  0
VERTEX
  8
LAYER_1
 10
163.7204
 20
52.597
 42
-0.02339132607
  0
VERTEX
  8
LAYER_1
 10
163.5413
 20
52.5387
  0
VERTEX
  8
LAYER_1
 10
163.5413
 20
52.5163
 42
0.01711831943
  0
VERTEX
  8
LAYER_1
 10
164.9176
 20
52.2762
  0
SEQEND
  0
POLYLINE
  8
LAYER_1
 40
0.05
 41
0.05
 66
1
 10
0
 20
0
 30
0
 70
1
  0
VERTEX
  8
LAYER_1
 10
164.2399
 20
54.3219
 42
0.1071511414
  0
VERTEX
  8
LAYER_1
 10
164.0886
 20
55.0267
 42
0.2976450246
  0
VERTEX
  8
LAYER_1
 10
162.7517
 20
55.8522
 42
0.1072291499
  0
VERTEX
  8
LAYER_1
 10
162.0618
 20
55.7127
 42
0.2386106109
  0
VERTEX
  8
LAYER_1
 10
161.2749
 20
54.7071
 42
0.05752849981
  0
VERTEX
  8
LAYER_1
 10
161.2293
 20
54.2771
 42
0.218096749
  0
VERTEX
  8
LAYER_1
 10
161.7599
 20
53.0817
 42
0.1772796408
  0
VERTEX
  8
LAYER_1
 10
162.7237
 20
52.7561
 42
0.1075185771
  0
VERTEX
  8
LAYER_1
 10
163.4051
 20
52.8951
 42
0.2370926009
  0
VERTEX
  8
LAYER_1
 10
164.1922
 20
53.8947
 42
0.05601310134
  0
SEQEND
  0
ENDBLK
  0
BLOCK
  8
LAYER_1
  2
AIGNBL0104000B
 70
64
 10
0
 20
0
 30
0
  3
AIGNBL0104000B
  0
POLYLINE
  8
LAYER_1
 40
0.05
 41
0.05
 66
1
 10
0
 20
0
 30
0
 70
1
  0
VERTEX
  8
LAYER_1
 10
166.2095
 20
56.1874
  0
VERTEX
  8
LAYER_1
 10
166.2095
 20
53.9581
 42
0.114533087
  0
VERTEX
  8
LAYER_1
 10
166.3434
 20
53.2923
 42
0.1464774934
  0
VERTEX
  8
LAYER_1
 10
166.6938
 20
52.9071
 42
0.1362552487
  0
VERTEX
  8
LAYER_1
 10
167.3061
 20
52.7561
 42
0.1219300979
  0
VERTEX
  8
LAYER_1
 10
167.9292
 20
52.8908
 42
0.1503016186
  0
VERTEX
  8
LAYER_1
 10
168.301
 20
53.2598
 42
0.1256239276
  0
VERTEX
  8
LAYER_1
 10
168.4516
 20
53.9581
  0
VERTEX
  8
LAYER_1
 10
168.4516
 20
56.1874
  0
VERTEX
  8
LAYER_1
 10
169.0662
 20
56.1874
  0
VERTEX
  8
LAYER_1
 10
169.0662
 20
53.9915
 42
-0.09997505101
  0
VERTEX
  8
LAYER_1
 10
168.9313
 20
53.2488
 42
-0.1214984503
  0
VERTEX
  8
LAYER_1
 10
168.558
 20
52.7421
 42
-0.1106235892
  0
VERTEX
  8
LAYER_1
 10
167.9326
 20
52.4355
 42
-0.06128954947
  0
VERTEX
  8
LAYER_1
 10
167.2851
 20
52.3599
 42
-0.09418508724
  0
VERTEX
  8
LAYER_1
 10
166.4659
 20
52.498
 42
-0.2431728796
  0
VERTEX
  8
LAYER_1
 10
165.6624
 20
53.4087
 42
-0.06320085329
  0
VERTEX
  8
LAYER_1
 10
165.5949
 20
53.9695
  0
VERTEX
  8
LAYER_1
 10
165.5949
 20
56.1874
  0
SEQEND
  0
ENDBLK
  0
BLOCK
  8
LAYER_1
  2
AIGNBL0104000C
 70
64
 10
0
 20
0
 30
0
  3
AIGNBL0104000C
  0
POLYLINE
  8
LAYER_1
 40
0.05
 41
0.05
 66
1
 10
0
 20
0
 30
0
 70
1
  0
VERTEX
  8
LAYER_1
 10
170.8125
 20
53.6067
  0
VERTEX
  8
LAYER_1
 10
170.3233
 20
52.4216
  0
VERTEX
  8
LAYER_1
 10
169.6953
 20
52.4216
  0
VERTEX
  8
LAYER_1
 10
171.2945
 20
56.1874
  0
VERTEX
  8
LAYER_1
 10
172.0276
 20
56.1874
  0
VERTEX
  8
LAYER_1
 10
173.634
 20
52.4216
  0
VERTEX
  8
LAYER_1
 10
172.9846
 20
52.4216
  0
VERTEX
  8
LAYER_1
 10
172.482
 20
53.6067
  0
SEQEND
  0
POLYLINE
  8
LAYER_1
 40
0.05
 41
0.05
 66
1
 10
0
 20
0
 30
0
 70
1
  0
VERTEX
  8
LAYER_1
 10
172.3559
 20
53.9856
  0
VERTEX
  8
LAYER_1
 10
171.8946
 20
55.0705
  0
VERTEX
  8
LAYER_1
 10
171.65
 20
55.7575
  0
VERTEX
  8
LAYER_1
 10
171.6362
 20
55.7575
  0
VERTEX
  8
LAYER_1
 10
171.3989
 20
55.075
  0
VERTEX
  8
LAYER_1
 10
170.9379
 20
53.9856
  0
SEQEND
  0
ENDBLK
  0
BLOCK
  8
LAYER_1
  2
AIGNBL0104000D
 70
64
 10
0
 20
0
 30
0
  3
AIGNBL0104000D
  0
POLYLINE
  8
LAYER_1
 40
0.05
 41
0.05
 66
1
 10
0
 20
0
 30
0
 70
1
  0
VERTEX
  8
LAYER_1
 10
174.6748
 20
56.1426
 42
-0.03245981043
  0
VERTEX
  8
LAYER_1
 10
175.8416
 20
56.2157
 42
-0.08081710393
  0
VERTEX
  8
LAYER_1
 10
176.7981
 20
56.0839
 42
-0.07812211839
  0
VERTEX
  8
LAYER_1
 10
177.1615
 20
55.9029
 42
-0.2483368586
  0
VERTEX
  8
LAYER_1
 10
177.5731
 20
55.1146
 42
-0.226147
  0
VERTEX
  8
LAYER_1
 10
177.21
 20
54.3105
 42
-0.1097236176
  0
VERTEX
  8
LAYER_1
 10
176.5818
 20
53.9972
 42
-0.06566039781
  0
VERTEX
  8
LAYER_1
 10
175.7714
 20
53.8968
 42
-0.06232747682
  0
VERTEX
  8
LAYER_1
 10
175.2828
 20
53.9302
  0
VERTEX
  8
LAYER_1
 10
175.2828
 20
52.4216
  0
VERTEX
  8
LAYER_1
 10
174.6748
 20
52.4216
  0
SEQEND
  0
POLYLINE
  8
LAYER_1
 40
0.05
 41
0.05
 66
1
 10
0
 20
0
 30
0
 70
1
  0
VERTEX
  8
LAYER_1
 10
175.2828
 20
54.3271
 42
0.04202445636
  0
VERTEX
  8
LAYER_1
 10
175.7852
 20
54.2878
 42
0.1032333559
  0
VERTEX
  8
LAYER_1
 10
176.5043
 20
54.4151
 42
0.1555698608
  0
VERTEX
  8
LAYER_1
 10
176.8691
 20
54.7196
 42
0.1352698132
  0
VERTEX
  8
LAYER_1
 10
176.9661
 20
55.0922
 42
0.1736824711
  0
VERTEX
  8
LAYER_1
 10
176.8313
 20
55.4995
 42
0.151721714
  0
VERTEX
  8
LAYER_1
 10
176.4102
 20
55.759
 42
0.06880216409
  0
VERTEX
  8
LAYER_1
 10
175.8558
 20
55.8298
 42
0.06336772289
  0
VERTEX
  8
LAYER_1
 10
175.2828
 20
55.7906
  0
SEQEND
  0
ENDBLK
  0
BLOCK
  8
LAYER_1
  2
AIGNBL0104000E
 70
64
 10
0
 20
0
 30
0
  3
AIGNBL0104000E
  0
POLYLINE
  8
LAYER_1
 40
0.05
 41
0.05
 66
1
 10
0
 20
0
 30
0
 70
1
  0
VERTEX
  8
LAYER_1
 10
179.1252
 20
55.8856
 42
-0.276560599
  0
VERTEX
  8
LAYER_1
 10
178.9856
 20
55.6455
 42
-0.1265502936
  0
VERTEX
  8
LAYER_1
 10
178.7335
 20
55.5838
 42
-0.22367962
  0
VERTEX
  8
LAYER_1
 10
178.4232
 20
55.7162
 42
-0.1709078449
  0
VERTEX
  8
LAYER_1
 10
178.3631
 20
55.8856
 42
-0.2643879937
  0
VERTEX
  8
LAYER_1
 10
178.5125
 20
56.1327
 42
-0.1290073663
  0
VERTEX
  8
LAYER_1
 10
178.7472
 20
56.1926
 42
-0.2253241111
  0
VERTEX
  8
LAYER_1
 10
179.0641
 20
56.0619
 42
-0.1691304651
  0
SEQEND
  0
POLYLINE
  8
LAYER_1
 40
0.05
 41
0.05
 66
1
 10
0
 20
0
 30
0
 70
1
  0
VERTEX
  8
LAYER_1
 10
178.4396
 20
52.4216
  0
VERTEX
  8
LAYER_1
 10
178.4396
 20
55.1256
  0
VERTEX
  8
LAYER_1
 10
179.0542
 20
55.1256
  0
VERTEX
  8
LAYER_1
 10
179.0542
 20
52.4216
  0
SEQEND
  0
ENDBLK
  0
BLOCK
  8
LAYER_1
  2
AIGNBL0104000F
 70
64
 10
0
 20
0
 30
0
  3
AIGNBL0104000F
  0
POLYLINE
  8
LAYER_1
 40
0.05
 41
0.05
 66
1
 10
0
 20
0
 30
0
 70
1
  0
VERTEX
  8
LAYER_1
 10
180.9259
 20
53.6067
  0
VERTEX
  8
LAYER_1
 10
180.4377
 20
52.4216
  0
VERTEX
  8
LAYER_1
 10
179.8087
 20
52.4216
  0
VERTEX
  8
LAYER_1
 10
181.4082
 20
56.1874
  0
VERTEX
  8
LAYER_1
 10
182.142
 20
56.1874
  0
VERTEX
  8
LAYER_1
 10
183.7485
 20
52.4216
  0
VERTEX
  8
LAYER_1
 10
183.0987
 20
52.4216
  0
VERTEX
  8
LAYER_1
 10
182.5961
 20
53.6067
  0
SEQEND
  0
POLYLINE
  8
LAYER_1
 40
0.05
 41
0.05
 66
1
 10
0
 20
0
 30
0
 70
1
  0
VERTEX
  8
LAYER_1
 10
182.47
 20
53.9856
  0
VERTEX
  8
LAYER_1
 10
182.009
 20
55.0705
  0
VERTEX
  8
LAYER_1
 10
181.7651
 20
55.7575
  0
VERTEX
  8
LAYER_1
 10
181.7503
 20
55.7575
  0
VERTEX
  8
LAYER_1
 10
181.5133
 20
55.075
  0
VERTEX
  8
LAYER_1
 10
181.0523
 20
53.9856
  0
SEQEND
  0
ENDBLK
  0
BLOCK
  8
LAYER_1
  2
AIGNBL01030008
 70
64
 10
0
 20
0
 30
0
  3
AIGNBL01030008
  0
INSERT
  8
LAYER_1
  2
AIGNBL01040009
 10
0
 20
0
 30
0
  0
INSERT
  8
LAYER_1
  2
AIGNBL0104000A
 10
0
 20
0
 30
0
  0
INSERT
  8
LAYER_1
  2
AIGNBL0104000B
 10
0
 20
0
 30
0
  0
INSERT
  8
LAYER_1
  2
AIGNBL0104000C
 10
0
 20
0
 30
0
  0
INSERT
  8
LAYER_1
  2
AIGNBL0104000D
 10
0
 20
0
 30
0
  0
INSERT
  8
LAYER_1
  2
AIGNBL0104000E
 10
0
 20
0
 30
0
  0
INSERT
  8
LAYER_1
  2
AIGNBL0104000F
 10
0
 20
0
 30
0
  0
ENDBLK
  0
BLOCK
  8
LAYER_1
  2
AIGNBL01030011
 70
64
 10
0
 20
0
 30
0
  3
AIGNBL01030011
  0
POLYLINE
  8
LAYER_1
 40
0.05
 41
0.05
 66
1
 10
0
 20
0
 30
0
 70
1
  0
VERTEX
  8
LAYER_1
 10
156.5481
 20
50.5223
  0
VERTEX
  8
LAYER_1
 10
157.1013
 20
50.5223
  0
VERTEX
  8
LAYER_1
 10
157.1013
 20
50.4286
  0
VERTEX
  8
LAYER_1
 10
156.443
 20
50.4286
  0
VERTEX
  8
LAYER_1
 10
156.443
 20
51.4618
  0
VERTEX
  8
LAYER_1
 10
157.0838
 20
51.4618
  0
VERTEX
  8
LAYER_1
 10
157.0838
 20
51.3684
  0
VERTEX
  8
LAYER_1
 10
156.5481
 20
51.3684
  0
VERTEX
  8
LAYER_1
 10
156.5481
 20
51.0139
  0
VERTEX
  8
LAYER_1
 10
157.0486
 20
51.0139
  0
VERTEX
  8
LAYER_1
 10
157.0486
 20
50.9206
  0
VERTEX
  8
LAYER_1
 10
156.5481
 20
50.9206
  0
SEQEND
  0
ENDBLK
  0
BLOCK
  8
LAYER_1
  2
AIGNBL01030012
 70
64
 10
0
 20
0
 30
0
  3
AIGNBL01030012
  0
POLYLINE
  8
LAYER_1
 40
0.05
 41
0.05
 66
1
 10
0
 20
0
 30
0
 70
1
  0
VERTEX
  8
LAYER_1
 10
158.241
 20
50.5819
  0
VERTEX
  8
LAYER_1
 10
158.2438
 20
50.5819
  0
VERTEX
  8
LAYER_1
 10
158.2438
 20
51.4618
  0
VERTEX
  8
LAYER_1
 10
158.3488
 20
51.4618
  0
VERTEX
  8
LAYER_1
 10
158.3488
 20
50.4286
  0
VERTEX
  8
LAYER_1
 10
158.2179
 20
50.4286
  0
VERTEX
  8
LAYER_1
 10
157.6168
 20
51.3174
  0
VERTEX
  8
LAYER_1
 10
157.6133
 20
51.3174
  0
VERTEX
  8
LAYER_1
 10
157.6133
 20
50.4286
  0
VERTEX
  8
LAYER_1
 10
157.5086
 20
50.4286
  0
VERTEX
  8
LAYER_1
 10
157.5086
 20
51.4618
  0
VERTEX
  8
LAYER_1
 10
157.6398
 20
51.4618
  0
SEQEND
  0
ENDBLK
  0
BLOCK
  8
LAYER_1
  2
AIGNBL01030013
 70
64
 10
0
 20
0
 30
0
  3
AIGNBL01030013
  0
POLYLINE
  8
LAYER_1
 40
0.05
 41
0.05
 66
1
 10
0
 20
0
 30
0
 70
1
  0
VERTEX
  8
LAYER_1
 10
158.8218
 20
50.6405
  0
VERTEX
  8
LAYER_1
 10
158.8763
 20
50.5375
 42
0.1809219053
  0
VERTEX
  8
LAYER_1
 10
158.9896
 20
50.4958
  0
VERTEX
  8
LAYER_1
 10
159.0788
 20
50.5154
  0
VERTEX
  8
LAYER_1
 10
159.135
 20
50.5688
  0
VERTEX
  8
LAYER_1
 10
159.1639
 20
50.6453
  0
VERTEX
  8
LAYER_1
 10
159.1722
 20
50.7349
  0
VERTEX
  8
LAYER_1
 10
159.1722
 20
51.4618
  0
VERTEX
  8
LAYER_1
 10
159.2773
 20
51.4618
  0
VERTEX
  8
LAYER_1
 10
159.2773
 20
50.7263
  0
VERTEX
  8
LAYER_1
 10
159.2659
 20
50.6184
  0
VERTEX
  8
LAYER_1
 10
159.2246
 20
50.5134
  0
VERTEX
  8
LAYER_1
 10
159.1398
 20
50.4338
  0
VERTEX
  8
LAYER_1
 10
159.001
 20
50.4024
 42
-0.1846674817
  0
VERTEX
  8
LAYER_1
 10
158.8163
 20
50.4624
 42
-0.1764563828
  0
VERTEX
  8
LAYER_1
 10
158.724
 20
50.6139
  0
SEQEND
  0
ENDBLK
  0
BLOCK
  8
LAYER_1
  2
AIGNBL01030014
 70
64
 10
0
 20
0
 30
0
  3
AIGNBL01030014
  0
POLYLINE
  8
LAYER_1
 40
0.05
 41
0.05
 66
1
 10
0
 20
0
 30
0
 70
1
  0
VERTEX
  8
LAYER_1
 10
160.7656
 20
50.9454
 42
-0.103587114
  0
VERTEX
  8
LAYER_1
 10
160.7246
 20
50.728
 42
-0.1000549391
  0
VERTEX
  8
LAYER_1
 10
160.6119
 20
50.5564
  0
VERTEX
  8
LAYER_1
 10
160.441
 20
50.4434
 42
-0.09506675375
  0
VERTEX
  8
LAYER_1
 10
160.2271
 20
50.4024
 42
-0.1010765979
  0
VERTEX
  8
LAYER_1
 10
160.0135
 20
50.4434
 42
-0.1005668876
  0
VERTEX
  8
LAYER_1
 10
159.8426
 20
50.5564
 42
-0.09506076213
  0
VERTEX
  8
LAYER_1
 10
159.7293
 20
50.728
 42
-0.0931359716
  0
VERTEX
  8
LAYER_1
 10
159.6886
 20
50.9454
 42
-0.1020962526
  0
VERTEX
  8
LAYER_1
 10
159.7293
 20
51.1628
 42
-0.1007559602
  0
VERTEX
  8
LAYER_1
 10
159.8426
 20
51.3343
 42
-0.09625543395
  0
VERTEX
  8
LAYER_1
 10
160.0135
 20
51.4473
 42
-0.0952064105
  0
VERTEX
  8
LAYER_1
 10
160.2271
 20
51.4883
 42
-0.101175466
  0
VERTEX
  8
LAYER_1
 10
160.441
 20
51.4473
 42
-0.09853409661
  0
VERTEX
  8
LAYER_1
 10
160.6119
 20
51.3343
 42
-0.09562840933
  0
VERTEX
  8
LAYER_1
 10
160.7246
 20
51.1628
 42
-0.09393796777
  0
SEQEND
  0
POLYLINE
  8
LAYER_1
 40
0.05
 41
0.05
 66
1
 10
0
 20
0
 30
0
 70
1
  0
VERTEX
  8
LAYER_1
 10
160.6546
 20
50.9447
  0
VERTEX
  8
LAYER_1
 10
160.6257
 20
51.1166
  0
VERTEX
  8
LAYER_1
 10
160.5409
 20
51.2599
  0
VERTEX
  8
LAYER_1
 10
160.4059
 20
51.3581
  0
VERTEX
  8
LAYER_1
 10
160.2271
 20
51.395
  0
VERTEX
  8
LAYER_1
 10
160.0483
 20
51.3581
  0
VERTEX
  8
LAYER_1
 10
159.9136
 20
51.2599
  0
VERTEX
  8
LAYER_1
 10
159.8289
 20
51.1166
  0
VERTEX
  8
LAYER_1
 10
159.7996
 20
50.9447
  0
VERTEX
  8
LAYER_1
 10
159.8289
 20
50.7728
  0
VERTEX
  8
LAYER_1
 10
159.9136
 20
50.6298
  0
VERTEX
  8
LAYER_1
 10
160.0483
 20
50.5323
 42
0.1008257054
  0
VERTEX
  8
LAYER_1
 10
160.2271
 20
50.4958
  0
VERTEX
  8
LAYER_1
 10
160.4059
 20
50.5323
  0
VERTEX
  8
LAYER_1
 10
160.5409
 20
50.6298
  0
VERTEX
  8
LAYER_1
 10
160.6257
 20
50.7728
  0
SEQEND
  0
ENDBLK
  0
BLOCK
  8
LAYER_1
  2
AIGNBL01030015
 70
64
 10
0
 20
0
 30
0
  3
AIGNBL01030015
  0
POLYLINE
  8
LAYER_1
 40
0.05
 41
0.05
 66
1
 10
0
 20
0
 30
0
 70
1
  0
VERTEX
  8
LAYER_1
 10
161.5404
 20
50.4286
  0
VERTEX
  8
LAYER_1
 10
161.4356
 20
50.4286
  0
VERTEX
  8
LAYER_1
 10
161.4356
 20
50.874
  0
VERTEX
  8
LAYER_1
 10
161.0488
 20
51.4618
  0
VERTEX
  8
LAYER_1
 10
161.18
 20
51.4618
  0
VERTEX
  8
LAYER_1
 10
161.4911
 20
50.9616
  0
VERTEX
  8
LAYER_1
 10
161.8046
 20
51.4618
  0
VERTEX
  8
LAYER_1
 10
161.9269
 20
51.4618
  0
VERTEX
  8
LAYER_1
 10
161.5404
 20
50.874
  0
SEQEND
  0
ENDBLK
  0
BLOCK
  8
LAYER_1
  2
AIGNBL01030016
 70
64
 10
0
 20
0
 30
0
  3
AIGNBL01030016
  0
POLYLINE
  8
LAYER_1
 40
0.05
 41
0.05
 66
1
 10
0
 20
0
 30
0
 70
1
  0
VERTEX
  8
LAYER_1
 10
162.8319
 20
51.4618
  0
VERTEX
  8
LAYER_1
 10
163.1396
 20
51.4618
  0
VERTEX
  8
LAYER_1
 10
163.2581
 20
51.4494
  0
VERTEX
  8
LAYER_1
 10
163.3649
 20
51.407
  0
VERTEX
  8
LAYER_1
 10
163.4427
 20
51.3261
  0
VERTEX
  8
LAYER_1
 10
163.4724
 20
51.1979
 42
-0.1787887146
  0
VERTEX
  8
LAYER_1
 10
163.4224
 20
51.0556
 42
-0.1642670326
  0
VERTEX
  8
LAYER_1
 10
163.2891
 20
50.976
  0
VERTEX
  8
LAYER_1
 10
163.2891
 20
50.9733
 42
-0.1734673322
  0
VERTEX
  8
LAYER_1
 10
163.4558
 20
50.8951
 42
-0.1923137572
  0
VERTEX
  8
LAYER_1
 10
163.522
 20
50.7146
  0
VERTEX
  8
LAYER_1
 10
163.4948
 20
50.5974
  0
VERTEX
  8
LAYER_1
 10
163.4186
 20
50.5068
  0
VERTEX
  8
LAYER_1
 10
163.2977
 20
50.4493
  0
VERTEX
  8
LAYER_1
 10
163.1379
 20
50.4286
  0
VERTEX
  8
LAYER_1
 10
162.8319
 20
50.4286
  0
SEQEND
  0
POLYLINE
  8
LAYER_1
 40
0.05
 41
0.05
 66
1
 10
0
 20
0
 30
0
 70
1
  0
VERTEX
  8
LAYER_1
 10
162.937
 20
51.0094
  0
VERTEX
  8
LAYER_1
 10
163.1485
 20
51.0094
  0
VERTEX
  8
LAYER_1
 10
163.2254
 20
51.0184
  0
VERTEX
  8
LAYER_1
 10
163.2956
 20
51.048
  0
VERTEX
  8
LAYER_1
 10
163.3477
 20
51.1045
  0
VERTEX
  8
LAYER_1
 10
163.3673
 20
51.1907
  0
VERTEX
  8
LAYER_1
 10
163.3477
 20
51.2744
  0
VERTEX
  8
LAYER_1
 10
163.2946
 20
51.3305
  0
VERTEX
  8
LAYER_1
 10
163.2157
 20
51.3619
  0
VERTEX
  8
LAYER_1
 10
163.1192
 20
51.3715
  0
VERTEX
  8
LAYER_1
 10
162.937
 20
51.3715
  0
SEQEND
  0
POLYLINE
  8
LAYER_1
 40
0.05
 41
0.05
 66
1
 10
0
 20
0
 30
0
 70
1
  0
VERTEX
  8
LAYER_1
 10
162.937
 20
50.5192
  0
VERTEX
  8
LAYER_1
 10
163.1327
 20
50.5192
  0
VERTEX
  8
LAYER_1
 10
163.2412
 20
50.5302
  0
VERTEX
  8
LAYER_1
 10
163.3318
 20
50.565
  0
VERTEX
  8
LAYER_1
 10
163.3935
 20
50.6281
  0
VERTEX
  8
LAYER_1
 10
163.4169
 20
50.7208
 42
0.2554060681
  0
VERTEX
  8
LAYER_1
 10
163.3477
 20
50.873
 42
0.1380642909
  0
VERTEX
  8
LAYER_1
 10
163.1516
 20
50.9233
  0
VERTEX
  8
LAYER_1
 10
162.937
 20
50.9233
  0
SEQEND
  0
ENDBLK
  0
BLOCK
  8
LAYER_1
  2
AIGNBL01030017
 70
64
 10
0
 20
0
 30
0
  3
AIGNBL01030017
  0
POLYLINE
  8
LAYER_1
 40
0.05
 41
0.05
 66
1
 10
0
 20
0
 30
0
 70
1
  0
VERTEX
  8
LAYER_1
 10
163.954
 20
50.4286
  0
VERTEX
  8
LAYER_1
 10
163.8386
 20
50.4286
  0
VERTEX
  8
LAYER_1
 10
164.2854
 20
51.4618
  0
VERTEX
  8
LAYER_1
 10
164.3877
 20
51.4618
  0
VERTEX
  8
LAYER_1
 10
164.8311
 20
50.4286
  0
VERTEX
  8
LAYER_1
 10
164.7143
 20
50.4286
  0
VERTEX
  8
LAYER_1
 10
164.6003
 20
50.7001
  0
VERTEX
  8
LAYER_1
 10
164.0663
 20
50.7001
  0
SEQEND
  0
POLYLINE
  8
LAYER_1
 40
0.05
 41
0.05
 66
1
 10
0
 20
0
 30
0
 70
1
  0
VERTEX
  8
LAYER_1
 10
164.1056
 20
50.7965
  0
VERTEX
  8
LAYER_1
 10
164.561
 20
50.7965
  0
VERTEX
  8
LAYER_1
 10
164.3333
 20
51.3454
  0
SEQEND
  0
ENDBLK
  0
BLOCK
  8
LAYER_1
  2
AIGNBL01030018
 70
64
 10
0
 20
0
 30
0
  3
AIGNBL01030018
  0
POLYLINE
  8
LAYER_1
 40
0.05
 41
0.05
 66
1
 10
0
 20
0
 30
0
 70
1
  0
VERTEX
  8
LAYER_1
 10
165.5157
 20
50.4286
  0
VERTEX
  8
LAYER_1
 10
165.4106
 20
50.4286
  0
VERTEX
  8
LAYER_1
 10
165.4106
 20
51.3684
  0
VERTEX
  8
LAYER_1
 10
165.0644
 20
51.3684
  0
VERTEX
  8
LAYER_1
 10
165.0644
 20
51.4618
  0
VERTEX
  8
LAYER_1
 10
165.8612
 20
51.4618
  0
VERTEX
  8
LAYER_1
 10
165.8612
 20
51.3684
  0
VERTEX
  8
LAYER_1
 10
165.5157
 20
51.3684
  0
SEQEND
  0
ENDBLK
  0
BLOCK
  8
LAYER_1
  2
AIGNBL01030019
 70
64
 10
0
 20
0
 30
0
  3
AIGNBL01030019
  0
POLYLINE
  8
LAYER_1
 40
0.05
 41
0.05
 66
1
 10
0
 20
0
 30
0
 70
1
  0
VERTEX
  8
LAYER_1
 10
166.2174
 20
51.4618
  0
VERTEX
  8
LAYER_1
 10
166.3221
 20
51.4618
  0
VERTEX
  8
LAYER_1
 10
166.3221
 20
51.0139
  0
VERTEX
  8
LAYER_1
 10
166.8858
 20
51.0139
  0
VERTEX
  8
LAYER_1
 10
166.8858
 20
51.4618
  0
VERTEX
  8
LAYER_1
 10
166.9908
 20
51.4618
  0
VERTEX
  8
LAYER_1
 10
166.9908
 20
50.4286
  0
VERTEX
  8
LAYER_1
 10
166.8858
 20
50.4286
  0
VERTEX
  8
LAYER_1
 10
166.8858
 20
50.9178
  0
VERTEX
  8
LAYER_1
 10
166.3221
 20
50.9178
  0
VERTEX
  8
LAYER_1
 10
166.3221
 20
50.4286
  0
VERTEX
  8
LAYER_1
 10
166.2174
 20
50.4286
  0
SEQEND
  0
ENDBLK
  0
BLOCK
  8
LAYER_1
  2
AIGNBL0103001A
 70
64
 10
0
 20
0
 30
0
  3
AIGNBL0103001A
  0
POLYLINE
  8
LAYER_1
 40
0.05
 41
0.05
 66
1
 10
0
 20
0
 30
0
 70
1
  0
VERTEX
  8
LAYER_1
 10
167.5713
 20
50.4286
  0
VERTEX
  8
LAYER_1
 10
167.4663
 20
50.4286
  0
VERTEX
  8
LAYER_1
 10
167.4663
 20
51.4618
  0
VERTEX
  8
LAYER_1
 10
167.7701
 20
51.4618
  0
VERTEX
  8
LAYER_1
 10
167.9107
 20
51.4473
  0
VERTEX
  8
LAYER_1
 10
168.0233
 20
51.3998
  0
VERTEX
  8
LAYER_1
 10
168.0967
 20
51.3143
  0
VERTEX
  8
LAYER_1
 10
168.1229
 20
51.1862
  0
VERTEX
  8
LAYER_1
 10
168.1029
 20
51.0825
  0
VERTEX
  8
LAYER_1
 10
168.0475
 20
51.0015
  0
VERTEX
  8
LAYER_1
 10
167.9641
 20
50.9467
  0
VERTEX
  8
LAYER_1
 10
167.859
 20
50.9206
  0
VERTEX
  8
LAYER_1
 10
168.1611
 20
50.4286
  0
VERTEX
  8
LAYER_1
 10
168.0327
 20
50.4286
  0
VERTEX
  8
LAYER_1
 10
167.7467
 20
50.9116
  0
VERTEX
  8
LAYER_1
 10
167.5713
 20
50.9116
  0
SEQEND
  0
POLYLINE
  8
LAYER_1
 40
0.05
 41
0.05
 66
1
 10
0
 20
0
 30
0
 70
1
  0
VERTEX
  8
LAYER_1
 10
167.5713
 20
51.0022
  0
VERTEX
  8
LAYER_1
 10
167.7539
 20
51.0022
 42
0.1657798624
  0
VERTEX
  8
LAYER_1
 10
167.9496
 20
51.048
 42
0.2503949893
  0
VERTEX
  8
LAYER_1
 10
168.0182
 20
51.1862
  0
VERTEX
  8
LAYER_1
 10
167.9989
 20
51.272
  0
VERTEX
  8
LAYER_1
 10
167.9465
 20
51.3292
  0
VERTEX
  8
LAYER_1
 10
167.8649
 20
51.3612
  0
VERTEX
  8
LAYER_1
 10
167.7584
 20
51.3715
  0
VERTEX
  8
LAYER_1
 10
167.5713
 20
51.3715
  0
SEQEND
  0
ENDBLK
  0
BLOCK
  8
LAYER_1
  2
AIGNBL0103001B
 70
64
 10
0
 20
0
 30
0
  3
AIGNBL0103001B
  0
POLYLINE
  8
LAYER_1
 40
0.05
 41
0.05
 66
1
 10
0
 20
0
 30
0
 70
1
  0
VERTEX
  8
LAYER_1
 10
169.5633
 20
50.9454
 42
-0.1000954639
  0
VERTEX
  8
LAYER_1
 10
169.5227
 20
50.728
 42
-0.1001905425
  0
VERTEX
  8
LAYER_1
 10
169.4093
 20
50.5564
 42
-0.09598116796
  0
VERTEX
  8
LAYER_1
 10
169.2388
 20
50.4434
 42
-0.09506675375
  0
VERTEX
  8
LAYER_1
 10
169.0249
 20
50.4024
 42
-0.1012184087
  0
VERTEX
  8
LAYER_1
 10
168.8109
 20
50.4434
 42
-0.1000476754
  0
VERTEX
  8
LAYER_1
 10
168.6404
 20
50.5564
 42
-0.09638651026
  0
VERTEX
  8
LAYER_1
 10
168.5274
 20
50.728
 42
-0.0931359716
  0
VERTEX
  8
LAYER_1
 10
168.4867
 20
50.9454
 42
-0.1020962526
  0
VERTEX
  8
LAYER_1
 10
168.5274
 20
51.1628
 42
-0.101889112
  0
VERTEX
  8
LAYER_1
 10
168.6404
 20
51.3343
 42
-0.09563682649
  0
VERTEX
  8
LAYER_1
 10
168.8109
 20
51.4473
 42
-0.0950295922
  0
VERTEX
  8
LAYER_1
 10
169.0249
 20
51.4883
 42
-0.101175466
  0
VERTEX
  8
LAYER_1
 10
169.2388
 20
51.4473
 42
-0.101575919
  0
VERTEX
  8
LAYER_1
 10
169.4093
 20
51.3343
 42
-0.09449174073
  0
VERTEX
  8
LAYER_1
 10
169.5227
 20
51.1628
 42
-0.09273041258
  0
SEQEND
  0
POLYLINE
  8
LAYER_1
 40
0.05
 41
0.05
 66
1
 10
0
 20
0
 30
0
 70
1
  0
VERTEX
  8
LAYER_1
 10
169.4524
 20
50.9447
  0
VERTEX
  8
LAYER_1
 10
169.4231
 20
51.1166
  0
VERTEX
  8
LAYER_1
 10
169.3383
 20
51.2599
  0
VERTEX
  8
LAYER_1
 10
169.2036
 20
51.3581
  0
VERTEX
  8
LAYER_1
 10
169.0249
 20
51.395
  0
VERTEX
  8
LAYER_1
 10
168.846
 20
51.3581
  0
VERTEX
  8
LAYER_1
 10
168.711
 20
51.2599
  0
VERTEX
  8
LAYER_1
 10
168.6262
 20
51.1166
  0
VERTEX
  8
LAYER_1
 10
168.5973
 20
50.9447
  0
VERTEX
  8
LAYER_1
 10
168.6262
 20
50.7728
  0
VERTEX
  8
LAYER_1
 10
168.711
 20
50.6298
  0
VERTEX
  8
LAYER_1
 10
168.846
 20
50.5323
  0
VERTEX
  8
LAYER_1
 10
169.0249
 20
50.4958
  0
VERTEX
  8
LAYER_1
 10
169.2036
 20
50.5323
  0
VERTEX
  8
LAYER_1
 10
169.3383
 20
50.6298
  0
VERTEX
  8
LAYER_1
 10
169.4231
 20
50.7728
  0
SEQEND
  0
ENDBLK
  0
BLOCK
  8
LAYER_1
  2
AIGNBL0103001C
 70
64
 10
0
 20
0
 30
0
  3
AIGNBL0103001C
  0
POLYLINE
  8
LAYER_1
 40
0.05
 41
0.05
 66
1
 10
0
 20
0
 30
0
 70
1
  0
VERTEX
  8
LAYER_1
 10
171.0051
 20
50.9454
 42
-0.1041417444
  0
VERTEX
  8
LAYER_1
 10
170.9641
 20
50.728
 42
-0.1000549391
  0
VERTEX
  8
LAYER_1
 10
170.8514
 20
50.5564
 42
-0.09536478376
  0
VERTEX
  8
LAYER_1
 10
170.6805
 20
50.4434
 42
-0.09507606236
  0
VERTEX
  8
LAYER_1
 10
170.4666
 20
50.4024
 42
-0.101822328
  0
VERTEX
  8
LAYER_1
 10
170.253
 20
50.4434
 42
-0.102112669
  0
VERTEX
  8
LAYER_1
 10
170.0821
 20
50.5564
 42
-0.09442769366
  0
VERTEX
  8
LAYER_1
 10
169.9688
 20
50.728
 42
-0.0931359716
  0
VERTEX
  8
LAYER_1
 10
169.9281
 20
50.9454
 42
-0.1020962526
  0
VERTEX
  8
LAYER_1
 10
169.9688
 20
51.1628
 42
-0.1007688052
  0
VERTEX
  8
LAYER_1
 10
170.0821
 20
51.3343
 42
-0.09625543395
  0
VERTEX
  8
LAYER_1
 10
170.253
 20
51.4473
 42
-0.09528409444
  0
VERTEX
  8
LAYER_1
 10
170.4666
 20
51.4883
 42
-0.101185532
  0
VERTEX
  8
LAYER_1
 10
170.6805
 20
51.4473
 42
-0.09904343471
  0
VERTEX
  8
LAYER_1
 10
170.8514
 20
51.3343
 42
-0.09562840933
  0
VERTEX
  8
LAYER_1
 10
170.9641
 20
51.1628
 42
-0.09397287008
  0
SEQEND
  0
POLYLINE
  8
LAYER_1
 40
0.05
 41
0.05
 66
1
 10
0
 20
0
 30
0
 70
1
  0
VERTEX
  8
LAYER_1
 10
170.8941
 20
50.9447
  0
VERTEX
  8
LAYER_1
 10
170.8652
 20
51.1166
  0
VERTEX
  8
LAYER_1
 10
170.7804
 20
51.2599
  0
VERTEX
  8
LAYER_1
 10
170.6454
 20
51.3581
  0
VERTEX
  8
LAYER_1
 10
170.4666
 20
51.395
  0
VERTEX
  8
LAYER_1
 10
170.2878
 20
51.3581
  0
VERTEX
  8
LAYER_1
 10
170.1531
 20
51.2599
  0
VERTEX
  8
LAYER_1
 10
170.0684
 20
51.1166
  0
VERTEX
  8
LAYER_1
 10
170.0391
 20
50.9447
  0
VERTEX
  8
LAYER_1
 10
170.0684
 20
50.7728
  0
VERTEX
  8
LAYER_1
 10
170.1531
 20
50.6298
  0
VERTEX
  8
LAYER_1
 10
170.2878
 20
50.5323
  0
VERTEX
  8
LAYER_1
 10
170.4666
 20
50.4958
  0
VERTEX
  8
LAYER_1
 10
170.6454
 20
50.5323
  0
VERTEX
  8
LAYER_1
 10
170.7804
 20
50.6298
  0
VERTEX
  8
LAYER_1
 10
170.8652
 20
50.7728
  0
SEQEND
  0
ENDBLK
  0
BLOCK
  8
LAYER_1
  2
AIGNBL0103001D
 70
64
 10
0
 20
0
 30
0
  3
AIGNBL0103001D
  0
POLYLINE
  8
LAYER_1
 40
0.05
 41
0.05
 66
1
 10
0
 20
0
 30
0
 70
1
  0
VERTEX
  8
LAYER_1
 10
171.9359
 20
50.6067
  0
VERTEX
  8
LAYER_1
 10
171.9377
 20
50.6067
  0
VERTEX
  8
LAYER_1
 10
172.2832
 20
51.4618
  0
VERTEX
  8
LAYER_1
 10
172.4441
 20
51.4618
  0
VERTEX
  8
LAYER_1
 10
172.4441
 20
50.4286
  0
VERTEX
  8
LAYER_1
 10
172.3387
 20
50.4286
  0
VERTEX
  8
LAYER_1
 10
172.3387
 20
51.3261
  0
VERTEX
  8
LAYER_1
 10
172.3359
 20
51.3261
  0
VERTEX
  8
LAYER_1
 10
171.9625
 20
50.4286
  0
VERTEX
  8
LAYER_1
 10
171.907
 20
50.4286
  0
VERTEX
  8
LAYER_1
 10
171.5332
 20
51.3261
  0
VERTEX
  8
LAYER_1
 10
171.5305
 20
51.3261
  0
VERTEX
  8
LAYER_1
 10
171.5305
 20
50.4286
  0
VERTEX
  8
LAYER_1
 10
171.4254
 20
50.4286
  0
VERTEX
  8
LAYER_1
 10
171.4254
 20
51.4618
  0
VERTEX
  8
LAYER_1
 10
171.5859
 20
51.4618
  0
SEQEND
  0
ENDBLK
  0
BLOCK
  8
LAYER_1
  2
AIGNBL0103001E
 70
64
 10
0
 20
0
 30
0
  3
AIGNBL0103001E
  0
POLYLINE
  8
LAYER_1
 40
0.05
 41
0.05
 66
1
 10
0
 20
0
 30
0
 70
1
  0
VERTEX
  8
LAYER_1
 10
173.5906
 20
50.5223
  0
VERTEX
  8
LAYER_1
 10
174.1439
 20
50.5223
  0
VERTEX
  8
LAYER_1
 10
174.1439
 20
50.4286
  0
VERTEX
  8
LAYER_1
 10
173.4855
 20
50.4286
  0
VERTEX
  8
LAYER_1
 10
173.4855
 20
51.4618
  0
VERTEX
  8
LAYER_1
 10
174.1263
 20
51.4618
  0
VERTEX
  8
LAYER_1
 10
174.1263
 20
51.3684
  0
VERTEX
  8
LAYER_1
 10
173.5906
 20
51.3684
  0
VERTEX
  8
LAYER_1
 10
173.5906
 20
51.0139
  0
VERTEX
  8
LAYER_1
 10
174.0912
 20
51.0139
  0
VERTEX
  8
LAYER_1
 10
174.0912
 20
50.9206
  0
VERTEX
  8
LAYER_1
 10
173.5906
 20
50.9206
  0
SEQEND
  0
ENDBLK
  0
BLOCK
  8
LAYER_1
  2
AIGNBL0103001F
 70
64
 10
0
 20
0
 30
0
  3
AIGNBL0103001F
  0
POLYLINE
  8
LAYER_1
 40
0.05
 41
0.05
 66
1
 10
0
 20
0
 30
0
 70
1
  0
VERTEX
  8
LAYER_1
 10
174.8891
 20
51.0446
  0
VERTEX
  8
LAYER_1
 10
175.1712
 20
51.4618
  0
VERTEX
  8
LAYER_1
 10
175.2963
 20
51.4618
  0
VERTEX
  8
LAYER_1
 10
174.9538
 20
50.9702
  0
VERTEX
  8
LAYER_1
 10
175.3332
 20
50.4286
  0
VERTEX
  8
LAYER_1
 10
175.2019
 20
50.4286
  0
VERTEX
  8
LAYER_1
 10
174.8863
 20
50.8944
  0
VERTEX
  8
LAYER_1
 10
174.5728
 20
50.4286
  0
VERTEX
  8
LAYER_1
 10
174.4412
 20
50.4286
  0
VERTEX
  8
LAYER_1
 10
174.8209
 20
50.9715
  0
VERTEX
  8
LAYER_1
 10
174.475
 20
51.4618
  0
VERTEX
  8
LAYER_1
 10
174.6066
 20
51.4618
  0
SEQEND
  0
ENDBLK
  0
BLOCK
  8
LAYER_1
  2
AIGNBL01030020
 70
64
 10
0
 20
0
 30
0
  3
AIGNBL01030020
  0
POLYLINE
  8
LAYER_1
 40
0.05
 41
0.05
 66
1
 10
0
 20
0
 30
0
 70
1
  0
VERTEX
  8
LAYER_1
 10
175.6994
 20
51.4618
  0
VERTEX
  8
LAYER_1
 10
175.9915
 20
51.4618
  0
VERTEX
  8
LAYER_1
 10
176.1345
 20
51.4453
  0
VERTEX
  8
LAYER_1
 10
176.2444
 20
51.3939
  0
VERTEX
  8
LAYER_1
 10
176.3154
 20
51.3078
  0
VERTEX
  8
LAYER_1
 10
176.3398
 20
51.1862
  0
VERTEX
  8
LAYER_1
 10
176.3147
 20
51.0642
  0
VERTEX
  8
LAYER_1
 10
176.243
 20
50.9781
  0
VERTEX
  8
LAYER_1
 10
176.1321
 20
50.9264
  0
VERTEX
  8
LAYER_1
 10
175.9884
 20
50.9089
  0
VERTEX
  8
LAYER_1
 10
175.8044
 20
50.9089
  0
VERTEX
  8
LAYER_1
 10
175.8044
 20
50.4286
  0
VERTEX
  8
LAYER_1
 10
175.6994
 20
50.4286
  0
SEQEND
  0
POLYLINE
  8
LAYER_1
 40
0.05
 41
0.05
 66
1
 10
0
 20
0
 30
0
 70
1
  0
VERTEX
  8
LAYER_1
 10
175.8044
 20
50.9977
  0
VERTEX
  8
LAYER_1
 10
175.9822
 20
50.9977
 42
0.1829203509
  0
VERTEX
  8
LAYER_1
 10
176.1706
 20
51.0459
 42
0.2347011275
  0
VERTEX
  8
LAYER_1
 10
176.2351
 20
51.1862
 42
0.26486771
  0
VERTEX
  8
LAYER_1
 10
176.1686
 20
51.3271
 42
0.126412566
  0
VERTEX
  8
LAYER_1
 10
175.9822
 20
51.3715
  0
VERTEX
  8
LAYER_1
 10
175.8044
 20
51.3715
  0
SEQEND
  0
ENDBLK
  0
BLOCK
  8
LAYER_1
  2
AIGNBL01030021
 70
64
 10
0
 20
0
 30
0
  3
AIGNBL01030021
  0
POLYLINE
  8
LAYER_1
 40
0.05
 41
0.05
 66
1
 10
0
 20
0
 30
0
 70
1
  0
VERTEX
  8
LAYER_1
 10
176.8521
 20
50.5223
  0
VERTEX
  8
LAYER_1
 10
177.4054
 20
50.5223
  0
VERTEX
  8
LAYER_1
 10
177.4054
 20
50.4286
  0
VERTEX
  8
LAYER_1
 10
176.747
 20
50.4286
  0
VERTEX
  8
LAYER_1
 10
176.747
 20
51.4618
  0
VERTEX
  8
LAYER_1
 10
177.3878
 20
51.4618
  0
VERTEX
  8
LAYER_1
 10
177.3878
 20
51.3684
  0
VERTEX
  8
LAYER_1
 10
176.8521
 20
51.3684
  0
VERTEX
  8
LAYER_1
 10
176.8521
 20
51.0139
  0
VERTEX
  8
LAYER_1
 10
177.3527
 20
51.0139
  0
VERTEX
  8
LAYER_1
 10
177.3527
 20
50.9206
  0
VERTEX
  8
LAYER_1
 10
176.8521
 20
50.9206
  0
SEQEND
  0
ENDBLK
  0
BLOCK
  8
LAYER_1
  2
AIGNBL01030022
 70
64
 10
0
 20
0
 30
0
  3
AIGNBL01030022
  0
POLYLINE
  8
LAYER_1
 40
0.05
 41
0.05
 66
1
 10
0
 20
0
 30
0
 70
1
  0
VERTEX
  8
LAYER_1
 10
177.9173
 20
50.4286
  0
VERTEX
  8
LAYER_1
 10
177.8122
 20
50.4286
  0
VERTEX
  8
LAYER_1
 10
177.8122
 20
51.4618
  0
VERTEX
  8
LAYER_1
 10
178.1161
 20
51.4618
  0
VERTEX
  8
LAYER_1
 10
178.2567
 20
51.4473
  0
VERTEX
  8
LAYER_1
 10
178.3693
 20
51.3998
  0
VERTEX
  8
LAYER_1
 10
178.443
 20
51.3143
  0
VERTEX
  8
LAYER_1
 10
178.4689
 20
51.1862
  0
VERTEX
  8
LAYER_1
 10
178.4489
 20
51.0825
  0
VERTEX
  8
LAYER_1
 10
178.3934
 20
51.0015
  0
VERTEX
  8
LAYER_1
 10
178.3101
 20
50.9467
  0
VERTEX
  8
LAYER_1
 10
178.205
 20
50.9206
  0
VERTEX
  8
LAYER_1
 10
178.5071
 20
50.4286
  0
VERTEX
  8
LAYER_1
 10
178.3786
 20
50.4286
  0
VERTEX
  8
LAYER_1
 10
178.0927
 20
50.9116
  0
VERTEX
  8
LAYER_1
 10
177.9173
 20
50.9116
  0
SEQEND
  0
POLYLINE
  8
LAYER_1
 40
0.05
 41
0.05
 66
1
 10
0
 20
0
 30
0
 70
1
  0
VERTEX
  8
LAYER_1
 10
177.9173
 20
51.0022
  0
VERTEX
  8
LAYER_1
 10
178.0999
 20
51.0022
 42
0.1667734107
  0
VERTEX
  8
LAYER_1
 10
178.2956
 20
51.048
 42
0.2503091692
  0
VERTEX
  8
LAYER_1
 10
178.3641
 20
51.1862
  0
VERTEX
  8
LAYER_1
 10
178.3452
 20
51.272
  0
VERTEX
  8
LAYER_1
 10
178.2925
 20
51.3292
  0
VERTEX
  8
LAYER_1
 10
178.2108
 20
51.3612
  0
VERTEX
  8
LAYER_1
 10
178.1044
 20
51.3715
  0
VERTEX
  8
LAYER_1
 10
177.9173
 20
51.3715
  0
SEQEND
  0
ENDBLK
  0
BLOCK
  8
LAYER_1
  2
AIGNBL01030023
 70
64
 10
0
 20
0
 30
0
  3
AIGNBL01030023
  0
POLYLINE
  8
LAYER_1
 40
0.05
 41
0.05
 66
1
 10
0
 20
0
 30
0
 70
1
  0
VERTEX
  8
LAYER_1
 10
178.9929
 20
50.4286
  0
VERTEX
  8
LAYER_1
 10
178.8882
 20
50.4286
  0
VERTEX
  8
LAYER_1
 10
178.8882
 20
51.4618
  0
VERTEX
  8
LAYER_1
 10
178.9929
 20
51.4618
  0
SEQEND
  0
ENDBLK
  0
BLOCK
  8
LAYER_1
  2
AIGNBL01030024
 70
64
 10
0
 20
0
 30
0
  3
AIGNBL01030024
  0
POLYLINE
  8
LAYER_1
 40
0.05
 41
0.05
 66
1
 10
0
 20
0
 30
0
 70
1
  0
VERTEX
  8
LAYER_1
 10
179.5737
 20
50.5223
  0
VERTEX
  8
LAYER_1
 10
180.1267
 20
50.5223
  0
VERTEX
  8
LAYER_1
 10
180.1267
 20
50.4286
  0
VERTEX
  8
LAYER_1
 10
179.4687
 20
50.4286
  0
VERTEX
  8
LAYER_1
 10
179.4687
 20
51.4618
  0
VERTEX
  8
LAYER_1
 10
180.1094
 20
51.4618
  0
VERTEX
  8
LAYER_1
 10
180.1094
 20
51.3684
  0
VERTEX
  8
LAYER_1
 10
179.5737
 20
51.3684
  0
VERTEX
  8
LAYER_1
 10
179.5737
 20
51.0139
  0
VERTEX
  8
LAYER_1
 10
180.0743
 20
51.0139
  0
VERTEX
  8
LAYER_1
 10
180.0743
 20
50.9206
  0
VERTEX
  8
LAYER_1
 10
179.5737
 20
50.9206
  0
SEQEND
  0
ENDBLK
  0
BLOCK
  8
LAYER_1
  2
AIGNBL01030025
 70
64
 10
0
 20
0
 30
0
  3
AIGNBL01030025
  0
POLYLINE
  8
LAYER_1
 40
0.05
 41
0.05
 66
1
 10
0
 20
0
 30
0
 70
1
  0
VERTEX
  8
LAYER_1
 10
181.2666
 20
50.5819
  0
VERTEX
  8
LAYER_1
 10
181.2694
 20
50.5819
  0
VERTEX
  8
LAYER_1
 10
181.2694
 20
51.4618
  0
VERTEX
  8
LAYER_1
 10
181.3745
 20
51.4618
  0
VERTEX
  8
LAYER_1
 10
181.3745
 20
50.4286
  0
VERTEX
  8
LAYER_1
 10
181.2432
 20
50.4286
  0
VERTEX
  8
LAYER_1
 10
180.642
 20
51.3174
  0
VERTEX
  8
LAYER_1
 10
180.6389
 20
51.3174
  0
VERTEX
  8
LAYER_1
 10
180.6389
 20
50.4286
  0
VERTEX
  8
LAYER_1
 10
180.5339
 20
50.4286
  0
VERTEX
  8
LAYER_1
 10
180.5339
 20
51.4618
  0
VERTEX
  8
LAYER_1
 10
180.6655
 20
51.4618
  0
SEQEND
  0
ENDBLK
  0
BLOCK
  8
LAYER_1
  2
AIGNBL01030026
 70
64
 10
0
 20
0
 30
0
  3
AIGNBL01030026
  0
POLYLINE
  8
LAYER_1
 40
0.05
 41
0.05
 66
1
 10
0
 20
0
 30
0
 70
1
  0
VERTEX
  8
LAYER_1
 10
182.7201
 20
50.5964
  0
VERTEX
  8
LAYER_1
 10
182.6564
 20
50.522
  0
VERTEX
  8
LAYER_1
 10
182.5703
 20
50.4603
  0
VERTEX
  8
LAYER_1
 10
182.4621
 20
50.4179
  0
VERTEX
  8
LAYER_1
 10
182.3333
 20
50.4024
 42
-0.100982896
  0
VERTEX
  8
LAYER_1
 10
182.1172
 20
50.4434
 42
-0.1036559164
  0
VERTEX
  8
LAYER_1
 10
181.9467
 20
50.5564
 42
-0.09812017057
  0
VERTEX
  8
LAYER_1
 10
181.8351
 20
50.728
 42
-0.09232404316
  0
VERTEX
  8
LAYER_1
 10
181.7948
 20
50.9454
 42
-0.1039024847
  0
VERTEX
  8
LAYER_1
 10
181.8358
 20
51.1628
 42
-0.1006255151
  0
VERTEX
  8
LAYER_1
 10
181.9484
 20
51.3343
 42
-0.09509197705
  0
VERTEX
  8
LAYER_1
 10
182.1193
 20
51.4473
 42
-0.0950295922
  0
VERTEX
  8
LAYER_1
 10
182.3333
 20
51.4883
  0
VERTEX
  8
LAYER_1
 10
182.4449
 20
51.4763
  0
VERTEX
  8
LAYER_1
 10
182.5479
 20
51.4428
  0
VERTEX
  8
LAYER_1
 10
182.6354
 20
51.3912
  0
VERTEX
  8
LAYER_1
 10
182.7012
 20
51.3233
  0
VERTEX
  8
LAYER_1
 10
182.6137
 20
51.2589
  0
VERTEX
  8
LAYER_1
 10
182.5703
 20
51.3088
  0
VERTEX
  8
LAYER_1
 10
182.5069
 20
51.3526
  0
VERTEX
  8
LAYER_1
 10
182.4273
 20
51.3832
  0
VERTEX
  8
LAYER_1
 10
182.3346
 20
51.395
  0
VERTEX
  8
LAYER_1
 10
182.1544
 20
51.3584
  0
VERTEX
  8
LAYER_1
 10
182.0194
 20
51.2603
  0
VERTEX
  8
LAYER_1
 10
181.9346
 20
51.1169
  0
VERTEX
  8
LAYER_1
 10
181.9057
 20
50.9454
  0
VERTEX
  8
LAYER_1
 10
181.9357
 20
50.7738
  0
VERTEX
  8
LAYER_1
 10
182.0211
 20
50.6305
  0
VERTEX
  8
LAYER_1
 10
182.1562
 20
50.5323
 42
0.1010490553
  0
VERTEX
  8
LAYER_1
 10
182.3346
 20
50.4958
  0
VERTEX
  8
LAYER_1
 10
182.5038
 20
50.5323
 42
0.1324826472
  0
VERTEX
  8
LAYER_1
 10
182.6381
 20
50.6491
  0
SEQEND
  0
ENDBLK
  0
BLOCK
  8
LAYER_1
  2
AIGNBL01030027
 70
64
 10
0
 20
0
 30
0
  3
AIGNBL01030027
  0
POLYLINE
  8
LAYER_1
 40
0.05
 41
0.05
 66
1
 10
0
 20
0
 30
0
 70
1
  0
VERTEX
  8
LAYER_1
 10
183.2073
 20
50.5223
  0
VERTEX
  8
LAYER_1
 10
183.7606
 20
50.5223
  0
VERTEX
  8
LAYER_1
 10
183.7606
 20
50.4286
  0
VERTEX
  8
LAYER_1
 10
183.1022
 20
50.4286
  0
VERTEX
  8
LAYER_1
 10
183.1022
 20
51.4618
  0
VERTEX
  8
LAYER_1
 10
183.743
 20
51.4618
  0
VERTEX
  8
LAYER_1
 10
183.743
 20
51.3684
  0
VERTEX
  8
LAYER_1
 10
183.2073
 20
51.3684
  0
VERTEX
  8
LAYER_1
 10
183.2073
 20
51.0139
  0
VERTEX
  8
LAYER_1
 10
183.7078
 20
51.0139
  0
VERTEX
  8
LAYER_1
 10
183.7078
 20
50.9206
  0
VERTEX
  8
LAYER_1
 10
183.2073
 20
50.9206
  0
SEQEND
  0
ENDBLK
  0
BLOCK
  8
LAYER_1
  2
AIGNBL01020004
 70
64
 10
0
 20
0
 30
0
  3
AIGNBL01020004
  0
POLYLINE
  8
LAYER_1
 40
0.05
 41
0.05
 66
1
 10
0
 20
0
 30
0
 70
1
  0
VERTEX
  8
LAYER_1
 10
111.7185
 20
182.7782
  0
VERTEX
  8
LAYER_1
 10
99.2302
 20
182.7782
  0
VERTEX
  8
LAYER_1
 10
99.2302
 20
182.6459
  0
VERTEX
  8
LAYER_1
 10
111.7185
 20
182.6459
  0
SEQEND
  0
ENDBLK
  0
BLOCK
  8
LAYER_1
  2
AIGNBL01020005
 70
64
 10
0
 20
0
 30
0
  3
AIGNBL01020005
  0
POLYLINE
  8
LAYER_1
 40
0.0847
 41
0.0847
 66
1
 10
0
 20
0
 30
0
 70
1
  0
VERTEX
  8
LAYER_1
 10
111.7185
 20
182.7782
  0
VERTEX
  8
LAYER_1
 10
99.2302
 20
182.7782
  0
VERTEX
  8
LAYER_1
 10
99.2302
 20
182.6459
  0
VERTEX
  8
LAYER_1
 10
111.7185
 20
182.6459
  0
SEQEND
  0
ENDBLK
  0
BLOCK
  8
LAYER_1
  2
AIGNBL01020007
 70
64
 10
0
 20
0
 30
0
  3
AIGNBL01020007
  0
INSERT
  8
LAYER_1
  2
AIGNBL01030008
 10
0
 20
0
 30
0
  0
ENDBLK
  0
BLOCK
  8
LAYER_1
  2
AIGNBL01020010
 70
64
 10
0
 20
0
 30
0
  3
AIGNBL01020010
  0
INSERT
  8
LAYER_1
  2
AIGNBL01030011
 10
0
 20
0
 30
0
  0
INSERT
  8
LAYER_1
  2
AIGNBL01030012
 10
0
 20
0
 30
0
  0
INSERT
  8
LAYER_1
  2
AIGNBL01030013
 10
0
 20
0
 30
0
  0
INSERT
  8
LAYER_1
  2
AIGNBL01030014
 10
0
 20
0
 30
0
  0
INSERT
  8
LAYER_1
  2
AIGNBL01030015
 10
0
 20
0
 30
0
  0
INSERT
  8
LAYER_1
  2
AIGNBL01030016
 10
0
 20
0
 30
0
  0
INSERT
  8
LAYER_1
  2
AIGNBL01030017
 10
0
 20
0
 30
0
  0
INSERT
  8
LAYER_1
  2
AIGNBL01030018
 10
0
 20
0
 30
0
  0
INSERT
  8
LAYER_1
  2
AIGNBL01030019
 10
0
 20
0
 30
0
  0
INSERT
  8
LAYER_1
  2
AIGNBL0103001A
 10
0
 20
0
 30
0
  0
INSERT
  8
LAYER_1
  2
AIGNBL0103001B
 10
0
 20
0
 30
0
  0
INSERT
  8
LAYER_1
  2
AIGNBL0103001C
 10
0
 20
0
 30
0
  0
INSERT
  8
LAYER_1
  2
AIGNBL0103001D
 10
0
 20
0
 30
0
  0
INSERT
  8
LAYER_1
  2
AIGNBL0103001E
 10
0
 20
0
 30
0
  0
INSERT
  8
LAYER_1
  2
AIGNBL0103001F
 10
0
 20
0
 30
0
  0
INSERT
  8
LAYER_1
  2
AIGNBL01030020
 10
0
 20
0
 30
0
  0
INSERT
  8
LAYER_1
  2
AIGNBL01030021
 10
0
 20
0
 30
0
  0
INSERT
  8
LAYER_1
  2
AIGNBL01030022
 10
0
 20
0
 30
0
  0
INSERT
  8
LAYER_1
  2
AIGNBL01030023
 10
0
 20
0
 30
0
  0
INSERT
  8
LAYER_1
  2
AIGNBL01030024
 10
0
 20
0
 30
0
  0
INSERT
  8
LAYER_1
  2
AIGNBL01030025
 10
0
 20
0
 30
0
  0
INSERT
  8
LAYER_1
  2
AIGNBL01030026
 10
0
 20
0
 30
0
  0
INSERT
  8
LAYER_1
  2
AIGNBL01030027
 10
0
 20
0
 30
0
  0
ENDBLK
  0
BLOCK
  8
LAYER_1
  2
AIGNBL01010002
 70
64
 10
0
 20
0
 30
0
  3
AIGNBL01010002
  0
POLYLINE
  8
LAYER_1
 40
0.1693
 41
0.1693
 66
1
 10
0
 20
0
 30
0
  0
VERTEX
  8
LAYER_1
 10
26.128
 20
106.8655
  0
VERTEX
  8
LAYER_1
 10
179.5016
 20
106.8655
  0
SEQEND
  0
TEXT
  8
LAYER_1
 10
45.8553
 20
100.3885
 11
45.8553
 21
100.3885
 40
3.1022
 41
0.5
  1
üyâZâbâgôÓùeüz
  0
TEXT
  8
LAYER_1
 10
45.5167
 20
75.5601
 11
45.5167
 21
75.5601
 40
3.1022
 41
0.5
  1
üEörÉàâgâëâbâv
  0
TEXT
  8
LAYER_1
 10
45.5167
 20
70.5647
 11
45.5167
 21
70.5647
 40
3.1022
 41
0.5
  1
üEë╗Å¤âLâââbâvâëâEâôâhüiâNâìâÇüj
  0
TEXT
  8
LAYER_1
 10
45.5167
 20
65.5693
 11
45.5167
 21
65.5693
 40
3.6606
 41
0.5
  1
üEörÉàâgâëâbâvüiSâgâëâbâvé▄é¢é═Pâgâëâbâvé▄é¢é═â{âgâïâëâbâvüj
  0
TEXT
  8
LAYER_1
 10
140.7245
 20
108.4955
 11
140.7245
 21
108.4955
 40
3.6606
 41
0.5
  1
üªôVö┬î·ü@30055å@æ╬ë×
  0
TEXT
  8
LAYER_1
 10
45.5167
 20
95.5413
 11
45.5167
 21
95.5413
 40
3.6606
 41
0.5
  1
üEAchilleion âVâèü[âYü@örÉàÉ­üiörÉàû┌ÄMüj
  0
TEXT
  8
LAYER_1
 10
45.5167
 20
90.5459
 11
45.5167
 21
90.5459
 40
3.1022
 41
0.5
  1
üEörÉàâpâbâLâôüiâXâ|âôâWâpâbâLâôüEÄOèpâpâbâLâôüEâXâèâbâvâpâbâLâôüj
  0
TEXT
  8
LAYER_1
 10
45.5167
 20
85.5505
 11
45.5167
 21
85.5505
 40
3.6606
 41
0.5
  1
üEörÉàû┌ÄMùpâiâbâgü~2
  0
TEXT
  8
LAYER_1
 10
45.5167
 20
80.5551
 11
45.5167
 21
80.5551
 40
3.1022
 41
0.5
  1
üEâ{âEâïî┼ÆÞö┬üiâoâbâNâvâîü[âgüj
  0
ENDBLK
  0
BLOCK
  8
LAYER_1
  2
AIGNBL01010003
 70
64
 10
0
 20
0
 30
0
  3
AIGNBL01010003
  0
INSERT
  8
LAYER_1
  2
AIGNBL01020004
 10
0
 20
0
 30
0
  0
INSERT
  8
LAYER_1
  2
AIGNBL01020005
 10
0
 20
0
 30
0
  0
POLYLINE
  8
LAYER_1
 40
0.1905
 41
0.1905
 66
1
 10
0
 20
0
 30
0
  0
VERTEX
  8
LAYER_1
 10
98.7275
 20
186.9587
  0
VERTEX
  8
LAYER_1
 10
112.2212
 20
186.9587
  0
SEQEND
  0
POLYLINE
  8
LAYER_1
 40
0.1905
 41
0.1905
 66
1
 10
0
 20
0
 30
0
  0
VERTEX
  8
LAYER_1
 10
100.5002
 20
186.9587
  0
VERTEX
  8
LAYER_1
 10
100.5002
 20
187.4613
  0
SEQEND
  0
POLYLINE
  8
LAYER_1
 40
0.1905
 41
0.1905
 66
1
 10
0
 20
0
 30
0
  0
VERTEX
  8
LAYER_1
 10
110.4485
 20
186.9587
  0
VERTEX
  8
LAYER_1
 10
110.4485
 20
187.4613
  0
SEQEND
  0
POLYLINE
  8
LAYER_1
 40
0.1905
 41
0.1905
 66
1
 10
0
 20
0
 30
0
  0
VERTEX
  8
LAYER_1
 10
100.5002
 20
187.4614
  0
VERTEX
  8
LAYER_1
 10
110.4485
 20
187.4614
  0
SEQEND
  0
POLYLINE
  8
LAYER_1
 40
0.1905
 41
0.1905
 66
1
 10
0
 20
0
 30
0
  0
VERTEX
  8
LAYER_1
 10
110.2104
 20
187.4614
  0
VERTEX
  8
LAYER_1
 10
110.4485
 20
187.4614
  0
SEQEND
  0
POLYLINE
  8
LAYER_1
 40
0.1905
 41
0.1905
 66
1
 10
0
 20
0
 30
0
  0
VERTEX
  8
LAYER_1
 10
98.7275
 20
183.2016
  0
VERTEX
  8
LAYER_1
 10
98.7275
 20
186.9587
  0
SEQEND
  0
POLYLINE
  8
LAYER_1
 40
0.1905
 41
0.1905
 66
1
 10
0
 20
0
 30
0
  0
VERTEX
  8
LAYER_1
 10
98.7275
 20
183.2016
  0
VERTEX
  8
LAYER_1
 10
112.2212
 20
183.2016
  0
SEQEND
  0
POLYLINE
  8
LAYER_1
 40
0.1905
 41
0.1905
 66
1
 10
0
 20
0
 30
0
  0
VERTEX
  8
LAYER_1
 10
98.7275
 20
186.9587
  0
VERTEX
  8
LAYER_1
 10
112.2212
 20
186.9587
  0
SEQEND
  0
POLYLINE
  8
LAYER_1
 40
0.1905
 41
0.1905
 66
1
 10
0
 20
0
 30
0
  0
VERTEX
  8
LAYER_1
 10
112.2212
 20
183.2016
  0
VERTEX
  8
LAYER_1
 10
112.2212
 20
186.9587
  0
SEQEND
  0
POLYLINE
  8
LAYER_1
 40
0.1905
 41
0.1905
 66
1
 10
0
 20
0
 30
0
  0
VERTEX
  8
LAYER_1
 10
100.5002
 20
186.9587
  0
VERTEX
  8
LAYER_1
 10
100.5002
 20
187.4614
  0
SEQEND
  0
POLYLINE
  8
LAYER_1
 40
0.1905
 41
0.1905
 66
1
 10
0
 20
0
 30
0
  0
VERTEX
  8
LAYER_1
 10
110.4485
 20
186.9587
  0
VERTEX
  8
LAYER_1
 10
110.4485
 20
187.4614
  0
SEQEND
  0
POLYLINE
  8
LAYER_1
 40
0.1905
 41
0.1905
 66
1
 10
0
 20
0
 30
0
  0
VERTEX
  8
LAYER_1
 10
100.5002
 20
187.4614
  0
VERTEX
  8
LAYER_1
 10
110.4485
 20
187.4614
  0
SEQEND
  0
POLYLINE
  8
LAYER_1
 40
0.1905
 41
0.1905
 66
1
 10
0
 20
0
 30
0
  0
VERTEX
  8
LAYER_1
 10
98.7275
 20
183.2016
  0
VERTEX
  8
LAYER_1
 10
98.9921
 20
183.2016
  0
SEQEND
  0
POLYLINE
  8
LAYER_1
 40
0.1905
 41
0.1905
 66
1
 10
0
 20
0
 30
0
  0
VERTEX
  8
LAYER_1
 10
111.9567
 20
183.2016
  0
VERTEX
  8
LAYER_1
 10
112.2212
 20
183.2016
  0
SEQEND
  0
POLYLINE
  8
LAYER_1
 40
0.1905
 41
0.1905
 66
1
 10
0
 20
0
 30
0
  0
VERTEX
  8
LAYER_1
 10
109.4696
 20
184.6568
  0
VERTEX
  8
LAYER_1
 10
109.4696
 20
184.8949
  0
SEQEND
  0
POLYLINE
  8
LAYER_1
 40
0.1905
 41
0.1905
 66
1
 10
0
 20
0
 30
0
  0
VERTEX
  8
LAYER_1
 10
110.2104
 20
187.4614
  0
VERTEX
  8
LAYER_1
 10
110.4485
 20
187.4614
  0
SEQEND
  0
POLYLINE
  8
LAYER_1
 40
0.1693
 41
0.1693
 66
1
 10
0
 20
0
 30
0
  0
VERTEX
  8
LAYER_1
 10
120.5027
 20
194.3141
  0
VERTEX
  8
LAYER_1
 10
120.2381
 20
193.6526
  0
SEQEND
  0
POLYLINE
  8
LAYER_1
 40
0.1693
 41
0.1693
 66
1
 10
0
 20
0
 30
0
  0
VERTEX
  8
LAYER_1
 10
125.715
 20
199.103
  0
VERTEX
  8
LAYER_1
 10
125.0271
 20
198.7326
  0
VERTEX
  8
LAYER_1
 10
124.3656
 20
198.3357
  0
VERTEX
  8
LAYER_1
 10
123.7306
 20
197.9124
  0
VERTEX
  8
LAYER_1
 10
123.1485
 20
197.489
  0
VERTEX
  8
LAYER_1
 10
122.6194
 20
197.0128
  0
VERTEX
  8
LAYER_1
 10
122.0902
 20
196.5366
  0
VERTEX
  8
LAYER_1
 10
121.6404
 20
196.0338
  0
VERTEX
  8
LAYER_1
 10
121.2171
 20
195.5047
  0
VERTEX
  8
LAYER_1
 10
120.8467
 20
194.9226
  0
VERTEX
  8
LAYER_1
 10
120.5027
 20
194.314
  0
SEQEND
  0
POLYLINE
  8
LAYER_1
 40
0.1693
 41
0.1693
 66
1
 10
0
 20
0
 30
0
  0
VERTEX
  8
LAYER_1
 10
120.2381
 20
193.6526
  0
VERTEX
  8
LAYER_1
 10
120
 20
192.9647
  0
VERTEX
  8
LAYER_1
 10
119.8412
 20
192.1974
  0
SEQEND
  0
POLYLINE
  8
LAYER_1
 40
0.1693
 41
0.1693
 66
1
 10
0
 20
0
 30
0
  0
VERTEX
  8
LAYER_1
 10
90.7106
 20
193.6526
  0
VERTEX
  8
LAYER_1
 10
90.9487
 20
192.9647
  0
SEQEND
  0
POLYLINE
  8
LAYER_1
 40
0.1693
 41
0.1693
 66
1
 10
0
 20
0
 30
0
  0
VERTEX
  8
LAYER_1
 10
149.5275
 20
220.3755
  0
VERTEX
  8
LAYER_1
 10
149.21
 20
218.8938
  0
SEQEND
  0
POLYLINE
  8
LAYER_1
 40
0.1693
 41
0.1693
 66
1
 10
0
 20
0
 30
0
  0
VERTEX
  8
LAYER_1
 10
61.4212
 20
220.3755
  0
VERTEX
  8
LAYER_1
 10
61.7387
 20
218.8938
  0
VERTEX
  8
LAYER_1
 10
62.0562
 20
217.518
  0
VERTEX
  8
LAYER_1
 10
62.4002
 20
216.2215
  0
VERTEX
  8
LAYER_1
 10
62.7706
 20
215.0044
  0
VERTEX
  8
LAYER_1
 10
63.1675
 20
213.8668
  0
VERTEX
  8
LAYER_1
 10
63.5908
 20
212.8084
  0
VERTEX
  8
LAYER_1
 10
64.0671
 20
211.8295
  0
VERTEX
  8
LAYER_1
 10
64.5698
 20
210.9034
  0
VERTEX
  8
LAYER_1
 10
65.1254
 20
210.0568
  0
VERTEX
  8
LAYER_1
 10
65.7075
 20
209.263
  0
VERTEX
  8
LAYER_1
 10
66.316
 20
208.5222
  0
VERTEX
  8
LAYER_1
 10
66.9775
 20
207.8343
  0
VERTEX
  8
LAYER_1
 10
67.6654
 20
207.1993
  0
VERTEX
  8
LAYER_1
 10
68.3798
 20
206.6172
  0
VERTEX
  8
LAYER_1
 10
69.1471
 20
206.0615
  0
VERTEX
  8
LAYER_1
 10
69.9144
 20
205.5588
  0
VERTEX
  8
LAYER_1
 10
70.7346
 20
205.0826
  0
VERTEX
  8
LAYER_1
 10
71.5812
 20
204.6328
  0
VERTEX
  8
LAYER_1
 10
72.4279
 20
204.2095
  0
VERTEX
  8
LAYER_1
 10
73.3275
 20
203.8126
  0
VERTEX
  8
LAYER_1
 10
74.2006
 20
203.4422
  0
VERTEX
  8
LAYER_1
 10
75.1002
 20
203.0717
  0
VERTEX
  8
LAYER_1
 10
75.9998
 20
202.7278
  0
VERTEX
  8
LAYER_1
 10
76.8994
 20
202.4103
  0
VERTEX
  8
LAYER_1
 10
77.8254
 20
202.0663
  0
VERTEX
  8
LAYER_1
 10
78.6985
 20
201.7488
  0
VERTEX
  8
LAYER_1
 10
79.5981
 20
201.4313
  0
VERTEX
  8
LAYER_1
 10
80.4712
 20
201.1138
  0
VERTEX
  8
LAYER_1
 10
81.3179
 20
200.7963
  0
VERTEX
  8
LAYER_1
 10
82.1646
 20
200.4788
  0
VERTEX
  8
LAYER_1
 10
82.9583
 20
200.1349
  0
VERTEX
  8
LAYER_1
 10
83.7521
 20
199.8174
  0
VERTEX
  8
LAYER_1
 10
84.5194
 20
199.447
  0
VERTEX
  8
LAYER_1
 10
85.2337
 20
199.103
  0
VERTEX
  8
LAYER_1
 10
85.9217
 20
198.7326
  0
VERTEX
  8
LAYER_1
 10
86.5831
 20
198.3357
  0
VERTEX
  8
LAYER_1
 10
87.2181
 20
197.9124
  0
VERTEX
  8
LAYER_1
 10
87.8002
 20
197.489
  0
VERTEX
  8
LAYER_1
 10
88.3294
 20
197.0128
  0
VERTEX
  8
LAYER_1
 10
88.8585
 20
196.5365
  0
VERTEX
  8
LAYER_1
 10
89.3083
 20
196.0338
  0
VERTEX
  8
LAYER_1
 10
89.7317
 20
195.5047
  0
VERTEX
  8
LAYER_1
 10
90.1021
 20
194.9226
  0
VERTEX
  8
LAYER_1
 10
90.446
 20
194.314
  0
VERTEX
  8
LAYER_1
 10
90.7106
 20
193.6526
  0
SEQEND
  0
POLYLINE
  8
LAYER_1
 40
0.1693
 41
0.1693
 66
1
 10
0
 20
0
 30
0
  0
VERTEX
  8
LAYER_1
 10
149.21
 20
218.8939
  0
VERTEX
  8
LAYER_1
 10
148.8925
 20
217.518
  0
VERTEX
  8
LAYER_1
 10
148.5485
 20
216.2215
  0
VERTEX
  8
LAYER_1
 10
148.1781
 20
215.0045
  0
VERTEX
  8
LAYER_1
 10
147.7812
 20
213.8668
  0
VERTEX
  8
LAYER_1
 10
147.3579
 20
212.8084
  0
VERTEX
  8
LAYER_1
 10
146.8817
 20
211.8295
  0
VERTEX
  8
LAYER_1
 10
146.3789
 20
210.9034
  0
VERTEX
  8
LAYER_1
 10
145.8233
 20
210.0568
  0
VERTEX
  8
LAYER_1
 10
145.2412
 20
209.263
  0
VERTEX
  8
LAYER_1
 10
144.6327
 20
208.5222
  0
VERTEX
  8
LAYER_1
 10
143.9712
 20
207.8343
  0
VERTEX
  8
LAYER_1
 10
143.2833
 20
207.1993
  0
VERTEX
  8
LAYER_1
 10
142.5689
 20
206.6172
  0
VERTEX
  8
LAYER_1
 10
141.8017
 20
206.0615
  0
VERTEX
  8
LAYER_1
 10
141.0344
 20
205.5588
  0
VERTEX
  8
LAYER_1
 10
140.2142
 20
205.0826
  0
VERTEX
  8
LAYER_1
 10
139.3675
 20
204.6328
  0
VERTEX
  8
LAYER_1
 10
138.5208
 20
204.2095
  0
VERTEX
  8
LAYER_1
 10
137.6212
 20
203.8126
  0
VERTEX
  8
LAYER_1
 10
136.7481
 20
203.4422
  0
VERTEX
  8
LAYER_1
 10
135.8485
 20
203.0718
  0
VERTEX
  8
LAYER_1
 10
134.9489
 20
202.7278
  0
VERTEX
  8
LAYER_1
 10
134.0494
 20
202.4103
  0
VERTEX
  8
LAYER_1
 10
133.1233
 20
202.0663
  0
VERTEX
  8
LAYER_1
 10
132.2502
 20
201.7489
  0
VERTEX
  8
LAYER_1
 10
131.3506
 20
201.4313
  0
VERTEX
  8
LAYER_1
 10
130.4775
 20
201.1139
  0
VERTEX
  8
LAYER_1
 10
129.6308
 20
200.7963
  0
VERTEX
  8
LAYER_1
 10
128.7842
 20
200.4789
  0
VERTEX
  8
LAYER_1
 10
127.9904
 20
200.1349
  0
VERTEX
  8
LAYER_1
 10
127.1967
 20
199.8174
  0
VERTEX
  8
LAYER_1
 10
126.4294
 20
199.447
  0
VERTEX
  8
LAYER_1
 10
125.715
 20
199.103
  0
SEQEND
  0
POLYLINE
  8
LAYER_1
 40
0.1693
 41
0.1693
 66
1
 10
0
 20
0
 30
0
  0
VERTEX
  8
LAYER_1
 10
61.1302
 20
221.9366
  0
VERTEX
  8
LAYER_1
 10
61.4212
 20
220.3755
  0
SEQEND
  0
POLYLINE
  8
LAYER_1
 40
0.1693
 41
0.1693
 66
1
 10
0
 20
0
 30
0
  0
VERTEX
  8
LAYER_1
 10
61.1302
 20
221.9366
  0
VERTEX
  8
LAYER_1
 10
149.8185
 20
221.9366
  0
VERTEX
  8
LAYER_1
 10
149.5275
 20
220.3755
  0
SEQEND
  0
POLYLINE
  8
LAYER_1
 40
0.1693
 41
0.1693
 66
1
 10
0
 20
0
 30
0
  0
VERTEX
  8
LAYER_1
 10
89.864
 20
192.1974
  0
VERTEX
  8
LAYER_1
 10
91.1075
 20
192.1974
  0
SEQEND
  0
POLYLINE
  8
LAYER_1
 40
0.1693
 41
0.1693
 66
1
 10
0
 20
0
 30
0
  0
VERTEX
  8
LAYER_1
 10
90.9487
 20
192.9647
  0
VERTEX
  8
LAYER_1
 10
91.1075
 20
192.1974
  0
SEQEND
  0
POLYLINE
  8
LAYER_1
 40
0.1693
 41
0.1693
 66
1
 10
0
 20
0
 30
0
  0
VERTEX
  8
LAYER_1
 10
119.8412
 20
192.1974
  0
VERTEX
  8
LAYER_1
 10
121.0848
 20
192.1974
  0
SEQEND
  0
POLYLINE
  8
LAYER_1
 40
0.1693
 41
0.1693
 66
1
 10
0
 20
0
 30
0
  0
VERTEX
  8
LAYER_1
 10
89.8639
 20
186.9587
  0
VERTEX
  8
LAYER_1
 10
89.8639
 20
192.1974
  0
SEQEND
  0
POLYLINE
  8
LAYER_1
 40
0.1693
 41
0.1693
 66
1
 10
0
 20
0
 30
0
  0
VERTEX
  8
LAYER_1
 10
89.8639
 20
186.9587
  0
VERTEX
  8
LAYER_1
 10
98.7275
 20
186.9587
  0
SEQEND
  0
POLYLINE
  8
LAYER_1
 40
0.1693
 41
0.1693
 66
1
 10
0
 20
0
 30
0
  0
VERTEX
  8
LAYER_1
 10
112.2212
 20
186.9587
  0
VERTEX
  8
LAYER_1
 10
121.0848
 20
186.9587
  0
VERTEX
  8
LAYER_1
 10
121.0848
 20
192.1974
  0
SEQEND
  0
POLYLINE
  8
LAYER_1
 40
0.0847
 41
0.0847
 66
1
 10
0
 20
0
 30
0
  0
VERTEX
  8
LAYER_1
 10
94.4148
 20
194.3405
 42
0.2250078716
  0
VERTEX
  8
LAYER_1
 10
97.3781
 20
192.8588
  0
SEQEND
  0
POLYLINE
  8
LAYER_1
 40
0.0847
 41
0.0847
 66
1
 10
0
 20
0
 30
0
  0
VERTEX
  8
LAYER_1
 10
119.3385
 20
197.9653
  0
VERTEX
  8
LAYER_1
 10
119.9471
 20
198.6532
  0
VERTEX
  8
LAYER_1
 10
120.6085
 20
199.2617
  0
VERTEX
  8
LAYER_1
 10
121.2964
 20
199.8438
  0
VERTEX
  8
LAYER_1
 10
122.0108
 20
200.373
  0
VERTEX
  8
LAYER_1
 10
122.7517
 20
200.8757
  0
VERTEX
  8
LAYER_1
 10
123.5454
 20
201.3255
  0
VERTEX
  8
LAYER_1
 10
124.3392
 20
201.7488
  0
VERTEX
  8
LAYER_1
 10
125.1329
 20
202.1722
  0
SEQEND
  0
POLYLINE
  8
LAYER_1
 40
0.0847
 41
0.0847
 66
1
 10
0
 20
0
 30
0
  0
VERTEX
  8
LAYER_1
 10
146.2996
 20
219.5553
  0
VERTEX
  8
LAYER_1
 10
146.5906
 20
220.9576
  0
SEQEND
  0
POLYLINE
  8
LAYER_1
 40
0.0847
 41
0.0847
 66
1
 10
0
 20
0
 30
0
  0
VERTEX
  8
LAYER_1
 10
91.6102
 20
197.9653
  0
VERTEX
  8
LAYER_1
 10
91.0017
 20
198.6532
  0
VERTEX
  8
LAYER_1
 10
90.3402
 20
199.2617
  0
VERTEX
  8
LAYER_1
 10
89.6523
 20
199.8438
  0
VERTEX
  8
LAYER_1
 10
88.9379
 20
200.373
  0
VERTEX
  8
LAYER_1
 10
88.1971
 20
200.8757
  0
VERTEX
  8
LAYER_1
 10
87.4033
 20
201.3255
  0
VERTEX
  8
LAYER_1
 10
86.6096
 20
201.7488
  0
VERTEX
  8
LAYER_1
 10
85.8158
 20
202.1722
  0
VERTEX
  8
LAYER_1
 10
84.9692
 20
202.5426
  0
VERTEX
  8
LAYER_1
 10
84.1225
 20
202.913
  0
VERTEX
  8
LAYER_1
 10
83.2758
 20
203.257
  0
VERTEX
  8
LAYER_1
 10
82.3762
 20
203.6009
  0
VERTEX
  8
LAYER_1
 10
81.5031
 20
203.9449
  0
VERTEX
  8
LAYER_1
 10
80.6035
 20
204.2624
  0
VERTEX
  8
LAYER_1
 10
79.7304
 20
204.5799
  0
VERTEX
  8
LAYER_1
 10
78.8308
 20
204.8974
  0
VERTEX
  8
LAYER_1
 10
77.9312
 20
205.2149
  0
VERTEX
  8
LAYER_1
 10
77.0581
 20
205.5324
  0
VERTEX
  8
LAYER_1
 10
76.185
 20
205.8763
  0
VERTEX
  8
LAYER_1
 10
75.3383
 20
206.2203
  0
VERTEX
  8
LAYER_1
 10
74.5181
 20
206.5643
  0
VERTEX
  8
LAYER_1
 10
73.7244
 20
206.9347
  0
VERTEX
  8
LAYER_1
 10
72.9306
 20
207.3051
  0
VERTEX
  8
LAYER_1
 10
72.2162
 20
207.702
  0
VERTEX
  8
LAYER_1
 10
71.5019
 20
208.0988
  0
VERTEX
  8
LAYER_1
 10
70.8404
 20
208.5486
  0
VERTEX
  8
LAYER_1
 10
70.2054
 20
208.9984
  0
VERTEX
  8
LAYER_1
 10
69.6233
 20
209.4747
  0
VERTEX
  8
LAYER_1
 10
69.0677
 20
209.9774
  0
VERTEX
  8
LAYER_1
 10
68.5385
 20
210.533
  0
VERTEX
  8
LAYER_1
 10
68.0623
 20
211.1151
  0
VERTEX
  8
LAYER_1
 10
67.586
 20
211.7236
  0
VERTEX
  8
LAYER_1
 10
67.1627
 20
212.438
  0
VERTEX
  8
LAYER_1
 10
66.7394
 20
213.1788
  0
VERTEX
  8
LAYER_1
 10
66.3425
 20
214.0255
  0
VERTEX
  8
LAYER_1
 10
65.9721
 20
214.9251
  0
VERTEX
  8
LAYER_1
 10
65.6281
 20
215.9305
  0
VERTEX
  8
LAYER_1
 10
65.2842
 20
217.0417
  0
VERTEX
  8
LAYER_1
 10
64.9667
 20
218.2324
  0
VERTEX
  8
LAYER_1
 10
64.6492
 20
219.5553
  0
VERTEX
  8
LAYER_1
 10
64.3581
 20
220.9576
  0
SEQEND
  0
POLYLINE
  8
LAYER_1
 40
0.0847
 41
0.0847
 66
1
 10
0
 20
0
 30
0
  0
VERTEX
  8
LAYER_1
 10
125.1329
 20
202.1722
  0
VERTEX
  8
LAYER_1
 10
125.9796
 20
202.5426
  0
VERTEX
  8
LAYER_1
 10
126.8262
 20
202.913
  0
VERTEX
  8
LAYER_1
 10
127.6729
 20
203.2569
  0
VERTEX
  8
LAYER_1
 10
128.5725
 20
203.6009
  0
VERTEX
  8
LAYER_1
 10
129.4456
 20
203.9449
  0
VERTEX
  8
LAYER_1
 10
130.3452
 20
204.2624
  0
VERTEX
  8
LAYER_1
 10
131.2183
 20
204.5799
  0
VERTEX
  8
LAYER_1
 10
132.1179
 20
204.8974
  0
VERTEX
  8
LAYER_1
 10
133.0175
 20
205.2149
  0
VERTEX
  8
LAYER_1
 10
133.8906
 20
205.5324
  0
VERTEX
  8
LAYER_1
 10
134.7637
 20
205.8763
  0
VERTEX
  8
LAYER_1
 10
135.6104
 20
206.2203
  0
VERTEX
  8
LAYER_1
 10
136.4306
 20
206.5642
  0
VERTEX
  8
LAYER_1
 10
137.2244
 20
206.9347
  0
VERTEX
  8
LAYER_1
 10
138.0181
 20
207.3051
  0
VERTEX
  8
LAYER_1
 10
138.7325
 20
207.702
  0
VERTEX
  8
LAYER_1
 10
139.4469
 20
208.0988
  0
VERTEX
  8
LAYER_1
 10
140.1083
 20
208.5486
  0
VERTEX
  8
LAYER_1
 10
140.7433
 20
208.9984
  0
VERTEX
  8
LAYER_1
 10
141.3254
 20
209.4747
  0
VERTEX
  8
LAYER_1
 10
141.881
 20
209.9774
  0
VERTEX
  8
LAYER_1
 10
142.4102
 20
210.533
  0
VERTEX
  8
LAYER_1
 10
142.8864
 20
211.1151
  0
VERTEX
  8
LAYER_1
 10
143.3627
 20
211.7236
  0
VERTEX
  8
LAYER_1
 10
143.786
 20
212.438
  0
VERTEX
  8
LAYER_1
 10
144.2094
 20
213.1788
  0
VERTEX
  8
LAYER_1
 10
144.6062
 20
214.0255
  0
VERTEX
  8
LAYER_1
 10
144.9767
 20
214.9251
  0
VERTEX
  8
LAYER_1
 10
145.3206
 20
215.9305
  0
VERTEX
  8
LAYER_1
 10
145.6646
 20
217.0417
  0
VERTEX
  8
LAYER_1
 10
145.9821
 20
218.2324
  0
VERTEX
  8
LAYER_1
 10
146.2996
 20
219.5553
  0
SEQEND
  0
POLYLINE
  8
LAYER_1
 40
0.0847
 41
0.0847
 66
1
 10
0
 20
0
 30
0
  0
VERTEX
  8
LAYER_1
 10
64.3581
 20
220.9576
  0
VERTEX
  8
LAYER_1
 10
64.1729
 20
221.9365
  0
SEQEND
  0
POLYLINE
  8
LAYER_1
 40
0.0847
 41
0.0847
 66
1
 10
0
 20
0
 30
0
  0
VERTEX
  8
LAYER_1
 10
146.5906
 20
220.9576
  0
VERTEX
  8
LAYER_1
 10
146.7758
 20
221.9365
  0
SEQEND
  0
POLYLINE
  8
LAYER_1
 40
0.0847
 41
0.0847
 66
1
 10
0
 20
0
 30
0
  0
VERTEX
  8
LAYER_1
 10
94.4412
 20
194.314
  0
VERTEX
  8
LAYER_1
 10
91.6102
 20
197.9653
  0
SEQEND
  0
POLYLINE
  8
LAYER_1
 40
0.0847
 41
0.0847
 66
1
 10
0
 20
0
 30
0
  0
VERTEX
  8
LAYER_1
 10
116.5075
 20
194.314
  0
VERTEX
  8
LAYER_1
 10
119.3385
 20
197.9653
  0
SEQEND
  0
POLYLINE
  8
LAYER_1
 40
0.0847
 41
0.0847
 66
1
 10
0
 20
0
 30
0
  0
VERTEX
  8
LAYER_1
 10
113.5177
 20
192.8588
  0
VERTEX
  8
LAYER_1
 10
113.5441
 20
192.8588
 42
0.1446924003
  0
VERTEX
  8
LAYER_1
 10
115.5784
 20
193.4727
 42
0.08114222987
  0
VERTEX
  8
LAYER_1
 10
116.5075
 20
194.314
  0
SEQEND
  0
POLYLINE
  8
LAYER_1
 40
0.0847
 41
0.0847
 66
1
 10
0
 20
0
 30
0
  0
VERTEX
  8
LAYER_1
 10
97.4046
 20
192.8853
  0
VERTEX
  8
LAYER_1
 10
113.5441
 20
192.8853
  0
SEQEND
  0
POLYLINE
  8
LAYER_1
 40
0.0847
 41
0.0847
 66
1
 10
0
 20
0
 30
0
  0
VERTEX
  8
LAYER_1
 10
101.4791
 20
184.6568
  0
VERTEX
  8
LAYER_1
 10
102.1406
 20
184.6568
  0
SEQEND
  0
POLYLINE
  8
LAYER_1
 40
0.0847
 41
0.0847
 66
1
 10
0
 20
0
 30
0
  0
VERTEX
  8
LAYER_1
 10
103.4635
 20
184.6568
  0
VERTEX
  8
LAYER_1
 10
104.7864
 20
184.6568
  0
SEQEND
  0
POLYLINE
  8
LAYER_1
 40
0.0847
 41
0.0847
 66
1
 10
0
 20
0
 30
0
  0
VERTEX
  8
LAYER_1
 10
106.1358
 20
184.6568
  0
VERTEX
  8
LAYER_1
 10
107.4587
 20
184.6568
  0
SEQEND
  0
POLYLINE
  8
LAYER_1
 40
0.0847
 41
0.0847
 66
1
 10
0
 20
0
 30
0
  0
VERTEX
  8
LAYER_1
 10
108.7816
 20
184.6568
  0
VERTEX
  8
LAYER_1
 10
109.4696
 20
184.6568
  0
SEQEND
  0
POLYLINE
  8
LAYER_1
 40
0.0847
 41
0.0847
 66
1
 10
0
 20
0
 30
0
  0
VERTEX
  8
LAYER_1
 10
101.4791
 20
184.8949
  0
VERTEX
  8
LAYER_1
 10
102.1406
 20
184.8949
  0
SEQEND
  0
POLYLINE
  8
LAYER_1
 40
0.0847
 41
0.0847
 66
1
 10
0
 20
0
 30
0
  0
VERTEX
  8
LAYER_1
 10
103.4635
 20
184.8949
  0
VERTEX
  8
LAYER_1
 10
104.7864
 20
184.8949
  0
SEQEND
  0
POLYLINE
  8
LAYER_1
 40
0.0847
 41
0.0847
 66
1
 10
0
 20
0
 30
0
  0
VERTEX
  8
LAYER_1
 10
106.1358
 20
184.8949
  0
VERTEX
  8
LAYER_1
 10
107.4587
 20
184.8949
  0
SEQEND
  0
POLYLINE
  8
LAYER_1
 40
0.0847
 41
0.0847
 66
1
 10
0
 20
0
 30
0
  0
VERTEX
  8
LAYER_1
 10
108.7816
 20
184.8949
  0
VERTEX
  8
LAYER_1
 10
109.4696
 20
184.8949
  0
SEQEND
  0
POLYLINE
  8
LAYER_1
 40
0.0847
 41
0.0847
 66
1
 10
0
 20
0
 30
0
  0
VERTEX
  8
LAYER_1
 10
110.2104
 20
187.4613
  0
VERTEX
  8
LAYER_1
 10
110.0516
 20
186.8263
  0
SEQEND
  0
POLYLINE
  8
LAYER_1
 40
0.0847
 41
0.0847
 66
1
 10
0
 20
0
 30
0
  0
VERTEX
  8
LAYER_1
 10
109.6812
 20
185.5563
  0
VERTEX
  8
LAYER_1
 10
109.4695
 20
184.8949
  0
SEQEND
  0
POLYLINE
  8
LAYER_1
 40
0.0847
 41
0.0847
 66
1
 10
0
 20
0
 30
0
  0
VERTEX
  8
LAYER_1
 10
111.9566
 20
183.2015
  0
VERTEX
  8
LAYER_1
 10
111.3481
 20
183.5455
  0
SEQEND
  0
POLYLINE
  8
LAYER_1
 40
0.0847
 41
0.0847
 66
1
 10
0
 20
0
 30
0
  0
VERTEX
  8
LAYER_1
 10
110.1045
 20
184.2863
  0
VERTEX
  8
LAYER_1
 10
109.4695
 20
184.6567
  0
SEQEND
  0
POLYLINE
  8
LAYER_1
 40
0.0847
 41
0.0847
 66
1
 10
0
 20
0
 30
0
  0
VERTEX
  8
LAYER_1
 10
100.7383
 20
187.4613
  0
VERTEX
  8
LAYER_1
 10
100.897
 20
186.8263
  0
SEQEND
  0
POLYLINE
  8
LAYER_1
 40
0.0847
 41
0.0847
 66
1
 10
0
 20
0
 30
0
  0
VERTEX
  8
LAYER_1
 10
101.2675
 20
185.5563
  0
VERTEX
  8
LAYER_1
 10
101.4791
 20
184.8949
  0
SEQEND
  0
POLYLINE
  8
LAYER_1
 40
0.0847
 41
0.0847
 66
1
 10
0
 20
0
 30
0
  0
VERTEX
  8
LAYER_1
 10
98.9921
 20
183.2015
  0
VERTEX
  8
LAYER_1
 10
99.6006
 20
183.5455
  0
SEQEND
  0
POLYLINE
  8
LAYER_1
 40
0.0847
 41
0.0847
 66
1
 10
0
 20
0
 30
0
  0
VERTEX
  8
LAYER_1
 10
100.8441
 20
184.2863
  0
VERTEX
  8
LAYER_1
 10
101.4791
 20
184.6567
  0
VERTEX
  8
LAYER_1
 10
101.4791
 20
184.7097
  0
SEQEND
  0
POLYLINE
  8
LAYER_1
 40
0.0847
 41
0.0847
 66
1
 10
0
 20
0
 30
0
  0
VERTEX
  8
LAYER_1
 10
101.4791
 20
184.8155
  0
VERTEX
  8
LAYER_1
 10
101.4791
 20
184.8949
  0
SEQEND
  0
POLYLINE
  8
LAYER_1
 40
0.0847
 41
0.0847
 66
1
 10
0
 20
0
 30
0
  0
VERTEX
  8
LAYER_1
 10
109.4696
 20
184.6568
  0
VERTEX
  8
LAYER_1
 10
109.4696
 20
184.7097
  0
SEQEND
  0
POLYLINE
  8
LAYER_1
 40
0.0847
 41
0.0847
 66
1
 10
0
 20
0
 30
0
  0
VERTEX
  8
LAYER_1
 10
109.4696
 20
184.8155
  0
VERTEX
  8
LAYER_1
 10
109.4696
 20
184.8949
  0
SEQEND
  0
POLYLINE
  8
LAYER_1
 40
0.0847
 41
0.0847
 66
1
 10
0
 20
0
 30
0
  0
VERTEX
  8
LAYER_1
 10
97.4045
 20
192.8853
  0
VERTEX
  8
LAYER_1
 10
97.775
 20
192.4884
  0
SEQEND
  0
POLYLINE
  8
LAYER_1
 40
0.0847
 41
0.0847
 66
1
 10
0
 20
0
 30
0
  0
VERTEX
  8
LAYER_1
 10
98.5158
 20
191.6682
  0
VERTEX
  8
LAYER_1
 10
99.2566
 20
190.8215
  0
SEQEND
  0
POLYLINE
  8
LAYER_1
 40
0.0847
 41
0.0847
 66
1
 10
0
 20
0
 30
0
  0
VERTEX
  8
LAYER_1
 10
99.9975
 20
190.0013
  0
VERTEX
  8
LAYER_1
 10
100.3679
 20
189.578
  0
VERTEX
  8
LAYER_1
 10
101.0029
 20
189.578
  0
SEQEND
  0
POLYLINE
  8
LAYER_1
 40
0.0847
 41
0.0847
 66
1
 10
0
 20
0
 30
0
  0
VERTEX
  8
LAYER_1
 10
102.2729
 20
189.578
  0
VERTEX
  8
LAYER_1
 10
103.5429
 20
189.578
  0
SEQEND
  0
POLYLINE
  8
LAYER_1
 40
0.0847
 41
0.0847
 66
1
 10
0
 20
0
 30
0
  0
VERTEX
  8
LAYER_1
 10
104.8129
 20
189.578
  0
VERTEX
  8
LAYER_1
 10
106.1093
 20
189.578
  0
SEQEND
  0
POLYLINE
  8
LAYER_1
 40
0.0847
 41
0.0847
 66
1
 10
0
 20
0
 30
0
  0
VERTEX
  8
LAYER_1
 10
107.3793
 20
189.578
  0
VERTEX
  8
LAYER_1
 10
108.6493
 20
189.578
  0
SEQEND
  0
POLYLINE
  8
LAYER_1
 40
0.0847
 41
0.0847
 66
1
 10
0
 20
0
 30
0
  0
VERTEX
  8
LAYER_1
 10
109.9193
 20
189.578
  0
VERTEX
  8
LAYER_1
 10
110.5808
 20
189.578
  0
VERTEX
  8
LAYER_1
 10
110.9512
 20
189.9748
  0
SEQEND
  0
POLYLINE
  8
LAYER_1
 40
0.0847
 41
0.0847
 66
1
 10
0
 20
0
 30
0
  0
VERTEX
  8
LAYER_1
 10
111.692
 20
190.7951
  0
VERTEX
  8
LAYER_1
 10
112.4329
 20
191.6417
  0
SEQEND
  0
POLYLINE
  8
LAYER_1
 40
0.0847
 41
0.0847
 66
1
 10
0
 20
0
 30
0
  0
VERTEX
  8
LAYER_1
 10
113.1737
 20
192.462
  0
VERTEX
  8
LAYER_1
 10
113.5441
 20
192.8853
  0
SEQEND
  0
POLYLINE
  8
LAYER_1
 40
0.0847
 41
0.0847
 66
1
 10
0
 20
0
 30
0
  0
VERTEX
  8
LAYER_1
 10
110.5808
 20
186.9586
  0
VERTEX
  8
LAYER_1
 10
110.5808
 20
187.5936
  0
SEQEND
  0
POLYLINE
  8
LAYER_1
 40
0.0847
 41
0.0847
 66
1
 10
0
 20
0
 30
0
  0
VERTEX
  8
LAYER_1
 10
110.5808
 20
188.9165
  0
VERTEX
  8
LAYER_1
 10
110.5808
 20
189.578
  0
SEQEND
  0
POLYLINE
  8
LAYER_1
 40
0.0847
 41
0.0847
 66
1
 10
0
 20
0
 30
0
  0
VERTEX
  8
LAYER_1
 10
100.3679
 20
186.9586
  0
VERTEX
  8
LAYER_1
 10
100.3679
 20
187.5936
  0
SEQEND
  0
POLYLINE
  8
LAYER_1
 40
0.0847
 41
0.0847
 66
1
 10
0
 20
0
 30
0
  0
VERTEX
  8
LAYER_1
 10
100.3679
 20
188.9165
  0
VERTEX
  8
LAYER_1
 10
100.3679
 20
189.578
  0
SEQEND
  0
POLYLINE
  8
LAYER_1
 40
0.0847
 41
0.0847
 66
1
 10
0
 20
0
 30
0
  0
VERTEX
  8
LAYER_1
 10
107.644
 20
151.769
  0
VERTEX
  8
LAYER_1
 10
107.7233
 20
151.769
  0
SEQEND
  0
POLYLINE
  8
LAYER_1
 40
0.0847
 41
0.0847
 66
1
 10
0
 20
0
 30
0
  0
VERTEX
  8
LAYER_1
 10
107.8821
 20
151.822
  0
VERTEX
  8
LAYER_1
 10
107.9615
 20
151.8484
  0
SEQEND
  0
POLYLINE
  8
LAYER_1
 40
0.0847
 41
0.0847
 66
1
 10
0
 20
0
 30
0
  0
VERTEX
  8
LAYER_1
 10
107.2735
 20
151.769
  0
VERTEX
  8
LAYER_1
 10
107.3
 20
151.769
  0
SEQEND
  0
POLYLINE
  8
LAYER_1
 40
0.0847
 41
0.0847
 66
1
 10
0
 20
0
 30
0
  0
VERTEX
  8
LAYER_1
 10
107.4058
 20
151.769
  0
VERTEX
  8
LAYER_1
 10
107.4587
 20
151.7426
  0
VERTEX
  8
LAYER_1
 10
107.4852
 20
151.7426
  0
SEQEND
  0
POLYLINE
  8
LAYER_1
 40
0.0847
 41
0.0847
 66
1
 10
0
 20
0
 30
0
  0
VERTEX
  8
LAYER_1
 10
107.591
 20
151.7426
  0
VERTEX
  8
LAYER_1
 10
107.644
 20
151.769
  0
SEQEND
  0
POLYLINE
  8
LAYER_1
 40
0.0847
 41
0.0847
 66
1
 10
0
 20
0
 30
0
  0
VERTEX
  8
LAYER_1
 10
102.6433
 20
153.9651
  0
VERTEX
  8
LAYER_1
 10
102.7227
 20
153.9915
  0
SEQEND
  0
POLYLINE
  8
LAYER_1
 40
0.0847
 41
0.0847
 66
1
 10
0
 20
0
 30
0
  0
VERTEX
  8
LAYER_1
 10
102.8815
 20
154.0709
  0
VERTEX
  8
LAYER_1
 10
102.9873
 20
154.1238
  0
VERTEX
  8
LAYER_1
 10
103.0667
 20
154.1503
  0
SEQEND
  0
POLYLINE
  8
LAYER_1
 40
0.0847
 41
0.0847
 66
1
 10
0
 20
0
 30
0
  0
VERTEX
  8
LAYER_1
 10
103.2254
 20
154.2032
  0
VERTEX
  8
LAYER_1
 10
103.3048
 20
154.2297
  0
VERTEX
  8
LAYER_1
 10
103.3312
 20
154.2297
  0
SEQEND
  0
POLYLINE
  8
LAYER_1
 40
0.0847
 41
0.0847
 66
1
 10
0
 20
0
 30
0
  0
VERTEX
  8
LAYER_1
 10
103.4371
 20
154.2297
  0
VERTEX
  8
LAYER_1
 10
103.49
 20
154.2561
  0
VERTEX
  8
LAYER_1
 10
103.5165
 20
154.2561
  0
SEQEND
  0
POLYLINE
  8
LAYER_1
 40
0.0847
 41
0.0847
 66
1
 10
0
 20
0
 30
0
  0
VERTEX
  8
LAYER_1
 10
103.6223
 20
154.2561
  0
VERTEX
  8
LAYER_1
 10
103.6752
 20
154.2296
  0
VERTEX
  8
LAYER_1
 10
103.7546
 20
154.2032
  0
SEQEND
  0
POLYLINE
  8
LAYER_1
 40
0.0847
 41
0.0847
 66
1
 10
0
 20
0
 30
0
  0
VERTEX
  8
LAYER_1
 10
103.9133
 20
154.1503
  0
VERTEX
  8
LAYER_1
 10
103.9927
 20
154.1238
  0
VERTEX
  8
LAYER_1
 10
104.0721
 20
154.0973
  0
SEQEND
  0
POLYLINE
  8
LAYER_1
 40
0.0847
 41
0.0847
 66
1
 10
0
 20
0
 30
0
  0
VERTEX
  8
LAYER_1
 10
104.2308
 20
154.018
  0
VERTEX
  8
LAYER_1
 10
104.3367
 20
153.9651
  0
VERTEX
  8
LAYER_1
 10
104.416
 20
153.9121
  0
SEQEND
  0
POLYLINE
  8
LAYER_1
 40
0.0847
 41
0.0847
 66
1
 10
0
 20
0
 30
0
  0
VERTEX
  8
LAYER_1
 10
104.5748
 20
153.8063
  0
VERTEX
  8
LAYER_1
 10
104.6542
 20
153.7269
  0
VERTEX
  8
LAYER_1
 10
104.7335
 20
153.674
  0
SEQEND
  0
POLYLINE
  8
LAYER_1
 40
0.0847
 41
0.0847
 66
1
 10
0
 20
0
 30
0
  0
VERTEX
  8
LAYER_1
 10
104.8923
 20
153.5418
  0
VERTEX
  8
LAYER_1
 10
104.9717
 20
153.4624
  0
VERTEX
  8
LAYER_1
 10
105.051
 20
153.4095
  0
SEQEND
  0
POLYLINE
  8
LAYER_1
 40
0.0847
 41
0.0847
 66
1
 10
0
 20
0
 30
0
  0
VERTEX
  8
LAYER_1
 10
105.2098
 20
153.2507
  0
VERTEX
  8
LAYER_1
 10
105.2892
 20
153.1713
  0
VERTEX
  8
LAYER_1
 10
105.3685
 20
153.092
  0
SEQEND
  0
POLYLINE
  8
LAYER_1
 40
0.0847
 41
0.0847
 66
1
 10
0
 20
0
 30
0
  0
VERTEX
  8
LAYER_1
 10
105.5538
 20
152.9332
  0
VERTEX
  8
LAYER_1
 10
105.6596
 20
152.8274
  0
VERTEX
  8
LAYER_1
 10
105.739
 20
152.7745
  0
SEQEND
  0
POLYLINE
  8
LAYER_1
 40
0.0847
 41
0.0847
 66
1
 10
0
 20
0
 30
0
  0
VERTEX
  8
LAYER_1
 10
105.8977
 20
152.6158
  0
VERTEX
  8
LAYER_1
 10
105.9771
 20
152.5364
  0
VERTEX
  8
LAYER_1
 10
106.0565
 20
152.4834
  0
SEQEND
  0
POLYLINE
  8
LAYER_1
 40
0.0847
 41
0.0847
 66
1
 10
0
 20
0
 30
0
  0
VERTEX
  8
LAYER_1
 10
106.2152
 20
152.3512
  0
VERTEX
  8
LAYER_1
 10
106.2946
 20
152.2718
  0
VERTEX
  8
LAYER_1
 10
106.374
 20
152.2189
  0
SEQEND
  0
POLYLINE
  8
LAYER_1
 40
0.0847
 41
0.0847
 66
1
 10
0
 20
0
 30
0
  0
VERTEX
  8
LAYER_1
 10
106.5327
 20
152.1131
  0
VERTEX
  8
LAYER_1
 10
106.6121
 20
152.0337
  0
VERTEX
  8
LAYER_1
 10
106.6915
 20
152.0072
  0
SEQEND
  0
POLYLINE
  8
LAYER_1
 40
0.0847
 41
0.0847
 66
1
 10
0
 20
0
 30
0
  0
VERTEX
  8
LAYER_1
 10
106.8502
 20
151.9014
  0
VERTEX
  8
LAYER_1
 10
106.956
 20
151.8485
  0
VERTEX
  8
LAYER_1
 10
107.0354
 20
151.8485
  0
SEQEND
  0
POLYLINE
  8
LAYER_1
 40
0.0847
 41
0.0847
 66
1
 10
0
 20
0
 30
0
  0
VERTEX
  8
LAYER_1
 10
107.1942
 20
151.7956
  0
VERTEX
  8
LAYER_1
 10
107.2735
 20
151.7691
  0
SEQEND
  0
POLYLINE
  8
LAYER_1
 40
0.0847
 41
0.0847
 66
1
 10
0
 20
0
 30
0
  0
VERTEX
  8
LAYER_1
 10
102.3523
 20
153.7535
  0
VERTEX
  8
LAYER_1
 10
102.4052
 20
153.8064
  0
SEQEND
  0
POLYLINE
  8
LAYER_1
 40
0.0847
 41
0.0847
 66
1
 10
0
 20
0
 30
0
  0
VERTEX
  8
LAYER_1
 10
102.564
 20
153.9122
  0
VERTEX
  8
LAYER_1
 10
102.6433
 20
153.9652
  0
SEQEND
  0
POLYLINE
  8
LAYER_1
 40
0.0847
 41
0.0847
 66
1
 10
0
 20
0
 30
0
  0
VERTEX
  8
LAYER_1
 10
107.9615
 20
151.8485
  0
VERTEX
  8
LAYER_1
 10
108.0408
 20
151.875
  0
SEQEND
  0
POLYLINE
  8
LAYER_1
 40
0.0847
 41
0.0847
 66
1
 10
0
 20
0
 30
0
  0
VERTEX
  8
LAYER_1
 10
108.1996
 20
151.9808
  0
VERTEX
  8
LAYER_1
 10
108.3054
 20
152.0337
  0
VERTEX
  8
LAYER_1
 10
108.3583
 20
152.0866
  0
SEQEND
  0
POLYLINE
  8
LAYER_1
 40
0.0847
 41
0.0847
 66
1
 10
0
 20
0
 30
0
  0
VERTEX
  8
LAYER_1
 10
108.5171
 20
152.1924
  0
VERTEX
  8
LAYER_1
 10
108.5965
 20
152.2454
  0
SEQEND
  0
POLYLINE
  8
LAYER_1
 40
0.0847
 41
0.0847
 66
1
 10
0
 20
0
 30
0
  0
VERTEX
  8
LAYER_1
 10
199.5867
 20
186.9587
  0
VERTEX
  8
LAYER_1
 10
206.36
 20
186.9587
  0
SEQEND
  0
POLYLINE
  8
LAYER_1
 40
0.0847
 41
0.0847
 66
1
 10
0
 20
0
 30
0
  0
VERTEX
  8
LAYER_1
 10
105.4744
 20
143.5141
  0
VERTEX
  8
LAYER_1
 10
105.4744
 20
146.3716
  0
SEQEND
  0
POLYLINE
  8
LAYER_1
 40
0.0847
 41
0.0847
 66
1
 10
0
 20
0
 30
0
  0
VERTEX
  8
LAYER_1
 10
105.4744
 20
147.5358
  0
VERTEX
  8
LAYER_1
 10
105.4744
 20
148.6735
  0
SEQEND
  0
POLYLINE
  8
LAYER_1
 40
0.0847
 41
0.0847
 66
1
 10
0
 20
0
 30
0
  0
VERTEX
  8
LAYER_1
 10
105.4744
 20
149.8376
  0
VERTEX
  8
LAYER_1
 10
105.4744
 20
155.6055
  0
SEQEND
  0
POLYLINE
  8
LAYER_1
 40
0.0847
 41
0.0847
 66
1
 10
0
 20
0
 30
0
  0
VERTEX
  8
LAYER_1
 10
105.4744
 20
156.7433
  0
VERTEX
  8
LAYER_1
 10
105.4744
 20
157.9074
  0
SEQEND
  0
POLYLINE
  8
LAYER_1
 40
0.0847
 41
0.0847
 66
1
 10
0
 20
0
 30
0
  0
VERTEX
  8
LAYER_1
 10
105.4744
 20
159.0451
  0
VERTEX
  8
LAYER_1
 10
105.4744
 20
164.813
  0
SEQEND
  0
POLYLINE
  8
LAYER_1
 40
0.0847
 41
0.0847
 66
1
 10
0
 20
0
 30
0
  0
VERTEX
  8
LAYER_1
 10
105.4744
 20
165.9507
  0
VERTEX
  8
LAYER_1
 10
105.4744
 20
167.1149
  0
SEQEND
  0
POLYLINE
  8
LAYER_1
 40
0.0847
 41
0.0847
 66
1
 10
0
 20
0
 30
0
  0
VERTEX
  8
LAYER_1
 10
105.4744
 20
168.2526
  0
VERTEX
  8
LAYER_1
 10
105.4744
 20
174.0205
  0
SEQEND
  0
POLYLINE
  8
LAYER_1
 40
0.0847
 41
0.0847
 66
1
 10
0
 20
0
 30
0
  0
VERTEX
  8
LAYER_1
 10
105.4744
 20
175.1847
  0
VERTEX
  8
LAYER_1
 10
105.4744
 20
176.3224
  0
SEQEND
  0
POLYLINE
  8
LAYER_1
 40
0.0847
 41
0.0847
 66
1
 10
0
 20
0
 30
0
  0
VERTEX
  8
LAYER_1
 10
105.4744
 20
177.4865
  0
VERTEX
  8
LAYER_1
 10
105.4744
 20
183.228
  0
SEQEND
  0
POLYLINE
  8
LAYER_1
 40
0.0847
 41
0.0847
 66
1
 10
0
 20
0
 30
0
  0
VERTEX
  8
LAYER_1
 10
105.4744
 20
184.3921
  0
VERTEX
  8
LAYER_1
 10
105.4744
 20
185.5298
  0
SEQEND
  0
POLYLINE
  8
LAYER_1
 40
0.0847
 41
0.0847
 66
1
 10
0
 20
0
 30
0
  0
VERTEX
  8
LAYER_1
 10
105.4744
 20
186.694
  0
VERTEX
  8
LAYER_1
 10
105.4744
 20
192.4354
  0
SEQEND
  0
POLYLINE
  8
LAYER_1
 40
0.0847
 41
0.0847
 66
1
 10
0
 20
0
 30
0
  0
VERTEX
  8
LAYER_1
 10
105.4744
 20
193.5996
  0
VERTEX
  8
LAYER_1
 10
105.4744
 20
194.7373
  0
SEQEND
  0
POLYLINE
  8
LAYER_1
 40
0.0847
 41
0.0847
 66
1
 10
0
 20
0
 30
0
  0
VERTEX
  8
LAYER_1
 10
105.4744
 20
195.9015
  0
VERTEX
  8
LAYER_1
 10
105.4744
 20
201.6694
  0
SEQEND
  0
POLYLINE
  8
LAYER_1
 40
0.0847
 41
0.0847
 66
1
 10
0
 20
0
 30
0
  0
VERTEX
  8
LAYER_1
 10
105.4744
 20
202.8071
  0
VERTEX
  8
LAYER_1
 10
105.4744
 20
203.9712
  0
SEQEND
  0
POLYLINE
  8
LAYER_1
 40
0.0847
 41
0.0847
 66
1
 10
0
 20
0
 30
0
  0
VERTEX
  8
LAYER_1
 10
105.4744
 20
205.109
  0
VERTEX
  8
LAYER_1
 10
105.4744
 20
210.8768
  0
SEQEND
  0
POLYLINE
  8
LAYER_1
 40
0.0847
 41
0.0847
 66
1
 10
0
 20
0
 30
0
  0
VERTEX
  8
LAYER_1
 10
105.4744
 20
212.0146
  0
VERTEX
  8
LAYER_1
 10
105.4744
 20
213.1787
  0
SEQEND
  0
POLYLINE
  8
LAYER_1
 40
0.0847
 41
0.0847
 66
1
 10
0
 20
0
 30
0
  0
VERTEX
  8
LAYER_1
 10
105.4744
 20
214.3164
  0
VERTEX
  8
LAYER_1
 10
105.4744
 20
220.0843
  0
SEQEND
  0
POLYLINE
  8
LAYER_1
 40
0.0847
 41
0.0847
 66
1
 10
0
 20
0
 30
0
  0
VERTEX
  8
LAYER_1
 10
105.4744
 20
221.2485
  0
VERTEX
  8
LAYER_1
 10
105.4744
 20
222.3862
  0
SEQEND
  0
POLYLINE
  8
LAYER_1
 40
0.0847
 41
0.0847
 66
1
 10
0
 20
0
 30
0
  0
VERTEX
  8
LAYER_1
 10
105.4744
 20
223.5504
  0
VERTEX
  8
LAYER_1
 10
105.4744
 20
226.4343
  0
SEQEND
  0
POLYLINE
  8
LAYER_1
 40
0.0847
 41
0.0847
 66
1
 10
0
 20
0
 30
0
  0
VERTEX
  8
LAYER_1
 10
199.5867
 20
186.9585
  0
VERTEX
  8
LAYER_1
 10
206.36
 20
186.9585
  0
SEQEND
  0
POLYLINE
  8
LAYER_1
 40
0.254
 41
0.254
 66
1
 10
0
 20
0
 30
0
  0
VERTEX
  8
LAYER_1
 10
16.5744
 20
186.9587
  0
VERTEX
  8
LAYER_1
 10
97.3781
 20
186.9587
  0
SEQEND
  0
POLYLINE
  8
LAYER_1
 40
0.254
 41
0.254
 66
1
 10
0
 20
0
 30
0
  0
VERTEX
  8
LAYER_1
 10
113.5706
 20
186.9587
  0
VERTEX
  8
LAYER_1
 10
194.3744
 20
186.9587
  0
SEQEND
  0
POLYLINE
  8
LAYER_1
 40
0.0847
 41
0.0847
 66
1
 10
0
 20
0
 30
0
  0
VERTEX
  8
LAYER_1
 10
194.3744
 20
186.9587
  0
VERTEX
  8
LAYER_1
 10
194.1362
 20
186.6147
  0
SEQEND
  0
POLYLINE
  8
LAYER_1
 40
0.0847
 41
0.0847
 66
1
 10
0
 20
0
 30
0
  0
VERTEX
  8
LAYER_1
 10
18.1619
 20
183.7836
  0
VERTEX
  8
LAYER_1
 10
18.1883
 20
183.4397
  0
VERTEX
  8
LAYER_1
 10
18.1619
 20
183.1222
  0
VERTEX
  8
LAYER_1
 10
18.0296
 20
182.5401
  0
VERTEX
  8
LAYER_1
 10
17.8179
 20
181.9845
  0
VERTEX
  8
LAYER_1
 10
17.5269
 20
181.4024
  0
VERTEX
  8
LAYER_1
 10
17.1829
 20
180.8203
  0
VERTEX
  8
LAYER_1
 10
16.8125
 20
180.2647
  0
VERTEX
  8
LAYER_1
 10
16.3627
 20
179.6032
  0
SEQEND
  0
POLYLINE
  8
LAYER_1
 40
0.0847
 41
0.0847
 66
1
 10
0
 20
0
 30
0
  0
VERTEX
  8
LAYER_1
 10
18.0296
 20
184.3393
  0
VERTEX
  8
LAYER_1
 10
18.1619
 20
183.7836
  0
SEQEND
  0
POLYLINE
  8
LAYER_1
 40
0.0847
 41
0.0847
 66
1
 10
0
 20
0
 30
0
  0
VERTEX
  8
LAYER_1
 10
17.8179
 20
184.9214
  0
VERTEX
  8
LAYER_1
 10
18.0296
 20
184.3393
  0
SEQEND
  0
POLYLINE
  8
LAYER_1
 40
0.0847
 41
0.0847
 66
1
 10
0
 20
0
 30
0
  0
VERTEX
  8
LAYER_1
 10
17.5269
 20
185.477
  0
VERTEX
  8
LAYER_1
 10
17.8179
 20
184.9214
  0
SEQEND
  0
POLYLINE
  8
LAYER_1
 40
0.0847
 41
0.0847
 66
1
 10
0
 20
0
 30
0
  0
VERTEX
  8
LAYER_1
 10
17.1829
 20
186.0591
  0
VERTEX
  8
LAYER_1
 10
17.5269
 20
185.477
  0
SEQEND
  0
POLYLINE
  8
LAYER_1
 40
0.0847
 41
0.0847
 66
1
 10
0
 20
0
 30
0
  0
VERTEX
  8
LAYER_1
 10
16.8125
 20
186.6147
  0
VERTEX
  8
LAYER_1
 10
17.1829
 20
186.0591
  0
SEQEND
  0
POLYLINE
  8
LAYER_1
 40
0.0847
 41
0.0847
 66
1
 10
0
 20
0
 30
0
  0
VERTEX
  8
LAYER_1
 10
16.5744
 20
186.9587
  0
VERTEX
  8
LAYER_1
 10
16.8125
 20
186.6147
  0
SEQEND
  0
POLYLINE
  8
LAYER_1
 40
0.0847
 41
0.0847
 66
1
 10
0
 20
0
 30
0
  0
VERTEX
  8
LAYER_1
 10
192.7869
 20
183.7837
  0
VERTEX
  8
LAYER_1
 10
192.7604
 20
183.4397
  0
VERTEX
  8
LAYER_1
 10
192.7869
 20
183.1222
  0
VERTEX
  8
LAYER_1
 10
192.9191
 20
182.5401
  0
VERTEX
  8
LAYER_1
 10
193.1308
 20
181.9845
  0
VERTEX
  8
LAYER_1
 10
193.4218
 20
181.4024
  0
VERTEX
  8
LAYER_1
 10
193.7658
 20
180.8203
  0
VERTEX
  8
LAYER_1
 10
194.1362
 20
180.2647
  0
VERTEX
  8
LAYER_1
 10
194.586
 20
179.6032
  0
SEQEND
  0
POLYLINE
  8
LAYER_1
 40
0.0847
 41
0.0847
 66
1
 10
0
 20
0
 30
0
  0
VERTEX
  8
LAYER_1
 10
192.9191
 20
184.3393
  0
VERTEX
  8
LAYER_1
 10
192.7868
 20
183.7837
  0
SEQEND
  0
POLYLINE
  8
LAYER_1
 40
0.0847
 41
0.0847
 66
1
 10
0
 20
0
 30
0
  0
VERTEX
  8
LAYER_1
 10
193.1308
 20
184.9214
  0
VERTEX
  8
LAYER_1
 10
192.9191
 20
184.3393
  0
SEQEND
  0
POLYLINE
  8
LAYER_1
 40
0.0847
 41
0.0847
 66
1
 10
0
 20
0
 30
0
  0
VERTEX
  8
LAYER_1
 10
193.4219
 20
185.477
  0
VERTEX
  8
LAYER_1
 10
193.1308
 20
184.9214
  0
SEQEND
  0
POLYLINE
  8
LAYER_1
 40
0.0847
 41
0.0847
 66
1
 10
0
 20
0
 30
0
  0
VERTEX
  8
LAYER_1
 10
193.7658
 20
186.0591
  0
VERTEX
  8
LAYER_1
 10
193.4218
 20
185.477
  0
SEQEND
  0
POLYLINE
  8
LAYER_1
 40
0.0847
 41
0.0847
 66
1
 10
0
 20
0
 30
0
  0
VERTEX
  8
LAYER_1
 10
194.1362
 20
186.6147
  0
VERTEX
  8
LAYER_1
 10
193.7658
 20
186.0591
  0
SEQEND
  0
POLYLINE
  8
LAYER_1
 40
0.0847
 41
0.0847
 66
1
 10
0
 20
0
 30
0
  0
VERTEX
  8
LAYER_1
 10
113.5706
 20
183.572
  0
VERTEX
  8
LAYER_1
 10
116.9837
 20
186.9587
  0
SEQEND
  0
POLYLINE
  8
LAYER_1
 40
0.0847
 41
0.0847
 66
1
 10
0
 20
0
 30
0
  0
VERTEX
  8
LAYER_1
 10
17.1829
 20
186.0856
  0
VERTEX
  8
LAYER_1
 10
18.056
 20
186.9587
  0
SEQEND
  0
POLYLINE
  8
LAYER_1
 40
0.0847
 41
0.0847
 66
1
 10
0
 20
0
 30
0
  0
VERTEX
  8
LAYER_1
 10
18.1619
 20
183.5456
  0
VERTEX
  8
LAYER_1
 10
21.575
 20
186.9587
  0
SEQEND
  0
POLYLINE
  8
LAYER_1
 40
0.1693
 41
0.1693
 66
1
 10
0
 20
0
 30
0
  0
VERTEX
  8
LAYER_1
 10
99.3625
 20
182.0374
  0
VERTEX
  8
LAYER_1
 10
111.5862
 20
182.0374
  0
VERTEX
  8
LAYER_1
 10
111.5862
 20
182.6459
  0
SEQEND
  0
POLYLINE
  8
LAYER_1
 40
0.1693
 41
0.1693
 66
1
 10
0
 20
0
 30
0
  0
VERTEX
  8
LAYER_1
 10
99.3625
 20
182.6459
  0
VERTEX
  8
LAYER_1
 10
111.5862
 20
182.6459
  0
SEQEND
  0
POLYLINE
  8
LAYER_1
 40
0.1693
 41
0.1693
 66
1
 10
0
 20
0
 30
0
  0
VERTEX
  8
LAYER_1
 10
99.3625
 20
182.0374
  0
VERTEX
  8
LAYER_1
 10
99.3625
 20
182.6459
  0
SEQEND
  0
POLYLINE
  8
LAYER_1
 40
0.1693
 41
0.1693
 66
1
 10
0
 20
0
 30
0
  0
VERTEX
  8
LAYER_1
 10
100.7383
 20
180.5557
  0
VERTEX
  8
LAYER_1
 10
100.7383
 20
182.0374
  0
SEQEND
  0
POLYLINE
  8
LAYER_1
 40
0.1693
 41
0.1693
 66
1
 10
0
 20
0
 30
0
  0
VERTEX
  8
LAYER_1
 10
100.7383
 20
180.5557
  0
VERTEX
  8
LAYER_1
 10
110.2104
 20
180.5557
  0
VERTEX
  8
LAYER_1
 10
110.2104
 20
182.0374
  0
SEQEND
  0
POLYLINE
  8
LAYER_1
 40
0.1693
 41
0.1693
 66
1
 10
0
 20
0
 30
0
  0
VERTEX
  8
LAYER_1
 10
101.5585
 20
184.6568
  0
VERTEX
  8
LAYER_1
 10
98.9921
 20
183.1486
  0
SEQEND
  0
POLYLINE
  8
LAYER_1
 40
0.1693
 41
0.1693
 66
1
 10
0
 20
0
 30
0
  0
VERTEX
  8
LAYER_1
 10
98.9921
 20
182.7782
  0
VERTEX
  8
LAYER_1
 10
98.9921
 20
183.1486
  0
SEQEND
  0
POLYLINE
  8
LAYER_1
 40
0.1693
 41
0.1693
 66
1
 10
0
 20
0
 30
0
  0
VERTEX
  8
LAYER_1
 10
98.9921
 20
182.7782
  0
VERTEX
  8
LAYER_1
 10
111.9566
 20
182.7782
  0
VERTEX
  8
LAYER_1
 10
111.9566
 20
183.1486
  0
SEQEND
  0
POLYLINE
  8
LAYER_1
 40
0.1693
 41
0.1693
 66
1
 10
0
 20
0
 30
0
  0
VERTEX
  8
LAYER_1
 10
109.3902
 20
184.6568
  0
VERTEX
  8
LAYER_1
 10
111.9566
 20
183.1486
  0
SEQEND
  0
POLYLINE
  8
LAYER_1
 40
0.1693
 41
0.1693
 66
1
 10
0
 20
0
 30
0
  0
VERTEX
  8
LAYER_1
 10
101.5585
 20
184.6568
  0
VERTEX
  8
LAYER_1
 10
109.3902
 20
184.6568
  0
SEQEND
  0
POLYLINE
  8
LAYER_1
 40
0.0847
 41
0.0847
 66
1
 10
0
 20
0
 30
0
  0
VERTEX
  8
LAYER_1
 10
98.9921
 20
183.1486
  0
VERTEX
  8
LAYER_1
 10
111.9567
 20
183.1486
  0
SEQEND
  0
POLYLINE
  8
LAYER_1
 40
0.1693
 41
0.1693
 66
1
 10
0
 20
0
 30
0
  0
VERTEX
  8
LAYER_1
 10
99.2302
 20
182.6459
  0
VERTEX
  8
LAYER_1
 10
99.2302
 20
182.7782
  0
SEQEND
  0
POLYLINE
  8
LAYER_1
 40
0.1693
 41
0.1693
 66
1
 10
0
 20
0
 30
0
  0
VERTEX
  8
LAYER_1
 10
99.2302
 20
182.6459
  0
VERTEX
  8
LAYER_1
 10
111.7185
 20
182.6459
  0
VERTEX
  8
LAYER_1
 10
111.7185
 20
182.7782
  0
SEQEND
  0
POLYLINE
  8
LAYER_1
 40
0.1693
 41
0.1693
 66
1
 10
0
 20
0
 30
0
  0
VERTEX
  8
LAYER_1
 10
99.2302
 20
182.7782
  0
VERTEX
  8
LAYER_1
 10
111.7185
 20
182.7782
  0
SEQEND
  0
POLYLINE
  8
LAYER_1
 40
0.0847
 41
0.0847
 66
1
 10
0
 20
0
 30
0
  0
VERTEX
  8
LAYER_1
 10
105.4744
 20
180.5557
  0
VERTEX
  8
LAYER_1
 10
105.4744
 20
182.0374
  0
SEQEND
  0
POLYLINE
  8
LAYER_1
 40
0.0847
 41
0.0847
 66
1
 10
0
 20
0
 30
0
  0
VERTEX
  8
LAYER_1
 10
101.6908
 20
187.2761
  0
VERTEX
  8
LAYER_1
 10
102.2994
 20
187.2761
  0
SEQEND
  0
POLYLINE
  8
LAYER_1
 40
0.0847
 41
0.0847
 66
1
 10
0
 20
0
 30
0
  0
VERTEX
  8
LAYER_1
 10
103.5694
 20
187.2761
  0
VERTEX
  8
LAYER_1
 10
104.8394
 20
187.2761
  0
SEQEND
  0
POLYLINE
  8
LAYER_1
 40
0.0847
 41
0.0847
 66
1
 10
0
 20
0
 30
0
  0
VERTEX
  8
LAYER_1
 10
106.0829
 20
187.2761
  0
VERTEX
  8
LAYER_1
 10
107.3529
 20
187.2761
  0
SEQEND
  0
POLYLINE
  8
LAYER_1
 40
0.0847
 41
0.0847
 66
1
 10
0
 20
0
 30
0
  0
VERTEX
  8
LAYER_1
 10
108.6229
 20
187.2761
  0
VERTEX
  8
LAYER_1
 10
109.2579
 20
187.2761
  0
SEQEND
  0
POLYLINE
  8
LAYER_1
 40
0.0847
 41
0.0847
 66
1
 10
0
 20
0
 30
0
  0
VERTEX
  8
LAYER_1
 10
101.5056
 20
187.4613
  0
VERTEX
  8
LAYER_1
 10
102.1671
 20
187.4613
  0
SEQEND
  0
POLYLINE
  8
LAYER_1
 40
0.0847
 41
0.0847
 66
1
 10
0
 20
0
 30
0
  0
VERTEX
  8
LAYER_1
 10
103.49
 20
187.4613
  0
VERTEX
  8
LAYER_1
 10
104.8129
 20
187.4613
  0
SEQEND
  0
POLYLINE
  8
LAYER_1
 40
0.0847
 41
0.0847
 66
1
 10
0
 20
0
 30
0
  0
VERTEX
  8
LAYER_1
 10
106.1358
 20
187.4613
  0
VERTEX
  8
LAYER_1
 10
107.4588
 20
187.4613
  0
SEQEND
  0
POLYLINE
  8
LAYER_1
 40
0.0847
 41
0.0847
 66
1
 10
0
 20
0
 30
0
  0
VERTEX
  8
LAYER_1
 10
108.7817
 20
187.4613
  0
VERTEX
  8
LAYER_1
 10
109.4431
 20
187.4613
  0
SEQEND
  0
POLYLINE
  8
LAYER_1
 40
0.1693
 41
0.1693
 66
1
 10
0
 20
0
 30
0
  0
VERTEX
  8
LAYER_1
 10
101.6908
 20
187.2761
  0
VERTEX
  8
LAYER_1
 10
101.5056
 20
187.4613
  0
SEQEND
  0
POLYLINE
  8
LAYER_1
 40
0.1693
 41
0.1693
 66
1
 10
0
 20
0
 30
0
  0
VERTEX
  8
LAYER_1
 10
109.2579
 20
187.2761
  0
VERTEX
  8
LAYER_1
 10
109.4431
 20
187.4613
  0
SEQEND
  0
POLYLINE
  8
LAYER_1
 40
0.1693
 41
0.1693
 66
1
 10
0
 20
0
 30
0
  0
VERTEX
  8
LAYER_1
 10
98.9127
 20
191.7211
 42
0.390056353
  0
VERTEX
  8
LAYER_1
 10
98.7804
 20
191.6153
  0
SEQEND
  0
POLYLINE
  8
LAYER_1
 40
0.1693
 41
0.1693
 66
1
 10
0
 20
0
 30
0
  0
VERTEX
  8
LAYER_1
 10
98.7804
 20
191.5624
  0
VERTEX
  8
LAYER_1
 10
98.7804
 20
191.5359
 42
0.2987960569
  0
VERTEX
  8
LAYER_1
 10
98.8598
 20
191.4301
  0
SEQEND
  0
POLYLINE
  8
LAYER_1
 40
0.1693
 41
0.1693
 66
1
 10
0
 20
0
 30
0
  0
VERTEX
  8
LAYER_1
 10
98.7804
 20
191.5359
  0
VERTEX
  8
LAYER_1
 10
98.7804
 20
191.5889
  0
SEQEND
  0
POLYLINE
  8
LAYER_1
 40
0.1693
 41
0.1693
 66
1
 10
0
 20
0
 30
0
  0
VERTEX
  8
LAYER_1
 10
98.8862
 20
191.4037
  0
VERTEX
  8
LAYER_1
 10
100.1033
 20
190.9803
  0
SEQEND
  0
POLYLINE
  8
LAYER_1
 40
0.1693
 41
0.1693
 66
1
 10
0
 20
0
 30
0
  0
VERTEX
  8
LAYER_1
 10
100.8706
 20
190.0807
 42
0.2767774771
  0
VERTEX
  8
LAYER_1
 10
100.0504
 20
191.0068
  0
SEQEND
  0
POLYLINE
  8
LAYER_1
 40
0.1693
 41
0.1693
 66
1
 10
0
 20
0
 30
0
  0
VERTEX
  8
LAYER_1
 10
98.9392
 20
191.6947
  0
VERTEX
  8
LAYER_1
 10
112.0096
 20
191.6947
  0
SEQEND
  0
POLYLINE
  8
LAYER_1
 40
0.1693
 41
0.1693
 66
1
 10
0
 20
0
 30
0
  0
VERTEX
  8
LAYER_1
 10
112.1419
 20
191.6153
 42
0.4413484084
  0
VERTEX
  8
LAYER_1
 10
112.036
 20
191.7211
  0
VERTEX
  8
LAYER_1
 10
111.9831
 20
191.7211
  0
SEQEND
  0
POLYLINE
  8
LAYER_1
 40
0.1693
 41
0.1693
 66
1
 10
0
 20
0
 30
0
  0
VERTEX
  8
LAYER_1
 10
112.036
 20
191.4301
 42
0.390056353
  0
VERTEX
  8
LAYER_1
 10
112.1683
 20
191.5359
 42
0.5046189213
  0
VERTEX
  8
LAYER_1
 10
112.1419
 20
191.5624
  0
SEQEND
  0
POLYLINE
  8
LAYER_1
 40
0.1693
 41
0.1693
 66
1
 10
0
 20
0
 30
0
  0
VERTEX
  8
LAYER_1
 10
112.1683
 20
191.5359
  0
VERTEX
  8
LAYER_1
 10
112.1683
 20
191.5889
  0
SEQEND
  0
POLYLINE
  8
LAYER_1
 40
0.1693
 41
0.1693
 66
1
 10
0
 20
0
 30
0
  0
VERTEX
  8
LAYER_1
 10
112.0625
 20
191.4037
  0
VERTEX
  8
LAYER_1
 10
110.8454
 20
190.9803
  0
SEQEND
  0
POLYLINE
  8
LAYER_1
 40
0.1693
 41
0.1693
 66
1
 10
0
 20
0
 30
0
  0
VERTEX
  8
LAYER_1
 10
110.8454
 20
191.0068
 42
0.2568623128
  0
VERTEX
  8
LAYER_1
 10
110.0517
 20
190.0807
  0
SEQEND
  0
POLYLINE
  8
LAYER_1
 40
0.1693
 41
0.1693
 66
1
 10
0
 20
0
 30
0
  0
VERTEX
  8
LAYER_1
 10
101.5056
 20
187.4614
  0
VERTEX
  8
LAYER_1
 10
100.9235
 20
190.0807
  0
SEQEND
  0
POLYLINE
  8
LAYER_1
 40
0.1693
 41
0.1693
 66
1
 10
0
 20
0
 30
0
  0
VERTEX
  8
LAYER_1
 10
109.4431
 20
187.4614
  0
VERTEX
  8
LAYER_1
 10
110.0252
 20
190.0807
  0
SEQEND
  0
POLYLINE
  8
LAYER_1
 40
0.0847
 41
0.0847
 66
1
 10
0
 20
0
 30
0
  0
VERTEX
  8
LAYER_1
 10
100.1033
 20
190.9803
  0
VERTEX
  8
LAYER_1
 10
110.8454
 20
190.9803
  0
SEQEND
  0
POLYLINE
  8
LAYER_1
 40
0.0847
 41
0.0847
 66
1
 10
0
 20
0
 30
0
  0
VERTEX
  8
LAYER_1
 10
98.8862
 20
191.4037
  0
VERTEX
  8
LAYER_1
 10
112.0625
 20
191.4037
  0
SEQEND
  0
POLYLINE
  8
LAYER_1
 40
0.1693
 41
0.1693
 66
1
 10
0
 20
0
 30
0
  0
VERTEX
  8
LAYER_1
 10
101.8231
 20
180.3441
  0
VERTEX
  8
LAYER_1
 10
101.5056
 20
180.0795
  0
VERTEX
  8
LAYER_1
 10
101.8231
 20
179.8414
  0
VERTEX
  8
LAYER_1
 10
101.5056
 20
179.5768
  0
SEQEND
  0
POLYLINE
  8
LAYER_1
 40
0.1693
 41
0.1693
 66
1
 10
0
 20
0
 30
0
  0
VERTEX
  8
LAYER_1
 10
101.5056
 20
176.587
  0
VERTEX
  8
LAYER_1
 10
101.8231
 20
176.3488
  0
VERTEX
  8
LAYER_1
 10
101.5056
 20
176.0843
  0
VERTEX
  8
LAYER_1
 10
101.8231
 20
175.8461
  0
VERTEX
  8
LAYER_1
 10
101.5056
 20
175.5815
  0
VERTEX
  8
LAYER_1
 10
101.8231
 20
175.3434
  0
VERTEX
  8
LAYER_1
 10
101.5056
 20
175.0788
  0
VERTEX
  8
LAYER_1
 10
101.8231
 20
174.8407
  0
VERTEX
  8
LAYER_1
 10
101.5056
 20
174.5761
  0
VERTEX
  8
LAYER_1
 10
101.8231
 20
174.338
  0
VERTEX
  8
LAYER_1
 10
101.5056
 20
174.0734
  0
VERTEX
  8
LAYER_1
 10
101.8231
 20
173.8353
  0
VERTEX
  8
LAYER_1
 10
101.5056
 20
173.5972
  0
VERTEX
  8
LAYER_1
 10
101.8231
 20
173.3326
  0
SEQEND
  0
POLYLINE
  8
LAYER_1
 40
0.1693
 41
0.1693
 66
1
 10
0
 20
0
 30
0
  0
VERTEX
  8
LAYER_1
 10
101.5056
 20
169.5755
  0
VERTEX
  8
LAYER_1
 10
101.8231
 20
169.3374
  0
VERTEX
  8
LAYER_1
 10
101.5056
 20
169.0993
  0
VERTEX
  8
LAYER_1
 10
101.8231
 20
168.8347
  0
VERTEX
  8
LAYER_1
 10
101.5056
 20
168.5965
  0
VERTEX
  8
LAYER_1
 10
101.8231
 20
168.332
  0
VERTEX
  8
LAYER_1
 10
101.5056
 20
168.0938
  0
VERTEX
  8
LAYER_1
 10
101.8231
 20
167.8557
  0
VERTEX
  8
LAYER_1
 10
101.5056
 20
167.5911
  0
VERTEX
  8
LAYER_1
 10
101.8231
 20
167.353
  0
SEQEND
  0
POLYLINE
  8
LAYER_1
 40
0.1693
 41
0.1693
 66
1
 10
0
 20
0
 30
0
  0
VERTEX
  8
LAYER_1
 10
109.1256
 20
180.5293
  0
VERTEX
  8
LAYER_1
 10
109.4431
 20
180.2911
  0
VERTEX
  8
LAYER_1
 10
109.1256
 20
180.0266
  0
VERTEX
  8
LAYER_1
 10
109.4431
 20
179.7884
  0
VERTEX
  8
LAYER_1
 10
109.1256
 20
179.5238
  0
SEQEND
  0
POLYLINE
  8
LAYER_1
 40
0.1693
 41
0.1693
 66
1
 10
0
 20
0
 30
0
  0
VERTEX
  8
LAYER_1
 10
109.1256
 20
176.5341
  0
VERTEX
  8
LAYER_1
 10
109.4431
 20
176.2959
  0
VERTEX
  8
LAYER_1
 10
109.1256
 20
176.0313
  0
VERTEX
  8
LAYER_1
 10
109.4431
 20
175.7932
  0
VERTEX
  8
LAYER_1
 10
109.1256
 20
175.5286
  0
VERTEX
  8
LAYER_1
 10
109.4431
 20
175.2905
  0
VERTEX
  8
LAYER_1
 10
109.1256
 20
175.0259
  0
VERTEX
  8
LAYER_1
 10
109.4431
 20
174.7878
  0
VERTEX
  8
LAYER_1
 10
109.1256
 20
174.5232
  0
VERTEX
  8
LAYER_1
 10
109.4431
 20
174.2851
  0
VERTEX
  8
LAYER_1
 10
109.1256
 20
174.047
  0
VERTEX
  8
LAYER_1
 10
109.4431
 20
173.7824
  0
VERTEX
  8
LAYER_1
 10
109.1256
 20
173.5443
  0
VERTEX
  8
LAYER_1
 10
109.4431
 20
173.3061
  0
SEQEND
  0
POLYLINE
  8
LAYER_1
 40
0.1693
 41
0.1693
 66
1
 10
0
 20
0
 30
0
  0
VERTEX
  8
LAYER_1
 10
109.1256
 20
169.5491
  0
VERTEX
  8
LAYER_1
 10
109.4431
 20
169.2845
  0
VERTEX
  8
LAYER_1
 10
109.1256
 20
169.0463
  0
VERTEX
  8
LAYER_1
 10
109.4431
 20
168.7817
  0
VERTEX
  8
LAYER_1
 10
109.1256
 20
168.5436
  0
VERTEX
  8
LAYER_1
 10
109.4431
 20
168.3055
  0
VERTEX
  8
LAYER_1
 10
109.1256
 20
168.0409
  0
VERTEX
  8
LAYER_1
 10
109.4431
 20
167.8028
  0
VERTEX
  8
LAYER_1
 10
109.1256
 20
167.5382
  0
VERTEX
  8
LAYER_1
 10
109.4431
 20
167.3001
  0
SEQEND
  0
POLYLINE
  8
LAYER_1
 40
0.1693
 41
0.1693
 66
1
 10
0
 20
0
 30
0
  0
VERTEX
  8
LAYER_1
 10
109.0992
 20
167.009
  0
VERTEX
  8
LAYER_1
 10
108.9669
 20
166.718
  0
SEQEND
  0
POLYLINE
  8
LAYER_1
 40
0.1693
 41
0.1693
 66
1
 10
0
 20
0
 30
0
  0
VERTEX
  8
LAYER_1
 10
109.4431
 20
167.3001
  0
VERTEX
  8
LAYER_1
 10
109.0992
 20
167.009
  0
SEQEND
  0
POLYLINE
  8
LAYER_1
 40
0.1693
 41
0.1693
 66
1
 10
0
 20
0
 30
0
  0
VERTEX
  8
LAYER_1
 10
101.8231
 20
167.353
  0
VERTEX
  8
LAYER_1
 10
101.5056
 20
167.0884
  0
VERTEX
  8
LAYER_1
 10
109.1785
 20
167.0884
  0
SEQEND
  0
POLYLINE
  8
LAYER_1
 40
0.1693
 41
0.1693
 66
1
 10
0
 20
0
 30
0
  0
VERTEX
  8
LAYER_1
 10
101.8231
 20
167.0884
  0
VERTEX
  8
LAYER_1
 10
101.9819
 20
166.718
  0
VERTEX
  8
LAYER_1
 10
108.9669
 20
166.718
  0
SEQEND
  0
POLYLINE
  8
LAYER_1
 40
0.1693
 41
0.1693
 66
1
 10
0
 20
0
 30
0
  0
VERTEX
  8
LAYER_1
 10
101.8231
 20
169.8401
  0
VERTEX
  8
LAYER_1
 10
101.5056
 20
169.5755
  0
SEQEND
  0
POLYLINE
  8
LAYER_1
 40
0.1693
 41
0.1693
 66
1
 10
0
 20
0
 30
0
  0
VERTEX
  8
LAYER_1
 10
109.4431
 20
169.7872
  0
VERTEX
  8
LAYER_1
 10
109.1256
 20
169.549
  0
SEQEND
  0
POLYLINE
  8
LAYER_1
 40
0.1693
 41
0.1693
 66
1
 10
0
 20
0
 30
0
  0
VERTEX
  8
LAYER_1
 10
98.7275
 20
193.4409
  0
VERTEX
  8
LAYER_1
 10
112.2212
 20
193.4409
  0
SEQEND
  0
POLYLINE
  8
LAYER_1
 40
0.1693
 41
0.1693
 66
1
 10
0
 20
0
 30
0
  0
VERTEX
  8
LAYER_1
 10
98.7275
 20
193.9436
  0
VERTEX
  8
LAYER_1
 10
112.2212
 20
193.9436
  0
SEQEND
  0
POLYLINE
  8
LAYER_1
 40
0.1693
 41
0.1693
 66
1
 10
0
 20
0
 30
0
  0
VERTEX
  8
LAYER_1
 10
98.7275
 20
193.4409
  0
VERTEX
  8
LAYER_1
 10
98.7275
 20
194.023
  0
SEQEND
  0
POLYLINE
  8
LAYER_1
 40
0.1693
 41
0.1693
 66
1
 10
0
 20
0
 30
0
  0
VERTEX
  8
LAYER_1
 10
98.9127
 20
194.2611
 42
0.3749681872
  0
VERTEX
  8
LAYER_1
 10
98.754
 20
194.0494
  0
SEQEND
  0
POLYLINE
  8
LAYER_1
 40
0.1693
 41
0.1693
 66
1
 10
0
 20
0
 30
0
  0
VERTEX
  8
LAYER_1
 10
112.2213
 20
193.4409
  0
VERTEX
  8
LAYER_1
 10
112.2213
 20
194.023
  0
SEQEND
  0
POLYLINE
  8
LAYER_1
 40
0.1693
 41
0.1693
 66
1
 10
0
 20
0
 30
0
  0
VERTEX
  8
LAYER_1
 10
112.0096
 20
194.2611
 42
0.06274937182
  0
VERTEX
  8
LAYER_1
 10
107.1911
 20
195.2504
 42
0.020133
  0
VERTEX
  8
LAYER_1
 10
105.4744
 20
195.3194
 42
0.06028214968
  0
VERTEX
  8
LAYER_1
 10
100.4416
 20
194.7153
 42
0.0206475449
  0
VERTEX
  8
LAYER_1
 10
98.8862
 20
194.2611
  0
SEQEND
  0
POLYLINE
  8
LAYER_1
 40
0.1693
 41
0.1693
 66
1
 10
0
 20
0
 30
0
  0
VERTEX
  8
LAYER_1
 10
112.1948
 20
194.0495
 42
0.3287374942
  0
VERTEX
  8
LAYER_1
 10
111.9831
 20
194.2611
  0
SEQEND
  0
POLYLINE
  8
LAYER_1
 40
0.0847
 41
0.0847
 66
1
 10
0
 20
0
 30
0
  0
VERTEX
  8
LAYER_1
 10
98.8069
 20
194.2082
  0
VERTEX
  8
LAYER_1
 10
112.1419
 20
194.2082
  0
SEQEND
  0
POLYLINE
  8
LAYER_1
 40
0.1693
 41
0.1693
 66
1
 10
0
 20
0
 30
0
  0
VERTEX
  8
LAYER_1
 10
101.241
 20
191.6947
  0
VERTEX
  8
LAYER_1
 10
101.241
 20
193.4409
  0
SEQEND
  0
POLYLINE
  8
LAYER_1
 40
0.1693
 41
0.1693
 66
1
 10
0
 20
0
 30
0
  0
VERTEX
  8
LAYER_1
 10
104.125
 20
191.6947
  0
VERTEX
  8
LAYER_1
 10
104.125
 20
193.4409
  0
SEQEND
  0
POLYLINE
  8
LAYER_1
 40
0.1693
 41
0.1693
 66
1
 10
0
 20
0
 30
0
  0
VERTEX
  8
LAYER_1
 10
106.8237
 20
191.6947
  0
VERTEX
  8
LAYER_1
 10
106.8237
 20
193.4409
  0
SEQEND
  0
POLYLINE
  8
LAYER_1
 40
0.1693
 41
0.1693
 66
1
 10
0
 20
0
 30
0
  0
VERTEX
  8
LAYER_1
 10
109.7077
 20
191.6947
  0
VERTEX
  8
LAYER_1
 10
109.7077
 20
193.4409
  0
SEQEND
  0
POLYLINE
  8
LAYER_1
 40
0.1693
 41
0.1693
 66
1
 10
0
 20
0
 30
0
  0
VERTEX
  8
LAYER_1
 10
99.2302
 20
191.4037
  0
VERTEX
  8
LAYER_1
 10
111.7185
 20
191.4037
  0
SEQEND
  0
POLYLINE
  8
LAYER_1
 40
0.1693
 41
0.1693
 66
1
 10
0
 20
0
 30
0
  0
VERTEX
  8
LAYER_1
 10
99.2302
 20
191.1655
  0
VERTEX
  8
LAYER_1
 10
99.2302
 20
191.4037
  0
SEQEND
  0
POLYLINE
  8
LAYER_1
 40
0.1693
 41
0.1693
 66
1
 10
0
 20
0
 30
0
  0
VERTEX
  8
LAYER_1
 10
99.2302
 20
191.1655
  0
VERTEX
  8
LAYER_1
 10
111.7185
 20
191.1655
  0
VERTEX
  8
LAYER_1
 10
111.7185
 20
191.4037
  0
SEQEND
  0
POLYLINE
  8
LAYER_1
 40
0.0847
 41
0.0847
 66
1
 10
0
 20
0
 30
0
  0
VERTEX
  8
LAYER_1
 10
99.4419
 20
191.4036
  0
VERTEX
  8
LAYER_1
 10
99.68
 20
191.1655
  0
SEQEND
  0
POLYLINE
  8
LAYER_1
 40
0.0847
 41
0.0847
 66
1
 10
0
 20
0
 30
0
  0
VERTEX
  8
LAYER_1
 10
100.5002
 20
191.4036
  0
VERTEX
  8
LAYER_1
 10
100.7383
 20
191.1655
  0
SEQEND
  0
POLYLINE
  8
LAYER_1
 40
0.0847
 41
0.0847
 66
1
 10
0
 20
0
 30
0
  0
VERTEX
  8
LAYER_1
 10
101.5585
 20
191.4036
  0
VERTEX
  8
LAYER_1
 10
101.7966
 20
191.1655
  0
SEQEND
  0
POLYLINE
  8
LAYER_1
 40
0.0847
 41
0.0847
 66
1
 10
0
 20
0
 30
0
  0
VERTEX
  8
LAYER_1
 10
102.6169
 20
191.4036
  0
VERTEX
  8
LAYER_1
 10
102.855
 20
191.1655
  0
SEQEND
  0
POLYLINE
  8
LAYER_1
 40
0.0847
 41
0.0847
 66
1
 10
0
 20
0
 30
0
  0
VERTEX
  8
LAYER_1
 10
103.6752
 20
191.4036
  0
VERTEX
  8
LAYER_1
 10
103.9133
 20
191.1655
  0
SEQEND
  0
POLYLINE
  8
LAYER_1
 40
0.0847
 41
0.0847
 66
1
 10
0
 20
0
 30
0
  0
VERTEX
  8
LAYER_1
 10
104.7335
 20
191.4036
  0
VERTEX
  8
LAYER_1
 10
104.9716
 20
191.1655
  0
SEQEND
  0
POLYLINE
  8
LAYER_1
 40
0.0847
 41
0.0847
 66
1
 10
0
 20
0
 30
0
  0
VERTEX
  8
LAYER_1
 10
105.7654
 20
191.4036
  0
VERTEX
  8
LAYER_1
 10
106.0035
 20
191.1655
  0
SEQEND
  0
POLYLINE
  8
LAYER_1
 40
0.0847
 41
0.0847
 66
1
 10
0
 20
0
 30
0
  0
VERTEX
  8
LAYER_1
 10
106.8237
 20
191.4036
  0
VERTEX
  8
LAYER_1
 10
107.0883
 20
191.1655
  0
SEQEND
  0
POLYLINE
  8
LAYER_1
 40
0.0847
 41
0.0847
 66
1
 10
0
 20
0
 30
0
  0
VERTEX
  8
LAYER_1
 10
107.8821
 20
191.4036
  0
VERTEX
  8
LAYER_1
 10
108.1466
 20
191.1655
  0
SEQEND
  0
POLYLINE
  8
LAYER_1
 40
0.0847
 41
0.0847
 66
1
 10
0
 20
0
 30
0
  0
VERTEX
  8
LAYER_1
 10
108.9404
 20
191.4036
  0
VERTEX
  8
LAYER_1
 10
109.205
 20
191.1655
  0
SEQEND
  0
POLYLINE
  8
LAYER_1
 40
0.0847
 41
0.0847
 66
1
 10
0
 20
0
 30
0
  0
VERTEX
  8
LAYER_1
 10
109.9987
 20
191.4036
  0
VERTEX
  8
LAYER_1
 10
110.2633
 20
191.1655
  0
SEQEND
  0
POLYLINE
  8
LAYER_1
 40
0.0847
 41
0.0847
 66
1
 10
0
 20
0
 30
0
  0
VERTEX
  8
LAYER_1
 10
111.057
 20
191.4036
  0
VERTEX
  8
LAYER_1
 10
111.3216
 20
191.1655
  0
SEQEND
  0
POLYLINE
  8
LAYER_1
 40
0.1693
 41
0.1693
 66
1
 10
0
 20
0
 30
0
  0
VERTEX
  8
LAYER_1
 10
101.8231
 20
170.3428
  0
VERTEX
  8
LAYER_1
 10
101.5056
 20
170.0782
  0
VERTEX
  8
LAYER_1
 10
101.8231
 20
169.8401
  0
SEQEND
  0
POLYLINE
  8
LAYER_1
 40
0.1693
 41
0.1693
 66
1
 10
0
 20
0
 30
0
  0
VERTEX
  8
LAYER_1
 10
109.4431
 20
170.2899
  0
VERTEX
  8
LAYER_1
 10
109.1256
 20
170.0253
  0
VERTEX
  8
LAYER_1
 10
109.4431
 20
169.7872
  0
SEQEND
  0
POLYLINE
  8
LAYER_1
 40
0.1693
 41
0.1693
 66
1
 10
0
 20
0
 30
0
  0
VERTEX
  8
LAYER_1
 10
101.5585
 20
180.5557
  0
VERTEX
  8
LAYER_1
 10
101.8231
 20
180.344
  0
SEQEND
  0
POLYLINE
  8
LAYER_1
 40
0.1693
 41
0.1693
 66
1
 10
0
 20
0
 30
0
  0
VERTEX
  8
LAYER_1
 10
109.1521
 20
180.5557
  0
VERTEX
  8
LAYER_1
 10
109.1256
 20
180.5292
  0
SEQEND
  0
POLYLINE
  8
LAYER_1
 40
0.1693
 41
0.1693
 66
1
 10
0
 20
0
 30
0
  0
VERTEX
  8
LAYER_1
 10
101.5056
 20
170.5809
  0
VERTEX
  8
LAYER_1
 10
101.8231
 20
170.3428
  0
SEQEND
  0
POLYLINE
  8
LAYER_1
 40
0.1693
 41
0.1693
 66
1
 10
0
 20
0
 30
0
  0
VERTEX
  8
LAYER_1
 10
109.1256
 20
170.528
  0
VERTEX
  8
LAYER_1
 10
109.4431
 20
170.2899
  0
SEQEND
  0
POLYLINE
  8
LAYER_1
 40
0.1693
 41
0.1693
 66
1
 10
0
 20
0
 30
0
  0
VERTEX
  8
LAYER_1
 10
101.8231
 20
173.3326
  0
VERTEX
  8
LAYER_1
 10
101.5056
 20
173.0945
  0
SEQEND
  0
POLYLINE
  8
LAYER_1
 40
0.1693
 41
0.1693
 66
1
 10
0
 20
0
 30
0
  0
VERTEX
  8
LAYER_1
 10
109.4431
 20
173.3061
  0
VERTEX
  8
LAYER_1
 10
109.1256
 20
173.0415
  0
SEQEND
  0
POLYLINE
  8
LAYER_1
 40
0.0847
 41
0.0847
 66
1
 10
0
 20
0
 30
0
  0
VERTEX
  8
LAYER_1
 10
106.5062
 20
155.0763
  0
VERTEX
  8
LAYER_1
 10
148.0987
 20
139.9157
  0
SEQEND
  0
TEXT
  8
LAYER_1
 10
136.3251
 20
230.2184
 11
136.3251
 21
230.2184
 40
3.2224
 41
0.5
  1
ë╗Å¤âLâââbâvâëâEâôâh
  0
TEXT
  8
LAYER_1
 10
151.6709
 20
145.1018
 11
151.6709
 21
145.1018
 40
3.2224
 41
0.5
  1
âXâèâbâvâpâbâLâô
  0
TEXT
  8
LAYER_1
 10
163.5241
 20
150.5258
 11
163.5241
 21
150.5258
 40
3.2224
 41
0.5
  1
ÄOèpâpâbâLâô
  0
POLYLINE
  8
LAYER_1
 40
0.0847
 41
0.0847
 66
1
 10
0
 20
0
 30
0
  0
VERTEX
  8
LAYER_1
 10
110.0252
 20
183.8895
  0
VERTEX
  8
LAYER_1
 10
162.9154
 20
152.0072
  0
SEQEND
  0
POLYLINE
  8
LAYER_1
 40
0.0847
 41
0.0847
 66
1
 10
0
 20
0
 30
0
  0
VERTEX
  8
LAYER_1
 10
108.6229
 20
182.8311
  0
VERTEX
  8
LAYER_1
 10
150.9827
 20
146.4245
  0
SEQEND
  0
POLYLINE
  8
LAYER_1
 40
0.0847
 41
0.0847
 66
1
 10
0
 20
0
 30
0
  0
VERTEX
  8
LAYER_1
 10
106.5062
 20
194.5786
  0
VERTEX
  8
LAYER_1
 10
136.3248
 20
230.0063
  0
SEQEND
  0
TEXT
  8
LAYER_1
 10
158.9201
 20
194.0497
 11
158.9201
 21
194.0497
 40
3.2224
 41
0.5
  1
örÉàû┌ÄM
  0
TEXT
  8
LAYER_1
 10
158.3909
 20
202.278
 11
158.3909
 21
202.278
 40
3.2224
 41
0.5
  1
âXâ|âôâWâpâbâLâô
  0
POLYLINE
  8
LAYER_1
 40
0.0847
 41
0.0847
 66
1
 10
0
 20
0
 30
0
  0
VERTEX
  8
LAYER_1
 10
110.7131
 20
191.2449
  0
VERTEX
  8
LAYER_1
 10
158.391
 20
203.3893
  0
SEQEND
  0
POLYLINE
  8
LAYER_1
 40
0.0847
 41
0.0847
 66
1
 10
0
 20
0
 30
0
  0
VERTEX
  8
LAYER_1
 10
109.0727
 20
190.3189
  0
VERTEX
  8
LAYER_1
 10
158.4175
 20
194.5522
  0
SEQEND
  0
POLYLINE
  8
LAYER_1
 40
0.0847
 41
0.0847
 66
1
 10
0
 20
0
 30
0
  0
VERTEX
  8
LAYER_1
 10
102.3523
 20
153.7535
  0
VERTEX
  8
LAYER_1
 10
102.3523
 20
154.8118
  0
SEQEND
  0
POLYLINE
  8
LAYER_1
 40
0.0847
 41
0.0847
 66
1
 10
0
 20
0
 30
0
  0
VERTEX
  8
LAYER_1
 10
102.3523
 20
156.9814
  0
VERTEX
  8
LAYER_1
 10
102.3523
 20
159.1509
  0
SEQEND
  0
POLYLINE
  8
LAYER_1
 40
0.0847
 41
0.0847
 66
1
 10
0
 20
0
 30
0
  0
VERTEX
  8
LAYER_1
 10
102.3523
 20
161.2941
  0
VERTEX
  8
LAYER_1
 10
102.3523
 20
163.4637
  0
SEQEND
  0
POLYLINE
  8
LAYER_1
 40
0.0847
 41
0.0847
 66
1
 10
0
 20
0
 30
0
  0
VERTEX
  8
LAYER_1
 10
102.3523
 20
165.6333
  0
VERTEX
  8
LAYER_1
 10
102.3523
 20
166.718
  0
SEQEND
  0
POLYLINE
  8
LAYER_1
 40
0.0847
 41
0.0847
 66
1
 10
0
 20
0
 30
0
  0
VERTEX
  8
LAYER_1
 10
108.5965
 20
152.2454
  0
VERTEX
  8
LAYER_1
 10
108.5965
 20
153.436
  0
SEQEND
  0
POLYLINE
  8
LAYER_1
 40
0.0847
 41
0.0847
 66
1
 10
0
 20
0
 30
0
  0
VERTEX
  8
LAYER_1
 10
108.5965
 20
155.8437
  0
VERTEX
  8
LAYER_1
 10
108.5965
 20
158.2514
  0
SEQEND
  0
POLYLINE
  8
LAYER_1
 40
0.0847
 41
0.0847
 66
1
 10
0
 20
0
 30
0
  0
VERTEX
  8
LAYER_1
 10
108.5965
 20
160.6855
  0
VERTEX
  8
LAYER_1
 10
108.5965
 20
163.0932
  0
SEQEND
  0
POLYLINE
  8
LAYER_1
 40
0.0847
 41
0.0847
 66
1
 10
0
 20
0
 30
0
  0
VERTEX
  8
LAYER_1
 10
108.5965
 20
165.501
  0
VERTEX
  8
LAYER_1
 10
108.5965
 20
166.718
  0
SEQEND
  0
POLYLINE
  8
LAYER_1
 40
0.0847
 41
0.0847
 66
1
 10
0
 20
0
 30
0
  0
VERTEX
  8
LAYER_1
 10
17.6327
 20
179.471
  0
VERTEX
  8
LAYER_1
 10
25.1204
 20
186.9587
  0
SEQEND
  0
POLYLINE
  8
LAYER_1
 40
0.0847
 41
0.0847
 66
1
 10
0
 20
0
 30
0
  0
VERTEX
  8
LAYER_1
 10
95.3673
 20
179.471
  0
VERTEX
  8
LAYER_1
 10
97.3781
 20
181.4553
  0
SEQEND
  0
POLYLINE
  8
LAYER_1
 40
0.0847
 41
0.0847
 66
1
 10
0
 20
0
 30
0
  0
VERTEX
  8
LAYER_1
 10
21.1517
 20
179.471
  0
VERTEX
  8
LAYER_1
 10
28.6658
 20
186.9587
  0
SEQEND
  0
POLYLINE
  8
LAYER_1
 40
0.0847
 41
0.0847
 66
1
 10
0
 20
0
 30
0
  0
VERTEX
  8
LAYER_1
 10
24.6971
 20
179.471
  0
VERTEX
  8
LAYER_1
 10
32.1848
 20
186.9587
  0
SEQEND
  0
POLYLINE
  8
LAYER_1
 40
0.0847
 41
0.0847
 66
1
 10
0
 20
0
 30
0
  0
VERTEX
  8
LAYER_1
 10
28.216
 20
179.471
  0
VERTEX
  8
LAYER_1
 10
35.7302
 20
186.9587
  0
SEQEND
  0
POLYLINE
  8
LAYER_1
 40
0.0847
 41
0.0847
 66
1
 10
0
 20
0
 30
0
  0
VERTEX
  8
LAYER_1
 10
31.7615
 20
179.471
  0
VERTEX
  8
LAYER_1
 10
39.2492
 20
186.9587
  0
SEQEND
  0
POLYLINE
  8
LAYER_1
 40
0.0847
 41
0.0847
 66
1
 10
0
 20
0
 30
0
  0
VERTEX
  8
LAYER_1
 10
35.3069
 20
179.471
  0
VERTEX
  8
LAYER_1
 10
42.7946
 20
186.9587
  0
SEQEND
  0
POLYLINE
  8
LAYER_1
 40
0.0847
 41
0.0847
 66
1
 10
0
 20
0
 30
0
  0
VERTEX
  8
LAYER_1
 10
38.8258
 20
179.471
  0
VERTEX
  8
LAYER_1
 10
46.3135
 20
186.9587
  0
SEQEND
  0
POLYLINE
  8
LAYER_1
 40
0.0847
 41
0.0847
 66
1
 10
0
 20
0
 30
0
  0
VERTEX
  8
LAYER_1
 10
42.3712
 20
179.471
  0
VERTEX
  8
LAYER_1
 10
49.8589
 20
186.9587
  0
SEQEND
  0
POLYLINE
  8
LAYER_1
 40
0.0847
 41
0.0847
 66
1
 10
0
 20
0
 30
0
  0
VERTEX
  8
LAYER_1
 10
45.8902
 20
179.471
  0
VERTEX
  8
LAYER_1
 10
53.4044
 20
186.9587
  0
SEQEND
  0
POLYLINE
  8
LAYER_1
 40
0.0847
 41
0.0847
 66
1
 10
0
 20
0
 30
0
  0
VERTEX
  8
LAYER_1
 10
49.4356
 20
179.471
  0
VERTEX
  8
LAYER_1
 10
56.9233
 20
186.9587
  0
SEQEND
  0
POLYLINE
  8
LAYER_1
 40
0.0847
 41
0.0847
 66
1
 10
0
 20
0
 30
0
  0
VERTEX
  8
LAYER_1
 10
52.9546
 20
179.471
  0
VERTEX
  8
LAYER_1
 10
60.4687
 20
186.9587
  0
SEQEND
  0
POLYLINE
  8
LAYER_1
 40
0.0847
 41
0.0847
 66
1
 10
0
 20
0
 30
0
  0
VERTEX
  8
LAYER_1
 10
56.5
 20
179.471
  0
VERTEX
  8
LAYER_1
 10
63.9877
 20
186.9587
  0
SEQEND
  0
POLYLINE
  8
LAYER_1
 40
0.0847
 41
0.0847
 66
1
 10
0
 20
0
 30
0
  0
VERTEX
  8
LAYER_1
 10
60.0454
 20
179.471
  0
VERTEX
  8
LAYER_1
 10
67.5331
 20
186.9587
  0
SEQEND
  0
POLYLINE
  8
LAYER_1
 40
0.0847
 41
0.0847
 66
1
 10
0
 20
0
 30
0
  0
VERTEX
  8
LAYER_1
 10
63.5643
 20
179.471
  0
VERTEX
  8
LAYER_1
 10
71.0521
 20
186.9587
  0
SEQEND
  0
POLYLINE
  8
LAYER_1
 40
0.0847
 41
0.0847
 66
1
 10
0
 20
0
 30
0
  0
VERTEX
  8
LAYER_1
 10
67.1098
 20
179.471
  0
VERTEX
  8
LAYER_1
 10
74.5975
 20
186.9587
  0
SEQEND
  0
POLYLINE
  8
LAYER_1
 40
0.0847
 41
0.0847
 66
1
 10
0
 20
0
 30
0
  0
VERTEX
  8
LAYER_1
 10
70.6287
 20
179.471
  0
VERTEX
  8
LAYER_1
 10
78.1429
 20
186.9587
  0
SEQEND
  0
POLYLINE
  8
LAYER_1
 40
0.0847
 41
0.0847
 66
1
 10
0
 20
0
 30
0
  0
VERTEX
  8
LAYER_1
 10
74.1741
 20
179.471
  0
VERTEX
  8
LAYER_1
 10
81.6618
 20
186.9587
  0
SEQEND
  0
POLYLINE
  8
LAYER_1
 40
0.0847
 41
0.0847
 66
1
 10
0
 20
0
 30
0
  0
VERTEX
  8
LAYER_1
 10
77.6931
 20
179.471
  0
VERTEX
  8
LAYER_1
 10
85.2072
 20
186.9587
  0
SEQEND
  0
POLYLINE
  8
LAYER_1
 40
0.0847
 41
0.0847
 66
1
 10
0
 20
0
 30
0
  0
VERTEX
  8
LAYER_1
 10
81.2385
 20
179.471
  0
VERTEX
  8
LAYER_1
 10
88.7262
 20
186.9587
  0
SEQEND
  0
POLYLINE
  8
LAYER_1
 40
0.0847
 41
0.0847
 66
1
 10
0
 20
0
 30
0
  0
VERTEX
  8
LAYER_1
 10
84.7839
 20
179.471
  0
VERTEX
  8
LAYER_1
 10
92.2716
 20
186.9587
  0
SEQEND
  0
POLYLINE
  8
LAYER_1
 40
0.0847
 41
0.0847
 66
1
 10
0
 20
0
 30
0
  0
VERTEX
  8
LAYER_1
 10
88.3029
 20
179.471
  0
VERTEX
  8
LAYER_1
 10
95.7906
 20
186.9587
  0
SEQEND
  0
POLYLINE
  8
LAYER_1
 40
0.0847
 41
0.0847
 66
1
 10
0
 20
0
 30
0
  0
VERTEX
  8
LAYER_1
 10
91.8483
 20
179.471
  0
VERTEX
  8
LAYER_1
 10
97.3781
 20
185.0007
  0
SEQEND
  0
POLYLINE
  8
LAYER_1
 40
0.0847
 41
0.0847
 66
1
 10
0
 20
0
 30
0
  0
VERTEX
  8
LAYER_1
 10
190.776
 20
179.471
  0
VERTEX
  8
LAYER_1
 10
193.1837
 20
181.8786
  0
SEQEND
  0
POLYLINE
  8
LAYER_1
 40
0.0847
 41
0.0847
 66
1
 10
0
 20
0
 30
0
  0
VERTEX
  8
LAYER_1
 10
187.2306
 20
179.471
  0
VERTEX
  8
LAYER_1
 10
193.7129
 20
185.9268
  0
SEQEND
  0
POLYLINE
  8
LAYER_1
 40
0.0847
 41
0.0847
 66
1
 10
0
 20
0
 30
0
  0
VERTEX
  8
LAYER_1
 10
183.6852
 20
179.471
  0
VERTEX
  8
LAYER_1
 10
191.1993
 20
186.9587
  0
SEQEND
  0
POLYLINE
  8
LAYER_1
 40
0.0847
 41
0.0847
 66
1
 10
0
 20
0
 30
0
  0
VERTEX
  8
LAYER_1
 10
180.1662
 20
179.471
  0
VERTEX
  8
LAYER_1
 10
187.6539
 20
186.9587
  0
SEQEND
  0
POLYLINE
  8
LAYER_1
 40
0.0847
 41
0.0847
 66
1
 10
0
 20
0
 30
0
  0
VERTEX
  8
LAYER_1
 10
176.6208
 20
179.471
  0
VERTEX
  8
LAYER_1
 10
184.1349
 20
186.9587
  0
SEQEND
  0
POLYLINE
  8
LAYER_1
 40
0.0847
 41
0.0847
 66
1
 10
0
 20
0
 30
0
  0
VERTEX
  8
LAYER_1
 10
173.1018
 20
179.471
  0
VERTEX
  8
LAYER_1
 10
180.5895
 20
186.9587
  0
SEQEND
  0
POLYLINE
  8
LAYER_1
 40
0.0847
 41
0.0847
 66
1
 10
0
 20
0
 30
0
  0
VERTEX
  8
LAYER_1
 10
169.5564
 20
179.471
  0
VERTEX
  8
LAYER_1
 10
177.0706
 20
186.9587
  0
SEQEND
  0
POLYLINE
  8
LAYER_1
 40
0.0847
 41
0.0847
 66
1
 10
0
 20
0
 30
0
  0
VERTEX
  8
LAYER_1
 10
166.0374
 20
179.471
  0
VERTEX
  8
LAYER_1
 10
173.5251
 20
186.9587
  0
SEQEND
  0
POLYLINE
  8
LAYER_1
 40
0.0847
 41
0.0847
 66
1
 10
0
 20
0
 30
0
  0
VERTEX
  8
LAYER_1
 10
162.492
 20
179.471
  0
VERTEX
  8
LAYER_1
 10
169.9797
 20
186.9587
  0
SEQEND
  0
POLYLINE
  8
LAYER_1
 40
0.0847
 41
0.0847
 66
1
 10
0
 20
0
 30
0
  0
VERTEX
  8
LAYER_1
 10
158.9466
 20
179.471
  0
VERTEX
  8
LAYER_1
 10
166.4607
 20
186.9587
  0
SEQEND
  0
POLYLINE
  8
LAYER_1
 40
0.0847
 41
0.0847
 66
1
 10
0
 20
0
 30
0
  0
VERTEX
  8
LAYER_1
 10
155.4276
 20
179.471
  0
VERTEX
  8
LAYER_1
 10
162.9153
 20
186.9587
  0
SEQEND
  0
POLYLINE
  8
LAYER_1
 40
0.0847
 41
0.0847
 66
1
 10
0
 20
0
 30
0
  0
VERTEX
  8
LAYER_1
 10
151.8822
 20
179.471
  0
VERTEX
  8
LAYER_1
 10
159.3964
 20
186.9587
  0
SEQEND
  0
POLYLINE
  8
LAYER_1
 40
0.0847
 41
0.0847
 66
1
 10
0
 20
0
 30
0
  0
VERTEX
  8
LAYER_1
 10
148.3632
 20
179.471
  0
VERTEX
  8
LAYER_1
 10
155.8509
 20
186.9587
  0
SEQEND
  0
POLYLINE
  8
LAYER_1
 40
0.0847
 41
0.0847
 66
1
 10
0
 20
0
 30
0
  0
VERTEX
  8
LAYER_1
 10
141.2989
 20
179.471
  0
VERTEX
  8
LAYER_1
 10
148.7866
 20
186.9587
  0
SEQEND
  0
POLYLINE
  8
LAYER_1
 40
0.0847
 41
0.0847
 66
1
 10
0
 20
0
 30
0
  0
VERTEX
  8
LAYER_1
 10
144.8178
 20
179.471
  0
VERTEX
  8
LAYER_1
 10
152.332
 20
186.9587
  0
SEQEND
  0
POLYLINE
  8
LAYER_1
 40
0.0847
 41
0.0847
 66
1
 10
0
 20
0
 30
0
  0
VERTEX
  8
LAYER_1
 10
137.7535
 20
179.471
  0
VERTEX
  8
LAYER_1
 10
145.2412
 20
186.9587
  0
SEQEND
  0
POLYLINE
  8
LAYER_1
 40
0.0847
 41
0.0847
 66
1
 10
0
 20
0
 30
0
  0
VERTEX
  8
LAYER_1
 10
134.208
 20
179.471
  0
VERTEX
  8
LAYER_1
 10
141.7222
 20
186.9587
  0
SEQEND
  0
POLYLINE
  8
LAYER_1
 40
0.0847
 41
0.0847
 66
1
 10
0
 20
0
 30
0
  0
VERTEX
  8
LAYER_1
 10
130.6891
 20
179.471
  0
VERTEX
  8
LAYER_1
 10
138.1768
 20
186.9587
  0
SEQEND
  0
POLYLINE
  8
LAYER_1
 40
0.0847
 41
0.0847
 66
1
 10
0
 20
0
 30
0
  0
VERTEX
  8
LAYER_1
 10
127.1437
 20
179.471
  0
VERTEX
  8
LAYER_1
 10
134.6578
 20
186.9587
  0
SEQEND
  0
POLYLINE
  8
LAYER_1
 40
0.0847
 41
0.0847
 66
1
 10
0
 20
0
 30
0
  0
VERTEX
  8
LAYER_1
 10
123.6247
 20
179.471
  0
VERTEX
  8
LAYER_1
 10
131.1124
 20
186.9587
  0
SEQEND
  0
POLYLINE
  8
LAYER_1
 40
0.0847
 41
0.0847
 66
1
 10
0
 20
0
 30
0
  0
VERTEX
  8
LAYER_1
 10
120.0793
 20
179.471
  0
VERTEX
  8
LAYER_1
 10
127.5934
 20
186.9587
  0
SEQEND
  0
POLYLINE
  8
LAYER_1
 40
0.0847
 41
0.0847
 66
1
 10
0
 20
0
 30
0
  0
VERTEX
  8
LAYER_1
 10
116.5603
 20
179.471
  0
VERTEX
  8
LAYER_1
 10
124.048
 20
186.9587
  0
SEQEND
  0
POLYLINE
  8
LAYER_1
 40
0.0847
 41
0.0847
 66
1
 10
0
 20
0
 30
0
  0
VERTEX
  8
LAYER_1
 10
194.5859
 20
179.6032
  0
VERTEX
  8
LAYER_1
 10
194.6918
 20
179.4709
  0
SEQEND
  0
POLYLINE
  8
LAYER_1
 40
0.0847
 41
0.0847
 66
1
 10
0
 20
0
 30
0
  0
VERTEX
  8
LAYER_1
 10
194.2949
 20
179.471
  0
VERTEX
  8
LAYER_1
 10
194.533
 20
179.6826
  0
SEQEND
  0
POLYLINE
  8
LAYER_1
 40
0.0847
 41
0.0847
 66
1
 10
0
 20
0
 30
0
  0
VERTEX
  8
LAYER_1
 10
16.3626
 20
179.6032
  0
VERTEX
  8
LAYER_1
 10
16.2568
 20
179.4709
  0
SEQEND
  0
POLYLINE
  8
LAYER_1
 40
0.0847
 41
0.0847
 66
1
 10
0
 20
0
 30
0
  0
VERTEX
  8
LAYER_1
 10
206.3599
 20
179.471
  0
VERTEX
  8
LAYER_1
 10
206.3599
 20
186.9587
  0
SEQEND
  0
POLYLINE
  8
LAYER_1
 40
0.1693
 41
0.1693
 66
1
 10
0
 20
0
 30
0
  0
VERTEX
  8
LAYER_1
 10
206.36
 20
186.9587
  0
VERTEX
  8
LAYER_1
 10
205.4075
 20
190.5834
  0
SEQEND
  0
POLYLINE
  8
LAYER_1
 40
0.1693
 41
0.1693
 66
1
 10
0
 20
0
 30
0
  0
VERTEX
  8
LAYER_1
 10
206.36
 20
186.9587
  0
VERTEX
  8
LAYER_1
 10
207.3389
 20
190.5834
  0
SEQEND
  0
POLYLINE
  8
LAYER_1
 40
0.1693
 41
0.1693
 66
1
 10
0
 20
0
 30
0
  0
VERTEX
  8
LAYER_1
 10
206.36
 20
179.471
  0
VERTEX
  8
LAYER_1
 10
207.3389
 20
175.8461
  0
SEQEND
  0
POLYLINE
  8
LAYER_1
 40
0.1693
 41
0.1693
 66
1
 10
0
 20
0
 30
0
  0
VERTEX
  8
LAYER_1
 10
206.36
 20
179.471
  0
VERTEX
  8
LAYER_1
 10
205.4075
 20
175.8461
  0
SEQEND
  0
POLYLINE
  8
LAYER_1
 40
0.0847
 41
0.0847
 66
1
 10
0
 20
0
 30
0
  0
VERTEX
  8
LAYER_1
 10
199.5867
 20
186.9587
  0
VERTEX
  8
LAYER_1
 10
206.36
 20
186.9587
  0
SEQEND
  0
POLYLINE
  8
LAYER_1
 40
0.0847
 41
0.0847
 66
1
 10
0
 20
0
 30
0
  0
VERTEX
  8
LAYER_1
 10
199.5867
 20
179.471
  0
VERTEX
  8
LAYER_1
 10
206.36
 20
179.471
  0
SEQEND
  0
TEXT
  8
LAYER_1
 10
205.4519
 20
181.1919
 11
205.4519
 21
181.1919
 40
4.5757
 41
0.5
 50
89.99999999
  1
30
  0
POLYLINE
  8
LAYER_1
 40
0.254
 41
0.254
 66
1
 10
0
 20
0
 30
0
  0
VERTEX
  8
LAYER_1
 10
16.2569
 20
179.4709
  0
VERTEX
  8
LAYER_1
 10
97.3781
 20
179.4709
  0
VERTEX
  8
LAYER_1
 10
97.3781
 20
186.9586
  0
SEQEND
  0
POLYLINE
  8
LAYER_1
 40
0.0847
 41
0.0847
 66
1
 10
0
 20
0
 30
0
  0
VERTEX
  8
LAYER_1
 10
113.5706
 20
180.0266
  0
VERTEX
  8
LAYER_1
 10
120.5027
 20
186.9586
  0
SEQEND
  0
POLYLINE
  8
LAYER_1
 40
0.254
 41
0.254
 66
1
 10
0
 20
0
 30
0
  0
VERTEX
  8
LAYER_1
 10
113.5706
 20
179.4709
  0
VERTEX
  8
LAYER_1
 10
113.5706
 20
186.9586
  0
SEQEND
  0
POLYLINE
  8
LAYER_1
 40
0.254
 41
0.254
 66
1
 10
0
 20
0
 30
0
  0
VERTEX
  8
LAYER_1
 10
113.5706
 20
179.4709
  0
VERTEX
  8
LAYER_1
 10
194.6919
 20
179.4709
  0
SEQEND
  0
POLYLINE
  8
LAYER_1
 40
0.1693
 41
0.1693
 66
1
 10
0
 20
0
 30
0
  0
VERTEX
  8
LAYER_1
 10
95.4996
 20
178.7036
  0
VERTEX
  8
LAYER_1
 10
115.4492
 20
178.7036
  0
VERTEX
  8
LAYER_1
 10
115.4492
 20
179.4709
  0
SEQEND
  0
POLYLINE
  8
LAYER_1
 40
0.1693
 41
0.1693
 66
1
 10
0
 20
0
 30
0
  0
VERTEX
  8
LAYER_1
 10
95.4996
 20
179.4709
  0
VERTEX
  8
LAYER_1
 10
115.4492
 20
179.4709
  0
SEQEND
  0
POLYLINE
  8
LAYER_1
 40
0.1693
 41
0.1693
 66
1
 10
0
 20
0
 30
0
  0
VERTEX
  8
LAYER_1
 10
95.4996
 20
178.7036
  0
VERTEX
  8
LAYER_1
 10
95.4996
 20
179.4709
  0
SEQEND
  0
POLYLINE
  8
LAYER_1
 40
0.0847
 41
0.0847
 66
1
 10
0
 20
0
 30
0
  0
VERTEX
  8
LAYER_1
 10
101.3733
 20
178.7036
  0
VERTEX
  8
LAYER_1
 10
101.3733
 20
178.8888
  0
SEQEND
  0
POLYLINE
  8
LAYER_1
 40
0.0847
 41
0.0847
 66
1
 10
0
 20
0
 30
0
  0
VERTEX
  8
LAYER_1
 10
101.3733
 20
179.2593
  0
VERTEX
  8
LAYER_1
 10
101.3733
 20
179.4709
  0
SEQEND
  0
POLYLINE
  8
LAYER_1
 40
0.0847
 41
0.0847
 66
1
 10
0
 20
0
 30
0
  0
VERTEX
  8
LAYER_1
 10
109.5754
 20
178.7036
  0
VERTEX
  8
LAYER_1
 10
109.5754
 20
178.8888
  0
SEQEND
  0
POLYLINE
  8
LAYER_1
 40
0.0847
 41
0.0847
 66
1
 10
0
 20
0
 30
0
  0
VERTEX
  8
LAYER_1
 10
109.5754
 20
179.2593
  0
VERTEX
  8
LAYER_1
 10
109.5754
 20
179.4709
  0
SEQEND
  0
POLYLINE
  8
LAYER_1
 40
0.1693
 41
0.1693
 66
1
 10
0
 20
0
 30
0
  0
VERTEX
  8
LAYER_1
 10
99.3625
 20
178.7036
  0
VERTEX
  8
LAYER_1
 10
111.5862
 20
178.7036
  0
SEQEND
  0
POLYLINE
  8
LAYER_1
 40
0.1693
 41
0.1693
 66
1
 10
0
 20
0
 30
0
  0
VERTEX
  8
LAYER_1
 10
111.5862
 20
178.0951
  0
VERTEX
  8
LAYER_1
 10
111.5862
 20
178.7036
  0
SEQEND
  0
POLYLINE
  8
LAYER_1
 40
0.1693
 41
0.1693
 66
1
 10
0
 20
0
 30
0
  0
VERTEX
  8
LAYER_1
 10
99.3625
 20
178.0951
  0
VERTEX
  8
LAYER_1
 10
111.5862
 20
178.0951
  0
SEQEND
  0
POLYLINE
  8
LAYER_1
 40
0.1693
 41
0.1693
 66
1
 10
0
 20
0
 30
0
  0
VERTEX
  8
LAYER_1
 10
110.2104
 20
176.6134
  0
VERTEX
  8
LAYER_1
 10
110.2104
 20
178.0951
  0
SEQEND
  0
POLYLINE
  8
LAYER_1
 40
0.1693
 41
0.1693
 66
1
 10
0
 20
0
 30
0
  0
VERTEX
  8
LAYER_1
 10
100.7383
 20
176.6134
  0
VERTEX
  8
LAYER_1
 10
110.2104
 20
176.6134
  0
SEQEND
  0
POLYLINE
  8
LAYER_1
 40
0.1693
 41
0.1693
 66
1
 10
0
 20
0
 30
0
  0
VERTEX
  8
LAYER_1
 10
100.7383
 20
176.6134
  0
VERTEX
  8
LAYER_1
 10
100.7383
 20
178.0951
  0
SEQEND
  0
POLYLINE
  8
LAYER_1
 40
0.1693
 41
0.1693
 66
1
 10
0
 20
0
 30
0
  0
VERTEX
  8
LAYER_1
 10
99.3625
 20
178.0951
  0
VERTEX
  8
LAYER_1
 10
99.3625
 20
178.7036
  0
SEQEND
  0
POLYLINE
  8
LAYER_1
 40
0.0847
 41
0.0847
 66
1
 10
0
 20
0
 30
0
  0
VERTEX
  8
LAYER_1
 10
105.4744
 20
176.6134
  0
VERTEX
  8
LAYER_1
 10
105.4744
 20
178.0951
  0
SEQEND
  0
POLYLINE
  8
LAYER_1
 40
0.1693
 41
0.1693
 66
1
 10
0
 20
0
 30
0
  0
VERTEX
  8
LAYER_1
 10
101.5056
 20
173.0945
  0
VERTEX
  8
LAYER_1
 10
101.8231
 20
172.8563
  0
VERTEX
  8
LAYER_1
 10
101.5056
 20
172.5918
  0
VERTEX
  8
LAYER_1
 10
101.8231
 20
172.3536
  0
VERTEX
  8
LAYER_1
 10
101.5056
 20
172.0891
  0
VERTEX
  8
LAYER_1
 10
101.8231
 20
171.8509
  0
VERTEX
  8
LAYER_1
 10
101.5056
 20
171.5863
  0
VERTEX
  8
LAYER_1
 10
101.8231
 20
171.3482
  0
SEQEND
  0
POLYLINE
  8
LAYER_1
 40
0.1693
 41
0.1693
 66
1
 10
0
 20
0
 30
0
  0
VERTEX
  8
LAYER_1
 10
109.1256
 20
173.0416
  0
VERTEX
  8
LAYER_1
 10
109.4431
 20
172.8034
  0
VERTEX
  8
LAYER_1
 10
109.1256
 20
172.5389
  0
VERTEX
  8
LAYER_1
 10
109.4431
 20
172.3007
  0
VERTEX
  8
LAYER_1
 10
109.1256
 20
172.0361
  0
VERTEX
  8
LAYER_1
 10
109.4431
 20
171.798
  0
VERTEX
  8
LAYER_1
 10
109.1256
 20
171.5334
  0
VERTEX
  8
LAYER_1
 10
109.4431
 20
171.2953
  0
SEQEND
  0
POLYLINE
  8
LAYER_1
 40
0.1693
 41
0.1693
 66
1
 10
0
 20
0
 30
0
  0
VERTEX
  8
LAYER_1
 10
101.8231
 20
171.3482
  0
VERTEX
  8
LAYER_1
 10
101.5056
 20
171.0836
  0
SEQEND
  0
POLYLINE
  8
LAYER_1
 40
0.1693
 41
0.1693
 66
1
 10
0
 20
0
 30
0
  0
VERTEX
  8
LAYER_1
 10
109.4431
 20
171.2953
  0
VERTEX
  8
LAYER_1
 10
109.1256
 20
171.0307
  0
SEQEND
  0
POLYLINE
  8
LAYER_1
 40
0.1693
 41
0.1693
 66
1
 10
0
 20
0
 30
0
  0
VERTEX
  8
LAYER_1
 10
101.5056
 20
171.0837
  0
VERTEX
  8
LAYER_1
 10
101.8231
 20
170.8455
  0
VERTEX
  8
LAYER_1
 10
101.5056
 20
170.5809
  0
SEQEND
  0
POLYLINE
  8
LAYER_1
 40
0.1693
 41
0.1693
 66
1
 10
0
 20
0
 30
0
  0
VERTEX
  8
LAYER_1
 10
109.1256
 20
171.0307
  0
VERTEX
  8
LAYER_1
 10
109.4431
 20
170.7926
  0
VERTEX
  8
LAYER_1
 10
109.1256
 20
170.528
  0
SEQEND
  0
POLYLINE
  8
LAYER_1
 40
0.1693
 41
0.1693
 66
1
 10
0
 20
0
 30
0
  0
VERTEX
  8
LAYER_1
 10
101.5585
 20
176.6134
  0
VERTEX
  8
LAYER_1
 10
101.5056
 20
176.587
  0
SEQEND
  0
POLYLINE
  8
LAYER_1
 40
0.1693
 41
0.1693
 66
1
 10
0
 20
0
 30
0
  0
VERTEX
  8
LAYER_1
 10
109.205
 20
176.6134
  0
VERTEX
  8
LAYER_1
 10
109.1256
 20
176.534
  0
SEQEND
  0
POLYLINE
  8
LAYER_1
 40
0.1693
 41
0.1693
 66
1
 10
0
 20
0
 30
0
  0
VERTEX
  8
LAYER_1
 10
101.5056
 20
179.5768
  0
VERTEX
  8
LAYER_1
 10
101.6644
 20
179.4709
  0
SEQEND
  0
POLYLINE
  8
LAYER_1
 40
0.1693
 41
0.1693
 66
1
 10
0
 20
0
 30
0
  0
VERTEX
  8
LAYER_1
 10
109.1256
 20
179.5238
  0
VERTEX
  8
LAYER_1
 10
109.205
 20
179.4709
  0
SEQEND
  0
POLYLINE
  8
LAYER_1
 40
0.0847
 41
0.0847
 66
1
 10
0
 20
0
 30
0
  0
VERTEX
  8
LAYER_1
 10
65.7075
 20
171.6393
  0
VERTEX
  8
LAYER_1
 10
101.1087
 20
180.979
  0
SEQEND
  0
POLYLINE
  8
LAYER_1
 40
0.0847
 41
0.0847
 66
1
 10
0
 20
0
 30
0
  0
VERTEX
  8
LAYER_1
 10
65.7075
 20
171.6393
  0
VERTEX
  8
LAYER_1
 10
101.3204
 20
177.3278
  0
SEQEND
  0
POLYLINE
  8
LAYER_1
 40
0.0847
 41
0.0847
 66
1
 10
0
 20
0
 30
0
  0
VERTEX
  8
LAYER_1
 10
64.12
 20
157.7486
  0
VERTEX
  8
LAYER_1
 10
97.3252
 20
178.9682
  0
SEQEND
  0
TEXT
  8
LAYER_1
 10
149.2631
 20
174.1794
 11
149.2631
 21
174.1794
 40
5.3169
 41
0.5
  1
ôVö┬èJî¹Éíû@üF53055
  0
TEXT
  8
LAYER_1
 10
39.9899
 20
170.396
 11
39.9899
 21
170.396
 40
3.2224
 41
0.5
  1
örÉàû┌ÄMùpâiâbâg
  0
TEXT
  8
LAYER_1
 10
16.31
 20
157.5107
 11
16.31
 21
157.5107
 40
3.2224
 41
0.5
  1
â{âEâïî┼ÆÞö┬üiâoâbâNâvâîü[âgüj
  0
TEXT
  8
LAYER_1
 10
150.1895
 20
138.1964
 11
150.1895
 21
138.1964
 40
3.8024
 41
0.5
  1
örÉàâgâëâbâv%%c25
  0
ENDBLK
  0
BLOCK
  8
LAYER_1
  2
AIGNBL01010006
 70
64
 10
0
 20
0
 30
0
  3
AIGNBL01010006
  0
INSERT
  8
LAYER_1
  2
AIGNBL01020007
 10
0
 20
0
 30
0
  0
INSERT
  8
LAYER_1
  2
AIGNBL01020010
 10
0
 20
0
 30
0
  0
ENDBLK
  0
ENDSEC
  0
SECTION
  2
ENTITIES
  0
TEXT
  8
LAYER_1
 10
46.4327
 20
132.5069
 11
46.4327
 21
132.5069
 40
3.6606
 41
0.5
  1
üªÅÒïLÄµéÞòté»É}é═üASLAVIA CRYSTAL AchilleionâRâôâvâèü[âgâZâbâgé­ùpéóé¢éÓé╠éãé╚éÞé▄éÀüB
  0
TEXT
  8
LAYER_1
 10
56.1505
 20
237.4843
 11
56.1505
 21
237.4843
 40
5.1558
 41
0.5
  1
AchilieionüiâAâqâèâIâôüj350É¶û╩â{âEâï ÄµéÞòté»É}
  0
INSERT
  8
LAYER_1
  2
AIGNBL01010002
 10
0
 20
0
 30
0
  0
INSERT
  8
LAYER_1
  2
AIGNBL01010003
 10
0
 20
0
 30
0
  0
TEXT
  8
LAYER_1
 10
186.826
 20
54.0008
 11
186.826
 21
54.0008
 40
3.3848
 41
0.5
  1
ü£TEL 0120-65-1232ü£FAX 06-6532-1580
  0
TEXT
  8
LAYER_1
 10
186.826
 20
50.4861
 11
186.826
 21
50.4861
 40
3.3848
 41
0.5
  1
hits@hiratatile.co.jp
  0
INSERT
  8
LAYER_1
  2
AIGNBL01010006
 10
0
 20
0
 30
0
  0
ENDSEC
  0
EOF
