  0
SECTION
  2
HEADER
  9
$ACADVER
  1
AC1009
  9
$LUNITS
 70
2
  9
$LUPREC
 70
4
  9
$LTSCALE
 40
1.0
  9
$EXTMIN
 10
-30.3177
 20
33.3285
 30
0
  9
$EXTMAX
 10
251.6749
 20
230.337
 30
0
  0
ENDSEC
  0
SECTION
  2
TABLES
  0
TABLE
  2
LTYPE
 70
256
  0
LTYPE
  2
AIGENLINE001
 70
64
  3
generate AI->DXF Converter
 72
65
 73
4
 40
0.7056
 49
0.3528
 49
-0.3528
 49
0
 49
0
  0
ENDTAB
  0
TABLE
  2
LAYER
 70
1
  0
LAYER
  2
LAYER_1
 70
64
 62
7
  6
CONTINUOUS
  0
ENDTAB
  0
TABLE
  2
STYLE
 70
6
  0
STYLE
  2
STANDARD
 70
0
 40
0
 50
0
 71
0
 41
0
 42
0
  3
TXT
  4
BIGFONT
  0
ENDTAB
  0
ENDSEC
  0
SECTION
  2
BLOCKS
  0
BLOCK
  8
LAYER_1
  2
AIGNBL01040006
 70
64
 10
0
 20
0
 30
0
  3
AIGNBL01040006
  0
POLYLINE
  8
LAYER_1
 40
0.05
 41
0.05
 66
1
 10
0
 20
0
 30
0
 70
1
  0
VERTEX
  8
LAYER_1
 10
105.4311
 20
39.1418
  0
VERTEX
  8
LAYER_1
 10
104.9422
 20
37.9567
  0
VERTEX
  8
LAYER_1
 10
104.3142
 20
37.9567
  0
VERTEX
  8
LAYER_1
 10
105.9137
 20
41.7225
  0
VERTEX
  8
LAYER_1
 10
106.6468
 20
41.7225
  0
VERTEX
  8
LAYER_1
 10
108.2533
 20
37.9567
  0
VERTEX
  8
LAYER_1
 10
107.6032
 20
37.9567
  0
VERTEX
  8
LAYER_1
 10
107.1006
 20
39.1418
  0
SEQEND
  0
POLYLINE
  8
LAYER_1
 40
0.05
 41
0.05
 66
1
 10
0
 20
0
 30
0
 70
1
  0
VERTEX
  8
LAYER_1
 10
106.9748
 20
39.5207
  0
VERTEX
  8
LAYER_1
 10
106.5138
 20
40.6056
  0
VERTEX
  8
LAYER_1
 10
106.2692
 20
41.2926
  0
VERTEX
  8
LAYER_1
 10
106.2555
 20
41.2926
  0
VERTEX
  8
LAYER_1
 10
106.0178
 20
40.6101
  0
VERTEX
  8
LAYER_1
 10
105.5571
 20
39.5207
  0
SEQEND
  0
ENDBLK
  0
BLOCK
  8
LAYER_1
  2
AIGNBL01040007
 70
64
 10
0
 20
0
 30
0
  3
AIGNBL01040007
  0
POLYLINE
  8
LAYER_1
 40
0.05
 41
0.05
 66
1
 10
0
 20
0
 30
0
 70
1
  0
VERTEX
  8
LAYER_1
 10
112.6186
 20
37.4034
 42
-0.0155848755
  0
VERTEX
  8
LAYER_1
 10
110.8164
 20
37.8395
  0
VERTEX
  8
LAYER_1
 10
110.5298
 20
37.895
 42
-0.08356944747
  0
VERTEX
  8
LAYER_1
 10
109.6658
 20
38.0612
 42
-0.0975043791
  0
VERTEX
  8
LAYER_1
 10
109.0046
 20
38.4671
 42
-0.2129077902
  0
VERTEX
  8
LAYER_1
 10
108.4559
 20
39.7998
 42
-0.0968494152
  0
VERTEX
  8
LAYER_1
 10
108.6005
 20
40.5732
 42
-0.2046438079
  0
VERTEX
  8
LAYER_1
 10
109.648
 20
41.5974
 42
-0.09824750395
  0
VERTEX
  8
LAYER_1
 10
110.649
 20
41.7838
 42
-0.08554009695
  0
VERTEX
  8
LAYER_1
 10
111.5176
 20
41.6425
 42
-0.1004336034
  0
VERTEX
  8
LAYER_1
 10
112.1827
 20
41.2483
 42
-0.2141019095
  0
VERTEX
  8
LAYER_1
 10
112.7581
 20
39.8784
 42
-0.09540850229
  0
VERTEX
  8
LAYER_1
 10
112.6192
 20
39.1106
 42
-0.2143210227
  0
VERTEX
  8
LAYER_1
 10
111.5963
 20
38.1321
 42
-0.02338900436
  0
VERTEX
  8
LAYER_1
 10
111.4172
 20
38.0738
  0
VERTEX
  8
LAYER_1
 10
111.4172
 20
38.0514
 42
0.01711211955
  0
VERTEX
  8
LAYER_1
 10
112.7936
 20
37.8113
  0
SEQEND
  0
POLYLINE
  8
LAYER_1
 40
0.05
 41
0.05
 66
1
 10
0
 20
0
 30
0
 70
1
  0
VERTEX
  8
LAYER_1
 10
112.1159
 20
39.857
 42
0.1071543648
  0
VERTEX
  8
LAYER_1
 10
111.9646
 20
40.5618
 42
0.2976507644
  0
VERTEX
  8
LAYER_1
 10
110.6276
 20
41.3873
 42
0.1072356843
  0
VERTEX
  8
LAYER_1
 10
109.9378
 20
41.2478
 42
0.2385874916
  0
VERTEX
  8
LAYER_1
 10
109.1508
 20
40.2422
 42
0.05751786988
  0
VERTEX
  8
LAYER_1
 10
109.1052
 20
39.8122
 42
0.2180663696
  0
VERTEX
  8
LAYER_1
 10
109.6358
 20
38.6168
 42
0.1772758138
  0
VERTEX
  8
LAYER_1
 10
110.5997
 20
38.2912
 42
0.1075185771
  0
VERTEX
  8
LAYER_1
 10
111.2811
 20
38.4302
 42
0.2370926009
  0
VERTEX
  8
LAYER_1
 10
112.0682
 20
39.4298
 42
0.05601310134
  0
SEQEND
  0
ENDBLK
  0
BLOCK
  8
LAYER_1
  2
AIGNBL01040008
 70
64
 10
0
 20
0
 30
0
  3
AIGNBL01040008
  0
POLYLINE
  8
LAYER_1
 40
0.05
 41
0.05
 66
1
 10
0
 20
0
 30
0
 70
1
  0
VERTEX
  8
LAYER_1
 10
114.0855
 20
41.7225
  0
VERTEX
  8
LAYER_1
 10
114.0855
 20
39.4932
 42
0.1145199457
  0
VERTEX
  8
LAYER_1
 10
114.2194
 20
38.8274
 42
0.1464896694
  0
VERTEX
  8
LAYER_1
 10
114.5697
 20
38.4422
 42
0.1362580474
  0
VERTEX
  8
LAYER_1
 10
115.1821
 20
38.2912
 42
0.1219300979
  0
VERTEX
  8
LAYER_1
 10
115.8052
 20
38.4259
 42
0.1503016186
  0
VERTEX
  8
LAYER_1
 10
116.177
 20
38.7949
 42
0.1256239276
  0
VERTEX
  8
LAYER_1
 10
116.3276
 20
39.4932
  0
VERTEX
  8
LAYER_1
 10
116.3276
 20
41.7225
  0
VERTEX
  8
LAYER_1
 10
116.9422
 20
41.7225
  0
VERTEX
  8
LAYER_1
 10
116.9422
 20
39.5266
 42
-0.09997665689
  0
VERTEX
  8
LAYER_1
 10
116.8073
 20
38.7839
 42
-0.1215019174
  0
VERTEX
  8
LAYER_1
 10
116.434
 20
38.2772
 42
-0.1106228669
  0
VERTEX
  8
LAYER_1
 10
115.8085
 20
37.9706
 42
-0.06128517916
  0
VERTEX
  8
LAYER_1
 10
115.161
 20
37.895
 42
-0.09418763513
  0
VERTEX
  8
LAYER_1
 10
114.3419
 20
38.0331
 42
-0.2431628294
  0
VERTEX
  8
LAYER_1
 10
113.5384
 20
38.9438
 42
-0.06320488118
  0
VERTEX
  8
LAYER_1
 10
113.4709
 20
39.5045
  0
VERTEX
  8
LAYER_1
 10
113.4709
 20
41.7225
  0
SEQEND
  0
ENDBLK
  0
BLOCK
  8
LAYER_1
  2
AIGNBL01040009
 70
64
 10
0
 20
0
 30
0
  3
AIGNBL01040009
  0
POLYLINE
  8
LAYER_1
 40
0.05
 41
0.05
 66
1
 10
0
 20
0
 30
0
 70
1
  0
VERTEX
  8
LAYER_1
 10
118.6885
 20
39.1418
  0
VERTEX
  8
LAYER_1
 10
118.1993
 20
37.9567
  0
VERTEX
  8
LAYER_1
 10
117.5712
 20
37.9567
  0
VERTEX
  8
LAYER_1
 10
119.1705
 20
41.7225
  0
VERTEX
  8
LAYER_1
 10
119.9036
 20
41.7225
  0
VERTEX
  8
LAYER_1
 10
121.51
 20
37.9567
  0
VERTEX
  8
LAYER_1
 10
120.8606
 20
37.9567
  0
VERTEX
  8
LAYER_1
 10
120.358
 20
39.1418
  0
SEQEND
  0
POLYLINE
  8
LAYER_1
 40
0.05
 41
0.05
 66
1
 10
0
 20
0
 30
0
 70
1
  0
VERTEX
  8
LAYER_1
 10
120.2319
 20
39.5207
  0
VERTEX
  8
LAYER_1
 10
119.7706
 20
40.6056
  0
VERTEX
  8
LAYER_1
 10
119.526
 20
41.2926
  0
VERTEX
  8
LAYER_1
 10
119.5122
 20
41.2926
  0
VERTEX
  8
LAYER_1
 10
119.2748
 20
40.6101
  0
VERTEX
  8
LAYER_1
 10
118.8139
 20
39.5207
  0
SEQEND
  0
ENDBLK
  0
BLOCK
  8
LAYER_1
  2
AIGNBL0104000A
 70
64
 10
0
 20
0
 30
0
  3
AIGNBL0104000A
  0
POLYLINE
  8
LAYER_1
 40
0.05
 41
0.05
 66
1
 10
0
 20
0
 30
0
 70
1
  0
VERTEX
  8
LAYER_1
 10
122.5508
 20
41.6777
 42
-0.03246092253
  0
VERTEX
  8
LAYER_1
 10
123.7176
 20
41.7508
 42
-0.08084549745
  0
VERTEX
  8
LAYER_1
 10
124.6741
 20
41.619
 42
-0.07819914268
  0
VERTEX
  8
LAYER_1
 10
125.0374
 20
41.4379
 42
-0.2484709269
  0
VERTEX
  8
LAYER_1
 10
125.4491
 20
40.6497
 42
-0.226147
  0
VERTEX
  8
LAYER_1
 10
125.086
 20
39.8456
 42
-0.109727648
  0
VERTEX
  8
LAYER_1
 10
124.4577
 20
39.5323
 42
-0.06565380896
  0
VERTEX
  8
LAYER_1
 10
123.6473
 20
39.4319
 42
-0.06238309955
  0
VERTEX
  8
LAYER_1
 10
123.1588
 20
39.4653
  0
VERTEX
  8
LAYER_1
 10
123.1588
 20
37.9567
  0
VERTEX
  8
LAYER_1
 10
122.5508
 20
37.9567
  0
SEQEND
  0
POLYLINE
  8
LAYER_1
 40
0.05
 41
0.05
 66
1
 10
0
 20
0
 30
0
 70
1
  0
VERTEX
  8
LAYER_1
 10
123.1588
 20
39.8622
 42
0.04203451964
  0
VERTEX
  8
LAYER_1
 10
123.6611
 20
39.8229
 42
0.1032111168
  0
VERTEX
  8
LAYER_1
 10
124.3803
 20
39.9502
 42
0.1555938032
  0
VERTEX
  8
LAYER_1
 10
124.7451
 20
40.2546
 42
0.1352673748
  0
VERTEX
  8
LAYER_1
 10
124.8421
 20
40.6273
 42
0.1737047371
  0
VERTEX
  8
LAYER_1
 10
124.7073
 20
41.0346
 42
0.1517050813
  0
VERTEX
  8
LAYER_1
 10
124.2862
 20
41.2941
 42
0.06879756253
  0
VERTEX
  8
LAYER_1
 10
123.7317
 20
41.3649
 42
0.06336983159
  0
VERTEX
  8
LAYER_1
 10
123.1588
 20
41.3257
  0
SEQEND
  0
ENDBLK
  0
BLOCK
  8
LAYER_1
  2
AIGNBL0104000B
 70
64
 10
0
 20
0
 30
0
  3
AIGNBL0104000B
  0
POLYLINE
  8
LAYER_1
 40
0.05
 41
0.05
 66
1
 10
0
 20
0
 30
0
 70
1
  0
VERTEX
  8
LAYER_1
 10
127.0011
 20
41.4207
 42
-0.2767461975
  0
VERTEX
  8
LAYER_1
 10
126.8616
 20
41.1806
 42
-0.1265294091
  0
VERTEX
  8
LAYER_1
 10
126.6094
 20
41.1189
 42
-0.2237518698
  0
VERTEX
  8
LAYER_1
 10
126.2991
 20
41.2513
 42
-0.1708341408
  0
VERTEX
  8
LAYER_1
 10
126.2391
 20
41.4207
 42
-0.2643879937
  0
VERTEX
  8
LAYER_1
 10
126.3885
 20
41.6678
 42
-0.1290073663
  0
VERTEX
  8
LAYER_1
 10
126.6232
 20
41.7277
 42
-0.225342086
  0
VERTEX
  8
LAYER_1
 10
126.94
 20
41.597
 42
-0.1691136206
  0
SEQEND
  0
POLYLINE
  8
LAYER_1
 40
0.05
 41
0.05
 66
1
 10
0
 20
0
 30
0
 70
1
  0
VERTEX
  8
LAYER_1
 10
126.3156
 20
37.9567
  0
VERTEX
  8
LAYER_1
 10
126.3156
 20
40.6607
  0
VERTEX
  8
LAYER_1
 10
126.9302
 20
40.6607
  0
VERTEX
  8
LAYER_1
 10
126.9302
 20
37.9567
  0
SEQEND
  0
ENDBLK
  0
BLOCK
  8
LAYER_1
  2
AIGNBL0104000C
 70
64
 10
0
 20
0
 30
0
  3
AIGNBL0104000C
  0
POLYLINE
  8
LAYER_1
 40
0.05
 41
0.05
 66
1
 10
0
 20
0
 30
0
 70
1
  0
VERTEX
  8
LAYER_1
 10
128.8019
 20
39.1418
  0
VERTEX
  8
LAYER_1
 10
128.3137
 20
37.9567
  0
VERTEX
  8
LAYER_1
 10
127.6846
 20
37.9567
  0
VERTEX
  8
LAYER_1
 10
129.2842
 20
41.7225
  0
VERTEX
  8
LAYER_1
 10
130.018
 20
41.7225
  0
VERTEX
  8
LAYER_1
 10
131.6245
 20
37.9567
  0
VERTEX
  8
LAYER_1
 10
130.9747
 20
37.9567
  0
VERTEX
  8
LAYER_1
 10
130.4721
 20
39.1418
  0
SEQEND
  0
POLYLINE
  8
LAYER_1
 40
0.05
 41
0.05
 66
1
 10
0
 20
0
 30
0
 70
1
  0
VERTEX
  8
LAYER_1
 10
130.346
 20
39.5207
  0
VERTEX
  8
LAYER_1
 10
129.885
 20
40.6056
  0
VERTEX
  8
LAYER_1
 10
129.6411
 20
41.2926
  0
VERTEX
  8
LAYER_1
 10
129.6263
 20
41.2926
  0
VERTEX
  8
LAYER_1
 10
129.3893
 20
40.6101
  0
VERTEX
  8
LAYER_1
 10
128.9283
 20
39.5207
  0
SEQEND
  0
ENDBLK
  0
BLOCK
  8
LAYER_1
  2
AIGNBL01030005
 70
64
 10
0
 20
0
 30
0
  3
AIGNBL01030005
  0
INSERT
  8
LAYER_1
  2
AIGNBL01040006
 10
0
 20
0
 30
0
  0
INSERT
  8
LAYER_1
  2
AIGNBL01040007
 10
0
 20
0
 30
0
  0
INSERT
  8
LAYER_1
  2
AIGNBL01040008
 10
0
 20
0
 30
0
  0
INSERT
  8
LAYER_1
  2
AIGNBL01040009
 10
0
 20
0
 30
0
  0
INSERT
  8
LAYER_1
  2
AIGNBL0104000A
 10
0
 20
0
 30
0
  0
INSERT
  8
LAYER_1
  2
AIGNBL0104000B
 10
0
 20
0
 30
0
  0
INSERT
  8
LAYER_1
  2
AIGNBL0104000C
 10
0
 20
0
 30
0
  0
ENDBLK
  0
BLOCK
  8
LAYER_1
  2
AIGNBL0103000E
 70
64
 10
0
 20
0
 30
0
  3
AIGNBL0103000E
  0
POLYLINE
  8
LAYER_1
 40
0.05
 41
0.05
 66
1
 10
0
 20
0
 30
0
 70
1
  0
VERTEX
  8
LAYER_1
 10
104.4241
 20
36.0574
  0
VERTEX
  8
LAYER_1
 10
104.9773
 20
36.0574
  0
VERTEX
  8
LAYER_1
 10
104.9773
 20
35.9637
  0
VERTEX
  8
LAYER_1
 10
104.319
 20
35.9637
  0
VERTEX
  8
LAYER_1
 10
104.319
 20
36.9969
  0
VERTEX
  8
LAYER_1
 10
104.9598
 20
36.9969
  0
VERTEX
  8
LAYER_1
 10
104.9598
 20
36.9035
  0
VERTEX
  8
LAYER_1
 10
104.4241
 20
36.9035
  0
VERTEX
  8
LAYER_1
 10
104.4241
 20
36.549
  0
VERTEX
  8
LAYER_1
 10
104.9246
 20
36.549
  0
VERTEX
  8
LAYER_1
 10
104.9246
 20
36.4557
  0
VERTEX
  8
LAYER_1
 10
104.4241
 20
36.4557
  0
SEQEND
  0
ENDBLK
  0
BLOCK
  8
LAYER_1
  2
AIGNBL0103000F
 70
64
 10
0
 20
0
 30
0
  3
AIGNBL0103000F
  0
POLYLINE
  8
LAYER_1
 40
0.05
 41
0.05
 66
1
 10
0
 20
0
 30
0
 70
1
  0
VERTEX
  8
LAYER_1
 10
106.117
 20
36.117
  0
VERTEX
  8
LAYER_1
 10
106.1197
 20
36.117
  0
VERTEX
  8
LAYER_1
 10
106.1197
 20
36.9969
  0
VERTEX
  8
LAYER_1
 10
106.2248
 20
36.9969
  0
VERTEX
  8
LAYER_1
 10
106.2248
 20
35.9637
  0
VERTEX
  8
LAYER_1
 10
106.0939
 20
35.9637
  0
VERTEX
  8
LAYER_1
 10
105.4927
 20
36.8525
  0
VERTEX
  8
LAYER_1
 10
105.4893
 20
36.8525
  0
VERTEX
  8
LAYER_1
 10
105.4893
 20
35.9637
  0
VERTEX
  8
LAYER_1
 10
105.3845
 20
35.9637
  0
VERTEX
  8
LAYER_1
 10
105.3845
 20
36.9969
  0
VERTEX
  8
LAYER_1
 10
105.5158
 20
36.9969
  0
SEQEND
  0
ENDBLK
  0
BLOCK
  8
LAYER_1
  2
AIGNBL01030010
 70
64
 10
0
 20
0
 30
0
  3
AIGNBL01030010
  0
POLYLINE
  8
LAYER_1
 40
0.05
 41
0.05
 66
1
 10
0
 20
0
 30
0
 70
1
  0
VERTEX
  8
LAYER_1
 10
106.6978
 20
36.1756
  0
VERTEX
  8
LAYER_1
 10
106.7523
 20
36.0725
 42
0.1804993832
  0
VERTEX
  8
LAYER_1
 10
106.8656
 20
36.0309
  0
VERTEX
  8
LAYER_1
 10
106.9548
 20
36.0505
  0
VERTEX
  8
LAYER_1
 10
107.011
 20
36.1039
  0
VERTEX
  8
LAYER_1
 10
107.0399
 20
36.1804
  0
VERTEX
  8
LAYER_1
 10
107.0482
 20
36.27
  0
VERTEX
  8
LAYER_1
 10
107.0482
 20
36.9969
  0
VERTEX
  8
LAYER_1
 10
107.1533
 20
36.9969
  0
VERTEX
  8
LAYER_1
 10
107.1533
 20
36.2614
  0
VERTEX
  8
LAYER_1
 10
107.1419
 20
36.1535
  0
VERTEX
  8
LAYER_1
 10
107.1006
 20
36.0485
  0
VERTEX
  8
LAYER_1
 10
107.0158
 20
35.9689
  0
VERTEX
  8
LAYER_1
 10
106.877
 20
35.9375
 42
-0.1845892347
  0
VERTEX
  8
LAYER_1
 10
106.6923
 20
35.9974
 42
-0.176191571
  0
VERTEX
  8
LAYER_1
 10
106.6
 20
36.149
  0
SEQEND
  0
ENDBLK
  0
BLOCK
  8
LAYER_1
  2
AIGNBL01030011
 70
64
 10
0
 20
0
 30
0
  3
AIGNBL01030011
  0
POLYLINE
  8
LAYER_1
 40
0.05
 41
0.05
 66
1
 10
0
 20
0
 30
0
 70
1
  0
VERTEX
  8
LAYER_1
 10
108.6416
 20
36.4805
 42
-0.10394313
  0
VERTEX
  8
LAYER_1
 10
108.6005
 20
36.2631
 42
-0.1002538824
  0
VERTEX
  8
LAYER_1
 10
108.4879
 20
36.0915
  0
VERTEX
  8
LAYER_1
 10
108.317
 20
35.9785
 42
-0.09506675375
  0
VERTEX
  8
LAYER_1
 10
108.1031
 20
35.9375
 42
-0.1010866674
  0
VERTEX
  8
LAYER_1
 10
107.8895
 20
35.9785
 42
-0.1005668876
  0
VERTEX
  8
LAYER_1
 10
107.7186
 20
36.0915
 42
-0.09506076213
  0
VERTEX
  8
LAYER_1
 10
107.6053
 20
36.2631
 42
-0.09316585798
  0
VERTEX
  8
LAYER_1
 10
107.5646
 20
36.4805
 42
-0.1029152058
  0
VERTEX
  8
LAYER_1
 10
107.6053
 20
36.6978
 42
-0.1008913794
  0
VERTEX
  8
LAYER_1
 10
107.7186
 20
36.8694
 42
-0.09625543395
  0
VERTEX
  8
LAYER_1
 10
107.8895
 20
36.9824
 42
-0.09521573462
  0
VERTEX
  8
LAYER_1
 10
108.1031
 20
37.0234
 42
-0.101175466
  0
VERTEX
  8
LAYER_1
 10
108.317
 20
36.9824
 42
-0.09853409661
  0
VERTEX
  8
LAYER_1
 10
108.4879
 20
36.8694
 42
-0.09556553869
  0
VERTEX
  8
LAYER_1
 10
108.6005
 20
36.6978
 42
-0.09420719768
  0
SEQEND
  0
POLYLINE
  8
LAYER_1
 40
0.05
 41
0.05
 66
1
 10
0
 20
0
 30
0
 70
1
  0
VERTEX
  8
LAYER_1
 10
108.5306
 20
36.4798
  0
VERTEX
  8
LAYER_1
 10
108.5017
 20
36.6517
  0
VERTEX
  8
LAYER_1
 10
108.4169
 20
36.795
  0
VERTEX
  8
LAYER_1
 10
108.2819
 20
36.8932
  0
VERTEX
  8
LAYER_1
 10
108.1031
 20
36.93
  0
VERTEX
  8
LAYER_1
 10
107.9243
 20
36.8932
  0
VERTEX
  8
LAYER_1
 10
107.7896
 20
36.795
  0
VERTEX
  8
LAYER_1
 10
107.7048
 20
36.6517
  0
VERTEX
  8
LAYER_1
 10
107.6755
 20
36.4798
  0
VERTEX
  8
LAYER_1
 10
107.7048
 20
36.3079
  0
VERTEX
  8
LAYER_1
 10
107.7896
 20
36.1649
  0
VERTEX
  8
LAYER_1
 10
107.9243
 20
36.0674
 42
0.1008280473
  0
VERTEX
  8
LAYER_1
 10
108.1031
 20
36.0309
  0
VERTEX
  8
LAYER_1
 10
108.2819
 20
36.0674
  0
VERTEX
  8
LAYER_1
 10
108.4169
 20
36.1649
  0
VERTEX
  8
LAYER_1
 10
108.5017
 20
36.3079
  0
SEQEND
  0
ENDBLK
  0
BLOCK
  8
LAYER_1
  2
AIGNBL01030012
 70
64
 10
0
 20
0
 30
0
  3
AIGNBL01030012
  0
POLYLINE
  8
LAYER_1
 40
0.05
 41
0.05
 66
1
 10
0
 20
0
 30
0
 70
1
  0
VERTEX
  8
LAYER_1
 10
109.4163
 20
35.9637
  0
VERTEX
  8
LAYER_1
 10
109.3116
 20
35.9637
  0
VERTEX
  8
LAYER_1
 10
109.3116
 20
36.4091
  0
VERTEX
  8
LAYER_1
 10
108.9247
 20
36.9969
  0
VERTEX
  8
LAYER_1
 10
109.056
 20
36.9969
  0
VERTEX
  8
LAYER_1
 10
109.3671
 20
36.4967
  0
VERTEX
  8
LAYER_1
 10
109.6806
 20
36.9969
  0
VERTEX
  8
LAYER_1
 10
109.8029
 20
36.9969
  0
VERTEX
  8
LAYER_1
 10
109.4163
 20
36.4091
  0
SEQEND
  0
ENDBLK
  0
BLOCK
  8
LAYER_1
  2
AIGNBL01030013
 70
64
 10
0
 20
0
 30
0
  3
AIGNBL01030013
  0
POLYLINE
  8
LAYER_1
 40
0.05
 41
0.05
 66
1
 10
0
 20
0
 30
0
 70
1
  0
VERTEX
  8
LAYER_1
 10
110.7079
 20
36.9969
  0
VERTEX
  8
LAYER_1
 10
111.0155
 20
36.9969
  0
VERTEX
  8
LAYER_1
 10
111.1341
 20
36.9845
  0
VERTEX
  8
LAYER_1
 10
111.2409
 20
36.9421
  0
VERTEX
  8
LAYER_1
 10
111.3187
 20
36.8611
  0
VERTEX
  8
LAYER_1
 10
111.3483
 20
36.733
 42
-0.1790346201
  0
VERTEX
  8
LAYER_1
 10
111.2984
 20
36.5907
 42
-0.1642259289
  0
VERTEX
  8
LAYER_1
 10
111.1651
 20
36.5111
  0
VERTEX
  8
LAYER_1
 10
111.1651
 20
36.5084
 42
-0.1734673322
  0
VERTEX
  8
LAYER_1
 10
111.3318
 20
36.4302
 42
-0.1921994171
  0
VERTEX
  8
LAYER_1
 10
111.3979
 20
36.2496
  0
VERTEX
  8
LAYER_1
 10
111.3708
 20
36.1325
  0
VERTEX
  8
LAYER_1
 10
111.2946
 20
36.0419
  0
VERTEX
  8
LAYER_1
 10
111.1737
 20
35.9844
  0
VERTEX
  8
LAYER_1
 10
111.0138
 20
35.9637
  0
VERTEX
  8
LAYER_1
 10
110.7079
 20
35.9637
  0
SEQEND
  0
POLYLINE
  8
LAYER_1
 40
0.05
 41
0.05
 66
1
 10
0
 20
0
 30
0
 70
1
  0
VERTEX
  8
LAYER_1
 10
110.813
 20
36.5445
  0
VERTEX
  8
LAYER_1
 10
111.0245
 20
36.5445
  0
VERTEX
  8
LAYER_1
 10
111.1013
 20
36.5535
  0
VERTEX
  8
LAYER_1
 10
111.1716
 20
36.5831
  0
VERTEX
  8
LAYER_1
 10
111.2236
 20
36.6396
  0
VERTEX
  8
LAYER_1
 10
111.2433
 20
36.7258
  0
VERTEX
  8
LAYER_1
 10
111.2236
 20
36.8095
  0
VERTEX
  8
LAYER_1
 10
111.1706
 20
36.8656
  0
VERTEX
  8
LAYER_1
 10
111.0917
 20
36.897
  0
VERTEX
  8
LAYER_1
 10
110.9952
 20
36.9066
  0
VERTEX
  8
LAYER_1
 10
110.813
 20
36.9066
  0
SEQEND
  0
POLYLINE
  8
LAYER_1
 40
0.05
 41
0.05
 66
1
 10
0
 20
0
 30
0
 70
1
  0
VERTEX
  8
LAYER_1
 10
110.813
 20
36.0543
  0
VERTEX
  8
LAYER_1
 10
111.0087
 20
36.0543
  0
VERTEX
  8
LAYER_1
 10
111.1172
 20
36.0653
  0
VERTEX
  8
LAYER_1
 10
111.2078
 20
36.1001
  0
VERTEX
  8
LAYER_1
 10
111.2695
 20
36.1632
  0
VERTEX
  8
LAYER_1
 10
111.2929
 20
36.2559
 42
0.2557371221
  0
VERTEX
  8
LAYER_1
 10
111.2236
 20
36.4081
 42
0.1381508151
  0
VERTEX
  8
LAYER_1
 10
111.0276
 20
36.4584
  0
VERTEX
  8
LAYER_1
 10
110.813
 20
36.4584
  0
SEQEND
  0
ENDBLK
  0
BLOCK
  8
LAYER_1
  2
AIGNBL01030014
 70
64
 10
0
 20
0
 30
0
  3
AIGNBL01030014
  0
POLYLINE
  8
LAYER_1
 40
0.05
 41
0.05
 66
1
 10
0
 20
0
 30
0
 70
1
  0
VERTEX
  8
LAYER_1
 10
111.83
 20
35.9637
  0
VERTEX
  8
LAYER_1
 10
111.7146
 20
35.9637
  0
VERTEX
  8
LAYER_1
 10
112.1614
 20
36.9969
  0
VERTEX
  8
LAYER_1
 10
112.2637
 20
36.9969
  0
VERTEX
  8
LAYER_1
 10
112.7071
 20
35.9637
  0
VERTEX
  8
LAYER_1
 10
112.5903
 20
35.9637
  0
VERTEX
  8
LAYER_1
 10
112.4763
 20
36.2352
  0
VERTEX
  8
LAYER_1
 10
111.9423
 20
36.2352
  0
SEQEND
  0
POLYLINE
  8
LAYER_1
 40
0.05
 41
0.05
 66
1
 10
0
 20
0
 30
0
 70
1
  0
VERTEX
  8
LAYER_1
 10
111.9815
 20
36.3316
  0
VERTEX
  8
LAYER_1
 10
112.437
 20
36.3316
  0
VERTEX
  8
LAYER_1
 10
112.2093
 20
36.8804
  0
SEQEND
  0
ENDBLK
  0
BLOCK
  8
LAYER_1
  2
AIGNBL01030015
 70
64
 10
0
 20
0
 30
0
  3
AIGNBL01030015
  0
POLYLINE
  8
LAYER_1
 40
0.05
 41
0.05
 66
1
 10
0
 20
0
 30
0
 70
1
  0
VERTEX
  8
LAYER_1
 10
113.3916
 20
35.9637
  0
VERTEX
  8
LAYER_1
 10
113.2865
 20
35.9637
  0
VERTEX
  8
LAYER_1
 10
113.2865
 20
36.9035
  0
VERTEX
  8
LAYER_1
 10
112.9403
 20
36.9035
  0
VERTEX
  8
LAYER_1
 10
112.9403
 20
36.9969
  0
VERTEX
  8
LAYER_1
 10
113.7372
 20
36.9969
  0
VERTEX
  8
LAYER_1
 10
113.7372
 20
36.9035
  0
VERTEX
  8
LAYER_1
 10
113.3916
 20
36.9035
  0
SEQEND
  0
ENDBLK
  0
BLOCK
  8
LAYER_1
  2
AIGNBL01030016
 70
64
 10
0
 20
0
 30
0
  3
AIGNBL01030016
  0
POLYLINE
  8
LAYER_1
 40
0.05
 41
0.05
 66
1
 10
0
 20
0
 30
0
 70
1
  0
VERTEX
  8
LAYER_1
 10
114.0934
 20
36.9969
  0
VERTEX
  8
LAYER_1
 10
114.1981
 20
36.9969
  0
VERTEX
  8
LAYER_1
 10
114.1981
 20
36.549
  0
VERTEX
  8
LAYER_1
 10
114.7618
 20
36.549
  0
VERTEX
  8
LAYER_1
 10
114.7618
 20
36.9969
  0
VERTEX
  8
LAYER_1
 10
114.8668
 20
36.9969
  0
VERTEX
  8
LAYER_1
 10
114.8668
 20
35.9637
  0
VERTEX
  8
LAYER_1
 10
114.7618
 20
35.9637
  0
VERTEX
  8
LAYER_1
 10
114.7618
 20
36.4529
  0
VERTEX
  8
LAYER_1
 10
114.1981
 20
36.4529
  0
VERTEX
  8
LAYER_1
 10
114.1981
 20
35.9637
  0
VERTEX
  8
LAYER_1
 10
114.0934
 20
35.9637
  0
SEQEND
  0
ENDBLK
  0
BLOCK
  8
LAYER_1
  2
AIGNBL01030017
 70
64
 10
0
 20
0
 30
0
  3
AIGNBL01030017
  0
POLYLINE
  8
LAYER_1
 40
0.05
 41
0.05
 66
1
 10
0
 20
0
 30
0
 70
1
  0
VERTEX
  8
LAYER_1
 10
115.4473
 20
35.9637
  0
VERTEX
  8
LAYER_1
 10
115.3423
 20
35.9637
  0
VERTEX
  8
LAYER_1
 10
115.3423
 20
36.9969
  0
VERTEX
  8
LAYER_1
 10
115.6461
 20
36.9969
  0
VERTEX
  8
LAYER_1
 10
115.7867
 20
36.9824
  0
VERTEX
  8
LAYER_1
 10
115.8993
 20
36.9349
  0
VERTEX
  8
LAYER_1
 10
115.9727
 20
36.8494
  0
VERTEX
  8
LAYER_1
 10
115.9989
 20
36.7213
  0
VERTEX
  8
LAYER_1
 10
115.9789
 20
36.6176
  0
VERTEX
  8
LAYER_1
 10
115.9235
 20
36.5366
  0
VERTEX
  8
LAYER_1
 10
115.8401
 20
36.4818
  0
VERTEX
  8
LAYER_1
 10
115.735
 20
36.4557
  0
VERTEX
  8
LAYER_1
 10
116.0371
 20
35.9637
  0
VERTEX
  8
LAYER_1
 10
115.9086
 20
35.9637
  0
VERTEX
  8
LAYER_1
 10
115.6227
 20
36.4467
  0
VERTEX
  8
LAYER_1
 10
115.4473
 20
36.4467
  0
SEQEND
  0
POLYLINE
  8
LAYER_1
 40
0.05
 41
0.05
 66
1
 10
0
 20
0
 30
0
 70
1
  0
VERTEX
  8
LAYER_1
 10
115.4473
 20
36.5373
  0
VERTEX
  8
LAYER_1
 10
115.6299
 20
36.5373
 42
0.1654500383
  0
VERTEX
  8
LAYER_1
 10
115.8256
 20
36.5831
 42
0.2503949893
  0
VERTEX
  8
LAYER_1
 10
115.8942
 20
36.7213
  0
VERTEX
  8
LAYER_1
 10
115.8749
 20
36.8071
  0
VERTEX
  8
LAYER_1
 10
115.8225
 20
36.8643
  0
VERTEX
  8
LAYER_1
 10
115.7409
 20
36.8963
  0
VERTEX
  8
LAYER_1
 10
115.6344
 20
36.9066
  0
VERTEX
  8
LAYER_1
 10
115.4473
 20
36.9066
  0
SEQEND
  0
ENDBLK
  0
BLOCK
  8
LAYER_1
  2
AIGNBL01030018
 70
64
 10
0
 20
0
 30
0
  3
AIGNBL01030018
  0
POLYLINE
  8
LAYER_1
 40
0.05
 41
0.05
 66
1
 10
0
 20
0
 30
0
 70
1
  0
VERTEX
  8
LAYER_1
 10
117.4393
 20
36.4805
 42
-0.1005163161
  0
VERTEX
  8
LAYER_1
 10
117.3986
 20
36.2631
 42
-0.1003846159
  0
VERTEX
  8
LAYER_1
 10
117.2853
 20
36.0915
 42
-0.09584766738
  0
VERTEX
  8
LAYER_1
 10
117.1147
 20
35.9785
 42
-0.09506713234
  0
VERTEX
  8
LAYER_1
 10
116.9008
 20
35.9375
 42
-0.101175466
  0
VERTEX
  8
LAYER_1
 10
116.6869
 20
35.9785
 42
-0.09967088569
  0
VERTEX
  8
LAYER_1
 10
116.5163
 20
36.0915
 42
-0.09574135652
  0
VERTEX
  8
LAYER_1
 10
116.4033
 20
36.2631
 42
-0.09293305267
  0
VERTEX
  8
LAYER_1
 10
116.3627
 20
36.4805
 42
-0.1024980643
  0
VERTEX
  8
LAYER_1
 10
116.4033
 20
36.6978
 42
-0.1015030268
  0
VERTEX
  8
LAYER_1
 10
116.5163
 20
36.8694
 42
-0.09577113234
  0
VERTEX
  8
LAYER_1
 10
116.6869
 20
36.9824
 42
-0.09506675375
  0
VERTEX
  8
LAYER_1
 10
116.9008
 20
37.0234
 42
-0.1014233705
  0
VERTEX
  8
LAYER_1
 10
117.1147
 20
36.9824
 42
-0.1017041996
  0
VERTEX
  8
LAYER_1
 10
117.2853
 20
36.8694
 42
-0.09506500802
  0
VERTEX
  8
LAYER_1
 10
117.3986
 20
36.6978
 42
-0.09299771213
  0
SEQEND
  0
POLYLINE
  8
LAYER_1
 40
0.05
 41
0.05
 66
1
 10
0
 20
0
 30
0
 70
1
  0
VERTEX
  8
LAYER_1
 10
117.3284
 20
36.4798
  0
VERTEX
  8
LAYER_1
 10
117.2991
 20
36.6517
  0
VERTEX
  8
LAYER_1
 10
117.2143
 20
36.795
  0
VERTEX
  8
LAYER_1
 10
117.0796
 20
36.8932
  0
VERTEX
  8
LAYER_1
 10
116.9008
 20
36.93
  0
VERTEX
  8
LAYER_1
 10
116.722
 20
36.8932
  0
VERTEX
  8
LAYER_1
 10
116.587
 20
36.795
  0
VERTEX
  8
LAYER_1
 10
116.5022
 20
36.6517
  0
VERTEX
  8
LAYER_1
 10
116.4733
 20
36.4798
  0
VERTEX
  8
LAYER_1
 10
116.5022
 20
36.3079
  0
VERTEX
  8
LAYER_1
 10
116.587
 20
36.1649
  0
VERTEX
  8
LAYER_1
 10
116.722
 20
36.0674
  0
VERTEX
  8
LAYER_1
 10
116.9008
 20
36.0309
 42
0.1157330551
  0
VERTEX
  8
LAYER_1
 10
117.0796
 20
36.0674
  0
VERTEX
  8
LAYER_1
 10
117.2143
 20
36.1649
  0
VERTEX
  8
LAYER_1
 10
117.2991
 20
36.3079
  0
SEQEND
  0
ENDBLK
  0
BLOCK
  8
LAYER_1
  2
AIGNBL01030019
 70
64
 10
0
 20
0
 30
0
  3
AIGNBL01030019
  0
POLYLINE
  8
LAYER_1
 40
0.05
 41
0.05
 66
1
 10
0
 20
0
 30
0
 70
1
  0
VERTEX
  8
LAYER_1
 10
118.881
 20
36.4805
 42
-0.1041417444
  0
VERTEX
  8
LAYER_1
 10
118.84
 20
36.2631
 42
-0.1002538824
  0
VERTEX
  8
LAYER_1
 10
118.7274
 20
36.0915
 42
-0.09536265516
  0
VERTEX
  8
LAYER_1
 10
118.5565
 20
35.9785
 42
-0.09506675375
  0
VERTEX
  8
LAYER_1
 10
118.3426
 20
35.9375
 42
-0.101822328
  0
VERTEX
  8
LAYER_1
 10
118.129
 20
35.9785
 42
-0.102112669
  0
VERTEX
  8
LAYER_1
 10
117.9581
 20
36.0915
 42
-0.09462334812
  0
VERTEX
  8
LAYER_1
 10
117.8447
 20
36.2631
 42
-0.09290316602
  0
VERTEX
  8
LAYER_1
 10
117.8041
 20
36.4805
 42
-0.1018782207
  0
VERTEX
  8
LAYER_1
 10
117.8447
 20
36.6978
 42
-0.1006850025
  0
VERTEX
  8
LAYER_1
 10
117.9581
 20
36.8694
 42
-0.09625543395
  0
VERTEX
  8
LAYER_1
 10
118.129
 20
36.9824
 42
-0.09528409444
  0
VERTEX
  8
LAYER_1
 10
118.3426
 20
37.0234
 42
-0.101175466
  0
VERTEX
  8
LAYER_1
 10
118.5565
 20
36.9824
 42
-0.09853409661
  0
VERTEX
  8
LAYER_1
 10
118.7274
 20
36.8694
 42
-0.09556553869
  0
VERTEX
  8
LAYER_1
 10
118.84
 20
36.6978
 42
-0.09400765476
  0
SEQEND
  0
POLYLINE
  8
LAYER_1
 40
0.05
 41
0.05
 66
1
 10
0
 20
0
 30
0
 70
1
  0
VERTEX
  8
LAYER_1
 10
118.7701
 20
36.4798
  0
VERTEX
  8
LAYER_1
 10
118.7412
 20
36.6517
  0
VERTEX
  8
LAYER_1
 10
118.6564
 20
36.795
  0
VERTEX
  8
LAYER_1
 10
118.5214
 20
36.8932
  0
VERTEX
  8
LAYER_1
 10
118.3426
 20
36.93
  0
VERTEX
  8
LAYER_1
 10
118.1638
 20
36.8932
  0
VERTEX
  8
LAYER_1
 10
118.0291
 20
36.795
  0
VERTEX
  8
LAYER_1
 10
117.9443
 20
36.6517
  0
VERTEX
  8
LAYER_1
 10
117.9151
 20
36.4798
  0
VERTEX
  8
LAYER_1
 10
117.9443
 20
36.3079
  0
VERTEX
  8
LAYER_1
 10
118.0291
 20
36.1649
  0
VERTEX
  8
LAYER_1
 10
118.1638
 20
36.0674
 42
0.1008280473
  0
VERTEX
  8
LAYER_1
 10
118.3426
 20
36.0309
  0
VERTEX
  8
LAYER_1
 10
118.5214
 20
36.0674
  0
VERTEX
  8
LAYER_1
 10
118.6564
 20
36.1649
  0
VERTEX
  8
LAYER_1
 10
118.7412
 20
36.3079
  0
SEQEND
  0
ENDBLK
  0
BLOCK
  8
LAYER_1
  2
AIGNBL0103001A
 70
64
 10
0
 20
0
 30
0
  3
AIGNBL0103001A
  0
POLYLINE
  8
LAYER_1
 40
0.05
 41
0.05
 66
1
 10
0
 20
0
 30
0
 70
1
  0
VERTEX
  8
LAYER_1
 10
119.8119
 20
36.1418
  0
VERTEX
  8
LAYER_1
 10
119.8136
 20
36.1418
  0
VERTEX
  8
LAYER_1
 10
120.1592
 20
36.9969
  0
VERTEX
  8
LAYER_1
 10
120.3201
 20
36.9969
  0
VERTEX
  8
LAYER_1
 10
120.3201
 20
35.9637
  0
VERTEX
  8
LAYER_1
 10
120.2146
 20
35.9637
  0
VERTEX
  8
LAYER_1
 10
120.2146
 20
36.8611
  0
VERTEX
  8
LAYER_1
 10
120.2119
 20
36.8611
  0
VERTEX
  8
LAYER_1
 10
119.8384
 20
35.9637
  0
VERTEX
  8
LAYER_1
 10
119.783
 20
35.9637
  0
VERTEX
  8
LAYER_1
 10
119.4092
 20
36.8611
  0
VERTEX
  8
LAYER_1
 10
119.4064
 20
36.8611
  0
VERTEX
  8
LAYER_1
 10
119.4064
 20
35.9637
  0
VERTEX
  8
LAYER_1
 10
119.3014
 20
35.9637
  0
VERTEX
  8
LAYER_1
 10
119.3014
 20
36.9969
  0
VERTEX
  8
LAYER_1
 10
119.4619
 20
36.9969
  0
SEQEND
  0
ENDBLK
  0
BLOCK
  8
LAYER_1
  2
AIGNBL0103001B
 70
64
 10
0
 20
0
 30
0
  3
AIGNBL0103001B
  0
POLYLINE
  8
LAYER_1
 40
0.05
 41
0.05
 66
1
 10
0
 20
0
 30
0
 70
1
  0
VERTEX
  8
LAYER_1
 10
121.4666
 20
36.0574
  0
VERTEX
  8
LAYER_1
 10
122.0199
 20
36.0574
  0
VERTEX
  8
LAYER_1
 10
122.0199
 20
35.9637
  0
VERTEX
  8
LAYER_1
 10
121.3615
 20
35.9637
  0
VERTEX
  8
LAYER_1
 10
121.3615
 20
36.9969
  0
VERTEX
  8
LAYER_1
 10
122.0023
 20
36.9969
  0
VERTEX
  8
LAYER_1
 10
122.0023
 20
36.9035
  0
VERTEX
  8
LAYER_1
 10
121.4666
 20
36.9035
  0
VERTEX
  8
LAYER_1
 10
121.4666
 20
36.549
  0
VERTEX
  8
LAYER_1
 10
121.9672
 20
36.549
  0
VERTEX
  8
LAYER_1
 10
121.9672
 20
36.4557
  0
VERTEX
  8
LAYER_1
 10
121.4666
 20
36.4557
  0
SEQEND
  0
ENDBLK
  0
BLOCK
  8
LAYER_1
  2
AIGNBL0103001C
 70
64
 10
0
 20
0
 30
0
  3
AIGNBL0103001C
  0
POLYLINE
  8
LAYER_1
 40
0.05
 41
0.05
 66
1
 10
0
 20
0
 30
0
 70
1
  0
VERTEX
  8
LAYER_1
 10
122.765
 20
36.5797
  0
VERTEX
  8
LAYER_1
 10
123.0472
 20
36.9969
  0
VERTEX
  8
LAYER_1
 10
123.1723
 20
36.9969
  0
VERTEX
  8
LAYER_1
 10
122.8298
 20
36.5053
  0
VERTEX
  8
LAYER_1
 10
123.2091
 20
35.9637
  0
VERTEX
  8
LAYER_1
 10
123.0779
 20
35.9637
  0
VERTEX
  8
LAYER_1
 10
122.7623
 20
36.4295
  0
VERTEX
  8
LAYER_1
 10
122.4488
 20
35.9637
  0
VERTEX
  8
LAYER_1
 10
122.3172
 20
35.9637
  0
VERTEX
  8
LAYER_1
 10
122.6969
 20
36.5066
  0
VERTEX
  8
LAYER_1
 10
122.351
 20
36.9969
  0
VERTEX
  8
LAYER_1
 10
122.4825
 20
36.9969
  0
SEQEND
  0
ENDBLK
  0
BLOCK
  8
LAYER_1
  2
AIGNBL0103001D
 70
64
 10
0
 20
0
 30
0
  3
AIGNBL0103001D
  0
POLYLINE
  8
LAYER_1
 40
0.05
 41
0.05
 66
1
 10
0
 20
0
 30
0
 70
1
  0
VERTEX
  8
LAYER_1
 10
123.5753
 20
36.9969
  0
VERTEX
  8
LAYER_1
 10
123.8675
 20
36.9969
  0
VERTEX
  8
LAYER_1
 10
124.0105
 20
36.9804
  0
VERTEX
  8
LAYER_1
 10
124.1203
 20
36.929
  0
VERTEX
  8
LAYER_1
 10
124.1913
 20
36.8429
  0
VERTEX
  8
LAYER_1
 10
124.2158
 20
36.7213
  0
VERTEX
  8
LAYER_1
 10
124.1906
 20
36.5993
  0
VERTEX
  8
LAYER_1
 10
124.119
 20
36.5132
  0
VERTEX
  8
LAYER_1
 10
124.0081
 20
36.4615
  0
VERTEX
  8
LAYER_1
 10
123.8644
 20
36.444
  0
VERTEX
  8
LAYER_1
 10
123.6804
 20
36.444
  0
VERTEX
  8
LAYER_1
 10
123.6804
 20
35.9637
  0
VERTEX
  8
LAYER_1
 10
123.5753
 20
35.9637
  0
SEQEND
  0
POLYLINE
  8
LAYER_1
 40
0.05
 41
0.05
 66
1
 10
0
 20
0
 30
0
 70
1
  0
VERTEX
  8
LAYER_1
 10
123.6804
 20
36.5328
  0
VERTEX
  8
LAYER_1
 10
123.8582
 20
36.5328
 42
0.1829203509
  0
VERTEX
  8
LAYER_1
 10
124.0466
 20
36.581
 42
0.2345943979
  0
VERTEX
  8
LAYER_1
 10
124.111
 20
36.7213
 42
0.2650437466
  0
VERTEX
  8
LAYER_1
 10
124.0446
 20
36.8622
 42
0.1264027561
  0
VERTEX
  8
LAYER_1
 10
123.8582
 20
36.9066
  0
VERTEX
  8
LAYER_1
 10
123.6804
 20
36.9066
  0
SEQEND
  0
ENDBLK
  0
BLOCK
  8
LAYER_1
  2
AIGNBL0103001E
 70
64
 10
0
 20
0
 30
0
  3
AIGNBL0103001E
  0
POLYLINE
  8
LAYER_1
 40
0.05
 41
0.05
 66
1
 10
0
 20
0
 30
0
 70
1
  0
VERTEX
  8
LAYER_1
 10
124.7281
 20
36.0574
  0
VERTEX
  8
LAYER_1
 10
125.2813
 20
36.0574
  0
VERTEX
  8
LAYER_1
 10
125.2813
 20
35.9637
  0
VERTEX
  8
LAYER_1
 10
124.623
 20
35.9637
  0
VERTEX
  8
LAYER_1
 10
124.623
 20
36.9969
  0
VERTEX
  8
LAYER_1
 10
125.2638
 20
36.9969
  0
VERTEX
  8
LAYER_1
 10
125.2638
 20
36.9035
  0
VERTEX
  8
LAYER_1
 10
124.7281
 20
36.9035
  0
VERTEX
  8
LAYER_1
 10
124.7281
 20
36.549
  0
VERTEX
  8
LAYER_1
 10
125.2286
 20
36.549
  0
VERTEX
  8
LAYER_1
 10
125.2286
 20
36.4557
  0
VERTEX
  8
LAYER_1
 10
124.7281
 20
36.4557
  0
SEQEND
  0
ENDBLK
  0
BLOCK
  8
LAYER_1
  2
AIGNBL0103001F
 70
64
 10
0
 20
0
 30
0
  3
AIGNBL0103001F
  0
POLYLINE
  8
LAYER_1
 40
0.05
 41
0.05
 66
1
 10
0
 20
0
 30
0
 70
1
  0
VERTEX
  8
LAYER_1
 10
125.7933
 20
35.9637
  0
VERTEX
  8
LAYER_1
 10
125.6882
 20
35.9637
  0
VERTEX
  8
LAYER_1
 10
125.6882
 20
36.9969
  0
VERTEX
  8
LAYER_1
 10
125.9921
 20
36.9969
  0
VERTEX
  8
LAYER_1
 10
126.1326
 20
36.9824
  0
VERTEX
  8
LAYER_1
 10
126.2453
 20
36.9349
  0
VERTEX
  8
LAYER_1
 10
126.319
 20
36.8494
  0
VERTEX
  8
LAYER_1
 10
126.3449
 20
36.7213
  0
VERTEX
  8
LAYER_1
 10
126.3249
 20
36.6176
  0
VERTEX
  8
LAYER_1
 10
126.2694
 20
36.5366
  0
VERTEX
  8
LAYER_1
 10
126.186
 20
36.4818
  0
VERTEX
  8
LAYER_1
 10
126.0809
 20
36.4557
  0
VERTEX
  8
LAYER_1
 10
126.3831
 20
35.9637
  0
VERTEX
  8
LAYER_1
 10
126.2546
 20
35.9637
  0
VERTEX
  8
LAYER_1
 10
125.9687
 20
36.4467
  0
VERTEX
  8
LAYER_1
 10
125.7933
 20
36.4467
  0
SEQEND
  0
POLYLINE
  8
LAYER_1
 40
0.05
 41
0.05
 66
1
 10
0
 20
0
 30
0
 70
1
  0
VERTEX
  8
LAYER_1
 10
125.7933
 20
36.5373
  0
VERTEX
  8
LAYER_1
 10
125.9759
 20
36.5373
 42
0.1663801652
  0
VERTEX
  8
LAYER_1
 10
126.1716
 20
36.5831
 42
0.2503091692
  0
VERTEX
  8
LAYER_1
 10
126.2401
 20
36.7213
  0
VERTEX
  8
LAYER_1
 10
126.2212
 20
36.8071
  0
VERTEX
  8
LAYER_1
 10
126.1685
 20
36.8643
  0
VERTEX
  8
LAYER_1
 10
126.0868
 20
36.8963
  0
VERTEX
  8
LAYER_1
 10
125.9804
 20
36.9066
  0
VERTEX
  8
LAYER_1
 10
125.7933
 20
36.9066
  0
SEQEND
  0
ENDBLK
  0
BLOCK
  8
LAYER_1
  2
AIGNBL01030020
 70
64
 10
0
 20
0
 30
0
  3
AIGNBL01030020
  0
POLYLINE
  8
LAYER_1
 40
0.05
 41
0.05
 66
1
 10
0
 20
0
 30
0
 70
1
  0
VERTEX
  8
LAYER_1
 10
126.8688
 20
35.9637
  0
VERTEX
  8
LAYER_1
 10
126.7641
 20
35.9637
  0
VERTEX
  8
LAYER_1
 10
126.7641
 20
36.9969
  0
VERTEX
  8
LAYER_1
 10
126.8688
 20
36.9969
  0
SEQEND
  0
ENDBLK
  0
BLOCK
  8
LAYER_1
  2
AIGNBL01030021
 70
64
 10
0
 20
0
 30
0
  3
AIGNBL01030021
  0
POLYLINE
  8
LAYER_1
 40
0.05
 41
0.05
 66
1
 10
0
 20
0
 30
0
 70
1
  0
VERTEX
  8
LAYER_1
 10
127.4497
 20
36.0574
  0
VERTEX
  8
LAYER_1
 10
128.0026
 20
36.0574
  0
VERTEX
  8
LAYER_1
 10
128.0026
 20
35.9637
  0
VERTEX
  8
LAYER_1
 10
127.3446
 20
35.9637
  0
VERTEX
  8
LAYER_1
 10
127.3446
 20
36.9969
  0
VERTEX
  8
LAYER_1
 10
127.9854
 20
36.9969
  0
VERTEX
  8
LAYER_1
 10
127.9854
 20
36.9035
  0
VERTEX
  8
LAYER_1
 10
127.4497
 20
36.9035
  0
VERTEX
  8
LAYER_1
 10
127.4497
 20
36.549
  0
VERTEX
  8
LAYER_1
 10
127.9503
 20
36.549
  0
VERTEX
  8
LAYER_1
 10
127.9503
 20
36.4557
  0
VERTEX
  8
LAYER_1
 10
127.4497
 20
36.4557
  0
SEQEND
  0
ENDBLK
  0
BLOCK
  8
LAYER_1
  2
AIGNBL01030022
 70
64
 10
0
 20
0
 30
0
  3
AIGNBL01030022
  0
POLYLINE
  8
LAYER_1
 40
0.05
 41
0.05
 66
1
 10
0
 20
0
 30
0
 70
1
  0
VERTEX
  8
LAYER_1
 10
129.1426
 20
36.117
  0
VERTEX
  8
LAYER_1
 10
129.1454
 20
36.117
  0
VERTEX
  8
LAYER_1
 10
129.1454
 20
36.9969
  0
VERTEX
  8
LAYER_1
 10
129.2504
 20
36.9969
  0
VERTEX
  8
LAYER_1
 10
129.2504
 20
35.9637
  0
VERTEX
  8
LAYER_1
 10
129.1192
 20
35.9637
  0
VERTEX
  8
LAYER_1
 10
128.518
 20
36.8525
  0
VERTEX
  8
LAYER_1
 10
128.5149
 20
36.8525
  0
VERTEX
  8
LAYER_1
 10
128.5149
 20
35.9637
  0
VERTEX
  8
LAYER_1
 10
128.4098
 20
35.9637
  0
VERTEX
  8
LAYER_1
 10
128.4098
 20
36.9969
  0
VERTEX
  8
LAYER_1
 10
128.5414
 20
36.9969
  0
SEQEND
  0
ENDBLK
  0
BLOCK
  8
LAYER_1
  2
AIGNBL01030023
 70
64
 10
0
 20
0
 30
0
  3
AIGNBL01030023
  0
POLYLINE
  8
LAYER_1
 40
0.05
 41
0.05
 66
1
 10
0
 20
0
 30
0
 70
1
  0
VERTEX
  8
LAYER_1
 10
130.5961
 20
36.1315
  0
VERTEX
  8
LAYER_1
 10
130.5324
 20
36.0571
  0
VERTEX
  8
LAYER_1
 10
130.4463
 20
35.9954
  0
VERTEX
  8
LAYER_1
 10
130.3381
 20
35.953
  0
VERTEX
  8
LAYER_1
 10
130.2092
 20
35.9375
 42
-0.1009408553
  0
VERTEX
  8
LAYER_1
 10
129.9932
 20
35.9785
 42
-0.1036559164
  0
VERTEX
  8
LAYER_1
 10
129.8227
 20
36.0915
 42
-0.09812017057
  0
VERTEX
  8
LAYER_1
 10
129.7111
 20
36.2631
 42
-0.09255697562
  0
VERTEX
  8
LAYER_1
 10
129.6707
 20
36.4805
 42
-0.1035456296
  0
VERTEX
  8
LAYER_1
 10
129.7117
 20
36.6978
 42
-0.1005534539
  0
VERTEX
  8
LAYER_1
 10
129.8244
 20
36.8694
 42
-0.09536265516
  0
VERTEX
  8
LAYER_1
 10
129.9953
 20
36.9824
 42
-0.09506675375
  0
VERTEX
  8
LAYER_1
 10
130.2092
 20
37.0234
  0
VERTEX
  8
LAYER_1
 10
130.3208
 20
37.0114
  0
VERTEX
  8
LAYER_1
 10
130.4239
 20
36.9779
  0
VERTEX
  8
LAYER_1
 10
130.5113
 20
36.9263
  0
VERTEX
  8
LAYER_1
 10
130.5771
 20
36.8584
  0
VERTEX
  8
LAYER_1
 10
130.4896
 20
36.794
  0
VERTEX
  8
LAYER_1
 10
130.4463
 20
36.8439
  0
VERTEX
  8
LAYER_1
 10
130.3829
 20
36.8877
  0
VERTEX
  8
LAYER_1
 10
130.3033
 20
36.9183
  0
VERTEX
  8
LAYER_1
 10
130.2106
 20
36.93
  0
VERTEX
  8
LAYER_1
 10
130.0304
 20
36.8935
  0
VERTEX
  8
LAYER_1
 10
129.8954
 20
36.7954
  0
VERTEX
  8
LAYER_1
 10
129.8106
 20
36.652
  0
VERTEX
  8
LAYER_1
 10
129.7817
 20
36.4805
  0
VERTEX
  8
LAYER_1
 10
129.8116
 20
36.3089
  0
VERTEX
  8
LAYER_1
 10
129.8971
 20
36.1656
  0
VERTEX
  8
LAYER_1
 10
130.0321
 20
36.0674
 42
0.1009931409
  0
VERTEX
  8
LAYER_1
 10
130.2106
 20
36.0309
  0
VERTEX
  8
LAYER_1
 10
130.3798
 20
36.0674
 42
0.1319081761
  0
VERTEX
  8
LAYER_1
 10
130.5141
 20
36.1842
  0
SEQEND
  0
ENDBLK
  0
BLOCK
  8
LAYER_1
  2
AIGNBL01030024
 70
64
 10
0
 20
0
 30
0
  3
AIGNBL01030024
  0
POLYLINE
  8
LAYER_1
 40
0.05
 41
0.05
 66
1
 10
0
 20
0
 30
0
 70
1
  0
VERTEX
  8
LAYER_1
 10
131.0832
 20
36.0574
  0
VERTEX
  8
LAYER_1
 10
131.6365
 20
36.0574
  0
VERTEX
  8
LAYER_1
 10
131.6365
 20
35.9637
  0
VERTEX
  8
LAYER_1
 10
130.9782
 20
35.9637
  0
VERTEX
  8
LAYER_1
 10
130.9782
 20
36.9969
  0
VERTEX
  8
LAYER_1
 10
131.619
 20
36.9969
  0
VERTEX
  8
LAYER_1
 10
131.619
 20
36.9035
  0
VERTEX
  8
LAYER_1
 10
131.0832
 20
36.9035
  0
VERTEX
  8
LAYER_1
 10
131.0832
 20
36.549
  0
VERTEX
  8
LAYER_1
 10
131.5838
 20
36.549
  0
VERTEX
  8
LAYER_1
 10
131.5838
 20
36.4557
  0
VERTEX
  8
LAYER_1
 10
131.0832
 20
36.4557
  0
SEQEND
  0
ENDBLK
  0
BLOCK
  8
LAYER_1
  2
AIGNBL01020004
 70
64
 10
0
 20
0
 30
0
  3
AIGNBL01020004
  0
INSERT
  8
LAYER_1
  2
AIGNBL01030005
 10
0
 20
0
 30
0
  0
ENDBLK
  0
BLOCK
  8
LAYER_1
  2
AIGNBL0102000D
 70
64
 10
0
 20
0
 30
0
  3
AIGNBL0102000D
  0
INSERT
  8
LAYER_1
  2
AIGNBL0103000E
 10
0
 20
0
 30
0
  0
INSERT
  8
LAYER_1
  2
AIGNBL0103000F
 10
0
 20
0
 30
0
  0
INSERT
  8
LAYER_1
  2
AIGNBL01030010
 10
0
 20
0
 30
0
  0
INSERT
  8
LAYER_1
  2
AIGNBL01030011
 10
0
 20
0
 30
0
  0
INSERT
  8
LAYER_1
  2
AIGNBL01030012
 10
0
 20
0
 30
0
  0
INSERT
  8
LAYER_1
  2
AIGNBL01030013
 10
0
 20
0
 30
0
  0
INSERT
  8
LAYER_1
  2
AIGNBL01030014
 10
0
 20
0
 30
0
  0
INSERT
  8
LAYER_1
  2
AIGNBL01030015
 10
0
 20
0
 30
0
  0
INSERT
  8
LAYER_1
  2
AIGNBL01030016
 10
0
 20
0
 30
0
  0
INSERT
  8
LAYER_1
  2
AIGNBL01030017
 10
0
 20
0
 30
0
  0
INSERT
  8
LAYER_1
  2
AIGNBL01030018
 10
0
 20
0
 30
0
  0
INSERT
  8
LAYER_1
  2
AIGNBL01030019
 10
0
 20
0
 30
0
  0
INSERT
  8
LAYER_1
  2
AIGNBL0103001A
 10
0
 20
0
 30
0
  0
INSERT
  8
LAYER_1
  2
AIGNBL0103001B
 10
0
 20
0
 30
0
  0
INSERT
  8
LAYER_1
  2
AIGNBL0103001C
 10
0
 20
0
 30
0
  0
INSERT
  8
LAYER_1
  2
AIGNBL0103001D
 10
0
 20
0
 30
0
  0
INSERT
  8
LAYER_1
  2
AIGNBL0103001E
 10
0
 20
0
 30
0
  0
INSERT
  8
LAYER_1
  2
AIGNBL0103001F
 10
0
 20
0
 30
0
  0
INSERT
  8
LAYER_1
  2
AIGNBL01030020
 10
0
 20
0
 30
0
  0
INSERT
  8
LAYER_1
  2
AIGNBL01030021
 10
0
 20
0
 30
0
  0
INSERT
  8
LAYER_1
  2
AIGNBL01030022
 10
0
 20
0
 30
0
  0
INSERT
  8
LAYER_1
  2
AIGNBL01030023
 10
0
 20
0
 30
0
  0
INSERT
  8
LAYER_1
  2
AIGNBL01030024
 10
0
 20
0
 30
0
  0
ENDBLK
  0
BLOCK
  8
LAYER_1
  2
AIGNBL01010002
 70
64
 10
0
 20
0
 30
0
  3
AIGNBL01010002
  0
POLYLINE
  8
LAYER_1
 40
0.7056
 41
0.7056
 66
1
 10
0
 20
0
 30
0
 70
1
  0
VERTEX
  8
LAYER_1
 10
251.6749
 20
230.337
  0
VERTEX
  8
LAYER_1
 10
251.6749
 20
33.3285
  0
VERTEX
  8
LAYER_1
 10
-30.3177
 20
33.3285
  0
VERTEX
  8
LAYER_1
 10
-30.3177
 20
230.337
  0
SEQEND
  0
ENDBLK
  0
BLOCK
  8
LAYER_1
  2
AIGNBL01010003
 70
64
 10
0
 20
0
 30
0
  3
AIGNBL01010003
  0
INSERT
  8
LAYER_1
  2
AIGNBL01020004
 10
0
 20
0
 30
0
  0
INSERT
  8
LAYER_1
  2
AIGNBL0102000D
 10
0
 20
0
 30
0
  0
ENDBLK
  0
ENDSEC
  0
SECTION
  2
ENTITIES
  0
TEXT
  8
LAYER_1
 10
-26.2556
 20
43.1712
 11
-26.2556
 21
43.1712
 40
3.2991
 41
0.5
  1
仕様
  0
POLYLINE
  8
LAYER_1
 40
0.3528
 41
0.3528
 66
1
 10
0
 20
0
 30
0
  0
VERTEX
  8
LAYER_1
 10
250.6748
 20
51.9507
  0
VERTEX
  8
LAYER_1
 10
-29.3346
 20
51.9507
  0
SEQEND
  0
INSERT
  8
LAYER_1
  2
AIGNBL01010002
 10
0
 20
0
 30
0
  0
POLYLINE
  8
LAYER_1
 40
0.3528
 41
0.3528
 66
1
 10
0
 20
0
 30
0
  0
VERTEX
  8
LAYER_1
 10
-29.3178
 20
229.3369
  0
VERTEX
  8
LAYER_1
 10
-29.3178
 20
34.3283
  0
VERTEX
  8
LAYER_1
 10
250.6748
 20
34.3283
  0
VERTEX
  8
LAYER_1
 10
250.6748
 20
229.3369
  0
VERTEX
  8
LAYER_1
 10
-29.3178
 20
229.3369
  0
SEQEND
  0
POLYLINE
  8
LAYER_1
 40
0.3528
 41
0.3528
 66
1
 10
0
 20
0
 30
0
  0
VERTEX
  8
LAYER_1
 10
250.6748
 20
60.4597
  0
VERTEX
  8
LAYER_1
 10
-29.3346
 20
60.4597
  0
SEQEND
  0
POLYLINE
  8
LAYER_1
 40
0.3528
 41
0.3528
 66
1
 10
0
 20
0
 30
0
  0
VERTEX
  8
LAYER_1
 10
250.6748
 20
43.4416
  0
VERTEX
  8
LAYER_1
 10
100.3837
 20
43.4416
  0
SEQEND
  0
TEXT
  8
LAYER_1
 10
188.1725
 20
45.7175
 11
188.1725
 21
45.7175
 40
3.7609
 41
0.5
  1
-
  0
TEXT
  8
LAYER_1
 10
182.8808
 20
49.4743
 11
182.8808
 21
49.4743
 40
2.1994
 41
0.5
  1
縮尺
  0
POLYLINE
  8
LAYER_1
 40
0.3528
 41
0.3528
 66
1
 10
0
 20
0
 30
0
  0
VERTEX
  8
LAYER_1
 10
181.3526
 20
43.4416
  0
VERTEX
  8
LAYER_1
 10
181.3526
 20
51.9507
  0
SEQEND
  0
TEXT
  8
LAYER_1
 10
101.641
 20
57.9834
 11
101.641
 21
57.9834
 40
2.1994
 41
0.5
  1
品番
  0
TEXT
  8
LAYER_1
 10
-28.1609
 20
57.9834
 11
-28.1609
 21
57.9834
 40
2.1994
 41
0.5
  1
品名
  0
TEXT
  8
LAYER_1
 10
101.641
 20
49.4743
 11
101.641
 21
49.4743
 40
2.1994
 41
0.5
  1
重量
  0
TEXT
  8
LAYER_1
 10
105.0013
 20
54.1714
 11
105.0013
 21
54.1714
 40
4.6883
 41
0.5
  1
SC-WB45D-
  0
TEXT
  8
LAYER_1
 10
107.1887
 20
45.7175
 11
107.1887
 21
45.7175
 40
3.7609
 41
0.5
  1
6kg
  0
POLYLINE
  8
LAYER_1
 40
0.3528
 41
0.3528
 66
1
 10
0
 20
0
 30
0
  0
VERTEX
  8
LAYER_1
 10
100.3837
 20
34.9539
  0
VERTEX
  8
LAYER_1
 10
100.3837
 20
60.4597
  0
SEQEND
  0
TEXT
  8
LAYER_1
 10
-15.2256
 20
54.786
 11
-15.2256
 21
54.786
 40
4.1459
 41
0.5
  1
Dilos450 クリスタルガラス手洗器
  0
TEXT
  8
LAYER_1
 10
-15.6835
 20
43.9625
 11
-15.6835
 21
43.9625
 40
3.5536
 41
0.5
  1
●サイズ  W450(%%p}10)×H110(%%p}10)mm●水栓取付穴：なし
  0
TEXT
  8
LAYER_1
 10
-15.6835
 20
39.2124
 11
-15.6835
 21
39.2124
 40
3.1172
 41
0.5
  1
●オーバーフローなし●排水金具別途●設置方法：カウンター置き
  0
TEXT
  8
LAYER_1
 10
237.263
 20
63.2582
 11
237.263
 21
63.2582
 40
2.9614
 41
0.5
  1
単位：mm
  0
TEXT
  8
LAYER_1
 10
-21.3096
 20
205.1359
 11
-21.3096
 21
205.1359
 40
2.9614
 41
0.5
  1
※本製品は吹きガラスによる一品生産品ですので、サイズ、彫刻(エングレビング)は同じ品番であっても
  0
TEXT
  8
LAYER_1
 10
-21.3096
 20
200.3859
 11
-21.3096
 21
200.3859
 40
2.9614
 41
0.5
  1
多少の違いが生じます。また、製品の特性上、小さな気泡が入る場合もございます。予めご了承ください。 
  0
TEXT
  8
LAYER_1
 10
-21.3096
 20
195.6359
 11
-21.3096
 21
195.6359
 40
2.9614
 41
0.5
  1
※混合栓のご使用は可能ですが、45℃までの温度設定でご使用ください。熱湯の吐水はしないでください。
  0
TEXT
  8
LAYER_1
 10
134.702
 20
39.5359
 11
134.702
 21
39.5359
 40
3.3848
 41
0.5
  1
●TEL 0120-65-1232●FAX 06-6532-1580
  0
TEXT
  8
LAYER_1
 10
134.702
 20
36.0212
 11
134.702
 21
36.0212
 40
3.3848
 41
0.5
  1
hits@hiratatile.co.jp
  0
TEXT
  8
LAYER_1
 10
240.3591
 20
225.8432
 11
240.3591
 21
225.8432
 40
2.073
 41
0.5
  1
230907RT
  0
INSERT
  8
LAYER_1
  2
AIGNBL01010003
 10
0
 20
0
 30
0
  0
POLYLINE
  8
LAYER_1
 40
0.0847
 41
0.0847
 66
1
 10
0
 20
0
 30
0
  0
VERTEX
  8
LAYER_1
 10
159.7648
 20
103.2576
  0
VERTEX
  8
LAYER_1
 10
229.2275
 20
103.2576
  0
SEQEND
  0
POLYLINE
  8
LAYER_1
 40
0.1693
 41
0.1693
 66
1
 10
0
 20
0
 30
0
  0
VERTEX
  8
LAYER_1
 10
66.8489
 20
125.9527
 42
0.4142558909
  0
VERTEX
  8
LAYER_1
 10
21.8485
 20
170.9319
 42
0.4143527981
  0
VERTEX
  8
LAYER_1
 10
-23.1306
 20
125.9527
 42
0.4142550455
  0
VERTEX
  8
LAYER_1
 10
21.8485
 20
80.9524
 42
0.4141582231
  0
VERTEX
  8
LAYER_1
 10
66.8489
 20
125.9527
  0
SEQEND
  0
POLYLINE
  8
LAYER_1
 40
0.0847
 41
0.0847
 66
1
 10
0
 20
0
 30
0
  0
VERTEX
  8
LAYER_1
 10
64.2454
 20
125.9527
 42
0.4142326006
  0
VERTEX
  8
LAYER_1
 10
21.8485
 20
168.3284
 42
0.414335457
  0
VERTEX
  8
LAYER_1
 10
-20.5271
 20
125.9527
 42
0.4142316688
  0
VERTEX
  8
LAYER_1
 10
21.8485
 20
83.5559
 42
0.4141289079
  0
VERTEX
  8
LAYER_1
 10
64.2454
 20
125.9527
  0
SEQEND
  0
POLYLINE
  8
LAYER_1
 40
0.0847
 41
0.0847
 66
1
 10
0
 20
0
 30
0
  0
VERTEX
  8
LAYER_1
 10
28.8547
 20
125.9527
 42
0.3937423056
  0
VERTEX
  8
LAYER_1
 10
21.8485
 20
132.9377
 42
0.413636244
  0
VERTEX
  8
LAYER_1
 10
14.8635
 20
125.9527
 42
0.4152771623
  0
VERTEX
  8
LAYER_1
 10
21.8485
 20
118.9466
 42
0.4146532801
  0
VERTEX
  8
LAYER_1
 10
28.8547
 20
125.9527
  0
SEQEND
  0
POLYLINE
  8
LAYER_1
 40
0.1693
 41
0.1693
 66
1
 10
0
 20
0
 30
0
  0
VERTEX
  8
LAYER_1
 10
26.357
 20
125.9527
 42
0.4129422345
  0
VERTEX
  8
LAYER_1
 10
21.8485
 20
130.4401
 42
0.4139142801
  0
VERTEX
  8
LAYER_1
 10
17.3612
 20
125.9527
 42
0.4129358066
  0
VERTEX
  8
LAYER_1
 10
21.8485
 20
121.4442
 42
0.4119722471
  0
VERTEX
  8
LAYER_1
 10
26.357
 20
125.9527
  0
SEQEND
  0
POLYLINE
  8
LAYER_1
 40
0.0847
 41
0.0847
 66
1
 10
0
 20
0
 30
0
  0
VERTEX
  8
LAYER_1
 10
79.1006
 20
80.9312
  0
VERTEX
  8
LAYER_1
 10
79.1006
 20
170.9319
  0
SEQEND
  0
POLYLINE
  8
LAYER_1
 40
0.1693
 41
0.1693
 66
1
 10
0
 20
0
 30
0
  0
VERTEX
  8
LAYER_1
 10
79.1006
 20
80.9312
  0
VERTEX
  8
LAYER_1
 10
78.6985
 20
82.3917
  0
SEQEND
  0
POLYLINE
  8
LAYER_1
 40
0.1693
 41
0.1693
 66
1
 10
0
 20
0
 30
0
  0
VERTEX
  8
LAYER_1
 10
79.1006
 20
80.9312
  0
VERTEX
  8
LAYER_1
 10
79.4816
 20
82.3917
  0
SEQEND
  0
POLYLINE
  8
LAYER_1
 40
0.1693
 41
0.1693
 66
1
 10
0
 20
0
 30
0
  0
VERTEX
  8
LAYER_1
 10
79.1006
 20
170.9319
  0
VERTEX
  8
LAYER_1
 10
79.4816
 20
169.4926
  0
SEQEND
  0
POLYLINE
  8
LAYER_1
 40
0.1693
 41
0.1693
 66
1
 10
0
 20
0
 30
0
  0
VERTEX
  8
LAYER_1
 10
79.1006
 20
170.9319
  0
VERTEX
  8
LAYER_1
 10
78.6985
 20
169.4926
  0
SEQEND
  0
POLYLINE
  8
LAYER_1
 40
0.0847
 41
0.0847
 66
1
 10
0
 20
0
 30
0
  0
VERTEX
  8
LAYER_1
 10
41.6604
 20
80.9312
  0
VERTEX
  8
LAYER_1
 10
79.1006
 20
80.9312
  0
SEQEND
  0
POLYLINE
  8
LAYER_1
 40
0.0847
 41
0.0847
 66
1
 10
0
 20
0
 30
0
  0
VERTEX
  8
LAYER_1
 10
41.6604
 20
170.9319
  0
VERTEX
  8
LAYER_1
 10
79.1006
 20
170.9319
  0
SEQEND
  0
POLYLINE
  8
LAYER_1
 40
0.0847
 41
0.0847
 66
1
 10
0
 20
0
 30
0
  0
VERTEX
  8
LAYER_1
 10
181.0426
 20
135.9417
  0
VERTEX
  8
LAYER_1
 10
186.0591
 20
135.9417
  0
SEQEND
  0
POLYLINE
  8
LAYER_1
 40
0.0847
 41
0.0847
 66
1
 10
0
 20
0
 30
0
  0
VERTEX
  8
LAYER_1
 10
188.7473
 20
135.9417
  0
VERTEX
  8
LAYER_1
 10
193.7426
 20
135.9417
  0
SEQEND
  0
POLYLINE
  8
LAYER_1
 40
0.0847
 41
0.0847
 66
1
 10
0
 20
0
 30
0
  0
VERTEX
  8
LAYER_1
 10
186.0591
 20
135.9417
  0
VERTEX
  8
LAYER_1
 10
188.7473
 20
135.9417
  0
SEQEND
  0
POLYLINE
  8
LAYER_1
 40
0.1693
 41
0.1693
 66
1
 10
0
 20
0
 30
0
  0
VERTEX
  8
LAYER_1
 10
186.0591
 20
135.9417
  0
VERTEX
  8
LAYER_1
 10
184.5986
 20
135.5607
  0
SEQEND
  0
POLYLINE
  8
LAYER_1
 40
0.1693
 41
0.1693
 66
1
 10
0
 20
0
 30
0
  0
VERTEX
  8
LAYER_1
 10
186.0591
 20
135.9417
  0
VERTEX
  8
LAYER_1
 10
184.5986
 20
136.3227
  0
SEQEND
  0
POLYLINE
  8
LAYER_1
 40
0.1693
 41
0.1693
 66
1
 10
0
 20
0
 30
0
  0
VERTEX
  8
LAYER_1
 10
188.7473
 20
135.9417
  0
VERTEX
  8
LAYER_1
 10
190.1867
 20
136.3227
  0
SEQEND
  0
POLYLINE
  8
LAYER_1
 40
0.1693
 41
0.1693
 66
1
 10
0
 20
0
 30
0
  0
VERTEX
  8
LAYER_1
 10
188.7473
 20
135.9417
  0
VERTEX
  8
LAYER_1
 10
190.1867
 20
135.5607
  0
SEQEND
  0
POLYLINE
  8
LAYER_1
 40
0.0847
 41
0.0847
 66
1
 10
0
 20
0
 30
0
  0
VERTEX
  8
LAYER_1
 10
186.0591
 20
130.1181
  0
VERTEX
  8
LAYER_1
 10
186.0591
 20
135.9417
  0
SEQEND
  0
POLYLINE
  8
LAYER_1
 40
0.0847
 41
0.0847
 66
1
 10
0
 20
0
 30
0
  0
VERTEX
  8
LAYER_1
 10
188.7473
 20
130.1181
  0
VERTEX
  8
LAYER_1
 10
188.7473
 20
135.9417
  0
SEQEND
  0
POLYLINE
  8
LAYER_1
 40
0.0847
 41
0.0847
 66
1
 10
0
 20
0
 30
0
  0
VERTEX
  8
LAYER_1
 10
98.7466
 20
149.9541
  0
VERTEX
  8
LAYER_1
 10
188.7473
 20
149.9541
  0
SEQEND
  0
POLYLINE
  8
LAYER_1
 40
0.1693
 41
0.1693
 66
1
 10
0
 20
0
 30
0
  0
VERTEX
  8
LAYER_1
 10
188.7473
 20
149.9541
  0
VERTEX
  8
LAYER_1
 10
187.2868
 20
149.5519
  0
SEQEND
  0
POLYLINE
  8
LAYER_1
 40
0.1693
 41
0.1693
 66
1
 10
0
 20
0
 30
0
  0
VERTEX
  8
LAYER_1
 10
188.7473
 20
149.9541
  0
VERTEX
  8
LAYER_1
 10
187.2868
 20
150.3351
  0
SEQEND
  0
POLYLINE
  8
LAYER_1
 40
0.1693
 41
0.1693
 66
1
 10
0
 20
0
 30
0
  0
VERTEX
  8
LAYER_1
 10
98.7466
 20
149.9541
  0
VERTEX
  8
LAYER_1
 10
100.2072
 20
150.3351
  0
SEQEND
  0
POLYLINE
  8
LAYER_1
 40
0.1693
 41
0.1693
 66
1
 10
0
 20
0
 30
0
  0
VERTEX
  8
LAYER_1
 10
98.7466
 20
149.9541
  0
VERTEX
  8
LAYER_1
 10
100.2072
 20
149.5519
  0
SEQEND
  0
POLYLINE
  8
LAYER_1
 40
0.0847
 41
0.0847
 66
1
 10
0
 20
0
 30
0
  0
VERTEX
  8
LAYER_1
 10
188.7473
 20
130.1181
  0
VERTEX
  8
LAYER_1
 10
188.7473
 20
149.9541
  0
SEQEND
  0
POLYLINE
  8
LAYER_1
 40
0.0847
 41
0.0847
 66
1
 10
0
 20
0
 30
0
  0
VERTEX
  8
LAYER_1
 10
98.7466
 20
130.1181
  0
VERTEX
  8
LAYER_1
 10
98.7466
 20
149.9541
  0
SEQEND
  0
TEXT
  8
LAYER_1
 10
190.5712
 20
141.83
 11
190.5712
 21
141.83
 40
3.6606
 41
0.5
  1
13014
  0
TEXT
  8
LAYER_1
 10
190.5712
 20
138.3434
 11
190.5712
 21
138.3434
 40
3.6606
 41
0.5
  1
（%%p}3mm）
  0
POLYLINE
  8
LAYER_1
 40
0.1693
 41
0.1693
 66
1
 10
0
 20
0
 30
0
  0
VERTEX
  8
LAYER_1
 10
229.2275
 20
123.8739
  0
VERTEX
  8
LAYER_1
 10
229.6085
 20
122.4134
  0
SEQEND
  0
POLYLINE
  8
LAYER_1
 40
0.1693
 41
0.1693
 66
1
 10
0
 20
0
 30
0
  0
VERTEX
  8
LAYER_1
 10
229.2275
 20
123.8739
  0
VERTEX
  8
LAYER_1
 10
228.8254
 20
122.4134
  0
SEQEND
  0
POLYLINE
  8
LAYER_1
 40
0.0847
 41
0.0847
 66
1
 10
0
 20
0
 30
0
  0
VERTEX
  8
LAYER_1
 10
190.9166
 20
123.8739
  0
VERTEX
  8
LAYER_1
 10
229.2275
 20
123.8739
  0
SEQEND
  0
POLYLINE
  8
LAYER_1
 40
0.0847
 41
0.0847
 66
1
 10
0
 20
0
 30
0
  0
VERTEX
  8
LAYER_1
 10
215.9566
 20
114.8569
  0
VERTEX
  8
LAYER_1
 10
215.9566
 20
119.8734
  0
SEQEND
  0
POLYLINE
  8
LAYER_1
 40
0.0847
 41
0.0847
 66
1
 10
0
 20
0
 30
0
  0
VERTEX
  8
LAYER_1
 10
215.9566
 20
123.8739
  0
VERTEX
  8
LAYER_1
 10
215.9566
 20
128.8692
  0
SEQEND
  0
POLYLINE
  8
LAYER_1
 40
0.0847
 41
0.0847
 66
1
 10
0
 20
0
 30
0
  0
VERTEX
  8
LAYER_1
 10
215.9566
 20
119.8734
  0
VERTEX
  8
LAYER_1
 10
215.9566
 20
123.8739
  0
SEQEND
  0
POLYLINE
  8
LAYER_1
 40
0.1693
 41
0.1693
 66
1
 10
0
 20
0
 30
0
  0
VERTEX
  8
LAYER_1
 10
215.9566
 20
119.8734
  0
VERTEX
  8
LAYER_1
 10
216.3376
 20
118.4129
  0
SEQEND
  0
POLYLINE
  8
LAYER_1
 40
0.1693
 41
0.1693
 66
1
 10
0
 20
0
 30
0
  0
VERTEX
  8
LAYER_1
 10
215.9566
 20
119.8734
  0
VERTEX
  8
LAYER_1
 10
215.5544
 20
118.4129
  0
SEQEND
  0
POLYLINE
  8
LAYER_1
 40
0.1693
 41
0.1693
 66
1
 10
0
 20
0
 30
0
  0
VERTEX
  8
LAYER_1
 10
215.9566
 20
123.8739
  0
VERTEX
  8
LAYER_1
 10
215.5544
 20
125.3133
  0
SEQEND
  0
POLYLINE
  8
LAYER_1
 40
0.1693
 41
0.1693
 66
1
 10
0
 20
0
 30
0
  0
VERTEX
  8
LAYER_1
 10
215.9566
 20
123.8739
  0
VERTEX
  8
LAYER_1
 10
216.3376
 20
125.3133
  0
SEQEND
  0
POLYLINE
  8
LAYER_1
 40
0.0847
 41
0.0847
 66
1
 10
0
 20
0
 30
0
  0
VERTEX
  8
LAYER_1
 10
190.9166
 20
119.8734
  0
VERTEX
  8
LAYER_1
 10
215.9566
 20
119.8734
  0
SEQEND
  0
POLYLINE
  8
LAYER_1
 40
0.0847
 41
0.0847
 66
1
 10
0
 20
0
 30
0
  0
VERTEX
  8
LAYER_1
 10
190.9166
 20
123.8739
  0
VERTEX
  8
LAYER_1
 10
215.9566
 20
123.8739
  0
SEQEND
  0
TEXT
  8
LAYER_1
 10
78.233
 20
113.8241
 11
78.233
 21
113.8241
 40
3.6606
 41
0.5
 50
89.99999999
  1
%%c450（%%p}10mm)
  0
TEXT
  8
LAYER_1
 10
131.6396
 20
150.8638
 11
131.6396
 21
150.8638
 40
3.6606
 41
0.5
  1
%%c450（%%p}10mm)
  0
POLYLINE
  8
LAYER_1
 40
0.0847
 41
0.0847
 66
1
 10
0
 20
0
 30
0
  0
VERTEX
  8
LAYER_1
 10
41.8087
 20
121.4442
  0
VERTEX
  8
LAYER_1
 10
41.8087
 20
130.4401
  0
SEQEND
  0
POLYLINE
  8
LAYER_1
 40
0.1693
 41
0.1693
 66
1
 10
0
 20
0
 30
0
  0
VERTEX
  8
LAYER_1
 10
41.8087
 20
130.4401
  0
VERTEX
  8
LAYER_1
 10
42.2109
 20
129.0007
  0
SEQEND
  0
POLYLINE
  8
LAYER_1
 40
0.1693
 41
0.1693
 66
1
 10
0
 20
0
 30
0
  0
VERTEX
  8
LAYER_1
 10
41.8087
 20
130.4401
  0
VERTEX
  8
LAYER_1
 10
41.4277
 20
129.0007
  0
SEQEND
  0
POLYLINE
  8
LAYER_1
 40
0.1693
 41
0.1693
 66
1
 10
0
 20
0
 30
0
  0
VERTEX
  8
LAYER_1
 10
41.8087
 20
121.4442
  0
VERTEX
  8
LAYER_1
 10
41.4277
 20
122.8836
  0
SEQEND
  0
POLYLINE
  8
LAYER_1
 40
0.1693
 41
0.1693
 66
1
 10
0
 20
0
 30
0
  0
VERTEX
  8
LAYER_1
 10
41.8087
 20
121.4442
  0
VERTEX
  8
LAYER_1
 10
42.2109
 20
122.8836
  0
SEQEND
  0
POLYLINE
  8
LAYER_1
 40
0.0847
 41
0.0847
 66
1
 10
0
 20
0
 30
0
  0
VERTEX
  8
LAYER_1
 10
0.0469
 20
118.9466
  0
VERTEX
  8
LAYER_1
 10
0.0469
 20
132.9377
  0
SEQEND
  0
POLYLINE
  8
LAYER_1
 40
0.1693
 41
0.1693
 66
1
 10
0
 20
0
 30
0
  0
VERTEX
  8
LAYER_1
 10
0.0469
 20
132.9377
  0
VERTEX
  8
LAYER_1
 10
0.4491
 20
131.4984
  0
SEQEND
  0
POLYLINE
  8
LAYER_1
 40
0.1693
 41
0.1693
 66
1
 10
0
 20
0
 30
0
  0
VERTEX
  8
LAYER_1
 10
0.0469
 20
132.9377
  0
VERTEX
  8
LAYER_1
 10
-0.3341
 20
131.4984
  0
SEQEND
  0
POLYLINE
  8
LAYER_1
 40
0.1693
 41
0.1693
 66
1
 10
0
 20
0
 30
0
  0
VERTEX
  8
LAYER_1
 10
0.0469
 20
118.9466
  0
VERTEX
  8
LAYER_1
 10
-0.3341
 20
120.3859
  0
SEQEND
  0
POLYLINE
  8
LAYER_1
 40
0.1693
 41
0.1693
 66
1
 10
0
 20
0
 30
0
  0
VERTEX
  8
LAYER_1
 10
0.0469
 20
118.9466
  0
VERTEX
  8
LAYER_1
 10
0.4491
 20
120.3859
  0
SEQEND
  0
TEXT
  8
LAYER_1
 10
41.2161
 20
122.5658
 11
41.2161
 21
122.5658
 40
3.6606
 41
0.5
 50
89.99999999
  1
%%c45
  0
POLYLINE
  8
LAYER_1
 40
0.0847
 41
0.0847
 66
1
 10
0
 20
0
 30
0
  0
VERTEX
  8
LAYER_1
 10
0.0469
 20
132.9377
  0
VERTEX
  8
LAYER_1
 10
18.6735
 20
132.9377
  0
SEQEND
  0
POLYLINE
  8
LAYER_1
 40
0.0847
 41
0.0847
 66
1
 10
0
 20
0
 30
0
  0
VERTEX
  8
LAYER_1
 10
0.0469
 20
118.9466
  0
VERTEX
  8
LAYER_1
 10
18.6735
 20
118.9466
  0
SEQEND
  0
POLYLINE
  8
LAYER_1
 40
0.0847
 41
0.0847
 66
1
 10
0
 20
0
 30
0
  0
VERTEX
  8
LAYER_1
 10
25.5527
 20
130.4401
  0
VERTEX
  8
LAYER_1
 10
41.8087
 20
130.4401
  0
SEQEND
  0
POLYLINE
  8
LAYER_1
 40
0.0847
 41
0.0847
 66
1
 10
0
 20
0
 30
0
  0
VERTEX
  8
LAYER_1
 10
25.5527
 20
121.4442
  0
VERTEX
  8
LAYER_1
 10
41.8087
 20
121.4442
  0
SEQEND
  0
TEXT
  8
LAYER_1
 10
-0.5457
 20
115.5597
 11
-0.5457
 21
115.5597
 40
3.6606
 41
0.5
 50
89.99999999
  1
%%c70（%%p}2mm)
  0
TEXT
  8
LAYER_1
 10
215.0186
 20
124.3187
 11
215.0186
 21
124.3187
 40
3.6606
 41
0.5
 50
89.99999999
  1
20（%%p}3mm)
  0
POLYLINE
  8
LAYER_1
 40
0.0847
 41
0.0847
 66
1
 10
0
 20
0
 30
0
  0
VERTEX
  8
LAYER_1
 10
136.762
 20
76.1219
  0
VERTEX
  8
LAYER_1
 10
150.732
 20
76.1219
  0
SEQEND
  0
POLYLINE
  8
LAYER_1
 40
0.1693
 41
0.1693
 66
1
 10
0
 20
0
 30
0
  0
VERTEX
  8
LAYER_1
 10
136.762
 20
76.1219
  0
VERTEX
  8
LAYER_1
 10
138.2013
 20
76.5029
  0
SEQEND
  0
POLYLINE
  8
LAYER_1
 40
0.1693
 41
0.1693
 66
1
 10
0
 20
0
 30
0
  0
VERTEX
  8
LAYER_1
 10
136.762
 20
76.1219
  0
VERTEX
  8
LAYER_1
 10
138.2013
 20
75.7198
  0
SEQEND
  0
POLYLINE
  8
LAYER_1
 40
0.1693
 41
0.1693
 66
1
 10
0
 20
0
 30
0
  0
VERTEX
  8
LAYER_1
 10
150.732
 20
76.1219
  0
VERTEX
  8
LAYER_1
 10
149.2926
 20
75.7198
  0
SEQEND
  0
POLYLINE
  8
LAYER_1
 40
0.1693
 41
0.1693
 66
1
 10
0
 20
0
 30
0
  0
VERTEX
  8
LAYER_1
 10
150.732
 20
76.1219
  0
VERTEX
  8
LAYER_1
 10
149.2926
 20
76.5029
  0
SEQEND
  0
POLYLINE
  8
LAYER_1
 40
0.0847
 41
0.0847
 66
1
 10
0
 20
0
 30
0
  0
VERTEX
  8
LAYER_1
 10
136.762
 20
76.1219
  0
VERTEX
  8
LAYER_1
 10
136.762
 20
98.4316
  0
SEQEND
  0
POLYLINE
  8
LAYER_1
 40
0.0847
 41
0.0847
 66
1
 10
0
 20
0
 30
0
  0
VERTEX
  8
LAYER_1
 10
150.732
 20
76.1219
  0
VERTEX
  8
LAYER_1
 10
150.732
 20
98.4316
  0
SEQEND
  0
TEXT
  8
LAYER_1
 10
140.3815
 20
77.0321
 11
140.3815
 21
77.0321
 40
3.6606
 41
0.5
  1
%%c70
  0
TEXT
  8
LAYER_1
 10
135.9157
 20
70.9357
 11
135.9157
 21
70.9357
 40
3.6606
 41
0.5
  1
（%%p}5mm）
  0
POLYLINE
  8
LAYER_1
 40
0.0847
 41
0.0847
 66
1
 10
0
 20
0
 30
0
  0
VERTEX
  8
LAYER_1
 10
105.7316
 20
98.2622
  0
VERTEX
  8
LAYER_1
 10
105.7316
 20
103.2576
  0
SEQEND
  0
POLYLINE
  8
LAYER_1
 40
0.1693
 41
0.1693
 66
1
 10
0
 20
0
 30
0
  0
VERTEX
  8
LAYER_1
 10
99.7838
 20
121.2916
  0
VERTEX
  8
LAYER_1
 10
99.805
 20
121.2493
  0
VERTEX
  8
LAYER_1
 10
99.8261
 20
121.2069
  0
VERTEX
  8
LAYER_1
 10
99.8261
 20
121.1858
  0
VERTEX
  8
LAYER_1
 10
99.8473
 20
121.1434
  0
VERTEX
  8
LAYER_1
 10
99.8685
 20
121.1011
  0
VERTEX
  8
LAYER_1
 10
99.8896
 20
121.0588
  0
VERTEX
  8
LAYER_1
 10
99.9108
 20
121.0376
  0
VERTEX
  8
LAYER_1
 10
99.932
 20
120.9952
  0
VERTEX
  8
LAYER_1
 10
99.9532
 20
120.9529
  0
VERTEX
  8
LAYER_1
 10
99.9743
 20
120.9106
  0
VERTEX
  8
LAYER_1
 10
99.9955
 20
120.8682
  0
VERTEX
  8
LAYER_1
 10
100.0167
 20
120.8471
  0
VERTEX
  8
LAYER_1
 10
100.0378
 20
120.8048
  0
VERTEX
  8
LAYER_1
 10
100.059
 20
120.7624
  0
VERTEX
  8
LAYER_1
 10
100.1013
 20
120.7201
  0
VERTEX
  8
LAYER_1
 10
100.1225
 20
120.6778
  0
VERTEX
  8
LAYER_1
 10
100.1436
 20
120.6354
  0
VERTEX
  8
LAYER_1
 10
100.1648
 20
120.6143
  0
VERTEX
  8
LAYER_1
 10
100.2072
 20
120.5719
  0
VERTEX
  8
LAYER_1
 10
100.2283
 20
120.5296
  0
VERTEX
  8
LAYER_1
 10
100.2707
 20
120.4872
  0
VERTEX
  8
LAYER_1
 10
100.2918
 20
120.4449
  0
VERTEX
  8
LAYER_1
 10
100.313
 20
120.4237
  0
VERTEX
  8
LAYER_1
 10
100.3553
 20
120.3814
  0
VERTEX
  8
LAYER_1
 10
100.3765
 20
120.3391
  0
VERTEX
  8
LAYER_1
 10
100.4188
 20
120.2968
  0
VERTEX
  8
LAYER_1
 10
100.44
 20
120.2544
  0
VERTEX
  8
LAYER_1
 10
100.4823
 20
120.2333
  0
VERTEX
  8
LAYER_1
 10
100.5247
 20
120.1909
  0
VERTEX
  8
LAYER_1
 10
100.5458
 20
120.1486
  0
VERTEX
  8
LAYER_1
 10
100.5881
 20
120.1063
  0
VERTEX
  8
LAYER_1
 10
100.6305
 20
120.0851
  0
VERTEX
  8
LAYER_1
 10
100.6516
 20
120.0428
  0
VERTEX
  8
LAYER_1
 10
100.694
 20
120.0004
  0
VERTEX
  8
LAYER_1
 10
100.7363
 20
119.9793
  0
VERTEX
  8
LAYER_1
 10
100.7575
 20
119.9369
  0
VERTEX
  8
LAYER_1
 10
100.7998
 20
119.9157
  0
VERTEX
  8
LAYER_1
 10
100.8421
 20
119.8734
  0
VERTEX
  8
LAYER_1
 10
100.8633
 20
119.8311
  0
VERTEX
  8
LAYER_1
 10
100.9056
 20
119.8099
  0
VERTEX
  8
LAYER_1
 10
100.948
 20
119.7676
  0
VERTEX
  8
LAYER_1
 10
100.9903
 20
119.7464
  0
VERTEX
  8
LAYER_1
 10
101.0115
 20
119.7253
  0
VERTEX
  8
LAYER_1
 10
101.0538
 20
119.6829
  0
VERTEX
  8
LAYER_1
 10
101.0962
 20
119.6618
  0
VERTEX
  8
LAYER_1
 10
101.1385
 20
119.6194
  0
VERTEX
  8
LAYER_1
 10
101.1808
 20
119.5983
  0
VERTEX
  8
LAYER_1
 10
101.202
 20
119.5771
  0
VERTEX
  8
LAYER_1
 10
101.2443
 20
119.5348
  0
VERTEX
  8
LAYER_1
 10
101.2867
 20
119.5136
  0
VERTEX
  8
LAYER_1
 10
101.329
 20
119.4924
  0
VERTEX
  8
LAYER_1
 10
101.3502
 20
119.4713
  0
VERTEX
  8
LAYER_1
 10
101.3925
 20
119.4501
  0
VERTEX
  8
LAYER_1
 10
101.4348
 20
119.4289
  0
VERTEX
  8
LAYER_1
 10
101.4771
 20
119.4077
  0
VERTEX
  8
LAYER_1
 10
101.5195
 20
119.3866
  0
VERTEX
  8
LAYER_1
 10
101.5407
 20
119.3654
  0
VERTEX
  8
LAYER_1
 10
101.583
 20
119.3442
  0
VERTEX
  8
LAYER_1
 10
101.6253
 20
119.3231
  0
VERTEX
  8
LAYER_1
 10
101.6465
 20
119.3019
  0
VERTEX
  8
LAYER_1
 10
101.6888
 20
119.2807
  0
VERTEX
  8
LAYER_1
 10
101.7311
 20
119.2596
  0
VERTEX
  8
LAYER_1
 10
101.7523
 20
119.2596
  0
SEQEND
  0
POLYLINE
  8
LAYER_1
 40
0.1693
 41
0.1693
 66
1
 10
0
 20
0
 30
0
  0
VERTEX
  8
LAYER_1
 10
99.1277
 20
123.8739
 42
0.4167291673
  0
VERTEX
  8
LAYER_1
 10
98.7467
 20
123.4929
  0
SEQEND
  0
POLYLINE
  8
LAYER_1
 40
0.1693
 41
0.1693
 66
1
 10
0
 20
0
 30
0
  0
VERTEX
  8
LAYER_1
 10
99.7838
 20
121.2916
  0
VERTEX
  8
LAYER_1
 10
98.7466
 20
123.4718
  0
SEQEND
  0
POLYLINE
  8
LAYER_1
 40
0.1693
 41
0.1693
 66
1
 10
0
 20
0
 30
0
  0
VERTEX
  8
LAYER_1
 10
185.7417
 20
119.2596
  0
VERTEX
  8
LAYER_1
 10
185.784
 20
119.2596
  0
VERTEX
  8
LAYER_1
 10
185.8052
 20
119.2807
  0
VERTEX
  8
LAYER_1
 10
185.8475
 20
119.3019
  0
VERTEX
  8
LAYER_1
 10
185.8898
 20
119.3231
  0
VERTEX
  8
LAYER_1
 10
185.911
 20
119.3442
  0
VERTEX
  8
LAYER_1
 10
185.9533
 20
119.3654
  0
VERTEX
  8
LAYER_1
 10
185.9957
 20
119.3866
  0
VERTEX
  8
LAYER_1
 10
186.038
 20
119.4077
  0
VERTEX
  8
LAYER_1
 10
186.0592
 20
119.4289
  0
VERTEX
  8
LAYER_1
 10
186.1015
 20
119.4501
  0
VERTEX
  8
LAYER_1
 10
186.1438
 20
119.4712
  0
VERTEX
  8
LAYER_1
 10
186.1862
 20
119.4924
  0
VERTEX
  8
LAYER_1
 10
186.2073
 20
119.5136
  0
VERTEX
  8
LAYER_1
 10
186.2497
 20
119.5559
  0
VERTEX
  8
LAYER_1
 10
186.292
 20
119.5771
  0
VERTEX
  8
LAYER_1
 10
186.3343
 20
119.5983
  0
VERTEX
  8
LAYER_1
 10
186.3555
 20
119.6406
  0
VERTEX
  8
LAYER_1
 10
186.3978
 20
119.6618
  0
VERTEX
  8
LAYER_1
 10
186.4402
 20
119.6829
  0
VERTEX
  8
LAYER_1
 10
186.4825
 20
119.7253
  0
VERTEX
  8
LAYER_1
 10
186.5248
 20
119.7464
  0
VERTEX
  8
LAYER_1
 10
186.546
 20
119.7888
  0
VERTEX
  8
LAYER_1
 10
186.5883
 20
119.8099
  0
VERTEX
  8
LAYER_1
 10
186.6307
 20
119.8522
  0
VERTEX
  8
LAYER_1
 10
186.673
 20
119.8734
  0
VERTEX
  8
LAYER_1
 10
186.6942
 20
119.9157
  0
VERTEX
  8
LAYER_1
 10
186.7365
 20
119.9369
  0
VERTEX
  8
LAYER_1
 10
186.7788
 20
119.9792
  0
VERTEX
  8
LAYER_1
 10
186.8
 20
120.0216
  0
VERTEX
  8
LAYER_1
 10
186.8423
 20
120.0427
  0
VERTEX
  8
LAYER_1
 10
186.8847
 20
120.0851
  0
VERTEX
  8
LAYER_1
 10
186.9058
 20
120.1274
  0
VERTEX
  8
LAYER_1
 10
186.9482
 20
120.1486
  0
VERTEX
  8
LAYER_1
 10
186.9905
 20
120.1909
  0
VERTEX
  8
LAYER_1
 10
187.0117
 20
120.2333
  0
VERTEX
  8
LAYER_1
 10
187.054
 20
120.2756
  0
VERTEX
  8
LAYER_1
 10
187.0752
 20
120.2968
  0
VERTEX
  8
LAYER_1
 10
187.1175
 20
120.3391
  0
VERTEX
  8
LAYER_1
 10
187.1387
 20
120.3814
  0
VERTEX
  8
LAYER_1
 10
187.181
 20
120.4237
  0
VERTEX
  8
LAYER_1
 10
187.2022
 20
120.4661
  0
VERTEX
  8
LAYER_1
 10
187.2445
 20
120.4872
  0
VERTEX
  8
LAYER_1
 10
187.2657
 20
120.5296
  0
VERTEX
  8
LAYER_1
 10
187.2868
 20
120.5719
  0
VERTEX
  8
LAYER_1
 10
187.3292
 20
120.6143
  0
VERTEX
  8
LAYER_1
 10
187.3503
 20
120.6566
  0
VERTEX
  8
LAYER_1
 10
187.3715
 20
120.6989
  0
VERTEX
  8
LAYER_1
 10
187.4138
 20
120.7201
  0
VERTEX
  8
LAYER_1
 10
187.435
 20
120.7624
  0
VERTEX
  8
LAYER_1
 10
187.4562
 20
120.8048
  0
VERTEX
  8
LAYER_1
 10
187.4773
 20
120.8471
  0
VERTEX
  8
LAYER_1
 10
187.4985
 20
120.8894
  0
VERTEX
  8
LAYER_1
 10
187.5197
 20
120.9317
  0
VERTEX
  8
LAYER_1
 10
187.5408
 20
120.9529
  0
VERTEX
  8
LAYER_1
 10
187.562
 20
120.9952
  0
VERTEX
  8
LAYER_1
 10
187.5832
 20
121.0376
  0
VERTEX
  8
LAYER_1
 10
187.6043
 20
121.0799
  0
VERTEX
  8
LAYER_1
 10
187.6255
 20
121.1011
  0
VERTEX
  8
LAYER_1
 10
187.6467
 20
121.1434
  0
VERTEX
  8
LAYER_1
 10
187.6678
 20
121.1858
  0
VERTEX
  8
LAYER_1
 10
187.6678
 20
121.2281
  0
VERTEX
  8
LAYER_1
 10
187.689
 20
121.2493
  0
VERTEX
  8
LAYER_1
 10
187.7102
 20
121.2916
  0
VERTEX
  8
LAYER_1
 10
188.7473
 20
123.4718
  0
SEQEND
  0
POLYLINE
  8
LAYER_1
 40
0.1693
 41
0.1693
 66
1
 10
0
 20
0
 30
0
  0
VERTEX
  8
LAYER_1
 10
99.1488
 20
123.8739
  0
VERTEX
  8
LAYER_1
 10
188.3452
 20
123.8739
  0
SEQEND
  0
POLYLINE
  8
LAYER_1
 40
0.1693
 41
0.1693
 66
1
 10
0
 20
0
 30
0
  0
VERTEX
  8
LAYER_1
 10
188.7473
 20
123.4929
 42
0.385472627
  0
VERTEX
  8
LAYER_1
 10
188.3451
 20
123.8739
  0
VERTEX
  8
LAYER_1
 10
188.324
 20
123.8739
  0
SEQEND
  0
POLYLINE
  8
LAYER_1
 40
0.1693
 41
0.1693
 66
1
 10
0
 20
0
 30
0
  0
VERTEX
  8
LAYER_1
 10
185.7416
 20
119.2596
  0
VERTEX
  8
LAYER_1
 10
150.732
 20
103.8714
  0
SEQEND
  0
POLYLINE
  8
LAYER_1
 40
0.1693
 41
0.1693
 66
1
 10
0
 20
0
 30
0
  0
VERTEX
  8
LAYER_1
 10
185.7416
 20
119.2596
  0
VERTEX
  8
LAYER_1
 10
185.784
 20
119.2596
  0
VERTEX
  8
LAYER_1
 10
185.8051
 20
119.2807
  0
VERTEX
  8
LAYER_1
 10
185.8475
 20
119.3019
  0
VERTEX
  8
LAYER_1
 10
185.8898
 20
119.3231
  0
VERTEX
  8
LAYER_1
 10
185.911
 20
119.3442
  0
VERTEX
  8
LAYER_1
 10
185.9533
 20
119.3654
  0
VERTEX
  8
LAYER_1
 10
185.9956
 20
119.3866
  0
VERTEX
  8
LAYER_1
 10
186.038
 20
119.4077
  0
VERTEX
  8
LAYER_1
 10
186.0591
 20
119.4289
  0
VERTEX
  8
LAYER_1
 10
186.1015
 20
119.4501
  0
VERTEX
  8
LAYER_1
 10
186.1438
 20
119.4712
  0
VERTEX
  8
LAYER_1
 10
186.1861
 20
119.4924
  0
VERTEX
  8
LAYER_1
 10
186.2073
 20
119.5136
  0
VERTEX
  8
LAYER_1
 10
186.2496
 20
119.5559
  0
VERTEX
  8
LAYER_1
 10
186.292
 20
119.5771
  0
VERTEX
  8
LAYER_1
 10
186.3343
 20
119.5983
  0
VERTEX
  8
LAYER_1
 10
186.3555
 20
119.6406
  0
VERTEX
  8
LAYER_1
 10
186.3978
 20
119.6618
  0
VERTEX
  8
LAYER_1
 10
186.4401
 20
119.6829
  0
VERTEX
  8
LAYER_1
 10
186.4825
 20
119.7253
  0
VERTEX
  8
LAYER_1
 10
186.5248
 20
119.7464
  0
VERTEX
  8
LAYER_1
 10
186.546
 20
119.7888
  0
VERTEX
  8
LAYER_1
 10
186.5883
 20
119.8099
  0
VERTEX
  8
LAYER_1
 10
186.6306
 20
119.8522
  0
VERTEX
  8
LAYER_1
 10
186.673
 20
119.8734
  0
VERTEX
  8
LAYER_1
 10
186.6941
 20
119.9157
  0
VERTEX
  8
LAYER_1
 10
186.7365
 20
119.9369
  0
VERTEX
  8
LAYER_1
 10
186.7788
 20
119.9792
  0
VERTEX
  8
LAYER_1
 10
186.8
 20
120.0216
  0
VERTEX
  8
LAYER_1
 10
186.8423
 20
120.0427
  0
VERTEX
  8
LAYER_1
 10
186.8846
 20
120.0851
  0
VERTEX
  8
LAYER_1
 10
186.9058
 20
120.1274
  0
VERTEX
  8
LAYER_1
 10
186.9481
 20
120.1486
  0
VERTEX
  8
LAYER_1
 10
186.9905
 20
120.1909
  0
VERTEX
  8
LAYER_1
 10
187.0116
 20
120.2333
  0
VERTEX
  8
LAYER_1
 10
187.054
 20
120.2756
  0
VERTEX
  8
LAYER_1
 10
187.0752
 20
120.2968
  0
VERTEX
  8
LAYER_1
 10
187.1175
 20
120.3391
  0
VERTEX
  8
LAYER_1
 10
187.1386
 20
120.3814
  0
VERTEX
  8
LAYER_1
 10
187.181
 20
120.4237
  0
VERTEX
  8
LAYER_1
 10
187.2021
 20
120.4661
  0
VERTEX
  8
LAYER_1
 10
187.2445
 20
120.4872
  0
VERTEX
  8
LAYER_1
 10
187.2656
 20
120.5296
  0
VERTEX
  8
LAYER_1
 10
187.2868
 20
120.5719
  0
VERTEX
  8
LAYER_1
 10
187.3291
 20
120.6143
  0
VERTEX
  8
LAYER_1
 10
187.3503
 20
120.6566
  0
VERTEX
  8
LAYER_1
 10
187.3715
 20
120.6989
  0
VERTEX
  8
LAYER_1
 10
187.4138
 20
120.7201
  0
VERTEX
  8
LAYER_1
 10
187.435
 20
120.7624
  0
VERTEX
  8
LAYER_1
 10
187.4561
 20
120.8048
  0
VERTEX
  8
LAYER_1
 10
187.4773
 20
120.8471
  0
VERTEX
  8
LAYER_1
 10
187.4985
 20
120.8894
  0
VERTEX
  8
LAYER_1
 10
187.5196
 20
120.9317
  0
VERTEX
  8
LAYER_1
 10
187.5408
 20
120.9529
  0
VERTEX
  8
LAYER_1
 10
187.562
 20
120.9952
  0
VERTEX
  8
LAYER_1
 10
187.5831
 20
121.0376
  0
VERTEX
  8
LAYER_1
 10
187.6043
 20
121.0799
  0
VERTEX
  8
LAYER_1
 10
187.6255
 20
121.1011
  0
VERTEX
  8
LAYER_1
 10
187.6466
 20
121.1434
  0
VERTEX
  8
LAYER_1
 10
187.6678
 20
121.1858
  0
VERTEX
  8
LAYER_1
 10
187.6678
 20
121.2281
  0
VERTEX
  8
LAYER_1
 10
187.689
 20
121.2493
  0
VERTEX
  8
LAYER_1
 10
187.7101
 20
121.2916
  0
SEQEND
  0
POLYLINE
  8
LAYER_1
 40
0.1693
 41
0.1693
 66
1
 10
0
 20
0
 30
0
  0
VERTEX
  8
LAYER_1
 10
188.7473
 20
123.4929
 42
0.385472627
  0
VERTEX
  8
LAYER_1
 10
188.3451
 20
123.8739
  0
VERTEX
  8
LAYER_1
 10
188.324
 20
123.8739
  0
SEQEND
  0
POLYLINE
  8
LAYER_1
 40
0.1693
 41
0.1693
 66
1
 10
0
 20
0
 30
0
  0
VERTEX
  8
LAYER_1
 10
187.7101
 20
121.2916
  0
VERTEX
  8
LAYER_1
 10
188.7473
 20
123.4718
  0
SEQEND
  0
POLYLINE
  8
LAYER_1
 40
0.1693
 41
0.1693
 66
1
 10
0
 20
0
 30
0
  0
VERTEX
  8
LAYER_1
 10
101.7523
 20
119.2596
  0
VERTEX
  8
LAYER_1
 10
136.762
 20
103.8714
  0
SEQEND
  0
POLYLINE
  8
LAYER_1
 40
0.1693
 41
0.1693
 66
1
 10
0
 20
0
 30
0
  0
VERTEX
  8
LAYER_1
 10
185.7416
 20
119.2596
  0
VERTEX
  8
LAYER_1
 10
150.732
 20
103.8714
  0
SEQEND
  0
POLYLINE
  8
LAYER_1
 40
0.0847
 41
0.0847
 66
1
 10
0
 20
0
 30
0
  0
VERTEX
  8
LAYER_1
 10
136.762
 20
106.5384
  0
VERTEX
  8
LAYER_1
 10
136.762
 20
106.5807
  0
SEQEND
  0
POLYLINE
  8
LAYER_1
 40
0.0847
 41
0.0847
 66
1
 10
0
 20
0
 30
0
  0
VERTEX
  8
LAYER_1
 10
136.762
 20
106.6654
  0
VERTEX
  8
LAYER_1
 10
136.762
 20
106.7077
  0
SEQEND
  0
POLYLINE
  8
LAYER_1
 40
0.0847
 41
0.0847
 66
1
 10
0
 20
0
 30
0
  0
VERTEX
  8
LAYER_1
 10
136.762
 20
106.5384
  0
VERTEX
  8
LAYER_1
 10
136.762
 20
106.4961
  0
VERTEX
  8
LAYER_1
 10
136.762
 20
106.4749
  0
SEQEND
  0
POLYLINE
  8
LAYER_1
 40
0.0847
 41
0.0847
 66
1
 10
0
 20
0
 30
0
  0
VERTEX
  8
LAYER_1
 10
136.8043
 20
106.3691
  0
VERTEX
  8
LAYER_1
 10
136.8255
 20
106.3268
  0
VERTEX
  8
LAYER_1
 10
136.8466
 20
106.3268
  0
SEQEND
  0
POLYLINE
  8
LAYER_1
 40
0.0847
 41
0.0847
 66
1
 10
0
 20
0
 30
0
  0
VERTEX
  8
LAYER_1
 10
139.175
 20
103.9561
  0
VERTEX
  8
LAYER_1
 10
138.6035
 20
104.5487
  0
SEQEND
  0
POLYLINE
  8
LAYER_1
 40
0.0847
 41
0.0847
 66
1
 10
0
 20
0
 30
0
  0
VERTEX
  8
LAYER_1
 10
137.4393
 20
105.7341
  0
VERTEX
  8
LAYER_1
 10
136.8466
 20
106.3267
  0
SEQEND
  0
POLYLINE
  8
LAYER_1
 40
0.0847
 41
0.0847
 66
1
 10
0
 20
0
 30
0
  0
VERTEX
  8
LAYER_1
 10
139.2596
 20
103.7444
  0
VERTEX
  8
LAYER_1
 10
139.2596
 20
103.7656
  0
VERTEX
  8
LAYER_1
 10
139.2596
 20
103.8079
  0
SEQEND
  0
POLYLINE
  8
LAYER_1
 40
0.0847
 41
0.0847
 66
1
 10
0
 20
0
 30
0
  0
VERTEX
  8
LAYER_1
 10
139.1961
 20
103.9137
  0
VERTEX
  8
LAYER_1
 10
139.1961
 20
103.9349
  0
VERTEX
  8
LAYER_1
 10
139.175
 20
103.9561
  0
SEQEND
  0
POLYLINE
  8
LAYER_1
 40
0.0847
 41
0.0847
 66
1
 10
0
 20
0
 30
0
  0
VERTEX
  8
LAYER_1
 10
150.732
 20
106.5384
  0
VERTEX
  8
LAYER_1
 10
150.732
 20
106.5807
  0
SEQEND
  0
POLYLINE
  8
LAYER_1
 40
0.0847
 41
0.0847
 66
1
 10
0
 20
0
 30
0
  0
VERTEX
  8
LAYER_1
 10
150.732
 20
106.6654
  0
VERTEX
  8
LAYER_1
 10
150.732
 20
106.7077
  0
SEQEND
  0
POLYLINE
  8
LAYER_1
 40
0.0847
 41
0.0847
 66
1
 10
0
 20
0
 30
0
  0
VERTEX
  8
LAYER_1
 10
150.6473
 20
106.3267
  0
VERTEX
  8
LAYER_1
 10
150.6685
 20
106.3479
  0
VERTEX
  8
LAYER_1
 10
150.6896
 20
106.369
  0
SEQEND
  0
POLYLINE
  8
LAYER_1
 40
0.0847
 41
0.0847
 66
1
 10
0
 20
0
 30
0
  0
VERTEX
  8
LAYER_1
 10
150.732
 20
106.4749
  0
VERTEX
  8
LAYER_1
 10
150.732
 20
106.496
  0
VERTEX
  8
LAYER_1
 10
150.732
 20
106.5384
  0
SEQEND
  0
POLYLINE
  8
LAYER_1
 40
0.0847
 41
0.0847
 66
1
 10
0
 20
0
 30
0
  0
VERTEX
  8
LAYER_1
 10
148.319
 20
103.956
  0
VERTEX
  8
LAYER_1
 10
148.8905
 20
104.5487
  0
SEQEND
  0
POLYLINE
  8
LAYER_1
 40
0.0847
 41
0.0847
 66
1
 10
0
 20
0
 30
0
  0
VERTEX
  8
LAYER_1
 10
150.0546
 20
105.734
  0
VERTEX
  8
LAYER_1
 10
150.6473
 20
106.3267
  0
SEQEND
  0
POLYLINE
  8
LAYER_1
 40
0.0847
 41
0.0847
 66
1
 10
0
 20
0
 30
0
  0
VERTEX
  8
LAYER_1
 10
148.319
 20
103.956
  0
VERTEX
  8
LAYER_1
 10
148.2978
 20
103.9349
  0
VERTEX
  8
LAYER_1
 10
148.2766
 20
103.9137
  0
SEQEND
  0
POLYLINE
  8
LAYER_1
 40
0.0847
 41
0.0847
 66
1
 10
0
 20
0
 30
0
  0
VERTEX
  8
LAYER_1
 10
148.2343
 20
103.7867
  0
VERTEX
  8
LAYER_1
 10
148.2343
 20
103.7655
  0
VERTEX
  8
LAYER_1
 10
148.2343
 20
103.7444
  0
SEQEND
  0
POLYLINE
  8
LAYER_1
 40
0.0847
 41
0.0847
 66
1
 10
0
 20
0
 30
0
  0
VERTEX
  8
LAYER_1
 10
102.091
 20
122.4769
  0
VERTEX
  8
LAYER_1
 10
101.4348
 20
123.8739
  0
SEQEND
  0
POLYLINE
  8
LAYER_1
 40
0.0847
 41
0.0847
 66
1
 10
0
 20
0
 30
0
  0
VERTEX
  8
LAYER_1
 10
102.091
 20
122.4769
  0
VERTEX
  8
LAYER_1
 10
102.1121
 20
122.4557
  0
VERTEX
  8
LAYER_1
 10
102.1333
 20
122.4345
  0
VERTEX
  8
LAYER_1
 10
102.1333
 20
122.4134
  0
VERTEX
  8
LAYER_1
 10
102.1545
 20
122.3922
  0
VERTEX
  8
LAYER_1
 10
102.1545
 20
122.371
  0
VERTEX
  8
LAYER_1
 10
102.1756
 20
122.3499
  0
VERTEX
  8
LAYER_1
 10
102.1756
 20
122.3287
  0
VERTEX
  8
LAYER_1
 10
102.1968
 20
122.3287
  0
VERTEX
  8
LAYER_1
 10
102.1968
 20
122.3075
  0
VERTEX
  8
LAYER_1
 10
102.218
 20
122.2864
  0
VERTEX
  8
LAYER_1
 10
102.218
 20
122.2652
  0
VERTEX
  8
LAYER_1
 10
102.2391
 20
122.244
  0
VERTEX
  8
LAYER_1
 10
102.2603
 20
122.2229
  0
VERTEX
  8
LAYER_1
 10
102.2603
 20
122.2017
  0
VERTEX
  8
LAYER_1
 10
102.2815
 20
122.1805
  0
VERTEX
  8
LAYER_1
 10
102.3026
 20
122.1805
  0
VERTEX
  8
LAYER_1
 10
102.3026
 20
122.1594
  0
VERTEX
  8
LAYER_1
 10
102.3238
 20
122.1382
  0
VERTEX
  8
LAYER_1
 10
102.345
 20
122.117
  0
VERTEX
  8
LAYER_1
 10
102.345
 20
122.0959
  0
VERTEX
  8
LAYER_1
 10
102.3661
 20
122.0747
  0
VERTEX
  8
LAYER_1
 10
102.3873
 20
122.0535
  0
VERTEX
  8
LAYER_1
 10
102.4085
 20
122.0324
  0
VERTEX
  8
LAYER_1
 10
102.4296
 20
122.0324
  0
VERTEX
  8
LAYER_1
 10
102.4296
 20
122.0112
  0
VERTEX
  8
LAYER_1
 10
102.4508
 20
121.99
  0
VERTEX
  8
LAYER_1
 10
102.472
 20
121.9689
  0
VERTEX
  8
LAYER_1
 10
102.4931
 20
121.9477
  0
VERTEX
  8
LAYER_1
 10
102.5143
 20
121.9265
  0
VERTEX
  8
LAYER_1
 10
102.5355
 20
121.9054
  0
VERTEX
  8
LAYER_1
 10
102.5566
 20
121.8842
  0
VERTEX
  8
LAYER_1
 10
102.5778
 20
121.863
  0
VERTEX
  8
LAYER_1
 10
102.599
 20
121.8419
  0
VERTEX
  8
LAYER_1
 10
102.6201
 20
121.8207
  0
VERTEX
  8
LAYER_1
 10
102.6413
 20
121.8207
  0
VERTEX
  8
LAYER_1
 10
102.6413
 20
121.7995
  0
VERTEX
  8
LAYER_1
 10
102.6625
 20
121.7784
  0
VERTEX
  8
LAYER_1
 10
102.6836
 20
121.7572
  0
VERTEX
  8
LAYER_1
 10
102.7048
 20
121.7572
  0
VERTEX
  8
LAYER_1
 10
102.726
 20
121.736
  0
VERTEX
  8
LAYER_1
 10
102.7471
 20
121.7149
  0
VERTEX
  8
LAYER_1
 10
102.7683
 20
121.7149
  0
VERTEX
  8
LAYER_1
 10
102.7895
 20
121.6937
  0
VERTEX
  8
LAYER_1
 10
102.8106
 20
121.6725
  0
VERTEX
  8
LAYER_1
 10
102.8318
 20
121.6725
  0
VERTEX
  8
LAYER_1
 10
102.8318
 20
121.6514
  0
VERTEX
  8
LAYER_1
 10
102.853
 20
121.6302
  0
VERTEX
  8
LAYER_1
 10
102.8741
 20
121.6302
  0
VERTEX
  8
LAYER_1
 10
102.8953
 20
121.609
  0
VERTEX
  8
LAYER_1
 10
102.9165
 20
121.609
  0
VERTEX
  8
LAYER_1
 10
102.9376
 20
121.5879
  0
VERTEX
  8
LAYER_1
 10
102.9588
 20
121.5879
  0
VERTEX
  8
LAYER_1
 10
102.98
 20
121.5667
  0
VERTEX
  8
LAYER_1
 10
103.0011
 20
121.5455
  0
VERTEX
  8
LAYER_1
 10
103.0223
 20
121.5455
  0
VERTEX
  8
LAYER_1
 10
103.0435
 20
121.5244
  0
VERTEX
  8
LAYER_1
 10
103.0646
 20
121.5244
  0
VERTEX
  8
LAYER_1
 10
103.0858
 20
121.5032
  0
VERTEX
  8
LAYER_1
 10
103.107
 20
121.5032
  0
VERTEX
  8
LAYER_1
 10
136.762
 20
106.7077
  0
VERTEX
  8
LAYER_1
 10
150.732
 20
106.7077
  0
SEQEND
  0
POLYLINE
  8
LAYER_1
 40
0.0847
 41
0.0847
 66
1
 10
0
 20
0
 30
0
  0
VERTEX
  8
LAYER_1
 10
184.387
 20
121.5032
  0
VERTEX
  8
LAYER_1
 10
150.732
 20
106.7077
  0
SEQEND
  0
POLYLINE
  8
LAYER_1
 40
0.0847
 41
0.0847
 66
1
 10
0
 20
0
 30
0
  0
VERTEX
  8
LAYER_1
 10
184.387
 20
121.5032
  0
VERTEX
  8
LAYER_1
 10
184.4081
 20
121.5032
  0
VERTEX
  8
LAYER_1
 10
184.4293
 20
121.5244
  0
VERTEX
  8
LAYER_1
 10
184.4505
 20
121.5244
  0
VERTEX
  8
LAYER_1
 10
184.4716
 20
121.5455
  0
VERTEX
  8
LAYER_1
 10
184.4928
 20
121.5455
  0
VERTEX
  8
LAYER_1
 10
184.514
 20
121.5667
  0
VERTEX
  8
LAYER_1
 10
184.5351
 20
121.5879
  0
VERTEX
  8
LAYER_1
 10
184.5563
 20
121.5879
  0
VERTEX
  8
LAYER_1
 10
184.5775
 20
121.609
  0
VERTEX
  8
LAYER_1
 10
184.5986
 20
121.609
  0
VERTEX
  8
LAYER_1
 10
184.6198
 20
121.6302
  0
VERTEX
  8
LAYER_1
 10
184.641
 20
121.6302
  0
VERTEX
  8
LAYER_1
 10
184.6621
 20
121.6514
  0
VERTEX
  8
LAYER_1
 10
184.6833
 20
121.6725
  0
VERTEX
  8
LAYER_1
 10
184.7045
 20
121.6937
  0
VERTEX
  8
LAYER_1
 10
184.7256
 20
121.7149
  0
VERTEX
  8
LAYER_1
 10
184.7468
 20
121.7149
  0
VERTEX
  8
LAYER_1
 10
184.768
 20
121.736
  0
VERTEX
  8
LAYER_1
 10
184.7891
 20
121.7572
  0
VERTEX
  8
LAYER_1
 10
184.8103
 20
121.7784
  0
VERTEX
  8
LAYER_1
 10
184.8315
 20
121.7784
  0
VERTEX
  8
LAYER_1
 10
184.8526
 20
121.7995
  0
VERTEX
  8
LAYER_1
 10
184.8738
 20
121.8207
  0
VERTEX
  8
LAYER_1
 10
184.8738
 20
121.8419
  0
VERTEX
  8
LAYER_1
 10
184.895
 20
121.8419
  0
VERTEX
  8
LAYER_1
 10
184.9161
 20
121.863
  0
VERTEX
  8
LAYER_1
 10
184.9373
 20
121.8842
  0
VERTEX
  8
LAYER_1
 10
184.9585
 20
121.9054
  0
VERTEX
  8
LAYER_1
 10
184.9796
 20
121.9265
  0
VERTEX
  8
LAYER_1
 10
185.0008
 20
121.9265
  0
VERTEX
  8
LAYER_1
 10
185.0008
 20
121.9477
  0
VERTEX
  8
LAYER_1
 10
185.022
 20
121.9689
  0
VERTEX
  8
LAYER_1
 10
185.0431
 20
121.99
  0
VERTEX
  8
LAYER_1
 10
185.0643
 20
122.0112
  0
VERTEX
  8
LAYER_1
 10
185.0855
 20
122.0324
  0
VERTEX
  8
LAYER_1
 10
185.0855
 20
122.0535
  0
VERTEX
  8
LAYER_1
 10
185.1066
 20
122.0535
  0
VERTEX
  8
LAYER_1
 10
185.1278
 20
122.0747
  0
VERTEX
  8
LAYER_1
 10
185.149
 20
122.0959
  0
VERTEX
  8
LAYER_1
 10
185.149
 20
122.117
  0
VERTEX
  8
LAYER_1
 10
185.1701
 20
122.1382
  0
VERTEX
  8
LAYER_1
 10
185.1913
 20
122.1594
  0
VERTEX
  8
LAYER_1
 10
185.2125
 20
122.1805
  0
VERTEX
  8
LAYER_1
 10
185.2125
 20
122.2017
  0
VERTEX
  8
LAYER_1
 10
185.2336
 20
122.2229
  0
VERTEX
  8
LAYER_1
 10
185.2548
 20
122.244
  0
VERTEX
  8
LAYER_1
 10
185.276
 20
122.2652
  0
VERTEX
  8
LAYER_1
 10
185.276
 20
122.2864
  0
VERTEX
  8
LAYER_1
 10
185.2971
 20
122.3075
  0
VERTEX
  8
LAYER_1
 10
185.2971
 20
122.3287
  0
VERTEX
  8
LAYER_1
 10
185.3183
 20
122.3499
  0
VERTEX
  8
LAYER_1
 10
185.3395
 20
122.3499
  0
VERTEX
  8
LAYER_1
 10
185.3395
 20
122.371
  0
VERTEX
  8
LAYER_1
 10
185.3606
 20
122.3922
  0
VERTEX
  8
LAYER_1
 10
185.3606
 20
122.4134
  0
VERTEX
  8
LAYER_1
 10
185.3606
 20
122.4345
  0
VERTEX
  8
LAYER_1
 10
185.3818
 20
122.4557
  0
VERTEX
  8
LAYER_1
 10
185.403
 20
122.4769
  0
VERTEX
  8
LAYER_1
 10
186.0591
 20
123.8739
  0
SEQEND
  0
POLYLINE
  8
LAYER_1
 40
0.0847
 41
0.0847
 66
1
 10
0
 20
0
 30
0
  0
VERTEX
  8
LAYER_1
 10
139.2596
 20
88.6737
  0
VERTEX
  8
LAYER_1
 10
148.2343
 20
88.6737
  0
SEQEND
  0
POLYLINE
  8
LAYER_1
 40
0.1693
 41
0.1693
 66
1
 10
0
 20
0
 30
0
  0
VERTEX
  8
LAYER_1
 10
139.2596
 20
88.6737
  0
VERTEX
  8
LAYER_1
 10
140.699
 20
89.0548
  0
SEQEND
  0
POLYLINE
  8
LAYER_1
 40
0.1693
 41
0.1693
 66
1
 10
0
 20
0
 30
0
  0
VERTEX
  8
LAYER_1
 10
139.2596
 20
88.6737
  0
VERTEX
  8
LAYER_1
 10
140.699
 20
88.2716
  0
SEQEND
  0
POLYLINE
  8
LAYER_1
 40
0.1693
 41
0.1693
 66
1
 10
0
 20
0
 30
0
  0
VERTEX
  8
LAYER_1
 10
148.2343
 20
88.6737
  0
VERTEX
  8
LAYER_1
 10
146.795
 20
88.2716
  0
SEQEND
  0
POLYLINE
  8
LAYER_1
 40
0.1693
 41
0.1693
 66
1
 10
0
 20
0
 30
0
  0
VERTEX
  8
LAYER_1
 10
148.2343
 20
88.6737
  0
VERTEX
  8
LAYER_1
 10
146.795
 20
89.0548
  0
SEQEND
  0
POLYLINE
  8
LAYER_1
 40
0.0847
 41
0.0847
 66
1
 10
0
 20
0
 30
0
  0
VERTEX
  8
LAYER_1
 10
139.2596
 20
88.6737
  0
VERTEX
  8
LAYER_1
 10
139.2596
 20
98.4316
  0
SEQEND
  0
POLYLINE
  8
LAYER_1
 40
0.0847
 41
0.0847
 66
1
 10
0
 20
0
 30
0
  0
VERTEX
  8
LAYER_1
 10
148.2343
 20
88.6737
  0
VERTEX
  8
LAYER_1
 10
148.2343
 20
98.4316
  0
SEQEND
  0
TEXT
  8
LAYER_1
 10
140.3812
 20
89.3298
 11
140.3812
 21
89.3298
 40
3.6606
 41
0.5
  1
%%c45
  0
POLYLINE
  8
LAYER_1
 40
0.0847
 41
0.0847
 66
1
 10
0
 20
0
 30
0
  0
VERTEX
  8
LAYER_1
 10
105.7316
 20
101.8606
  0
VERTEX
  8
LAYER_1
 10
105.7316
 20
103.8714
  0
VERTEX
  8
LAYER_1
 10
122.1781
 20
103.8714
  0
SEQEND
  0
POLYLINE
  8
LAYER_1
 40
0.1693
 41
0.1693
 66
1
 10
0
 20
0
 30
0
  0
VERTEX
  8
LAYER_1
 10
136.762
 20
103.2576
  0
VERTEX
  8
LAYER_1
 10
136.762
 20
103.8714
  0
SEQEND
  0
POLYLINE
  8
LAYER_1
 40
0.1693
 41
0.1693
 66
1
 10
0
 20
0
 30
0
  0
VERTEX
  8
LAYER_1
 10
136.762
 20
103.2576
  0
VERTEX
  8
LAYER_1
 10
150.732
 20
103.2576
  0
VERTEX
  8
LAYER_1
 10
150.732
 20
103.8714
  0
SEQEND
  0
POLYLINE
  8
LAYER_1
 40
0.0847
 41
0.0847
 66
1
 10
0
 20
0
 30
0
  0
VERTEX
  8
LAYER_1
 10
139.2596
 20
103.2576
  0
VERTEX
  8
LAYER_1
 10
139.2596
 20
103.3634
  0
SEQEND
  0
POLYLINE
  8
LAYER_1
 40
0.0847
 41
0.0847
 66
1
 10
0
 20
0
 30
0
  0
VERTEX
  8
LAYER_1
 10
139.2596
 20
103.6174
  0
VERTEX
  8
LAYER_1
 10
139.2596
 20
103.7444
  0
SEQEND
  0
POLYLINE
  8
LAYER_1
 40
0.0847
 41
0.0847
 66
1
 10
0
 20
0
 30
0
  0
VERTEX
  8
LAYER_1
 10
148.2343
 20
103.2576
  0
VERTEX
  8
LAYER_1
 10
148.2343
 20
103.3634
  0
SEQEND
  0
POLYLINE
  8
LAYER_1
 40
0.0847
 41
0.0847
 66
1
 10
0
 20
0
 30
0
  0
VERTEX
  8
LAYER_1
 10
148.2343
 20
103.6174
  0
VERTEX
  8
LAYER_1
 10
148.2343
 20
103.7444
  0
SEQEND
  0
POLYLINE
  8
LAYER_1
 40
0.0847
 41
0.0847
 66
1
 10
0
 20
0
 30
0
  0
VERTEX
  8
LAYER_1
 10
105.7316
 20
103.8714
  0
VERTEX
  8
LAYER_1
 10
105.7316
 20
108.8667
  0
SEQEND
  0
POLYLINE
  8
LAYER_1
 40
0.0847
 41
0.0847
 66
1
 10
0
 20
0
 30
0
  0
VERTEX
  8
LAYER_1
 10
105.7316
 20
103.2576
  0
VERTEX
  8
LAYER_1
 10
105.7316
 20
103.8714
  0
SEQEND
  0
POLYLINE
  8
LAYER_1
 40
0.1693
 41
0.1693
 66
1
 10
0
 20
0
 30
0
  0
VERTEX
  8
LAYER_1
 10
105.7316
 20
103.2576
  0
VERTEX
  8
LAYER_1
 10
106.1126
 20
101.8182
  0
SEQEND
  0
POLYLINE
  8
LAYER_1
 40
0.1693
 41
0.1693
 66
1
 10
0
 20
0
 30
0
  0
VERTEX
  8
LAYER_1
 10
105.7316
 20
103.2576
  0
VERTEX
  8
LAYER_1
 10
105.3506
 20
101.8182
  0
SEQEND
  0
POLYLINE
  8
LAYER_1
 40
0.1693
 41
0.1693
 66
1
 10
0
 20
0
 30
0
  0
VERTEX
  8
LAYER_1
 10
105.7316
 20
103.8714
  0
VERTEX
  8
LAYER_1
 10
105.3506
 20
105.3108
  0
SEQEND
  0
POLYLINE
  8
LAYER_1
 40
0.1693
 41
0.1693
 66
1
 10
0
 20
0
 30
0
  0
VERTEX
  8
LAYER_1
 10
105.7316
 20
103.8714
  0
VERTEX
  8
LAYER_1
 10
106.1126
 20
105.3108
  0
SEQEND
  0
POLYLINE
  8
LAYER_1
 40
0.0847
 41
0.0847
 66
1
 10
0
 20
0
 30
0
  0
VERTEX
  8
LAYER_1
 10
105.7316
 20
103.2576
  0
VERTEX
  8
LAYER_1
 10
122.1781
 20
103.2576
  0
SEQEND
  0
POLYLINE
  8
LAYER_1
 40
0.0847
 41
0.0847
 66
1
 10
0
 20
0
 30
0
  0
VERTEX
  8
LAYER_1
 10
105.7316
 20
103.8714
  0
VERTEX
  8
LAYER_1
 10
122.1781
 20
103.8714
  0
SEQEND
  0
TEXT
  8
LAYER_1
 10
103.2575
 20
94.8221
 11
103.2575
 21
94.8221
 40
3.6606
 41
0.5
 50
89.99999999
  1
3（+3mm)
  0
POLYLINE
  8
LAYER_1
 40
0.0847
 41
0.0847
 66
1
 10
0
 20
0
 30
0
  0
VERTEX
  8
LAYER_1
 10
190.9166
 20
123.8739
  0
VERTEX
  8
LAYER_1
 10
229.2275
 20
123.8739
  0
SEQEND
  0
POLYLINE
  8
LAYER_1
 40
0.0847
 41
0.0847
 66
1
 10
0
 20
0
 30
0
  0
VERTEX
  8
LAYER_1
 10
229.2275
 20
103.2576
  0
VERTEX
  8
LAYER_1
 10
229.2275
 20
123.8739
  0
SEQEND
  0
POLYLINE
  8
LAYER_1
 40
0.1693
 41
0.1693
 66
1
 10
0
 20
0
 30
0
  0
VERTEX
  8
LAYER_1
 10
229.2275
 20
103.2576
  0
VERTEX
  8
LAYER_1
 10
229.6085
 20
104.7181
  0
SEQEND
  0
POLYLINE
  8
LAYER_1
 40
0.1693
 41
0.1693
 66
1
 10
0
 20
0
 30
0
  0
VERTEX
  8
LAYER_1
 10
229.2275
 20
103.2576
  0
VERTEX
  8
LAYER_1
 10
228.8254
 20
104.7181
  0
SEQEND
  0
TEXT
  8
LAYER_1
 10
228.48
 20
111.0685
 11
228.48
 21
111.0685
 40
3.6606
 41
0.5
 50
89.99999999
  1
103
  0
TEXT
  8
LAYER_1
 10
233.3338
 20
106.687
 11
233.3338
 21
106.687
 40
3.6606
 41
0.5
 50
89.99999999
  1
（%%p}5mm)
  0
CIRCLE
  8
LAYER_1
  6
AIGENLINE001
 62
1
 10
21.8485
 20
125.9527
 40
6.5
  0
TEXT
  8
LAYER_1
 10
22.7961
 20
115.4545
 11
22.7961
 21
115.4545
 40
3.1022
 41
0.5
  1
カウンター開口
  0
TEXT
  8
LAYER_1
 10
22.7961
 20
111.7274
 11
22.7961
 21
111.7274
 40
3.6606
 41
0.5
  1
65-67mm
  0
ENDSEC
  0
EOF
