  0
SECTION
  2
HEADER
  9
$ACADVER
  1
AC1009
  9
$LUNITS
 70
2
  9
$LUPREC
 70
4
  9
$LTSCALE
 40
1.0
  9
$EXTMIN
 10
-33.2277
 20
49.7179
 30
0
  9
$EXTMAX
 10
245.4165
 20
241.0004
 30
0
  0
ENDSEC
  0
SECTION
  2
TABLES
  0
TABLE
  2
LTYPE
 70
256
  0
ENDTAB
  0
TABLE
  2
LAYER
 70
1
  0
LAYER
  2
LAYER_1
 70
64
 62
7
  6
CONTINUOUS
  0
ENDTAB
  0
TABLE
  2
STYLE
 70
6
  0
STYLE
  2
STANDARD
 70
0
 40
0
 50
0
 71
0
 41
0
 42
0
  3
TXT
  4
BIGFONT
  0
ENDTAB
  0
ENDSEC
  0
SECTION
  2
BLOCKS
  0
BLOCK
  8
LAYER_1
  2
AIGNBL01040007
 70
64
 10
0
 20
0
 30
0
  3
AIGNBL01040007
  0
POLYLINE
  8
LAYER_1
 40
0.05
 41
0.05
 66
1
 10
0
 20
0
 30
0
 70
1
  0
VERTEX
  8
LAYER_1
 10
157.5551
 20
53.6067
  0
VERTEX
  8
LAYER_1
 10
157.0662
 20
52.4216
  0
VERTEX
  8
LAYER_1
 10
156.4382
 20
52.4216
  0
VERTEX
  8
LAYER_1
 10
158.0377
 20
56.1874
  0
VERTEX
  8
LAYER_1
 10
158.7709
 20
56.1874
  0
VERTEX
  8
LAYER_1
 10
160.3773
 20
52.4216
  0
VERTEX
  8
LAYER_1
 10
159.7272
 20
52.4216
  0
VERTEX
  8
LAYER_1
 10
159.2246
 20
53.6067
  0
SEQEND
  0
POLYLINE
  8
LAYER_1
 40
0.05
 41
0.05
 66
1
 10
0
 20
0
 30
0
 70
1
  0
VERTEX
  8
LAYER_1
 10
159.0988
 20
53.9856
  0
VERTEX
  8
LAYER_1
 10
158.6379
 20
55.0705
  0
VERTEX
  8
LAYER_1
 10
158.3933
 20
55.7575
  0
VERTEX
  8
LAYER_1
 10
158.3795
 20
55.7575
  0
VERTEX
  8
LAYER_1
 10
158.1418
 20
55.075
  0
VERTEX
  8
LAYER_1
 10
157.6812
 20
53.9856
  0
SEQEND
  0
ENDBLK
  0
BLOCK
  8
LAYER_1
  2
AIGNBL01040008
 70
64
 10
0
 20
0
 30
0
  3
AIGNBL01040008
  0
POLYLINE
  8
LAYER_1
 40
0.05
 41
0.05
 66
1
 10
0
 20
0
 30
0
 70
1
  0
VERTEX
  8
LAYER_1
 10
164.7426
 20
51.8683
 42
-0.01559967508
  0
VERTEX
  8
LAYER_1
 10
162.9405
 20
52.3044
  0
VERTEX
  8
LAYER_1
 10
162.6538
 20
52.3599
 42
-0.08356944747
  0
VERTEX
  8
LAYER_1
 10
161.7898
 20
52.5261
 42
-0.0975043791
  0
VERTEX
  8
LAYER_1
 10
161.1286
 20
52.932
 42
-0.2129077902
  0
VERTEX
  8
LAYER_1
 10
160.5799
 20
54.2647
 42
-0.09684612991
  0
VERTEX
  8
LAYER_1
 10
160.7245
 20
55.0381
 42
-0.2046351071
  0
VERTEX
  8
LAYER_1
 10
161.772
 20
56.0624
 42
-0.09825619238
  0
VERTEX
  8
LAYER_1
 10
162.773
 20
56.2488
 42
-0.08554836282
  0
VERTEX
  8
LAYER_1
 10
163.6416
 20
56.1075
 42
-0.1004347897
  0
VERTEX
  8
LAYER_1
 10
164.3067
 20
55.7132
 42
-0.2140895568
  0
VERTEX
  8
LAYER_1
 10
164.8821
 20
54.3433
 42
-0.09539620281
  0
VERTEX
  8
LAYER_1
 10
164.7432
 20
53.5755
 42
-0.2143310008
  0
VERTEX
  8
LAYER_1
 10
163.7204
 20
52.597
 42
-0.02339132607
  0
VERTEX
  8
LAYER_1
 10
163.5413
 20
52.5387
  0
VERTEX
  8
LAYER_1
 10
163.5413
 20
52.5163
 42
0.01711831943
  0
VERTEX
  8
LAYER_1
 10
164.9176
 20
52.2762
  0
SEQEND
  0
POLYLINE
  8
LAYER_1
 40
0.05
 41
0.05
 66
1
 10
0
 20
0
 30
0
 70
1
  0
VERTEX
  8
LAYER_1
 10
164.2399
 20
54.3219
 42
0.1071511414
  0
VERTEX
  8
LAYER_1
 10
164.0886
 20
55.0267
 42
0.2976450246
  0
VERTEX
  8
LAYER_1
 10
162.7517
 20
55.8522
 42
0.1072291499
  0
VERTEX
  8
LAYER_1
 10
162.0618
 20
55.7127
 42
0.2386106109
  0
VERTEX
  8
LAYER_1
 10
161.2749
 20
54.7071
 42
0.05752849981
  0
VERTEX
  8
LAYER_1
 10
161.2293
 20
54.2771
 42
0.218096749
  0
VERTEX
  8
LAYER_1
 10
161.7599
 20
53.0817
 42
0.1772796408
  0
VERTEX
  8
LAYER_1
 10
162.7237
 20
52.7561
 42
0.1075185771
  0
VERTEX
  8
LAYER_1
 10
163.4051
 20
52.8951
 42
0.2370926009
  0
VERTEX
  8
LAYER_1
 10
164.1922
 20
53.8947
 42
0.05601310134
  0
SEQEND
  0
ENDBLK
  0
BLOCK
  8
LAYER_1
  2
AIGNBL01040009
 70
64
 10
0
 20
0
 30
0
  3
AIGNBL01040009
  0
POLYLINE
  8
LAYER_1
 40
0.05
 41
0.05
 66
1
 10
0
 20
0
 30
0
 70
1
  0
VERTEX
  8
LAYER_1
 10
166.2095
 20
56.1874
  0
VERTEX
  8
LAYER_1
 10
166.2095
 20
53.9581
 42
0.114533087
  0
VERTEX
  8
LAYER_1
 10
166.3434
 20
53.2923
 42
0.1464774934
  0
VERTEX
  8
LAYER_1
 10
166.6938
 20
52.9071
 42
0.1362552487
  0
VERTEX
  8
LAYER_1
 10
167.3061
 20
52.7561
 42
0.1219300979
  0
VERTEX
  8
LAYER_1
 10
167.9292
 20
52.8908
 42
0.1503016186
  0
VERTEX
  8
LAYER_1
 10
168.301
 20
53.2598
 42
0.1256239276
  0
VERTEX
  8
LAYER_1
 10
168.4516
 20
53.9581
  0
VERTEX
  8
LAYER_1
 10
168.4516
 20
56.1874
  0
VERTEX
  8
LAYER_1
 10
169.0662
 20
56.1874
  0
VERTEX
  8
LAYER_1
 10
169.0662
 20
53.9915
 42
-0.09997505101
  0
VERTEX
  8
LAYER_1
 10
168.9313
 20
53.2488
 42
-0.1214984503
  0
VERTEX
  8
LAYER_1
 10
168.558
 20
52.7421
 42
-0.1106235892
  0
VERTEX
  8
LAYER_1
 10
167.9326
 20
52.4355
 42
-0.06128954947
  0
VERTEX
  8
LAYER_1
 10
167.2851
 20
52.3599
 42
-0.09418508724
  0
VERTEX
  8
LAYER_1
 10
166.4659
 20
52.498
 42
-0.2431728796
  0
VERTEX
  8
LAYER_1
 10
165.6624
 20
53.4087
 42
-0.06320085329
  0
VERTEX
  8
LAYER_1
 10
165.5949
 20
53.9695
  0
VERTEX
  8
LAYER_1
 10
165.5949
 20
56.1874
  0
SEQEND
  0
ENDBLK
  0
BLOCK
  8
LAYER_1
  2
AIGNBL0104000A
 70
64
 10
0
 20
0
 30
0
  3
AIGNBL0104000A
  0
POLYLINE
  8
LAYER_1
 40
0.05
 41
0.05
 66
1
 10
0
 20
0
 30
0
 70
1
  0
VERTEX
  8
LAYER_1
 10
170.8125
 20
53.6067
  0
VERTEX
  8
LAYER_1
 10
170.3233
 20
52.4216
  0
VERTEX
  8
LAYER_1
 10
169.6953
 20
52.4216
  0
VERTEX
  8
LAYER_1
 10
171.2945
 20
56.1874
  0
VERTEX
  8
LAYER_1
 10
172.0276
 20
56.1874
  0
VERTEX
  8
LAYER_1
 10
173.634
 20
52.4216
  0
VERTEX
  8
LAYER_1
 10
172.9846
 20
52.4216
  0
VERTEX
  8
LAYER_1
 10
172.482
 20
53.6067
  0
SEQEND
  0
POLYLINE
  8
LAYER_1
 40
0.05
 41
0.05
 66
1
 10
0
 20
0
 30
0
 70
1
  0
VERTEX
  8
LAYER_1
 10
172.3559
 20
53.9856
  0
VERTEX
  8
LAYER_1
 10
171.8946
 20
55.0705
  0
VERTEX
  8
LAYER_1
 10
171.65
 20
55.7575
  0
VERTEX
  8
LAYER_1
 10
171.6362
 20
55.7575
  0
VERTEX
  8
LAYER_1
 10
171.3989
 20
55.075
  0
VERTEX
  8
LAYER_1
 10
170.9379
 20
53.9856
  0
SEQEND
  0
ENDBLK
  0
BLOCK
  8
LAYER_1
  2
AIGNBL0104000B
 70
64
 10
0
 20
0
 30
0
  3
AIGNBL0104000B
  0
POLYLINE
  8
LAYER_1
 40
0.05
 41
0.05
 66
1
 10
0
 20
0
 30
0
 70
1
  0
VERTEX
  8
LAYER_1
 10
174.6748
 20
56.1426
 42
-0.03245981043
  0
VERTEX
  8
LAYER_1
 10
175.8416
 20
56.2157
 42
-0.08081710393
  0
VERTEX
  8
LAYER_1
 10
176.7981
 20
56.0839
 42
-0.07812211839
  0
VERTEX
  8
LAYER_1
 10
177.1615
 20
55.9029
 42
-0.2483368586
  0
VERTEX
  8
LAYER_1
 10
177.5731
 20
55.1146
 42
-0.226147
  0
VERTEX
  8
LAYER_1
 10
177.21
 20
54.3105
 42
-0.1097236176
  0
VERTEX
  8
LAYER_1
 10
176.5818
 20
53.9972
 42
-0.06566039781
  0
VERTEX
  8
LAYER_1
 10
175.7714
 20
53.8968
 42
-0.06232747682
  0
VERTEX
  8
LAYER_1
 10
175.2828
 20
53.9302
  0
VERTEX
  8
LAYER_1
 10
175.2828
 20
52.4216
  0
VERTEX
  8
LAYER_1
 10
174.6748
 20
52.4216
  0
SEQEND
  0
POLYLINE
  8
LAYER_1
 40
0.05
 41
0.05
 66
1
 10
0
 20
0
 30
0
 70
1
  0
VERTEX
  8
LAYER_1
 10
175.2828
 20
54.3271
 42
0.04202445636
  0
VERTEX
  8
LAYER_1
 10
175.7852
 20
54.2878
 42
0.1032333559
  0
VERTEX
  8
LAYER_1
 10
176.5043
 20
54.4151
 42
0.1555698608
  0
VERTEX
  8
LAYER_1
 10
176.8691
 20
54.7196
 42
0.1352698132
  0
VERTEX
  8
LAYER_1
 10
176.9661
 20
55.0922
 42
0.1736824711
  0
VERTEX
  8
LAYER_1
 10
176.8313
 20
55.4995
 42
0.151721714
  0
VERTEX
  8
LAYER_1
 10
176.4102
 20
55.759
 42
0.06880216409
  0
VERTEX
  8
LAYER_1
 10
175.8558
 20
55.8298
 42
0.06336772289
  0
VERTEX
  8
LAYER_1
 10
175.2828
 20
55.7906
  0
SEQEND
  0
ENDBLK
  0
BLOCK
  8
LAYER_1
  2
AIGNBL0104000C
 70
64
 10
0
 20
0
 30
0
  3
AIGNBL0104000C
  0
POLYLINE
  8
LAYER_1
 40
0.05
 41
0.05
 66
1
 10
0
 20
0
 30
0
 70
1
  0
VERTEX
  8
LAYER_1
 10
179.1252
 20
55.8856
 42
-0.276560599
  0
VERTEX
  8
LAYER_1
 10
178.9856
 20
55.6455
 42
-0.1265502936
  0
VERTEX
  8
LAYER_1
 10
178.7335
 20
55.5838
 42
-0.22367962
  0
VERTEX
  8
LAYER_1
 10
178.4232
 20
55.7162
 42
-0.1709078449
  0
VERTEX
  8
LAYER_1
 10
178.3631
 20
55.8856
 42
-0.2643879937
  0
VERTEX
  8
LAYER_1
 10
178.5125
 20
56.1327
 42
-0.1290073663
  0
VERTEX
  8
LAYER_1
 10
178.7472
 20
56.1926
 42
-0.2253241111
  0
VERTEX
  8
LAYER_1
 10
179.0641
 20
56.0619
 42
-0.1691304651
  0
SEQEND
  0
POLYLINE
  8
LAYER_1
 40
0.05
 41
0.05
 66
1
 10
0
 20
0
 30
0
 70
1
  0
VERTEX
  8
LAYER_1
 10
178.4396
 20
52.4216
  0
VERTEX
  8
LAYER_1
 10
178.4396
 20
55.1256
  0
VERTEX
  8
LAYER_1
 10
179.0542
 20
55.1256
  0
VERTEX
  8
LAYER_1
 10
179.0542
 20
52.4216
  0
SEQEND
  0
ENDBLK
  0
BLOCK
  8
LAYER_1
  2
AIGNBL0104000D
 70
64
 10
0
 20
0
 30
0
  3
AIGNBL0104000D
  0
POLYLINE
  8
LAYER_1
 40
0.05
 41
0.05
 66
1
 10
0
 20
0
 30
0
 70
1
  0
VERTEX
  8
LAYER_1
 10
180.9259
 20
53.6067
  0
VERTEX
  8
LAYER_1
 10
180.4377
 20
52.4216
  0
VERTEX
  8
LAYER_1
 10
179.8087
 20
52.4216
  0
VERTEX
  8
LAYER_1
 10
181.4082
 20
56.1874
  0
VERTEX
  8
LAYER_1
 10
182.142
 20
56.1874
  0
VERTEX
  8
LAYER_1
 10
183.7485
 20
52.4216
  0
VERTEX
  8
LAYER_1
 10
183.0987
 20
52.4216
  0
VERTEX
  8
LAYER_1
 10
182.5961
 20
53.6067
  0
SEQEND
  0
POLYLINE
  8
LAYER_1
 40
0.05
 41
0.05
 66
1
 10
0
 20
0
 30
0
 70
1
  0
VERTEX
  8
LAYER_1
 10
182.47
 20
53.9856
  0
VERTEX
  8
LAYER_1
 10
182.009
 20
55.0705
  0
VERTEX
  8
LAYER_1
 10
181.7651
 20
55.7575
  0
VERTEX
  8
LAYER_1
 10
181.7503
 20
55.7575
  0
VERTEX
  8
LAYER_1
 10
181.5133
 20
55.075
  0
VERTEX
  8
LAYER_1
 10
181.0523
 20
53.9856
  0
SEQEND
  0
ENDBLK
  0
BLOCK
  8
LAYER_1
  2
AIGNBL01030006
 70
64
 10
0
 20
0
 30
0
  3
AIGNBL01030006
  0
INSERT
  8
LAYER_1
  2
AIGNBL01040007
 10
0
 20
0
 30
0
  0
INSERT
  8
LAYER_1
  2
AIGNBL01040008
 10
0
 20
0
 30
0
  0
INSERT
  8
LAYER_1
  2
AIGNBL01040009
 10
0
 20
0
 30
0
  0
INSERT
  8
LAYER_1
  2
AIGNBL0104000A
 10
0
 20
0
 30
0
  0
INSERT
  8
LAYER_1
  2
AIGNBL0104000B
 10
0
 20
0
 30
0
  0
INSERT
  8
LAYER_1
  2
AIGNBL0104000C
 10
0
 20
0
 30
0
  0
INSERT
  8
LAYER_1
  2
AIGNBL0104000D
 10
0
 20
0
 30
0
  0
ENDBLK
  0
BLOCK
  8
LAYER_1
  2
AIGNBL0103000F
 70
64
 10
0
 20
0
 30
0
  3
AIGNBL0103000F
  0
POLYLINE
  8
LAYER_1
 40
0.05
 41
0.05
 66
1
 10
0
 20
0
 30
0
 70
1
  0
VERTEX
  8
LAYER_1
 10
156.5481
 20
50.5223
  0
VERTEX
  8
LAYER_1
 10
157.1013
 20
50.5223
  0
VERTEX
  8
LAYER_1
 10
157.1013
 20
50.4286
  0
VERTEX
  8
LAYER_1
 10
156.443
 20
50.4286
  0
VERTEX
  8
LAYER_1
 10
156.443
 20
51.4618
  0
VERTEX
  8
LAYER_1
 10
157.0838
 20
51.4618
  0
VERTEX
  8
LAYER_1
 10
157.0838
 20
51.3684
  0
VERTEX
  8
LAYER_1
 10
156.5481
 20
51.3684
  0
VERTEX
  8
LAYER_1
 10
156.5481
 20
51.0139
  0
VERTEX
  8
LAYER_1
 10
157.0486
 20
51.0139
  0
VERTEX
  8
LAYER_1
 10
157.0486
 20
50.9206
  0
VERTEX
  8
LAYER_1
 10
156.5481
 20
50.9206
  0
SEQEND
  0
ENDBLK
  0
BLOCK
  8
LAYER_1
  2
AIGNBL01030010
 70
64
 10
0
 20
0
 30
0
  3
AIGNBL01030010
  0
POLYLINE
  8
LAYER_1
 40
0.05
 41
0.05
 66
1
 10
0
 20
0
 30
0
 70
1
  0
VERTEX
  8
LAYER_1
 10
158.241
 20
50.5819
  0
VERTEX
  8
LAYER_1
 10
158.2438
 20
50.5819
  0
VERTEX
  8
LAYER_1
 10
158.2438
 20
51.4618
  0
VERTEX
  8
LAYER_1
 10
158.3488
 20
51.4618
  0
VERTEX
  8
LAYER_1
 10
158.3488
 20
50.4286
  0
VERTEX
  8
LAYER_1
 10
158.2179
 20
50.4286
  0
VERTEX
  8
LAYER_1
 10
157.6168
 20
51.3174
  0
VERTEX
  8
LAYER_1
 10
157.6133
 20
51.3174
  0
VERTEX
  8
LAYER_1
 10
157.6133
 20
50.4286
  0
VERTEX
  8
LAYER_1
 10
157.5086
 20
50.4286
  0
VERTEX
  8
LAYER_1
 10
157.5086
 20
51.4618
  0
VERTEX
  8
LAYER_1
 10
157.6398
 20
51.4618
  0
SEQEND
  0
ENDBLK
  0
BLOCK
  8
LAYER_1
  2
AIGNBL01030011
 70
64
 10
0
 20
0
 30
0
  3
AIGNBL01030011
  0
POLYLINE
  8
LAYER_1
 40
0.05
 41
0.05
 66
1
 10
0
 20
0
 30
0
 70
1
  0
VERTEX
  8
LAYER_1
 10
158.8218
 20
50.6405
  0
VERTEX
  8
LAYER_1
 10
158.8763
 20
50.5375
 42
0.1809219053
  0
VERTEX
  8
LAYER_1
 10
158.9896
 20
50.4958
  0
VERTEX
  8
LAYER_1
 10
159.0788
 20
50.5154
  0
VERTEX
  8
LAYER_1
 10
159.135
 20
50.5688
  0
VERTEX
  8
LAYER_1
 10
159.1639
 20
50.6453
  0
VERTEX
  8
LAYER_1
 10
159.1722
 20
50.7349
  0
VERTEX
  8
LAYER_1
 10
159.1722
 20
51.4618
  0
VERTEX
  8
LAYER_1
 10
159.2773
 20
51.4618
  0
VERTEX
  8
LAYER_1
 10
159.2773
 20
50.7263
  0
VERTEX
  8
LAYER_1
 10
159.2659
 20
50.6184
  0
VERTEX
  8
LAYER_1
 10
159.2246
 20
50.5134
  0
VERTEX
  8
LAYER_1
 10
159.1398
 20
50.4338
  0
VERTEX
  8
LAYER_1
 10
159.001
 20
50.4024
 42
-0.1846674817
  0
VERTEX
  8
LAYER_1
 10
158.8163
 20
50.4624
 42
-0.1764563828
  0
VERTEX
  8
LAYER_1
 10
158.724
 20
50.6139
  0
SEQEND
  0
ENDBLK
  0
BLOCK
  8
LAYER_1
  2
AIGNBL01030012
 70
64
 10
0
 20
0
 30
0
  3
AIGNBL01030012
  0
POLYLINE
  8
LAYER_1
 40
0.05
 41
0.05
 66
1
 10
0
 20
0
 30
0
 70
1
  0
VERTEX
  8
LAYER_1
 10
160.7656
 20
50.9454
 42
-0.103587114
  0
VERTEX
  8
LAYER_1
 10
160.7246
 20
50.728
 42
-0.1000549391
  0
VERTEX
  8
LAYER_1
 10
160.6119
 20
50.5564
  0
VERTEX
  8
LAYER_1
 10
160.441
 20
50.4434
 42
-0.09506675375
  0
VERTEX
  8
LAYER_1
 10
160.2271
 20
50.4024
 42
-0.1010765979
  0
VERTEX
  8
LAYER_1
 10
160.0135
 20
50.4434
 42
-0.1005668876
  0
VERTEX
  8
LAYER_1
 10
159.8426
 20
50.5564
 42
-0.09506076213
  0
VERTEX
  8
LAYER_1
 10
159.7293
 20
50.728
 42
-0.0931359716
  0
VERTEX
  8
LAYER_1
 10
159.6886
 20
50.9454
 42
-0.1020962526
  0
VERTEX
  8
LAYER_1
 10
159.7293
 20
51.1628
 42
-0.1007559602
  0
VERTEX
  8
LAYER_1
 10
159.8426
 20
51.3343
 42
-0.09625543395
  0
VERTEX
  8
LAYER_1
 10
160.0135
 20
51.4473
 42
-0.0952064105
  0
VERTEX
  8
LAYER_1
 10
160.2271
 20
51.4883
 42
-0.101175466
  0
VERTEX
  8
LAYER_1
 10
160.441
 20
51.4473
 42
-0.09853409661
  0
VERTEX
  8
LAYER_1
 10
160.6119
 20
51.3343
 42
-0.09562840933
  0
VERTEX
  8
LAYER_1
 10
160.7246
 20
51.1628
 42
-0.09393796777
  0
SEQEND
  0
POLYLINE
  8
LAYER_1
 40
0.05
 41
0.05
 66
1
 10
0
 20
0
 30
0
 70
1
  0
VERTEX
  8
LAYER_1
 10
160.6546
 20
50.9447
  0
VERTEX
  8
LAYER_1
 10
160.6257
 20
51.1166
  0
VERTEX
  8
LAYER_1
 10
160.5409
 20
51.2599
  0
VERTEX
  8
LAYER_1
 10
160.4059
 20
51.3581
  0
VERTEX
  8
LAYER_1
 10
160.2271
 20
51.395
  0
VERTEX
  8
LAYER_1
 10
160.0483
 20
51.3581
  0
VERTEX
  8
LAYER_1
 10
159.9136
 20
51.2599
  0
VERTEX
  8
LAYER_1
 10
159.8289
 20
51.1166
  0
VERTEX
  8
LAYER_1
 10
159.7996
 20
50.9447
  0
VERTEX
  8
LAYER_1
 10
159.8289
 20
50.7728
  0
VERTEX
  8
LAYER_1
 10
159.9136
 20
50.6298
  0
VERTEX
  8
LAYER_1
 10
160.0483
 20
50.5323
 42
0.1008257054
  0
VERTEX
  8
LAYER_1
 10
160.2271
 20
50.4958
  0
VERTEX
  8
LAYER_1
 10
160.4059
 20
50.5323
  0
VERTEX
  8
LAYER_1
 10
160.5409
 20
50.6298
  0
VERTEX
  8
LAYER_1
 10
160.6257
 20
50.7728
  0
SEQEND
  0
ENDBLK
  0
BLOCK
  8
LAYER_1
  2
AIGNBL01030013
 70
64
 10
0
 20
0
 30
0
  3
AIGNBL01030013
  0
POLYLINE
  8
LAYER_1
 40
0.05
 41
0.05
 66
1
 10
0
 20
0
 30
0
 70
1
  0
VERTEX
  8
LAYER_1
 10
161.5404
 20
50.4286
  0
VERTEX
  8
LAYER_1
 10
161.4356
 20
50.4286
  0
VERTEX
  8
LAYER_1
 10
161.4356
 20
50.874
  0
VERTEX
  8
LAYER_1
 10
161.0488
 20
51.4618
  0
VERTEX
  8
LAYER_1
 10
161.18
 20
51.4618
  0
VERTEX
  8
LAYER_1
 10
161.4911
 20
50.9616
  0
VERTEX
  8
LAYER_1
 10
161.8046
 20
51.4618
  0
VERTEX
  8
LAYER_1
 10
161.9269
 20
51.4618
  0
VERTEX
  8
LAYER_1
 10
161.5404
 20
50.874
  0
SEQEND
  0
ENDBLK
  0
BLOCK
  8
LAYER_1
  2
AIGNBL01030014
 70
64
 10
0
 20
0
 30
0
  3
AIGNBL01030014
  0
POLYLINE
  8
LAYER_1
 40
0.05
 41
0.05
 66
1
 10
0
 20
0
 30
0
 70
1
  0
VERTEX
  8
LAYER_1
 10
162.8319
 20
51.4618
  0
VERTEX
  8
LAYER_1
 10
163.1396
 20
51.4618
  0
VERTEX
  8
LAYER_1
 10
163.2581
 20
51.4494
  0
VERTEX
  8
LAYER_1
 10
163.3649
 20
51.407
  0
VERTEX
  8
LAYER_1
 10
163.4427
 20
51.3261
  0
VERTEX
  8
LAYER_1
 10
163.4724
 20
51.1979
 42
-0.1787887146
  0
VERTEX
  8
LAYER_1
 10
163.4224
 20
51.0556
 42
-0.1642670326
  0
VERTEX
  8
LAYER_1
 10
163.2891
 20
50.976
  0
VERTEX
  8
LAYER_1
 10
163.2891
 20
50.9733
 42
-0.1734673322
  0
VERTEX
  8
LAYER_1
 10
163.4558
 20
50.8951
 42
-0.1923137572
  0
VERTEX
  8
LAYER_1
 10
163.522
 20
50.7146
  0
VERTEX
  8
LAYER_1
 10
163.4948
 20
50.5974
  0
VERTEX
  8
LAYER_1
 10
163.4186
 20
50.5068
  0
VERTEX
  8
LAYER_1
 10
163.2977
 20
50.4493
  0
VERTEX
  8
LAYER_1
 10
163.1379
 20
50.4286
  0
VERTEX
  8
LAYER_1
 10
162.8319
 20
50.4286
  0
SEQEND
  0
POLYLINE
  8
LAYER_1
 40
0.05
 41
0.05
 66
1
 10
0
 20
0
 30
0
 70
1
  0
VERTEX
  8
LAYER_1
 10
162.937
 20
51.0094
  0
VERTEX
  8
LAYER_1
 10
163.1485
 20
51.0094
  0
VERTEX
  8
LAYER_1
 10
163.2254
 20
51.0184
  0
VERTEX
  8
LAYER_1
 10
163.2956
 20
51.048
  0
VERTEX
  8
LAYER_1
 10
163.3477
 20
51.1045
  0
VERTEX
  8
LAYER_1
 10
163.3673
 20
51.1907
  0
VERTEX
  8
LAYER_1
 10
163.3477
 20
51.2744
  0
VERTEX
  8
LAYER_1
 10
163.2946
 20
51.3305
  0
VERTEX
  8
LAYER_1
 10
163.2157
 20
51.3619
  0
VERTEX
  8
LAYER_1
 10
163.1192
 20
51.3715
  0
VERTEX
  8
LAYER_1
 10
162.937
 20
51.3715
  0
SEQEND
  0
POLYLINE
  8
LAYER_1
 40
0.05
 41
0.05
 66
1
 10
0
 20
0
 30
0
 70
1
  0
VERTEX
  8
LAYER_1
 10
162.937
 20
50.5192
  0
VERTEX
  8
LAYER_1
 10
163.1327
 20
50.5192
  0
VERTEX
  8
LAYER_1
 10
163.2412
 20
50.5302
  0
VERTEX
  8
LAYER_1
 10
163.3318
 20
50.565
  0
VERTEX
  8
LAYER_1
 10
163.3935
 20
50.6281
  0
VERTEX
  8
LAYER_1
 10
163.4169
 20
50.7208
 42
0.2554060681
  0
VERTEX
  8
LAYER_1
 10
163.3477
 20
50.873
 42
0.1380642909
  0
VERTEX
  8
LAYER_1
 10
163.1516
 20
50.9233
  0
VERTEX
  8
LAYER_1
 10
162.937
 20
50.9233
  0
SEQEND
  0
ENDBLK
  0
BLOCK
  8
LAYER_1
  2
AIGNBL01030015
 70
64
 10
0
 20
0
 30
0
  3
AIGNBL01030015
  0
POLYLINE
  8
LAYER_1
 40
0.05
 41
0.05
 66
1
 10
0
 20
0
 30
0
 70
1
  0
VERTEX
  8
LAYER_1
 10
163.954
 20
50.4286
  0
VERTEX
  8
LAYER_1
 10
163.8386
 20
50.4286
  0
VERTEX
  8
LAYER_1
 10
164.2854
 20
51.4618
  0
VERTEX
  8
LAYER_1
 10
164.3877
 20
51.4618
  0
VERTEX
  8
LAYER_1
 10
164.8311
 20
50.4286
  0
VERTEX
  8
LAYER_1
 10
164.7143
 20
50.4286
  0
VERTEX
  8
LAYER_1
 10
164.6003
 20
50.7001
  0
VERTEX
  8
LAYER_1
 10
164.0663
 20
50.7001
  0
SEQEND
  0
POLYLINE
  8
LAYER_1
 40
0.05
 41
0.05
 66
1
 10
0
 20
0
 30
0
 70
1
  0
VERTEX
  8
LAYER_1
 10
164.1056
 20
50.7965
  0
VERTEX
  8
LAYER_1
 10
164.561
 20
50.7965
  0
VERTEX
  8
LAYER_1
 10
164.3333
 20
51.3454
  0
SEQEND
  0
ENDBLK
  0
BLOCK
  8
LAYER_1
  2
AIGNBL01030016
 70
64
 10
0
 20
0
 30
0
  3
AIGNBL01030016
  0
POLYLINE
  8
LAYER_1
 40
0.05
 41
0.05
 66
1
 10
0
 20
0
 30
0
 70
1
  0
VERTEX
  8
LAYER_1
 10
165.5157
 20
50.4286
  0
VERTEX
  8
LAYER_1
 10
165.4106
 20
50.4286
  0
VERTEX
  8
LAYER_1
 10
165.4106
 20
51.3684
  0
VERTEX
  8
LAYER_1
 10
165.0644
 20
51.3684
  0
VERTEX
  8
LAYER_1
 10
165.0644
 20
51.4618
  0
VERTEX
  8
LAYER_1
 10
165.8612
 20
51.4618
  0
VERTEX
  8
LAYER_1
 10
165.8612
 20
51.3684
  0
VERTEX
  8
LAYER_1
 10
165.5157
 20
51.3684
  0
SEQEND
  0
ENDBLK
  0
BLOCK
  8
LAYER_1
  2
AIGNBL01030017
 70
64
 10
0
 20
0
 30
0
  3
AIGNBL01030017
  0
POLYLINE
  8
LAYER_1
 40
0.05
 41
0.05
 66
1
 10
0
 20
0
 30
0
 70
1
  0
VERTEX
  8
LAYER_1
 10
166.2174
 20
51.4618
  0
VERTEX
  8
LAYER_1
 10
166.3221
 20
51.4618
  0
VERTEX
  8
LAYER_1
 10
166.3221
 20
51.0139
  0
VERTEX
  8
LAYER_1
 10
166.8858
 20
51.0139
  0
VERTEX
  8
LAYER_1
 10
166.8858
 20
51.4618
  0
VERTEX
  8
LAYER_1
 10
166.9908
 20
51.4618
  0
VERTEX
  8
LAYER_1
 10
166.9908
 20
50.4286
  0
VERTEX
  8
LAYER_1
 10
166.8858
 20
50.4286
  0
VERTEX
  8
LAYER_1
 10
166.8858
 20
50.9178
  0
VERTEX
  8
LAYER_1
 10
166.3221
 20
50.9178
  0
VERTEX
  8
LAYER_1
 10
166.3221
 20
50.4286
  0
VERTEX
  8
LAYER_1
 10
166.2174
 20
50.4286
  0
SEQEND
  0
ENDBLK
  0
BLOCK
  8
LAYER_1
  2
AIGNBL01030018
 70
64
 10
0
 20
0
 30
0
  3
AIGNBL01030018
  0
POLYLINE
  8
LAYER_1
 40
0.05
 41
0.05
 66
1
 10
0
 20
0
 30
0
 70
1
  0
VERTEX
  8
LAYER_1
 10
167.5713
 20
50.4286
  0
VERTEX
  8
LAYER_1
 10
167.4663
 20
50.4286
  0
VERTEX
  8
LAYER_1
 10
167.4663
 20
51.4618
  0
VERTEX
  8
LAYER_1
 10
167.7701
 20
51.4618
  0
VERTEX
  8
LAYER_1
 10
167.9107
 20
51.4473
  0
VERTEX
  8
LAYER_1
 10
168.0233
 20
51.3998
  0
VERTEX
  8
LAYER_1
 10
168.0967
 20
51.3143
  0
VERTEX
  8
LAYER_1
 10
168.1229
 20
51.1862
  0
VERTEX
  8
LAYER_1
 10
168.1029
 20
51.0825
  0
VERTEX
  8
LAYER_1
 10
168.0475
 20
51.0015
  0
VERTEX
  8
LAYER_1
 10
167.9641
 20
50.9467
  0
VERTEX
  8
LAYER_1
 10
167.859
 20
50.9206
  0
VERTEX
  8
LAYER_1
 10
168.1611
 20
50.4286
  0
VERTEX
  8
LAYER_1
 10
168.0327
 20
50.4286
  0
VERTEX
  8
LAYER_1
 10
167.7467
 20
50.9116
  0
VERTEX
  8
LAYER_1
 10
167.5713
 20
50.9116
  0
SEQEND
  0
POLYLINE
  8
LAYER_1
 40
0.05
 41
0.05
 66
1
 10
0
 20
0
 30
0
 70
1
  0
VERTEX
  8
LAYER_1
 10
167.5713
 20
51.0022
  0
VERTEX
  8
LAYER_1
 10
167.7539
 20
51.0022
 42
0.1657798624
  0
VERTEX
  8
LAYER_1
 10
167.9496
 20
51.048
 42
0.2503949893
  0
VERTEX
  8
LAYER_1
 10
168.0182
 20
51.1862
  0
VERTEX
  8
LAYER_1
 10
167.9989
 20
51.272
  0
VERTEX
  8
LAYER_1
 10
167.9465
 20
51.3292
  0
VERTEX
  8
LAYER_1
 10
167.8649
 20
51.3612
  0
VERTEX
  8
LAYER_1
 10
167.7584
 20
51.3715
  0
VERTEX
  8
LAYER_1
 10
167.5713
 20
51.3715
  0
SEQEND
  0
ENDBLK
  0
BLOCK
  8
LAYER_1
  2
AIGNBL01030019
 70
64
 10
0
 20
0
 30
0
  3
AIGNBL01030019
  0
POLYLINE
  8
LAYER_1
 40
0.05
 41
0.05
 66
1
 10
0
 20
0
 30
0
 70
1
  0
VERTEX
  8
LAYER_1
 10
169.5633
 20
50.9454
 42
-0.1000954639
  0
VERTEX
  8
LAYER_1
 10
169.5227
 20
50.728
 42
-0.1001905425
  0
VERTEX
  8
LAYER_1
 10
169.4093
 20
50.5564
 42
-0.09598116796
  0
VERTEX
  8
LAYER_1
 10
169.2388
 20
50.4434
 42
-0.09506675375
  0
VERTEX
  8
LAYER_1
 10
169.0249
 20
50.4024
 42
-0.1012184087
  0
VERTEX
  8
LAYER_1
 10
168.8109
 20
50.4434
 42
-0.1000476754
  0
VERTEX
  8
LAYER_1
 10
168.6404
 20
50.5564
 42
-0.09638651026
  0
VERTEX
  8
LAYER_1
 10
168.5274
 20
50.728
 42
-0.0931359716
  0
VERTEX
  8
LAYER_1
 10
168.4867
 20
50.9454
 42
-0.1020962526
  0
VERTEX
  8
LAYER_1
 10
168.5274
 20
51.1628
 42
-0.101889112
  0
VERTEX
  8
LAYER_1
 10
168.6404
 20
51.3343
 42
-0.09563682649
  0
VERTEX
  8
LAYER_1
 10
168.8109
 20
51.4473
 42
-0.0950295922
  0
VERTEX
  8
LAYER_1
 10
169.0249
 20
51.4883
 42
-0.101175466
  0
VERTEX
  8
LAYER_1
 10
169.2388
 20
51.4473
 42
-0.101575919
  0
VERTEX
  8
LAYER_1
 10
169.4093
 20
51.3343
 42
-0.09449174073
  0
VERTEX
  8
LAYER_1
 10
169.5227
 20
51.1628
 42
-0.09273041258
  0
SEQEND
  0
POLYLINE
  8
LAYER_1
 40
0.05
 41
0.05
 66
1
 10
0
 20
0
 30
0
 70
1
  0
VERTEX
  8
LAYER_1
 10
169.4524
 20
50.9447
  0
VERTEX
  8
LAYER_1
 10
169.4231
 20
51.1166
  0
VERTEX
  8
LAYER_1
 10
169.3383
 20
51.2599
  0
VERTEX
  8
LAYER_1
 10
169.2036
 20
51.3581
  0
VERTEX
  8
LAYER_1
 10
169.0249
 20
51.395
  0
VERTEX
  8
LAYER_1
 10
168.846
 20
51.3581
  0
VERTEX
  8
LAYER_1
 10
168.711
 20
51.2599
  0
VERTEX
  8
LAYER_1
 10
168.6262
 20
51.1166
  0
VERTEX
  8
LAYER_1
 10
168.5973
 20
50.9447
  0
VERTEX
  8
LAYER_1
 10
168.6262
 20
50.7728
  0
VERTEX
  8
LAYER_1
 10
168.711
 20
50.6298
  0
VERTEX
  8
LAYER_1
 10
168.846
 20
50.5323
  0
VERTEX
  8
LAYER_1
 10
169.0249
 20
50.4958
  0
VERTEX
  8
LAYER_1
 10
169.2036
 20
50.5323
  0
VERTEX
  8
LAYER_1
 10
169.3383
 20
50.6298
  0
VERTEX
  8
LAYER_1
 10
169.4231
 20
50.7728
  0
SEQEND
  0
ENDBLK
  0
BLOCK
  8
LAYER_1
  2
AIGNBL0103001A
 70
64
 10
0
 20
0
 30
0
  3
AIGNBL0103001A
  0
POLYLINE
  8
LAYER_1
 40
0.05
 41
0.05
 66
1
 10
0
 20
0
 30
0
 70
1
  0
VERTEX
  8
LAYER_1
 10
171.0051
 20
50.9454
 42
-0.1041417444
  0
VERTEX
  8
LAYER_1
 10
170.9641
 20
50.728
 42
-0.1000549391
  0
VERTEX
  8
LAYER_1
 10
170.8514
 20
50.5564
 42
-0.09536478376
  0
VERTEX
  8
LAYER_1
 10
170.6805
 20
50.4434
 42
-0.09507606236
  0
VERTEX
  8
LAYER_1
 10
170.4666
 20
50.4024
 42
-0.101822328
  0
VERTEX
  8
LAYER_1
 10
170.253
 20
50.4434
 42
-0.102112669
  0
VERTEX
  8
LAYER_1
 10
170.0821
 20
50.5564
 42
-0.09442769366
  0
VERTEX
  8
LAYER_1
 10
169.9688
 20
50.728
 42
-0.0931359716
  0
VERTEX
  8
LAYER_1
 10
169.9281
 20
50.9454
 42
-0.1020962526
  0
VERTEX
  8
LAYER_1
 10
169.9688
 20
51.1628
 42
-0.1007688052
  0
VERTEX
  8
LAYER_1
 10
170.0821
 20
51.3343
 42
-0.09625543395
  0
VERTEX
  8
LAYER_1
 10
170.253
 20
51.4473
 42
-0.09528409444
  0
VERTEX
  8
LAYER_1
 10
170.4666
 20
51.4883
 42
-0.101185532
  0
VERTEX
  8
LAYER_1
 10
170.6805
 20
51.4473
 42
-0.09904343471
  0
VERTEX
  8
LAYER_1
 10
170.8514
 20
51.3343
 42
-0.09562840933
  0
VERTEX
  8
LAYER_1
 10
170.9641
 20
51.1628
 42
-0.09397287008
  0
SEQEND
  0
POLYLINE
  8
LAYER_1
 40
0.05
 41
0.05
 66
1
 10
0
 20
0
 30
0
 70
1
  0
VERTEX
  8
LAYER_1
 10
170.8941
 20
50.9447
  0
VERTEX
  8
LAYER_1
 10
170.8652
 20
51.1166
  0
VERTEX
  8
LAYER_1
 10
170.7804
 20
51.2599
  0
VERTEX
  8
LAYER_1
 10
170.6454
 20
51.3581
  0
VERTEX
  8
LAYER_1
 10
170.4666
 20
51.395
  0
VERTEX
  8
LAYER_1
 10
170.2878
 20
51.3581
  0
VERTEX
  8
LAYER_1
 10
170.1531
 20
51.2599
  0
VERTEX
  8
LAYER_1
 10
170.0684
 20
51.1166
  0
VERTEX
  8
LAYER_1
 10
170.0391
 20
50.9447
  0
VERTEX
  8
LAYER_1
 10
170.0684
 20
50.7728
  0
VERTEX
  8
LAYER_1
 10
170.1531
 20
50.6298
  0
VERTEX
  8
LAYER_1
 10
170.2878
 20
50.5323
  0
VERTEX
  8
LAYER_1
 10
170.4666
 20
50.4958
  0
VERTEX
  8
LAYER_1
 10
170.6454
 20
50.5323
  0
VERTEX
  8
LAYER_1
 10
170.7804
 20
50.6298
  0
VERTEX
  8
LAYER_1
 10
170.8652
 20
50.7728
  0
SEQEND
  0
ENDBLK
  0
BLOCK
  8
LAYER_1
  2
AIGNBL0103001B
 70
64
 10
0
 20
0
 30
0
  3
AIGNBL0103001B
  0
POLYLINE
  8
LAYER_1
 40
0.05
 41
0.05
 66
1
 10
0
 20
0
 30
0
 70
1
  0
VERTEX
  8
LAYER_1
 10
171.9359
 20
50.6067
  0
VERTEX
  8
LAYER_1
 10
171.9377
 20
50.6067
  0
VERTEX
  8
LAYER_1
 10
172.2832
 20
51.4618
  0
VERTEX
  8
LAYER_1
 10
172.4441
 20
51.4618
  0
VERTEX
  8
LAYER_1
 10
172.4441
 20
50.4286
  0
VERTEX
  8
LAYER_1
 10
172.3387
 20
50.4286
  0
VERTEX
  8
LAYER_1
 10
172.3387
 20
51.3261
  0
VERTEX
  8
LAYER_1
 10
172.3359
 20
51.3261
  0
VERTEX
  8
LAYER_1
 10
171.9625
 20
50.4286
  0
VERTEX
  8
LAYER_1
 10
171.907
 20
50.4286
  0
VERTEX
  8
LAYER_1
 10
171.5332
 20
51.3261
  0
VERTEX
  8
LAYER_1
 10
171.5305
 20
51.3261
  0
VERTEX
  8
LAYER_1
 10
171.5305
 20
50.4286
  0
VERTEX
  8
LAYER_1
 10
171.4254
 20
50.4286
  0
VERTEX
  8
LAYER_1
 10
171.4254
 20
51.4618
  0
VERTEX
  8
LAYER_1
 10
171.5859
 20
51.4618
  0
SEQEND
  0
ENDBLK
  0
BLOCK
  8
LAYER_1
  2
AIGNBL0103001C
 70
64
 10
0
 20
0
 30
0
  3
AIGNBL0103001C
  0
POLYLINE
  8
LAYER_1
 40
0.05
 41
0.05
 66
1
 10
0
 20
0
 30
0
 70
1
  0
VERTEX
  8
LAYER_1
 10
173.5906
 20
50.5223
  0
VERTEX
  8
LAYER_1
 10
174.1439
 20
50.5223
  0
VERTEX
  8
LAYER_1
 10
174.1439
 20
50.4286
  0
VERTEX
  8
LAYER_1
 10
173.4855
 20
50.4286
  0
VERTEX
  8
LAYER_1
 10
173.4855
 20
51.4618
  0
VERTEX
  8
LAYER_1
 10
174.1263
 20
51.4618
  0
VERTEX
  8
LAYER_1
 10
174.1263
 20
51.3684
  0
VERTEX
  8
LAYER_1
 10
173.5906
 20
51.3684
  0
VERTEX
  8
LAYER_1
 10
173.5906
 20
51.0139
  0
VERTEX
  8
LAYER_1
 10
174.0912
 20
51.0139
  0
VERTEX
  8
LAYER_1
 10
174.0912
 20
50.9206
  0
VERTEX
  8
LAYER_1
 10
173.5906
 20
50.9206
  0
SEQEND
  0
ENDBLK
  0
BLOCK
  8
LAYER_1
  2
AIGNBL0103001D
 70
64
 10
0
 20
0
 30
0
  3
AIGNBL0103001D
  0
POLYLINE
  8
LAYER_1
 40
0.05
 41
0.05
 66
1
 10
0
 20
0
 30
0
 70
1
  0
VERTEX
  8
LAYER_1
 10
174.8891
 20
51.0446
  0
VERTEX
  8
LAYER_1
 10
175.1712
 20
51.4618
  0
VERTEX
  8
LAYER_1
 10
175.2963
 20
51.4618
  0
VERTEX
  8
LAYER_1
 10
174.9538
 20
50.9702
  0
VERTEX
  8
LAYER_1
 10
175.3332
 20
50.4286
  0
VERTEX
  8
LAYER_1
 10
175.2019
 20
50.4286
  0
VERTEX
  8
LAYER_1
 10
174.8863
 20
50.8944
  0
VERTEX
  8
LAYER_1
 10
174.5728
 20
50.4286
  0
VERTEX
  8
LAYER_1
 10
174.4412
 20
50.4286
  0
VERTEX
  8
LAYER_1
 10
174.8209
 20
50.9715
  0
VERTEX
  8
LAYER_1
 10
174.475
 20
51.4618
  0
VERTEX
  8
LAYER_1
 10
174.6066
 20
51.4618
  0
SEQEND
  0
ENDBLK
  0
BLOCK
  8
LAYER_1
  2
AIGNBL0103001E
 70
64
 10
0
 20
0
 30
0
  3
AIGNBL0103001E
  0
POLYLINE
  8
LAYER_1
 40
0.05
 41
0.05
 66
1
 10
0
 20
0
 30
0
 70
1
  0
VERTEX
  8
LAYER_1
 10
175.6994
 20
51.4618
  0
VERTEX
  8
LAYER_1
 10
175.9915
 20
51.4618
  0
VERTEX
  8
LAYER_1
 10
176.1345
 20
51.4453
  0
VERTEX
  8
LAYER_1
 10
176.2444
 20
51.3939
  0
VERTEX
  8
LAYER_1
 10
176.3154
 20
51.3078
  0
VERTEX
  8
LAYER_1
 10
176.3398
 20
51.1862
  0
VERTEX
  8
LAYER_1
 10
176.3147
 20
51.0642
  0
VERTEX
  8
LAYER_1
 10
176.243
 20
50.9781
  0
VERTEX
  8
LAYER_1
 10
176.1321
 20
50.9264
  0
VERTEX
  8
LAYER_1
 10
175.9884
 20
50.9089
  0
VERTEX
  8
LAYER_1
 10
175.8044
 20
50.9089
  0
VERTEX
  8
LAYER_1
 10
175.8044
 20
50.4286
  0
VERTEX
  8
LAYER_1
 10
175.6994
 20
50.4286
  0
SEQEND
  0
POLYLINE
  8
LAYER_1
 40
0.05
 41
0.05
 66
1
 10
0
 20
0
 30
0
 70
1
  0
VERTEX
  8
LAYER_1
 10
175.8044
 20
50.9977
  0
VERTEX
  8
LAYER_1
 10
175.9822
 20
50.9977
 42
0.1829203509
  0
VERTEX
  8
LAYER_1
 10
176.1706
 20
51.0459
 42
0.2347011275
  0
VERTEX
  8
LAYER_1
 10
176.2351
 20
51.1862
 42
0.26486771
  0
VERTEX
  8
LAYER_1
 10
176.1686
 20
51.3271
 42
0.126412566
  0
VERTEX
  8
LAYER_1
 10
175.9822
 20
51.3715
  0
VERTEX
  8
LAYER_1
 10
175.8044
 20
51.3715
  0
SEQEND
  0
ENDBLK
  0
BLOCK
  8
LAYER_1
  2
AIGNBL0103001F
 70
64
 10
0
 20
0
 30
0
  3
AIGNBL0103001F
  0
POLYLINE
  8
LAYER_1
 40
0.05
 41
0.05
 66
1
 10
0
 20
0
 30
0
 70
1
  0
VERTEX
  8
LAYER_1
 10
176.8521
 20
50.5223
  0
VERTEX
  8
LAYER_1
 10
177.4054
 20
50.5223
  0
VERTEX
  8
LAYER_1
 10
177.4054
 20
50.4286
  0
VERTEX
  8
LAYER_1
 10
176.747
 20
50.4286
  0
VERTEX
  8
LAYER_1
 10
176.747
 20
51.4618
  0
VERTEX
  8
LAYER_1
 10
177.3878
 20
51.4618
  0
VERTEX
  8
LAYER_1
 10
177.3878
 20
51.3684
  0
VERTEX
  8
LAYER_1
 10
176.8521
 20
51.3684
  0
VERTEX
  8
LAYER_1
 10
176.8521
 20
51.0139
  0
VERTEX
  8
LAYER_1
 10
177.3527
 20
51.0139
  0
VERTEX
  8
LAYER_1
 10
177.3527
 20
50.9206
  0
VERTEX
  8
LAYER_1
 10
176.8521
 20
50.9206
  0
SEQEND
  0
ENDBLK
  0
BLOCK
  8
LAYER_1
  2
AIGNBL01030020
 70
64
 10
0
 20
0
 30
0
  3
AIGNBL01030020
  0
POLYLINE
  8
LAYER_1
 40
0.05
 41
0.05
 66
1
 10
0
 20
0
 30
0
 70
1
  0
VERTEX
  8
LAYER_1
 10
177.9173
 20
50.4286
  0
VERTEX
  8
LAYER_1
 10
177.8122
 20
50.4286
  0
VERTEX
  8
LAYER_1
 10
177.8122
 20
51.4618
  0
VERTEX
  8
LAYER_1
 10
178.1161
 20
51.4618
  0
VERTEX
  8
LAYER_1
 10
178.2567
 20
51.4473
  0
VERTEX
  8
LAYER_1
 10
178.3693
 20
51.3998
  0
VERTEX
  8
LAYER_1
 10
178.443
 20
51.3143
  0
VERTEX
  8
LAYER_1
 10
178.4689
 20
51.1862
  0
VERTEX
  8
LAYER_1
 10
178.4489
 20
51.0825
  0
VERTEX
  8
LAYER_1
 10
178.3934
 20
51.0015
  0
VERTEX
  8
LAYER_1
 10
178.3101
 20
50.9467
  0
VERTEX
  8
LAYER_1
 10
178.205
 20
50.9206
  0
VERTEX
  8
LAYER_1
 10
178.5071
 20
50.4286
  0
VERTEX
  8
LAYER_1
 10
178.3786
 20
50.4286
  0
VERTEX
  8
LAYER_1
 10
178.0927
 20
50.9116
  0
VERTEX
  8
LAYER_1
 10
177.9173
 20
50.9116
  0
SEQEND
  0
POLYLINE
  8
LAYER_1
 40
0.05
 41
0.05
 66
1
 10
0
 20
0
 30
0
 70
1
  0
VERTEX
  8
LAYER_1
 10
177.9173
 20
51.0022
  0
VERTEX
  8
LAYER_1
 10
178.0999
 20
51.0022
 42
0.1667734107
  0
VERTEX
  8
LAYER_1
 10
178.2956
 20
51.048
 42
0.2503091692
  0
VERTEX
  8
LAYER_1
 10
178.3641
 20
51.1862
  0
VERTEX
  8
LAYER_1
 10
178.3452
 20
51.272
  0
VERTEX
  8
LAYER_1
 10
178.2925
 20
51.3292
  0
VERTEX
  8
LAYER_1
 10
178.2108
 20
51.3612
  0
VERTEX
  8
LAYER_1
 10
178.1044
 20
51.3715
  0
VERTEX
  8
LAYER_1
 10
177.9173
 20
51.3715
  0
SEQEND
  0
ENDBLK
  0
BLOCK
  8
LAYER_1
  2
AIGNBL01030021
 70
64
 10
0
 20
0
 30
0
  3
AIGNBL01030021
  0
POLYLINE
  8
LAYER_1
 40
0.05
 41
0.05
 66
1
 10
0
 20
0
 30
0
 70
1
  0
VERTEX
  8
LAYER_1
 10
178.9929
 20
50.4286
  0
VERTEX
  8
LAYER_1
 10
178.8882
 20
50.4286
  0
VERTEX
  8
LAYER_1
 10
178.8882
 20
51.4618
  0
VERTEX
  8
LAYER_1
 10
178.9929
 20
51.4618
  0
SEQEND
  0
ENDBLK
  0
BLOCK
  8
LAYER_1
  2
AIGNBL01030022
 70
64
 10
0
 20
0
 30
0
  3
AIGNBL01030022
  0
POLYLINE
  8
LAYER_1
 40
0.05
 41
0.05
 66
1
 10
0
 20
0
 30
0
 70
1
  0
VERTEX
  8
LAYER_1
 10
179.5737
 20
50.5223
  0
VERTEX
  8
LAYER_1
 10
180.1267
 20
50.5223
  0
VERTEX
  8
LAYER_1
 10
180.1267
 20
50.4286
  0
VERTEX
  8
LAYER_1
 10
179.4687
 20
50.4286
  0
VERTEX
  8
LAYER_1
 10
179.4687
 20
51.4618
  0
VERTEX
  8
LAYER_1
 10
180.1094
 20
51.4618
  0
VERTEX
  8
LAYER_1
 10
180.1094
 20
51.3684
  0
VERTEX
  8
LAYER_1
 10
179.5737
 20
51.3684
  0
VERTEX
  8
LAYER_1
 10
179.5737
 20
51.0139
  0
VERTEX
  8
LAYER_1
 10
180.0743
 20
51.0139
  0
VERTEX
  8
LAYER_1
 10
180.0743
 20
50.9206
  0
VERTEX
  8
LAYER_1
 10
179.5737
 20
50.9206
  0
SEQEND
  0
ENDBLK
  0
BLOCK
  8
LAYER_1
  2
AIGNBL01030023
 70
64
 10
0
 20
0
 30
0
  3
AIGNBL01030023
  0
POLYLINE
  8
LAYER_1
 40
0.05
 41
0.05
 66
1
 10
0
 20
0
 30
0
 70
1
  0
VERTEX
  8
LAYER_1
 10
181.2666
 20
50.5819
  0
VERTEX
  8
LAYER_1
 10
181.2694
 20
50.5819
  0
VERTEX
  8
LAYER_1
 10
181.2694
 20
51.4618
  0
VERTEX
  8
LAYER_1
 10
181.3745
 20
51.4618
  0
VERTEX
  8
LAYER_1
 10
181.3745
 20
50.4286
  0
VERTEX
  8
LAYER_1
 10
181.2432
 20
50.4286
  0
VERTEX
  8
LAYER_1
 10
180.642
 20
51.3174
  0
VERTEX
  8
LAYER_1
 10
180.6389
 20
51.3174
  0
VERTEX
  8
LAYER_1
 10
180.6389
 20
50.4286
  0
VERTEX
  8
LAYER_1
 10
180.5339
 20
50.4286
  0
VERTEX
  8
LAYER_1
 10
180.5339
 20
51.4618
  0
VERTEX
  8
LAYER_1
 10
180.6655
 20
51.4618
  0
SEQEND
  0
ENDBLK
  0
BLOCK
  8
LAYER_1
  2
AIGNBL01030024
 70
64
 10
0
 20
0
 30
0
  3
AIGNBL01030024
  0
POLYLINE
  8
LAYER_1
 40
0.05
 41
0.05
 66
1
 10
0
 20
0
 30
0
 70
1
  0
VERTEX
  8
LAYER_1
 10
182.7201
 20
50.5964
  0
VERTEX
  8
LAYER_1
 10
182.6564
 20
50.522
  0
VERTEX
  8
LAYER_1
 10
182.5703
 20
50.4603
  0
VERTEX
  8
LAYER_1
 10
182.4621
 20
50.4179
  0
VERTEX
  8
LAYER_1
 10
182.3333
 20
50.4024
 42
-0.100982896
  0
VERTEX
  8
LAYER_1
 10
182.1172
 20
50.4434
 42
-0.1036559164
  0
VERTEX
  8
LAYER_1
 10
181.9467
 20
50.5564
 42
-0.09812017057
  0
VERTEX
  8
LAYER_1
 10
181.8351
 20
50.728
 42
-0.09232404316
  0
VERTEX
  8
LAYER_1
 10
181.7948
 20
50.9454
 42
-0.1039024847
  0
VERTEX
  8
LAYER_1
 10
181.8358
 20
51.1628
 42
-0.1006255151
  0
VERTEX
  8
LAYER_1
 10
181.9484
 20
51.3343
 42
-0.09509197705
  0
VERTEX
  8
LAYER_1
 10
182.1193
 20
51.4473
 42
-0.0950295922
  0
VERTEX
  8
LAYER_1
 10
182.3333
 20
51.4883
  0
VERTEX
  8
LAYER_1
 10
182.4449
 20
51.4763
  0
VERTEX
  8
LAYER_1
 10
182.5479
 20
51.4428
  0
VERTEX
  8
LAYER_1
 10
182.6354
 20
51.3912
  0
VERTEX
  8
LAYER_1
 10
182.7012
 20
51.3233
  0
VERTEX
  8
LAYER_1
 10
182.6137
 20
51.2589
  0
VERTEX
  8
LAYER_1
 10
182.5703
 20
51.3088
  0
VERTEX
  8
LAYER_1
 10
182.5069
 20
51.3526
  0
VERTEX
  8
LAYER_1
 10
182.4273
 20
51.3832
  0
VERTEX
  8
LAYER_1
 10
182.3346
 20
51.395
  0
VERTEX
  8
LAYER_1
 10
182.1544
 20
51.3584
  0
VERTEX
  8
LAYER_1
 10
182.0194
 20
51.2603
  0
VERTEX
  8
LAYER_1
 10
181.9346
 20
51.1169
  0
VERTEX
  8
LAYER_1
 10
181.9057
 20
50.9454
  0
VERTEX
  8
LAYER_1
 10
181.9357
 20
50.7738
  0
VERTEX
  8
LAYER_1
 10
182.0211
 20
50.6305
  0
VERTEX
  8
LAYER_1
 10
182.1562
 20
50.5323
 42
0.1010490553
  0
VERTEX
  8
LAYER_1
 10
182.3346
 20
50.4958
  0
VERTEX
  8
LAYER_1
 10
182.5038
 20
50.5323
 42
0.1324826472
  0
VERTEX
  8
LAYER_1
 10
182.6381
 20
50.6491
  0
SEQEND
  0
ENDBLK
  0
BLOCK
  8
LAYER_1
  2
AIGNBL01030025
 70
64
 10
0
 20
0
 30
0
  3
AIGNBL01030025
  0
POLYLINE
  8
LAYER_1
 40
0.05
 41
0.05
 66
1
 10
0
 20
0
 30
0
 70
1
  0
VERTEX
  8
LAYER_1
 10
183.2073
 20
50.5223
  0
VERTEX
  8
LAYER_1
 10
183.7606
 20
50.5223
  0
VERTEX
  8
LAYER_1
 10
183.7606
 20
50.4286
  0
VERTEX
  8
LAYER_1
 10
183.1022
 20
50.4286
  0
VERTEX
  8
LAYER_1
 10
183.1022
 20
51.4618
  0
VERTEX
  8
LAYER_1
 10
183.743
 20
51.4618
  0
VERTEX
  8
LAYER_1
 10
183.743
 20
51.3684
  0
VERTEX
  8
LAYER_1
 10
183.2073
 20
51.3684
  0
VERTEX
  8
LAYER_1
 10
183.2073
 20
51.0139
  0
VERTEX
  8
LAYER_1
 10
183.7078
 20
51.0139
  0
VERTEX
  8
LAYER_1
 10
183.7078
 20
50.9206
  0
VERTEX
  8
LAYER_1
 10
183.2073
 20
50.9206
  0
SEQEND
  0
ENDBLK
  0
BLOCK
  8
LAYER_1
  2
AIGNBL01020005
 70
64
 10
0
 20
0
 30
0
  3
AIGNBL01020005
  0
INSERT
  8
LAYER_1
  2
AIGNBL01030006
 10
0
 20
0
 30
0
  0
ENDBLK
  0
BLOCK
  8
LAYER_1
  2
AIGNBL0102000E
 70
64
 10
0
 20
0
 30
0
  3
AIGNBL0102000E
  0
INSERT
  8
LAYER_1
  2
AIGNBL0103000F
 10
0
 20
0
 30
0
  0
INSERT
  8
LAYER_1
  2
AIGNBL01030010
 10
0
 20
0
 30
0
  0
INSERT
  8
LAYER_1
  2
AIGNBL01030011
 10
0
 20
0
 30
0
  0
INSERT
  8
LAYER_1
  2
AIGNBL01030012
 10
0
 20
0
 30
0
  0
INSERT
  8
LAYER_1
  2
AIGNBL01030013
 10
0
 20
0
 30
0
  0
INSERT
  8
LAYER_1
  2
AIGNBL01030014
 10
0
 20
0
 30
0
  0
INSERT
  8
LAYER_1
  2
AIGNBL01030015
 10
0
 20
0
 30
0
  0
INSERT
  8
LAYER_1
  2
AIGNBL01030016
 10
0
 20
0
 30
0
  0
INSERT
  8
LAYER_1
  2
AIGNBL01030017
 10
0
 20
0
 30
0
  0
INSERT
  8
LAYER_1
  2
AIGNBL01030018
 10
0
 20
0
 30
0
  0
INSERT
  8
LAYER_1
  2
AIGNBL01030019
 10
0
 20
0
 30
0
  0
INSERT
  8
LAYER_1
  2
AIGNBL0103001A
 10
0
 20
0
 30
0
  0
INSERT
  8
LAYER_1
  2
AIGNBL0103001B
 10
0
 20
0
 30
0
  0
INSERT
  8
LAYER_1
  2
AIGNBL0103001C
 10
0
 20
0
 30
0
  0
INSERT
  8
LAYER_1
  2
AIGNBL0103001D
 10
0
 20
0
 30
0
  0
INSERT
  8
LAYER_1
  2
AIGNBL0103001E
 10
0
 20
0
 30
0
  0
INSERT
  8
LAYER_1
  2
AIGNBL0103001F
 10
0
 20
0
 30
0
  0
INSERT
  8
LAYER_1
  2
AIGNBL01030020
 10
0
 20
0
 30
0
  0
INSERT
  8
LAYER_1
  2
AIGNBL01030021
 10
0
 20
0
 30
0
  0
INSERT
  8
LAYER_1
  2
AIGNBL01030022
 10
0
 20
0
 30
0
  0
INSERT
  8
LAYER_1
  2
AIGNBL01030023
 10
0
 20
0
 30
0
  0
INSERT
  8
LAYER_1
  2
AIGNBL01030024
 10
0
 20
0
 30
0
  0
INSERT
  8
LAYER_1
  2
AIGNBL01030025
 10
0
 20
0
 30
0
  0
ENDBLK
  0
BLOCK
  8
LAYER_1
  2
AIGNBL01010002
 70
64
 10
0
 20
0
 30
0
  3
AIGNBL01010002
  0
POLYLINE
  8
LAYER_1
 40
0.05
 41
0.05
 66
1
 10
0
 20
0
 30
0
 70
1
  0
VERTEX
  8
LAYER_1
 10
99.3143
 20
189.995
  0
VERTEX
  8
LAYER_1
 10
99.3143
 20
189.6563
  0
VERTEX
  8
LAYER_1
 10
99.9705
 20
189.6563
  0
VERTEX
  8
LAYER_1
 10
99.9705
 20
189.995
  0
SEQEND
  0
POLYLINE
  8
LAYER_1
 40
0.0847
 41
0.0847
 66
1
 10
0
 20
0
 30
0
 70
1
  0
VERTEX
  8
LAYER_1
 10
99.3143
 20
189.995
  0
VERTEX
  8
LAYER_1
 10
99.3143
 20
189.6563
  0
VERTEX
  8
LAYER_1
 10
99.9705
 20
189.6563
  0
VERTEX
  8
LAYER_1
 10
99.9705
 20
189.995
  0
SEQEND
  0
POLYLINE
  8
LAYER_1
 40
0.05
 41
0.05
 66
1
 10
0
 20
0
 30
0
 70
1
  0
VERTEX
  8
LAYER_1
 10
97.4517
 20
188.3017
  0
VERTEX
  8
LAYER_1
 10
97.4517
 20
188.0054
  0
VERTEX
  8
LAYER_1
 10
97.9808
 20
188.0054
  0
VERTEX
  8
LAYER_1
 10
97.9808
 20
188.3017
  0
SEQEND
  0
POLYLINE
  8
LAYER_1
 40
0.0847
 41
0.0847
 66
1
 10
0
 20
0
 30
0
 70
1
  0
VERTEX
  8
LAYER_1
 10
97.4517
 20
188.3017
  0
VERTEX
  8
LAYER_1
 10
97.4517
 20
188.0054
  0
VERTEX
  8
LAYER_1
 10
97.9808
 20
188.0054
  0
VERTEX
  8
LAYER_1
 10
97.9808
 20
188.3017
  0
SEQEND
  0
POLYLINE
  8
LAYER_1
 40
0.05
 41
0.05
 66
1
 10
0
 20
0
 30
0
 70
1
  0
VERTEX
  8
LAYER_1
 10
110.9772
 20
189.995
  0
VERTEX
  8
LAYER_1
 10
110.9772
 20
189.6563
  0
VERTEX
  8
LAYER_1
 10
111.6333
 20
189.6563
  0
VERTEX
  8
LAYER_1
 10
111.6333
 20
189.995
  0
SEQEND
  0
POLYLINE
  8
LAYER_1
 40
0.0847
 41
0.0847
 66
1
 10
0
 20
0
 30
0
 70
1
  0
VERTEX
  8
LAYER_1
 10
110.9772
 20
189.995
  0
VERTEX
  8
LAYER_1
 10
110.9772
 20
189.6563
  0
VERTEX
  8
LAYER_1
 10
111.6333
 20
189.6563
  0
VERTEX
  8
LAYER_1
 10
111.6333
 20
189.995
  0
SEQEND
  0
POLYLINE
  8
LAYER_1
 40
0.05
 41
0.05
 66
1
 10
0
 20
0
 30
0
 70
1
  0
VERTEX
  8
LAYER_1
 10
112.9668
 20
188.3017
  0
VERTEX
  8
LAYER_1
 10
112.9668
 20
188.0054
  0
VERTEX
  8
LAYER_1
 10
113.496
 20
188.0054
  0
VERTEX
  8
LAYER_1
 10
113.496
 20
188.3017
  0
SEQEND
  0
POLYLINE
  8
LAYER_1
 40
0.0847
 41
0.0847
 66
1
 10
0
 20
0
 30
0
 70
1
  0
VERTEX
  8
LAYER_1
 10
112.9668
 20
188.3017
  0
VERTEX
  8
LAYER_1
 10
112.9668
 20
188.0054
  0
VERTEX
  8
LAYER_1
 10
113.496
 20
188.0054
  0
VERTEX
  8
LAYER_1
 10
113.496
 20
188.3017
  0
SEQEND
  0
POLYLINE
  8
LAYER_1
 40
0.0847
 41
0.0847
 66
1
 10
0
 20
0
 30
0
  0
VERTEX
  8
LAYER_1
 10
105.4738
 20
153.2497
  0
VERTEX
  8
LAYER_1
 10
105.4738
 20
155.5145
  0
SEQEND
  0
POLYLINE
  8
LAYER_1
 40
0.0847
 41
0.0847
 66
1
 10
0
 20
0
 30
0
  0
VERTEX
  8
LAYER_1
 10
105.4738
 20
156.4247
  0
VERTEX
  8
LAYER_1
 10
105.4738
 20
157.3349
  0
SEQEND
  0
POLYLINE
  8
LAYER_1
 40
0.0847
 41
0.0847
 66
1
 10
0
 20
0
 30
0
  0
VERTEX
  8
LAYER_1
 10
105.4738
 20
158.245
  0
VERTEX
  8
LAYER_1
 10
105.4738
 20
162.7959
  0
SEQEND
  0
POLYLINE
  8
LAYER_1
 40
0.0847
 41
0.0847
 66
1
 10
0
 20
0
 30
0
  0
VERTEX
  8
LAYER_1
 10
105.4738
 20
163.706
  0
VERTEX
  8
LAYER_1
 10
105.4738
 20
164.6162
  0
SEQEND
  0
POLYLINE
  8
LAYER_1
 40
0.0847
 41
0.0847
 66
1
 10
0
 20
0
 30
0
  0
VERTEX
  8
LAYER_1
 10
105.4738
 20
165.5264
  0
VERTEX
  8
LAYER_1
 10
105.4738
 20
170.0772
  0
SEQEND
  0
POLYLINE
  8
LAYER_1
 40
0.0847
 41
0.0847
 66
1
 10
0
 20
0
 30
0
  0
VERTEX
  8
LAYER_1
 10
105.4738
 20
170.9874
  0
VERTEX
  8
LAYER_1
 10
105.4738
 20
171.8975
  0
SEQEND
  0
POLYLINE
  8
LAYER_1
 40
0.0847
 41
0.0847
 66
1
 10
0
 20
0
 30
0
  0
VERTEX
  8
LAYER_1
 10
105.4738
 20
172.8077
  0
VERTEX
  8
LAYER_1
 10
105.4738
 20
177.3585
  0
SEQEND
  0
POLYLINE
  8
LAYER_1
 40
0.0847
 41
0.0847
 66
1
 10
0
 20
0
 30
0
  0
VERTEX
  8
LAYER_1
 10
105.4738
 20
178.2687
  0
VERTEX
  8
LAYER_1
 10
105.4738
 20
179.1789
  0
SEQEND
  0
POLYLINE
  8
LAYER_1
 40
0.0847
 41
0.0847
 66
1
 10
0
 20
0
 30
0
  0
VERTEX
  8
LAYER_1
 10
105.4738
 20
180.089
  0
VERTEX
  8
LAYER_1
 10
105.4738
 20
184.6399
  0
SEQEND
  0
POLYLINE
  8
LAYER_1
 40
0.0847
 41
0.0847
 66
1
 10
0
 20
0
 30
0
  0
VERTEX
  8
LAYER_1
 10
105.4738
 20
185.55
  0
VERTEX
  8
LAYER_1
 10
105.4738
 20
186.4602
  0
SEQEND
  0
POLYLINE
  8
LAYER_1
 40
0.0847
 41
0.0847
 66
1
 10
0
 20
0
 30
0
  0
VERTEX
  8
LAYER_1
 10
105.4738
 20
187.3704
  0
VERTEX
  8
LAYER_1
 10
105.4738
 20
191.9212
  0
SEQEND
  0
POLYLINE
  8
LAYER_1
 40
0.0847
 41
0.0847
 66
1
 10
0
 20
0
 30
0
  0
VERTEX
  8
LAYER_1
 10
105.4738
 20
192.8314
  0
VERTEX
  8
LAYER_1
 10
105.4738
 20
193.7204
  0
SEQEND
  0
POLYLINE
  8
LAYER_1
 40
0.0847
 41
0.0847
 66
1
 10
0
 20
0
 30
0
  0
VERTEX
  8
LAYER_1
 10
105.4738
 20
194.6305
  0
VERTEX
  8
LAYER_1
 10
105.4738
 20
199.1814
  0
SEQEND
  0
POLYLINE
  8
LAYER_1
 40
0.0847
 41
0.0847
 66
1
 10
0
 20
0
 30
0
  0
VERTEX
  8
LAYER_1
 10
105.4738
 20
200.0915
  0
VERTEX
  8
LAYER_1
 10
105.4738
 20
201.0017
  0
SEQEND
  0
POLYLINE
  8
LAYER_1
 40
0.0847
 41
0.0847
 66
1
 10
0
 20
0
 30
0
  0
VERTEX
  8
LAYER_1
 10
105.4738
 20
201.9119
  0
VERTEX
  8
LAYER_1
 10
105.4738
 20
206.4627
  0
SEQEND
  0
POLYLINE
  8
LAYER_1
 40
0.0847
 41
0.0847
 66
1
 10
0
 20
0
 30
0
  0
VERTEX
  8
LAYER_1
 10
105.4738
 20
207.3729
  0
VERTEX
  8
LAYER_1
 10
105.4738
 20
208.283
  0
SEQEND
  0
POLYLINE
  8
LAYER_1
 40
0.0847
 41
0.0847
 66
1
 10
0
 20
0
 30
0
  0
VERTEX
  8
LAYER_1
 10
105.4738
 20
209.1932
  0
VERTEX
  8
LAYER_1
 10
105.4738
 20
213.744
  0
SEQEND
  0
POLYLINE
  8
LAYER_1
 40
0.0847
 41
0.0847
 66
1
 10
0
 20
0
 30
0
  0
VERTEX
  8
LAYER_1
 10
105.4738
 20
214.6542
  0
VERTEX
  8
LAYER_1
 10
105.4738
 20
215.5644
  0
SEQEND
  0
POLYLINE
  8
LAYER_1
 40
0.0847
 41
0.0847
 66
1
 10
0
 20
0
 30
0
  0
VERTEX
  8
LAYER_1
 10
105.4738
 20
216.4745
  0
VERTEX
  8
LAYER_1
 10
105.4738
 20
221.0254
  0
SEQEND
  0
POLYLINE
  8
LAYER_1
 40
0.0847
 41
0.0847
 66
1
 10
0
 20
0
 30
0
  0
VERTEX
  8
LAYER_1
 10
105.4738
 20
221.9355
  0
VERTEX
  8
LAYER_1
 10
105.4738
 20
222.8457
  0
SEQEND
  0
POLYLINE
  8
LAYER_1
 40
0.0847
 41
0.0847
 66
1
 10
0
 20
0
 30
0
  0
VERTEX
  8
LAYER_1
 10
105.4738
 20
223.7559
  0
VERTEX
  8
LAYER_1
 10
105.4738
 20
228.3067
  0
SEQEND
  0
POLYLINE
  8
LAYER_1
 40
0.1693
 41
0.1693
 66
1
 10
0
 20
0
 30
0
  0
VERTEX
  8
LAYER_1
 10
101.4733
 20
172.7654
  0
VERTEX
  8
LAYER_1
 10
109.4532
 20
172.7654
  0
SEQEND
  0
POLYLINE
  8
LAYER_1
 40
0.1693
 41
0.1693
 66
1
 10
0
 20
0
 30
0
  0
VERTEX
  8
LAYER_1
 10
109.6225
 20
185.0632
  0
VERTEX
  8
LAYER_1
 10
109.305
 20
184.8304
  0
SEQEND
  0
POLYLINE
  8
LAYER_1
 40
0.0847
 41
0.0847
 66
1
 10
0
 20
0
 30
0
  0
VERTEX
  8
LAYER_1
 10
162.2429
 20
179.0095
  0
VERTEX
  8
LAYER_1
 10
171.2387
 20
188.0054
  0
SEQEND
  0
POLYLINE
  8
LAYER_1
 40
0.0847
 41
0.0847
 66
1
 10
0
 20
0
 30
0
  0
VERTEX
  8
LAYER_1
 10
159.4277
 20
179.0095
  0
VERTEX
  8
LAYER_1
 10
168.4235
 20
188.0054
  0
SEQEND
  0
POLYLINE
  8
LAYER_1
 40
0.0847
 41
0.0847
 66
1
 10
0
 20
0
 30
0
  0
VERTEX
  8
LAYER_1
 10
156.5914
 20
179.0095
  0
VERTEX
  8
LAYER_1
 10
165.5872
 20
188.0054
  0
SEQEND
  0
POLYLINE
  8
LAYER_1
 40
0.0847
 41
0.0847
 66
1
 10
0
 20
0
 30
0
  0
VERTEX
  8
LAYER_1
 10
153.755
 20
179.0095
  0
VERTEX
  8
LAYER_1
 10
162.772
 20
188.0054
  0
SEQEND
  0
POLYLINE
  8
LAYER_1
 40
0.0847
 41
0.0847
 66
1
 10
0
 20
0
 30
0
  0
VERTEX
  8
LAYER_1
 10
150.9399
 20
179.0095
  0
VERTEX
  8
LAYER_1
 10
159.9357
 20
188.0054
  0
SEQEND
  0
POLYLINE
  8
LAYER_1
 40
0.254
 41
0.254
 66
1
 10
0
 20
0
 30
0
  0
VERTEX
  8
LAYER_1
 10
98.9757
 20
179.0095
  0
VERTEX
  8
LAYER_1
 10
98.9757
 20
188.0054
  0
SEQEND
  0
POLYLINE
  8
LAYER_1
 40
0.254
 41
0.254
 66
1
 10
0
 20
0
 30
0
  0
VERTEX
  8
LAYER_1
 10
111.972
 20
179.0095
  0
VERTEX
  8
LAYER_1
 10
111.972
 20
188.0054
  0
SEQEND
  0
POLYLINE
  8
LAYER_1
 40
0.1693
 41
0.1693
 66
1
 10
0
 20
0
 30
0
  0
VERTEX
  8
LAYER_1
 10
99.9493
 20
177.9935
  0
VERTEX
  8
LAYER_1
 10
110.9983
 20
177.9935
  0
SEQEND
  0
POLYLINE
  8
LAYER_1
 40
0.1693
 41
0.1693
 66
1
 10
0
 20
0
 30
0
  0
VERTEX
  8
LAYER_1
 10
99.9282
 20
177.9935
 42
0.3549701446
  0
VERTEX
  8
LAYER_1
 10
99.8223
 20
177.9512
  0
SEQEND
  0
POLYLINE
  8
LAYER_1
 40
0.1693
 41
0.1693
 66
1
 10
0
 20
0
 30
0
  0
VERTEX
  8
LAYER_1
 10
99.3567
 20
177.5702
  0
VERTEX
  8
LAYER_1
 10
99.8223
 20
177.9512
  0
SEQEND
  0
POLYLINE
  8
LAYER_1
 40
0.1693
 41
0.1693
 66
1
 10
0
 20
0
 30
0
  0
VERTEX
  8
LAYER_1
 10
99.3567
 20
177.549
 42
0.2334384095
  0
VERTEX
  8
LAYER_1
 10
99.2932
 20
177.422
  0
SEQEND
  0
POLYLINE
  8
LAYER_1
 40
0.1693
 41
0.1693
 66
1
 10
0
 20
0
 30
0
  0
VERTEX
  8
LAYER_1
 10
99.2932
 20
176.8929
  0
VERTEX
  8
LAYER_1
 10
99.2932
 20
177.4009
  0
SEQEND
  0
POLYLINE
  8
LAYER_1
 40
0.1693
 41
0.1693
 66
1
 10
0
 20
0
 30
0
  0
VERTEX
  8
LAYER_1
 10
99.2932
 20
176.8929
  0
VERTEX
  8
LAYER_1
 10
111.6545
 20
176.8929
  0
VERTEX
  8
LAYER_1
 10
111.6545
 20
177.4009
  0
SEQEND
  0
POLYLINE
  8
LAYER_1
 40
0.1693
 41
0.1693
 66
1
 10
0
 20
0
 30
0
  0
VERTEX
  8
LAYER_1
 10
111.6545
 20
177.422
 42
0.1341013265
  0
VERTEX
  8
LAYER_1
 10
111.5698
 20
177.5702
  0
SEQEND
  0
POLYLINE
  8
LAYER_1
 40
0.1693
 41
0.1693
 66
1
 10
0
 20
0
 30
0
  0
VERTEX
  8
LAYER_1
 10
111.591
 20
177.5702
  0
VERTEX
  8
LAYER_1
 10
111.1254
 20
177.9512
  0
SEQEND
  0
POLYLINE
  8
LAYER_1
 40
0.1693
 41
0.1693
 66
1
 10
0
 20
0
 30
0
  0
VERTEX
  8
LAYER_1
 10
111.1042
 20
177.9724
  0
VERTEX
  8
LAYER_1
 10
110.9983
 20
177.9935
  0
VERTEX
  8
LAYER_1
 10
110.9772
 20
177.9935
  0
SEQEND
  0
POLYLINE
  8
LAYER_1
 40
0.1693
 41
0.1693
 66
1
 10
0
 20
0
 30
0
  0
VERTEX
  8
LAYER_1
 10
99.4837
 20
176.3002
  0
VERTEX
  8
LAYER_1
 10
111.464
 20
176.3002
  0
SEQEND
  0
POLYLINE
  8
LAYER_1
 40
0.1693
 41
0.1693
 66
1
 10
0
 20
0
 30
0
  0
VERTEX
  8
LAYER_1
 10
100.9442
 20
175.0937
  0
VERTEX
  8
LAYER_1
 10
100.9442
 20
176.3002
  0
SEQEND
  0
POLYLINE
  8
LAYER_1
 40
0.1693
 41
0.1693
 66
1
 10
0
 20
0
 30
0
  0
VERTEX
  8
LAYER_1
 10
99.4837
 20
176.3002
  0
VERTEX
  8
LAYER_1
 10
99.4837
 20
176.8929
  0
SEQEND
  0
POLYLINE
  8
LAYER_1
 40
0.1693
 41
0.1693
 66
1
 10
0
 20
0
 30
0
  0
VERTEX
  8
LAYER_1
 10
110.0035
 20
175.0937
  0
VERTEX
  8
LAYER_1
 10
110.0035
 20
176.3002
  0
SEQEND
  0
POLYLINE
  8
LAYER_1
 40
0.1693
 41
0.1693
 66
1
 10
0
 20
0
 30
0
  0
VERTEX
  8
LAYER_1
 10
100.9442
 20
175.0937
  0
VERTEX
  8
LAYER_1
 10
110.0035
 20
175.0937
  0
SEQEND
  0
POLYLINE
  8
LAYER_1
 40
0.1693
 41
0.1693
 66
1
 10
0
 20
0
 30
0
  0
VERTEX
  8
LAYER_1
 10
111.464
 20
176.3002
  0
VERTEX
  8
LAYER_1
 10
111.464
 20
176.8929
  0
SEQEND
  0
POLYLINE
  8
LAYER_1
 40
0.254
 41
0.254
 66
1
 10
0
 20
0
 30
0
  0
VERTEX
  8
LAYER_1
 10
34.3327
 20
188.0054
  0
VERTEX
  8
LAYER_1
 10
98.9757
 20
188.0054
  0
SEQEND
  0
POLYLINE
  8
LAYER_1
 40
0.254
 41
0.254
 66
1
 10
0
 20
0
 30
0
  0
VERTEX
  8
LAYER_1
 10
34.3327
 20
179.0095
  0
VERTEX
  8
LAYER_1
 10
98.9757
 20
179.0095
  0
SEQEND
  0
POLYLINE
  8
LAYER_1
 40
0.254
 41
0.254
 66
1
 10
0
 20
0
 30
0
  0
VERTEX
  8
LAYER_1
 10
111.972
 20
188.0054
  0
VERTEX
  8
LAYER_1
 10
176.615
 20
188.0054
  0
SEQEND
  0
POLYLINE
  8
LAYER_1
 40
0.254
 41
0.254
 66
1
 10
0
 20
0
 30
0
  0
VERTEX
  8
LAYER_1
 10
111.972
 20
179.0095
  0
VERTEX
  8
LAYER_1
 10
176.615
 20
179.0095
  0
SEQEND
  0
POLYLINE
  8
LAYER_1
 40
0.0847
 41
0.0847
 66
1
 10
0
 20
0
 30
0
  0
VERTEX
  8
LAYER_1
 10
176.3818
 20
179.0095
  0
VERTEX
  8
LAYER_1
 10
177.0592
 20
179.6657
  0
SEQEND
  0
POLYLINE
  8
LAYER_1
 40
0.0847
 41
0.0847
 66
1
 10
0
 20
0
 30
0
  0
VERTEX
  8
LAYER_1
 10
173.5667
 20
179.0095
  0
VERTEX
  8
LAYER_1
 10
177.1861
 20
182.629
  0
SEQEND
  0
POLYLINE
  8
LAYER_1
 40
0.0847
 41
0.0847
 66
1
 10
0
 20
0
 30
0
  0
VERTEX
  8
LAYER_1
 10
170.7303
 20
179.0095
  0
VERTEX
  8
LAYER_1
 10
176.0643
 20
184.3435
  0
SEQEND
  0
POLYLINE
  8
LAYER_1
 40
0.0847
 41
0.0847
 66
1
 10
0
 20
0
 30
0
  0
VERTEX
  8
LAYER_1
 10
167.9152
 20
179.0095
  0
VERTEX
  8
LAYER_1
 10
176.0855
 20
187.1799
  0
SEQEND
  0
POLYLINE
  8
LAYER_1
 40
0.0847
 41
0.0847
 66
1
 10
0
 20
0
 30
0
  0
VERTEX
  8
LAYER_1
 10
165.0789
 20
179.0095
  0
VERTEX
  8
LAYER_1
 10
174.0747
 20
188.0054
  0
SEQEND
  0
POLYLINE
  8
LAYER_1
 40
0.0847
 41
0.0847
 66
1
 10
0
 20
0
 30
0
  0
VERTEX
  8
LAYER_1
 10
148.1032
 20
179.0095
  0
VERTEX
  8
LAYER_1
 10
157.099
 20
188.0054
  0
SEQEND
  0
POLYLINE
  8
LAYER_1
 40
0.0847
 41
0.0847
 66
1
 10
0
 20
0
 30
0
  0
VERTEX
  8
LAYER_1
 10
145.288
 20
179.0095
  0
VERTEX
  8
LAYER_1
 10
154.2839
 20
188.0054
  0
SEQEND
  0
POLYLINE
  8
LAYER_1
 40
0.0847
 41
0.0847
 66
1
 10
0
 20
0
 30
0
  0
VERTEX
  8
LAYER_1
 10
142.4517
 20
179.0095
  0
VERTEX
  8
LAYER_1
 10
151.4475
 20
188.0054
  0
SEQEND
  0
POLYLINE
  8
LAYER_1
 40
0.0847
 41
0.0847
 66
1
 10
0
 20
0
 30
0
  0
VERTEX
  8
LAYER_1
 10
139.6154
 20
179.0095
  0
VERTEX
  8
LAYER_1
 10
148.6112
 20
188.0054
  0
SEQEND
  0
POLYLINE
  8
LAYER_1
 40
0.0847
 41
0.0847
 66
1
 10
0
 20
0
 30
0
  0
VERTEX
  8
LAYER_1
 10
136.8002
 20
179.0095
  0
VERTEX
  8
LAYER_1
 10
145.796
 20
188.0054
  0
SEQEND
  0
POLYLINE
  8
LAYER_1
 40
0.0847
 41
0.0847
 66
1
 10
0
 20
0
 30
0
  0
VERTEX
  8
LAYER_1
 10
133.9639
 20
179.0095
  0
VERTEX
  8
LAYER_1
 10
142.9597
 20
188.0054
  0
SEQEND
  0
POLYLINE
  8
LAYER_1
 40
0.0847
 41
0.0847
 66
1
 10
0
 20
0
 30
0
  0
VERTEX
  8
LAYER_1
 10
131.1275
 20
179.0095
  0
VERTEX
  8
LAYER_1
 10
140.1445
 20
188.0054
  0
SEQEND
  0
POLYLINE
  8
LAYER_1
 40
0.0847
 41
0.0847
 66
1
 10
0
 20
0
 30
0
  0
VERTEX
  8
LAYER_1
 10
128.3124
 20
179.0095
  0
VERTEX
  8
LAYER_1
 10
137.3082
 20
188.0054
  0
SEQEND
  0
POLYLINE
  8
LAYER_1
 40
0.0847
 41
0.0847
 66
1
 10
0
 20
0
 30
0
  0
VERTEX
  8
LAYER_1
 10
125.476
 20
179.0095
  0
VERTEX
  8
LAYER_1
 10
134.4719
 20
188.0054
  0
SEQEND
  0
POLYLINE
  8
LAYER_1
 40
0.0847
 41
0.0847
 66
1
 10
0
 20
0
 30
0
  0
VERTEX
  8
LAYER_1
 10
122.6609
 20
179.0095
  0
VERTEX
  8
LAYER_1
 10
131.6567
 20
188.0054
  0
SEQEND
  0
POLYLINE
  8
LAYER_1
 40
0.0847
 41
0.0847
 66
1
 10
0
 20
0
 30
0
  0
VERTEX
  8
LAYER_1
 10
119.8245
 20
179.0095
  0
VERTEX
  8
LAYER_1
 10
128.8204
 20
188.0054
  0
SEQEND
  0
POLYLINE
  8
LAYER_1
 40
0.0847
 41
0.0847
 66
1
 10
0
 20
0
 30
0
  0
VERTEX
  8
LAYER_1
 10
116.9882
 20
179.0095
  0
VERTEX
  8
LAYER_1
 10
125.984
 20
188.0054
  0
SEQEND
  0
POLYLINE
  8
LAYER_1
 40
0.0847
 41
0.0847
 66
1
 10
0
 20
0
 30
0
  0
VERTEX
  8
LAYER_1
 10
114.173
 20
179.0095
  0
VERTEX
  8
LAYER_1
 10
123.1688
 20
188.0054
  0
SEQEND
  0
POLYLINE
  8
LAYER_1
 40
0.0847
 41
0.0847
 66
1
 10
0
 20
0
 30
0
  0
VERTEX
  8
LAYER_1
 10
111.9717
 20
179.6234
  0
VERTEX
  8
LAYER_1
 10
120.3325
 20
188.0054
  0
SEQEND
  0
POLYLINE
  8
LAYER_1
 40
0.0847
 41
0.0847
 66
1
 10
0
 20
0
 30
0
  0
VERTEX
  8
LAYER_1
 10
111.9717
 20
182.4597
  0
VERTEX
  8
LAYER_1
 10
117.5173
 20
188.0054
  0
SEQEND
  0
POLYLINE
  8
LAYER_1
 40
0.0847
 41
0.0847
 66
1
 10
0
 20
0
 30
0
  0
VERTEX
  8
LAYER_1
 10
111.9717
 20
185.2749
  0
VERTEX
  8
LAYER_1
 10
114.681
 20
188.0054
  0
SEQEND
  0
POLYLINE
  8
LAYER_1
 40
0.0847
 41
0.0847
 66
1
 10
0
 20
0
 30
0
  0
VERTEX
  8
LAYER_1
 10
97.2185
 20
179.0095
  0
VERTEX
  8
LAYER_1
 10
98.9753
 20
180.7664
  0
SEQEND
  0
POLYLINE
  8
LAYER_1
 40
0.0847
 41
0.0847
 66
1
 10
0
 20
0
 30
0
  0
VERTEX
  8
LAYER_1
 10
94.3822
 20
179.0095
  0
VERTEX
  8
LAYER_1
 10
98.9753
 20
183.6027
  0
SEQEND
  0
POLYLINE
  8
LAYER_1
 40
0.0847
 41
0.0847
 66
1
 10
0
 20
0
 30
0
  0
VERTEX
  8
LAYER_1
 10
91.567
 20
179.0095
  0
VERTEX
  8
LAYER_1
 10
98.9753
 20
186.4179
  0
SEQEND
  0
POLYLINE
  8
LAYER_1
 40
0.0847
 41
0.0847
 66
1
 10
0
 20
0
 30
0
  0
VERTEX
  8
LAYER_1
 10
88.7307
 20
179.0095
  0
VERTEX
  8
LAYER_1
 10
97.7265
 20
188.0054
  0
SEQEND
  0
POLYLINE
  8
LAYER_1
 40
0.0847
 41
0.0847
 66
1
 10
0
 20
0
 30
0
  0
VERTEX
  8
LAYER_1
 10
85.8943
 20
179.0095
  0
VERTEX
  8
LAYER_1
 10
94.9113
 20
188.0054
  0
SEQEND
  0
POLYLINE
  8
LAYER_1
 40
0.0847
 41
0.0847
 66
1
 10
0
 20
0
 30
0
  0
VERTEX
  8
LAYER_1
 10
83.0792
 20
179.0095
  0
VERTEX
  8
LAYER_1
 10
92.075
 20
188.0054
  0
SEQEND
  0
POLYLINE
  8
LAYER_1
 40
0.0847
 41
0.0847
 66
1
 10
0
 20
0
 30
0
  0
VERTEX
  8
LAYER_1
 10
80.2428
 20
179.0095
  0
VERTEX
  8
LAYER_1
 10
89.2387
 20
188.0054
  0
SEQEND
  0
POLYLINE
  8
LAYER_1
 40
0.0847
 41
0.0847
 66
1
 10
0
 20
0
 30
0
  0
VERTEX
  8
LAYER_1
 10
77.4277
 20
179.0095
  0
VERTEX
  8
LAYER_1
 10
86.4235
 20
188.0054
  0
SEQEND
  0
POLYLINE
  8
LAYER_1
 40
0.0847
 41
0.0847
 66
1
 10
0
 20
0
 30
0
  0
VERTEX
  8
LAYER_1
 10
74.5913
 20
179.0095
  0
VERTEX
  8
LAYER_1
 10
83.5872
 20
188.0054
  0
SEQEND
  0
POLYLINE
  8
LAYER_1
 40
0.0847
 41
0.0847
 66
1
 10
0
 20
0
 30
0
  0
VERTEX
  8
LAYER_1
 10
71.755
 20
179.0095
  0
VERTEX
  8
LAYER_1
 10
80.772
 20
188.0054
  0
SEQEND
  0
POLYLINE
  8
LAYER_1
 40
0.0847
 41
0.0847
 66
1
 10
0
 20
0
 30
0
  0
VERTEX
  8
LAYER_1
 10
68.9398
 20
179.0095
  0
VERTEX
  8
LAYER_1
 10
77.9356
 20
188.0054
  0
SEQEND
  0
POLYLINE
  8
LAYER_1
 40
0.0847
 41
0.0847
 66
1
 10
0
 20
0
 30
0
  0
VERTEX
  8
LAYER_1
 10
66.1035
 20
179.0095
  0
VERTEX
  8
LAYER_1
 10
75.0993
 20
188.0054
  0
SEQEND
  0
POLYLINE
  8
LAYER_1
 40
0.0847
 41
0.0847
 66
1
 10
0
 20
0
 30
0
  0
VERTEX
  8
LAYER_1
 10
63.2671
 20
179.0095
  0
VERTEX
  8
LAYER_1
 10
72.2841
 20
188.0054
  0
SEQEND
  0
POLYLINE
  8
LAYER_1
 40
0.0847
 41
0.0847
 66
1
 10
0
 20
0
 30
0
  0
VERTEX
  8
LAYER_1
 10
60.452
 20
179.0095
  0
VERTEX
  8
LAYER_1
 10
69.4478
 20
188.0054
  0
SEQEND
  0
POLYLINE
  8
LAYER_1
 40
0.0847
 41
0.0847
 66
1
 10
0
 20
0
 30
0
  0
VERTEX
  8
LAYER_1
 10
57.6156
 20
179.0095
  0
VERTEX
  8
LAYER_1
 10
66.6115
 20
188.0054
  0
SEQEND
  0
POLYLINE
  8
LAYER_1
 40
0.0847
 41
0.0847
 66
1
 10
0
 20
0
 30
0
  0
VERTEX
  8
LAYER_1
 10
54.8005
 20
179.0095
  0
VERTEX
  8
LAYER_1
 10
63.7963
 20
188.0054
  0
SEQEND
  0
POLYLINE
  8
LAYER_1
 40
0.0847
 41
0.0847
 66
1
 10
0
 20
0
 30
0
  0
VERTEX
  8
LAYER_1
 10
51.9641
 20
179.0095
  0
VERTEX
  8
LAYER_1
 10
60.96
 20
188.0054
  0
SEQEND
  0
POLYLINE
  8
LAYER_1
 40
0.0847
 41
0.0847
 66
1
 10
0
 20
0
 30
0
  0
VERTEX
  8
LAYER_1
 10
49.1278
 20
179.0095
  0
VERTEX
  8
LAYER_1
 10
58.1448
 20
188.0054
  0
SEQEND
  0
POLYLINE
  8
LAYER_1
 40
0.0847
 41
0.0847
 66
1
 10
0
 20
0
 30
0
  0
VERTEX
  8
LAYER_1
 10
46.3126
 20
179.0095
  0
VERTEX
  8
LAYER_1
 10
55.3085
 20
188.0054
  0
SEQEND
  0
POLYLINE
  8
LAYER_1
 40
0.0847
 41
0.0847
 66
1
 10
0
 20
0
 30
0
  0
VERTEX
  8
LAYER_1
 10
43.4763
 20
179.0095
  0
VERTEX
  8
LAYER_1
 10
52.4721
 20
188.0054
  0
SEQEND
  0
POLYLINE
  8
LAYER_1
 40
0.0847
 41
0.0847
 66
1
 10
0
 20
0
 30
0
  0
VERTEX
  8
LAYER_1
 10
40.6611
 20
179.0095
  0
VERTEX
  8
LAYER_1
 10
49.657
 20
188.0054
  0
SEQEND
  0
POLYLINE
  8
LAYER_1
 40
0.0847
 41
0.0847
 66
1
 10
0
 20
0
 30
0
  0
VERTEX
  8
LAYER_1
 10
37.8248
 20
179.0095
  0
VERTEX
  8
LAYER_1
 10
46.8206
 20
188.0054
  0
SEQEND
  0
POLYLINE
  8
LAYER_1
 40
0.0847
 41
0.0847
 66
1
 10
0
 20
0
 30
0
  0
VERTEX
  8
LAYER_1
 10
34.9885
 20
179.0095
  0
VERTEX
  8
LAYER_1
 10
43.9843
 20
188.0054
  0
SEQEND
  0
POLYLINE
  8
LAYER_1
 40
0.0847
 41
0.0847
 66
1
 10
0
 20
0
 30
0
  0
VERTEX
  8
LAYER_1
 10
33.528
 20
180.3642
  0
VERTEX
  8
LAYER_1
 10
41.1691
 20
188.0054
  0
SEQEND
  0
POLYLINE
  8
LAYER_1
 40
0.0847
 41
0.0847
 66
1
 10
0
 20
0
 30
0
  0
VERTEX
  8
LAYER_1
 10
35.0943
 20
184.7669
  0
VERTEX
  8
LAYER_1
 10
38.3328
 20
188.0054
  0
SEQEND
  0
POLYLINE
  8
LAYER_1
 40
0.0847
 41
0.0847
 66
1
 10
0
 20
0
 30
0
  0
VERTEX
  8
LAYER_1
 10
34.798
 20
187.2857
  0
VERTEX
  8
LAYER_1
 10
35.5176
 20
188.0054
  0
SEQEND
  0
POLYLINE
  8
LAYER_1
 40
0.0847
 41
0.0847
 66
1
 10
0
 20
0
 30
0
  0
VERTEX
  8
LAYER_1
 10
113.4533
 20
188.979
  0
VERTEX
  8
LAYER_1
 10
149.6271
 20
190.0585
  0
SEQEND
  0
POLYLINE
  8
LAYER_1
 40
0.1693
 41
0.1693
 66
1
 10
0
 20
0
 30
0
  0
VERTEX
  8
LAYER_1
 10
99.9493
 20
188.0054
  0
VERTEX
  8
LAYER_1
 10
110.9983
 20
188.0054
  0
SEQEND
  0
POLYLINE
  8
LAYER_1
 40
0.1693
 41
0.1693
 66
1
 10
0
 20
0
 30
0
  0
VERTEX
  8
LAYER_1
 10
99.9282
 20
187.9842
 42
0.3549701446
  0
VERTEX
  8
LAYER_1
 10
99.8223
 20
187.9419
  0
SEQEND
  0
POLYLINE
  8
LAYER_1
 40
0.1693
 41
0.1693
 66
1
 10
0
 20
0
 30
0
  0
VERTEX
  8
LAYER_1
 10
99.3567
 20
187.5609
  0
VERTEX
  8
LAYER_1
 10
99.8223
 20
187.963
  0
SEQEND
  0
POLYLINE
  8
LAYER_1
 40
0.1693
 41
0.1693
 66
1
 10
0
 20
0
 30
0
  0
VERTEX
  8
LAYER_1
 10
99.3567
 20
187.5609
 42
0.23313606
  0
VERTEX
  8
LAYER_1
 10
99.2932
 20
187.4339
  0
SEQEND
  0
POLYLINE
  8
LAYER_1
 40
0.1693
 41
0.1693
 66
1
 10
0
 20
0
 30
0
  0
VERTEX
  8
LAYER_1
 10
99.2932
 20
186.9047
  0
VERTEX
  8
LAYER_1
 10
99.2932
 20
187.4127
  0
SEQEND
  0
POLYLINE
  8
LAYER_1
 40
0.1693
 41
0.1693
 66
1
 10
0
 20
0
 30
0
  0
VERTEX
  8
LAYER_1
 10
99.2932
 20
186.9047
  0
VERTEX
  8
LAYER_1
 10
111.6545
 20
186.9047
  0
VERTEX
  8
LAYER_1
 10
111.6545
 20
187.4127
  0
SEQEND
  0
POLYLINE
  8
LAYER_1
 40
0.1693
 41
0.1693
 66
1
 10
0
 20
0
 30
0
  0
VERTEX
  8
LAYER_1
 10
111.6545
 20
187.4339
 42
0.1339759543
  0
VERTEX
  8
LAYER_1
 10
111.5698
 20
187.582
  0
SEQEND
  0
POLYLINE
  8
LAYER_1
 40
0.1693
 41
0.1693
 66
1
 10
0
 20
0
 30
0
  0
VERTEX
  8
LAYER_1
 10
111.591
 20
187.5609
  0
VERTEX
  8
LAYER_1
 10
111.1254
 20
187.963
  0
SEQEND
  0
POLYLINE
  8
LAYER_1
 40
0.1693
 41
0.1693
 66
1
 10
0
 20
0
 30
0
  0
VERTEX
  8
LAYER_1
 10
111.1042
 20
187.963
  0
VERTEX
  8
LAYER_1
 10
110.9983
 20
187.9842
  0
VERTEX
  8
LAYER_1
 10
110.9772
 20
187.9842
  0
SEQEND
  0
POLYLINE
  8
LAYER_1
 40
0.1693
 41
0.1693
 66
1
 10
0
 20
0
 30
0
  0
VERTEX
  8
LAYER_1
 10
99.4837
 20
186.2909
  0
VERTEX
  8
LAYER_1
 10
111.464
 20
186.2909
  0
SEQEND
  0
POLYLINE
  8
LAYER_1
 40
0.1693
 41
0.1693
 66
1
 10
0
 20
0
 30
0
  0
VERTEX
  8
LAYER_1
 10
100.9442
 20
185.1055
  0
VERTEX
  8
LAYER_1
 10
100.9442
 20
186.2909
  0
SEQEND
  0
POLYLINE
  8
LAYER_1
 40
0.1693
 41
0.1693
 66
1
 10
0
 20
0
 30
0
  0
VERTEX
  8
LAYER_1
 10
99.4837
 20
186.2909
  0
VERTEX
  8
LAYER_1
 10
99.4837
 20
186.9047
  0
SEQEND
  0
POLYLINE
  8
LAYER_1
 40
0.1693
 41
0.1693
 66
1
 10
0
 20
0
 30
0
  0
VERTEX
  8
LAYER_1
 10
110.0035
 20
185.1055
  0
VERTEX
  8
LAYER_1
 10
110.0035
 20
186.2909
  0
SEQEND
  0
POLYLINE
  8
LAYER_1
 40
0.1693
 41
0.1693
 66
1
 10
0
 20
0
 30
0
  0
VERTEX
  8
LAYER_1
 10
100.9442
 20
185.1055
  0
VERTEX
  8
LAYER_1
 10
110.0035
 20
185.1055
  0
SEQEND
  0
POLYLINE
  8
LAYER_1
 40
0.1693
 41
0.1693
 66
1
 10
0
 20
0
 30
0
  0
VERTEX
  8
LAYER_1
 10
111.464
 20
186.2909
  0
VERTEX
  8
LAYER_1
 10
111.464
 20
186.9047
  0
SEQEND
  0
TEXT
  8
LAYER_1
 10
150.1778
 20
192.8948
 11
150.1778
 21
192.8948
 40
2.5779
 41
0.5
  1
âXâ`âìü[âïâpâbâLâô
  0
TEXT
  8
LAYER_1
 10
150.5375
 20
189.3812
 11
150.5375
 21
189.3812
 40
2.5779
 41
0.5
  1
â}âEâôâeâBâôâOâfâBâXâN
  0
TEXT
  8
LAYER_1
 10
140.1448
 20
174.9244
 11
140.1448
 21
174.9244
 40
4.2535
 41
0.5
  1
ôVö┬èJî¹Éíû@üF65067
  0
TEXT
  8
LAYER_1
 10
150.9819
 20
163.7485
 11
150.9819
 21
163.7485
 40
2.5779
 41
0.5
  1
äOâèâôâOüiô¹öÆüj
  0
POLYLINE
  8
LAYER_1
 40
0.0847
 41
0.0847
 66
1
 10
0
 20
0
 30
0
  0
VERTEX
  8
LAYER_1
 10
107.0402
 20
166.2037
  0
VERTEX
  8
LAYER_1
 10
151.6172
 20
158.0545
  0
SEQEND
  0
POLYLINE
  8
LAYER_1
 40
0.0847
 41
0.0847
 66
1
 10
0
 20
0
 30
0
  0
VERTEX
  8
LAYER_1
 10
100.4997
 20
186.7989
  0
VERTEX
  8
LAYER_1
 10
51.2872
 20
160.0442
  0
SEQEND
  0
TEXT
  8
LAYER_1
 10
18.1187
 20
158.6896
 11
18.1187
 21
158.6896
 40
2.5779
 41
0.5
  1
Ä¸ÄëâpâbâLâôòtì└òté½âiâbâg
  0
POLYLINE
  8
LAYER_1
 40
0.0847
 41
0.0847
 66
1
 10
0
 20
0
 30
0
  0
VERTEX
  8
LAYER_1
 10
97.7692
 20
188.1747
  0
VERTEX
  8
LAYER_1
 10
50.1865
 20
168.1934
  0
SEQEND
  0
TEXT
  8
LAYER_1
 10
32.7027
 20
167.262
 11
32.7027
 21
167.262
 40
2.5779
 41
0.5
  1
äOâèâôâOüiìòüj
  0
POLYLINE
  8
LAYER_1
 40
0.0847
 41
0.0847
 66
1
 10
0
 20
0
 30
0
  0
VERTEX
  8
LAYER_1
 10
34.3327
 20
188.0054
  0
VERTEX
  8
LAYER_1
 10
34.4808
 20
187.7937
  0
VERTEX
  8
LAYER_1
 10
34.7137
 20
187.4339
  0
VERTEX
  8
LAYER_1
 10
34.9465
 20
187.0529
  0
VERTEX
  8
LAYER_1
 10
35.1158
 20
186.693
  0
VERTEX
  8
LAYER_1
 10
35.264
 20
186.3332
  0
VERTEX
  8
LAYER_1
 10
35.3487
 20
185.9734
  0
VERTEX
  8
LAYER_1
 10
35.3487
 20
185.7617
  0
VERTEX
  8
LAYER_1
 10
35.3487
 20
185.5289
  0
VERTEX
  8
LAYER_1
 10
35.264
 20
185.169
  0
VERTEX
  8
LAYER_1
 10
35.1158
 20
184.8092
  0
VERTEX
  8
LAYER_1
 10
34.9465
 20
184.4494
  0
VERTEX
  8
LAYER_1
 10
34.7137
 20
184.0684
  0
VERTEX
  8
LAYER_1
 10
34.4808
 20
183.7085
  0
VERTEX
  8
LAYER_1
 10
34.3327
 20
183.4969
  0
VERTEX
  8
LAYER_1
 10
34.1845
 20
183.2852
  0
VERTEX
  8
LAYER_1
 10
33.9517
 20
182.9254
  0
VERTEX
  8
LAYER_1
 10
33.7188
 20
182.5655
  0
VERTEX
  8
LAYER_1
 10
33.5283
 20
182.1845
  0
VERTEX
  8
LAYER_1
 10
33.4013
 20
181.8247
  0
VERTEX
  8
LAYER_1
 10
33.3167
 20
181.4649
  0
VERTEX
  8
LAYER_1
 10
33.2955
 20
181.2532
  0
VERTEX
  8
LAYER_1
 10
33.3167
 20
181.0415
  0
VERTEX
  8
LAYER_1
 10
33.4013
 20
180.6817
  0
VERTEX
  8
LAYER_1
 10
33.5283
 20
180.3007
  0
VERTEX
  8
LAYER_1
 10
33.7188
 20
179.9409
  0
VERTEX
  8
LAYER_1
 10
33.9517
 20
179.581
  0
VERTEX
  8
LAYER_1
 10
34.1845
 20
179.2212
  0
VERTEX
  8
LAYER_1
 10
34.3327
 20
179.0095
  0
SEQEND
  0
POLYLINE
  8
LAYER_1
 40
0.0847
 41
0.0847
 66
1
 10
0
 20
0
 30
0
  0
VERTEX
  8
LAYER_1
 10
176.615
 20
188.0054
  0
VERTEX
  8
LAYER_1
 10
176.4668
 20
187.7937
  0
VERTEX
  8
LAYER_1
 10
176.234
 20
187.4339
  0
VERTEX
  8
LAYER_1
 10
176.0012
 20
187.0529
  0
VERTEX
  8
LAYER_1
 10
175.8318
 20
186.693
  0
VERTEX
  8
LAYER_1
 10
175.6837
 20
186.3332
  0
VERTEX
  8
LAYER_1
 10
175.599
 20
185.9734
  0
VERTEX
  8
LAYER_1
 10
175.599
 20
185.7617
  0
VERTEX
  8
LAYER_1
 10
175.599
 20
185.5289
  0
VERTEX
  8
LAYER_1
 10
175.6837
 20
185.169
  0
VERTEX
  8
LAYER_1
 10
175.8318
 20
184.8092
  0
VERTEX
  8
LAYER_1
 10
176.0012
 20
184.4494
  0
VERTEX
  8
LAYER_1
 10
176.234
 20
184.0684
  0
VERTEX
  8
LAYER_1
 10
176.4668
 20
183.7085
  0
VERTEX
  8
LAYER_1
 10
176.615
 20
183.4969
  0
VERTEX
  8
LAYER_1
 10
176.7632
 20
183.2852
  0
VERTEX
  8
LAYER_1
 10
176.996
 20
182.9254
  0
VERTEX
  8
LAYER_1
 10
177.2288
 20
182.5655
  0
VERTEX
  8
LAYER_1
 10
177.4193
 20
182.1845
  0
VERTEX
  8
LAYER_1
 10
177.5463
 20
181.8247
  0
VERTEX
  8
LAYER_1
 10
177.631
 20
181.4649
  0
VERTEX
  8
LAYER_1
 10
177.6522
 20
181.2532
  0
VERTEX
  8
LAYER_1
 10
177.631
 20
181.0415
  0
VERTEX
  8
LAYER_1
 10
177.5463
 20
180.6817
  0
VERTEX
  8
LAYER_1
 10
177.4193
 20
180.3007
  0
VERTEX
  8
LAYER_1
 10
177.2288
 20
179.9409
  0
VERTEX
  8
LAYER_1
 10
176.996
 20
179.581
  0
VERTEX
  8
LAYER_1
 10
176.7632
 20
179.2212
  0
VERTEX
  8
LAYER_1
 10
176.615
 20
179.0095
  0
SEQEND
  0
TEXT
  8
LAYER_1
 10
116.5863
 20
221.0525
 11
116.5863
 21
221.0525
 40
3.0419
 41
0.5
  1
JORGERÉ╗ örÉàïÓï´100mm
  0
POLYLINE
  8
LAYER_1
 40
0.0847
 41
0.0847
 66
1
 10
0
 20
0
 30
0
  0
VERTEX
  8
LAYER_1
 10
107.8022
 20
196.2604
  0
VERTEX
  8
LAYER_1
 10
115.909
 20
220.9195
  0
SEQEND
  0
POLYLINE
  8
LAYER_1
 40
0.0847
 41
0.0847
 66
1
 10
0
 20
0
 30
0
  0
VERTEX
  8
LAYER_1
 10
101.3463
 20
175.9192
  0
VERTEX
  8
LAYER_1
 10
51.2872
 20
160.0442
  0
SEQEND
  0
POLYLINE
  8
LAYER_1
 40
0.1693
 41
0.1693
 66
1
 10
0
 20
0
 30
0
  0
VERTEX
  8
LAYER_1
 10
61.5107
 20
208.2195
  0
VERTEX
  8
LAYER_1
 10
61.5318
 20
208.1772
  0
VERTEX
  8
LAYER_1
 10
61.553
 20
208.156
  0
VERTEX
  8
LAYER_1
 10
61.5742
 20
208.1137
  0
VERTEX
  8
LAYER_1
 10
61.5742
 20
208.0714
  0
VERTEX
  8
LAYER_1
 10
61.5953
 20
208.029
  0
VERTEX
  8
LAYER_1
 10
61.6165
 20
208.0079
  0
VERTEX
  8
LAYER_1
 10
61.6377
 20
207.9655
  0
VERTEX
  8
LAYER_1
 10
61.6588
 20
207.9232
  0
VERTEX
  8
LAYER_1
 10
61.68
 20
207.8809
  0
VERTEX
  8
LAYER_1
 10
61.7012
 20
207.8385
  0
VERTEX
  8
LAYER_1
 10
61.7223
 20
207.8174
  0
VERTEX
  8
LAYER_1
 10
61.7435
 20
207.775
  0
VERTEX
  8
LAYER_1
 10
61.7647
 20
207.7327
  0
VERTEX
  8
LAYER_1
 10
61.807
 20
207.6904
  0
VERTEX
  8
LAYER_1
 10
61.8282
 20
207.648
  0
VERTEX
  8
LAYER_1
 10
61.8493
 20
207.6269
  0
VERTEX
  8
LAYER_1
 10
61.8705
 20
207.5845
  0
VERTEX
  8
LAYER_1
 10
61.9128
 20
207.5422
  0
VERTEX
  8
LAYER_1
 10
61.934
 20
207.4999
  0
VERTEX
  8
LAYER_1
 10
61.9552
 20
207.4575
  0
VERTEX
  8
LAYER_1
 10
61.9975
 20
207.4152
  0
VERTEX
  8
LAYER_1
 10
62.0187
 20
207.394
  0
VERTEX
  8
LAYER_1
 10
62.061
 20
207.3517
  0
VERTEX
  8
LAYER_1
 10
62.0822
 20
207.3094
  0
VERTEX
  8
LAYER_1
 10
62.1245
 20
207.267
  0
VERTEX
  8
LAYER_1
 10
62.1457
 20
207.2247
  0
VERTEX
  8
LAYER_1
 10
62.188
 20
207.2035
  0
VERTEX
  8
LAYER_1
 10
62.2092
 20
207.1612
  0
VERTEX
  8
LAYER_1
 10
62.2515
 20
207.1189
  0
VERTEX
  8
LAYER_1
 10
62.2727
 20
207.0765
  0
VERTEX
  8
LAYER_1
 10
62.315
 20
207.0554
  0
VERTEX
  8
LAYER_1
 10
62.3573
 20
207.013
  0
VERTEX
  8
LAYER_1
 10
62.3785
 20
206.9707
  0
VERTEX
  8
LAYER_1
 10
62.4208
 20
206.9495
  0
VERTEX
  8
LAYER_1
 10
62.4632
 20
206.9072
  0
VERTEX
  8
LAYER_1
 10
62.4843
 20
206.8649
  0
VERTEX
  8
LAYER_1
 10
62.5267
 20
206.8437
  0
VERTEX
  8
LAYER_1
 10
62.569
 20
206.8014
  0
VERTEX
  8
LAYER_1
 10
62.6113
 20
206.7802
  0
VERTEX
  8
LAYER_1
 10
62.6325
 20
206.7379
  0
VERTEX
  8
LAYER_1
 10
62.6748
 20
206.7167
  0
VERTEX
  8
LAYER_1
 10
62.7172
 20
206.6744
  0
VERTEX
  8
LAYER_1
 10
62.7595
 20
206.6532
  0
VERTEX
  8
LAYER_1
 10
62.7807
 20
206.6109
  0
VERTEX
  8
LAYER_1
 10
62.823
 20
206.5897
  0
VERTEX
  8
LAYER_1
 10
62.8653
 20
206.5685
  0
VERTEX
  8
LAYER_1
 10
62.9077
 20
206.5262
  0
VERTEX
  8
LAYER_1
 10
62.9288
 20
206.505
  0
VERTEX
  8
LAYER_1
 10
62.9712
 20
206.4839
  0
VERTEX
  8
LAYER_1
 10
63.0135
 20
206.4415
  0
VERTEX
  8
LAYER_1
 10
63.0558
 20
206.4204
  0
VERTEX
  8
LAYER_1
 10
63.0982
 20
206.3992
  0
VERTEX
  8
LAYER_1
 10
63.1193
 20
206.378
  0
VERTEX
  8
LAYER_1
 10
63.1617
 20
206.3569
  0
VERTEX
  8
LAYER_1
 10
63.204
 20
206.3357
  0
VERTEX
  8
LAYER_1
 10
63.2463
 20
206.3145
  0
VERTEX
  8
LAYER_1
 10
63.2675
 20
206.2934
  0
VERTEX
  8
LAYER_1
 10
63.3098
 20
206.2722
  0
VERTEX
  8
LAYER_1
 10
63.3522
 20
206.251
  0
VERTEX
  8
LAYER_1
 10
63.3945
 20
206.2299
  0
VERTEX
  8
LAYER_1
 10
63.4157
 20
206.2087
  0
VERTEX
  8
LAYER_1
 10
63.458
 20
206.2087
  0
VERTEX
  8
LAYER_1
 10
63.4792
 20
206.1875
  0
SEQEND
  0
POLYLINE
  8
LAYER_1
 40
0.1693
 41
0.1693
 66
1
 10
0
 20
0
 30
0
  0
VERTEX
  8
LAYER_1
 10
60.8545
 20
210.8019
 42
0.4166294689
  0
VERTEX
  8
LAYER_1
 10
60.4735
 20
210.4209
  0
SEQEND
  0
POLYLINE
  8
LAYER_1
 40
0.1693
 41
0.1693
 66
1
 10
0
 20
0
 30
0
  0
VERTEX
  8
LAYER_1
 10
61.5107
 20
208.2195
  0
VERTEX
  8
LAYER_1
 10
60.4947
 20
210.3997
  0
SEQEND
  0
POLYLINE
  8
LAYER_1
 40
0.1693
 41
0.1693
 66
1
 10
0
 20
0
 30
0
  0
VERTEX
  8
LAYER_1
 10
147.4685
 20
206.1875
  0
VERTEX
  8
LAYER_1
 10
147.4897
 20
206.2087
  0
VERTEX
  8
LAYER_1
 10
147.532
 20
206.2087
  0
VERTEX
  8
LAYER_1
 10
147.5743
 20
206.2299
  0
VERTEX
  8
LAYER_1
 10
147.5955
 20
206.251
  0
VERTEX
  8
LAYER_1
 10
147.6378
 20
206.2722
  0
VERTEX
  8
LAYER_1
 10
147.6802
 20
206.2934
  0
VERTEX
  8
LAYER_1
 10
147.7225
 20
206.3145
  0
VERTEX
  8
LAYER_1
 10
147.7437
 20
206.3357
  0
VERTEX
  8
LAYER_1
 10
147.786
 20
206.3569
  0
VERTEX
  8
LAYER_1
 10
147.8283
 20
206.378
  0
VERTEX
  8
LAYER_1
 10
147.8707
 20
206.3992
  0
VERTEX
  8
LAYER_1
 10
147.8918
 20
206.4204
  0
VERTEX
  8
LAYER_1
 10
147.9342
 20
206.4627
  0
VERTEX
  8
LAYER_1
 10
147.9765
 20
206.4839
  0
VERTEX
  8
LAYER_1
 10
148.0189
 20
206.505
  0
VERTEX
  8
LAYER_1
 10
148.0612
 20
206.5474
  0
VERTEX
  8
LAYER_1
 10
148.0823
 20
206.5685
  0
VERTEX
  8
LAYER_1
 10
148.1247
 20
206.5897
  0
VERTEX
  8
LAYER_1
 10
148.167
 20
206.632
  0
VERTEX
  8
LAYER_1
 10
148.2093
 20
206.6532
  0
VERTEX
  8
LAYER_1
 10
148.2305
 20
206.6744
  0
VERTEX
  8
LAYER_1
 10
148.2728
 20
206.7167
  0
VERTEX
  8
LAYER_1
 10
148.3152
 20
206.7379
  0
VERTEX
  8
LAYER_1
 10
148.3575
 20
206.7802
  0
VERTEX
  8
LAYER_1
 10
148.3787
 20
206.8225
  0
VERTEX
  8
LAYER_1
 10
148.421
 20
206.8437
  0
VERTEX
  8
LAYER_1
 10
148.4633
 20
206.886
  0
VERTEX
  8
LAYER_1
 10
148.5057
 20
206.9072
  0
VERTEX
  8
LAYER_1
 10
148.5269
 20
206.9495
  0
VERTEX
  8
LAYER_1
 10
148.5692
 20
206.9919
  0
VERTEX
  8
LAYER_1
 10
148.6115
 20
207.013
  0
VERTEX
  8
LAYER_1
 10
148.6327
 20
207.0554
  0
VERTEX
  8
LAYER_1
 10
148.675
 20
207.0977
  0
VERTEX
  8
LAYER_1
 10
148.7173
 20
207.14
  0
VERTEX
  8
LAYER_1
 10
148.7385
 20
207.1612
  0
VERTEX
  8
LAYER_1
 10
148.7808
 20
207.2035
  0
VERTEX
  8
LAYER_1
 10
148.802
 20
207.2459
  0
VERTEX
  8
LAYER_1
 10
148.8443
 20
207.2882
  0
VERTEX
  8
LAYER_1
 10
148.8655
 20
207.3094
  0
VERTEX
  8
LAYER_1
 10
148.9078
 20
207.3517
  0
VERTEX
  8
LAYER_1
 10
148.929
 20
207.394
  0
VERTEX
  8
LAYER_1
 10
148.9713
 20
207.4364
  0
VERTEX
  8
LAYER_1
 10
148.9925
 20
207.4787
  0
VERTEX
  8
LAYER_1
 10
149.0137
 20
207.4999
  0
VERTEX
  8
LAYER_1
 10
149.056
 20
207.5422
  0
VERTEX
  8
LAYER_1
 10
149.0772
 20
207.5845
  0
VERTEX
  8
LAYER_1
 10
149.0983
 20
207.6269
  0
VERTEX
  8
LAYER_1
 10
149.1195
 20
207.6692
  0
VERTEX
  8
LAYER_1
 10
149.1618
 20
207.7115
  0
VERTEX
  8
LAYER_1
 10
149.183
 20
207.7327
  0
VERTEX
  8
LAYER_1
 10
149.2042
 20
207.775
  0
VERTEX
  8
LAYER_1
 10
149.2253
 20
207.8174
  0
VERTEX
  8
LAYER_1
 10
149.2465
 20
207.8597
  0
VERTEX
  8
LAYER_1
 10
149.2677
 20
207.902
  0
VERTEX
  8
LAYER_1
 10
149.2888
 20
207.9232
  0
VERTEX
  8
LAYER_1
 10
149.31
 20
207.9655
  0
VERTEX
  8
LAYER_1
 10
149.3312
 20
208.0079
  0
VERTEX
  8
LAYER_1
 10
149.3523
 20
208.0502
  0
VERTEX
  8
LAYER_1
 10
149.3735
 20
208.0714
  0
VERTEX
  8
LAYER_1
 10
149.3947
 20
208.1137
  0
VERTEX
  8
LAYER_1
 10
149.3947
 20
208.156
  0
VERTEX
  8
LAYER_1
 10
149.4158
 20
208.1984
  0
VERTEX
  8
LAYER_1
 10
149.437
 20
208.2195
  0
VERTEX
  8
LAYER_1
 10
150.453
 20
210.3997
  0
SEQEND
  0
POLYLINE
  8
LAYER_1
 40
0.1693
 41
0.1693
 66
1
 10
0
 20
0
 30
0
  0
VERTEX
  8
LAYER_1
 10
60.8757
 20
210.8019
  0
VERTEX
  8
LAYER_1
 10
150.072
 20
210.8019
  0
SEQEND
  0
POLYLINE
  8
LAYER_1
 40
0.1693
 41
0.1693
 66
1
 10
0
 20
0
 30
0
  0
VERTEX
  8
LAYER_1
 10
150.4742
 20
210.4209
 42
0.3853795854
  0
VERTEX
  8
LAYER_1
 10
150.072
 20
210.8019
  0
VERTEX
  8
LAYER_1
 10
150.0508
 20
210.8019
  0
SEQEND
  0
POLYLINE
  8
LAYER_1
 40
0.1693
 41
0.1693
 66
1
 10
0
 20
0
 30
0
  0
VERTEX
  8
LAYER_1
 10
147.4685
 20
206.1875
  0
VERTEX
  8
LAYER_1
 10
112.4588
 20
190.7994
  0
SEQEND
  0
POLYLINE
  8
LAYER_1
 40
0.1693
 41
0.1693
 66
1
 10
0
 20
0
 30
0
  0
VERTEX
  8
LAYER_1
 10
147.4685
 20
206.1875
  0
VERTEX
  8
LAYER_1
 10
147.4897
 20
206.2087
  0
VERTEX
  8
LAYER_1
 10
147.532
 20
206.2087
  0
VERTEX
  8
LAYER_1
 10
147.5743
 20
206.2299
  0
VERTEX
  8
LAYER_1
 10
147.5955
 20
206.251
  0
VERTEX
  8
LAYER_1
 10
147.6378
 20
206.2722
  0
VERTEX
  8
LAYER_1
 10
147.6802
 20
206.2934
  0
VERTEX
  8
LAYER_1
 10
147.7225
 20
206.3145
  0
VERTEX
  8
LAYER_1
 10
147.7437
 20
206.3357
  0
VERTEX
  8
LAYER_1
 10
147.786
 20
206.3569
  0
VERTEX
  8
LAYER_1
 10
147.8283
 20
206.378
  0
VERTEX
  8
LAYER_1
 10
147.8706
 20
206.3992
  0
VERTEX
  8
LAYER_1
 10
147.8918
 20
206.4204
  0
VERTEX
  8
LAYER_1
 10
147.9341
 20
206.4627
  0
VERTEX
  8
LAYER_1
 10
147.9765
 20
206.4839
  0
VERTEX
  8
LAYER_1
 10
148.0188
 20
206.505
  0
VERTEX
  8
LAYER_1
 10
148.0612
 20
206.5474
  0
VERTEX
  8
LAYER_1
 10
148.0823
 20
206.5685
  0
VERTEX
  8
LAYER_1
 10
148.1247
 20
206.5897
  0
VERTEX
  8
LAYER_1
 10
148.167
 20
206.632
  0
VERTEX
  8
LAYER_1
 10
148.2093
 20
206.6532
  0
VERTEX
  8
LAYER_1
 10
148.2305
 20
206.6744
  0
VERTEX
  8
LAYER_1
 10
148.2728
 20
206.7167
  0
VERTEX
  8
LAYER_1
 10
148.3152
 20
206.7379
  0
VERTEX
  8
LAYER_1
 10
148.3575
 20
206.7802
  0
VERTEX
  8
LAYER_1
 10
148.3786
 20
206.8225
  0
VERTEX
  8
LAYER_1
 10
148.421
 20
206.8437
  0
VERTEX
  8
LAYER_1
 10
148.4633
 20
206.886
  0
VERTEX
  8
LAYER_1
 10
148.5056
 20
206.9072
  0
VERTEX
  8
LAYER_1
 10
148.5268
 20
206.9495
  0
VERTEX
  8
LAYER_1
 10
148.5692
 20
206.9919
  0
VERTEX
  8
LAYER_1
 10
148.6115
 20
207.013
  0
VERTEX
  8
LAYER_1
 10
148.6327
 20
207.0554
  0
VERTEX
  8
LAYER_1
 10
148.675
 20
207.0977
  0
VERTEX
  8
LAYER_1
 10
148.7173
 20
207.14
  0
VERTEX
  8
LAYER_1
 10
148.7385
 20
207.1612
  0
VERTEX
  8
LAYER_1
 10
148.7808
 20
207.2035
  0
VERTEX
  8
LAYER_1
 10
148.802
 20
207.2459
  0
VERTEX
  8
LAYER_1
 10
148.8443
 20
207.2882
  0
VERTEX
  8
LAYER_1
 10
148.8655
 20
207.3094
  0
VERTEX
  8
LAYER_1
 10
148.9078
 20
207.3517
  0
VERTEX
  8
LAYER_1
 10
148.929
 20
207.394
  0
VERTEX
  8
LAYER_1
 10
148.9713
 20
207.4364
  0
VERTEX
  8
LAYER_1
 10
148.9925
 20
207.4787
  0
VERTEX
  8
LAYER_1
 10
149.0136
 20
207.4999
  0
VERTEX
  8
LAYER_1
 10
149.056
 20
207.5422
  0
VERTEX
  8
LAYER_1
 10
149.0772
 20
207.5845
  0
VERTEX
  8
LAYER_1
 10
149.0983
 20
207.6269
  0
VERTEX
  8
LAYER_1
 10
149.1195
 20
207.6692
  0
VERTEX
  8
LAYER_1
 10
149.1618
 20
207.7115
  0
VERTEX
  8
LAYER_1
 10
149.183
 20
207.7327
  0
VERTEX
  8
LAYER_1
 10
149.2042
 20
207.775
  0
VERTEX
  8
LAYER_1
 10
149.2253
 20
207.8174
  0
VERTEX
  8
LAYER_1
 10
149.2465
 20
207.8597
  0
VERTEX
  8
LAYER_1
 10
149.2677
 20
207.902
  0
VERTEX
  8
LAYER_1
 10
149.2888
 20
207.9232
  0
VERTEX
  8
LAYER_1
 10
149.31
 20
207.9655
  0
VERTEX
  8
LAYER_1
 10
149.3312
 20
208.0079
  0
VERTEX
  8
LAYER_1
 10
149.3523
 20
208.0502
  0
VERTEX
  8
LAYER_1
 10
149.3735
 20
208.0714
  0
VERTEX
  8
LAYER_1
 10
149.3946
 20
208.1137
  0
VERTEX
  8
LAYER_1
 10
149.3946
 20
208.156
  0
VERTEX
  8
LAYER_1
 10
149.4158
 20
208.1984
  0
VERTEX
  8
LAYER_1
 10
149.437
 20
208.2195
  0
SEQEND
  0
POLYLINE
  8
LAYER_1
 40
0.1693
 41
0.1693
 66
1
 10
0
 20
0
 30
0
  0
VERTEX
  8
LAYER_1
 10
150.4742
 20
210.4209
 42
0.3853795854
  0
VERTEX
  8
LAYER_1
 10
150.072
 20
210.8019
  0
VERTEX
  8
LAYER_1
 10
150.0508
 20
210.8019
  0
SEQEND
  0
POLYLINE
  8
LAYER_1
 40
0.1693
 41
0.1693
 66
1
 10
0
 20
0
 30
0
  0
VERTEX
  8
LAYER_1
 10
149.437
 20
208.2195
  0
VERTEX
  8
LAYER_1
 10
150.453
 20
210.3997
  0
SEQEND
  0
POLYLINE
  8
LAYER_1
 40
0.1693
 41
0.1693
 66
1
 10
0
 20
0
 30
0
  0
VERTEX
  8
LAYER_1
 10
63.4792
 20
206.1875
  0
VERTEX
  8
LAYER_1
 10
98.4888
 20
190.7994
  0
SEQEND
  0
POLYLINE
  8
LAYER_1
 40
0.1693
 41
0.1693
 66
1
 10
0
 20
0
 30
0
  0
VERTEX
  8
LAYER_1
 10
147.4685
 20
206.1875
  0
VERTEX
  8
LAYER_1
 10
112.4588
 20
190.7994
  0
SEQEND
  0
POLYLINE
  8
LAYER_1
 40
0.0847
 41
0.0847
 66
1
 10
0
 20
0
 30
0
  0
VERTEX
  8
LAYER_1
 10
98.4888
 20
193.4664
  0
VERTEX
  8
LAYER_1
 10
98.4888
 20
193.5087
  0
SEQEND
  0
POLYLINE
  8
LAYER_1
 40
0.0847
 41
0.0847
 66
1
 10
0
 20
0
 30
0
  0
VERTEX
  8
LAYER_1
 10
98.4888
 20
193.5934
  0
VERTEX
  8
LAYER_1
 10
98.4888
 20
193.6357
  0
SEQEND
  0
POLYLINE
  8
LAYER_1
 40
0.0847
 41
0.0847
 66
1
 10
0
 20
0
 30
0
  0
VERTEX
  8
LAYER_1
 10
98.4888
 20
193.4664
  0
VERTEX
  8
LAYER_1
 10
98.4888
 20
193.424
  0
VERTEX
  8
LAYER_1
 10
98.4888
 20
193.4029
  0
SEQEND
  0
POLYLINE
  8
LAYER_1
 40
0.0847
 41
0.0847
 66
1
 10
0
 20
0
 30
0
  0
VERTEX
  8
LAYER_1
 10
98.5312
 20
193.297
  0
VERTEX
  8
LAYER_1
 10
98.5523
 20
193.2759
  0
VERTEX
  8
LAYER_1
 10
98.5735
 20
193.2547
  0
SEQEND
  0
POLYLINE
  8
LAYER_1
 40
0.0847
 41
0.0847
 66
1
 10
0
 20
0
 30
0
  0
VERTEX
  8
LAYER_1
 10
100.9018
 20
190.884
  0
VERTEX
  8
LAYER_1
 10
100.3303
 20
191.4767
  0
SEQEND
  0
POLYLINE
  8
LAYER_1
 40
0.0847
 41
0.0847
 66
1
 10
0
 20
0
 30
0
  0
VERTEX
  8
LAYER_1
 10
99.1662
 20
192.662
  0
VERTEX
  8
LAYER_1
 10
98.5735
 20
193.2547
  0
SEQEND
  0
POLYLINE
  8
LAYER_1
 40
0.0847
 41
0.0847
 66
1
 10
0
 20
0
 30
0
  0
VERTEX
  8
LAYER_1
 10
100.9865
 20
190.6724
  0
VERTEX
  8
LAYER_1
 10
100.9865
 20
190.7147
  0
VERTEX
  8
LAYER_1
 10
100.9865
 20
190.7359
  0
SEQEND
  0
POLYLINE
  8
LAYER_1
 40
0.0847
 41
0.0847
 66
1
 10
0
 20
0
 30
0
  0
VERTEX
  8
LAYER_1
 10
100.923
 20
190.8417
  0
VERTEX
  8
LAYER_1
 10
100.923
 20
190.8629
  0
VERTEX
  8
LAYER_1
 10
100.9018
 20
190.884
  0
SEQEND
  0
POLYLINE
  8
LAYER_1
 40
0.0847
 41
0.0847
 66
1
 10
0
 20
0
 30
0
  0
VERTEX
  8
LAYER_1
 10
112.4588
 20
193.4664
  0
VERTEX
  8
LAYER_1
 10
112.4588
 20
193.5087
  0
SEQEND
  0
POLYLINE
  8
LAYER_1
 40
0.0847
 41
0.0847
 66
1
 10
0
 20
0
 30
0
  0
VERTEX
  8
LAYER_1
 10
112.4588
 20
193.5934
  0
VERTEX
  8
LAYER_1
 10
112.4588
 20
193.6357
  0
SEQEND
  0
POLYLINE
  8
LAYER_1
 40
0.0847
 41
0.0847
 66
1
 10
0
 20
0
 30
0
  0
VERTEX
  8
LAYER_1
 10
112.3742
 20
193.2547
  0
VERTEX
  8
LAYER_1
 10
112.3953
 20
193.2759
  0
VERTEX
  8
LAYER_1
 10
112.4165
 20
193.297
  0
SEQEND
  0
POLYLINE
  8
LAYER_1
 40
0.0847
 41
0.0847
 66
1
 10
0
 20
0
 30
0
  0
VERTEX
  8
LAYER_1
 10
112.4588
 20
193.4029
  0
VERTEX
  8
LAYER_1
 10
112.4588
 20
193.4452
  0
VERTEX
  8
LAYER_1
 10
112.4588
 20
193.4664
  0
SEQEND
  0
POLYLINE
  8
LAYER_1
 40
0.0847
 41
0.0847
 66
1
 10
0
 20
0
 30
0
  0
VERTEX
  8
LAYER_1
 10
110.0458
 20
190.884
  0
VERTEX
  8
LAYER_1
 10
110.6173
 20
191.4767
  0
SEQEND
  0
POLYLINE
  8
LAYER_1
 40
0.0847
 41
0.0847
 66
1
 10
0
 20
0
 30
0
  0
VERTEX
  8
LAYER_1
 10
111.7815
 20
192.662
  0
VERTEX
  8
LAYER_1
 10
112.3742
 20
193.2547
  0
SEQEND
  0
POLYLINE
  8
LAYER_1
 40
0.0847
 41
0.0847
 66
1
 10
0
 20
0
 30
0
  0
VERTEX
  8
LAYER_1
 10
110.0458
 20
190.884
  0
VERTEX
  8
LAYER_1
 10
110.0247
 20
190.8629
  0
VERTEX
  8
LAYER_1
 10
110.0035
 20
190.8417
  0
SEQEND
  0
POLYLINE
  8
LAYER_1
 40
0.0847
 41
0.0847
 66
1
 10
0
 20
0
 30
0
  0
VERTEX
  8
LAYER_1
 10
109.9612
 20
190.7359
  0
VERTEX
  8
LAYER_1
 10
109.9612
 20
190.6935
  0
VERTEX
  8
LAYER_1
 10
109.9612
 20
190.6724
  0
SEQEND
  0
POLYLINE
  8
LAYER_1
 40
0.0847
 41
0.0847
 66
1
 10
0
 20
0
 30
0
  0
VERTEX
  8
LAYER_1
 10
63.839
 20
209.4049
  0
VERTEX
  8
LAYER_1
 10
63.1828
 20
210.8019
  0
SEQEND
  0
POLYLINE
  8
LAYER_1
 40
0.0847
 41
0.0847
 66
1
 10
0
 20
0
 30
0
  0
VERTEX
  8
LAYER_1
 10
63.839
 20
209.4049
  0
VERTEX
  8
LAYER_1
 10
63.839
 20
209.3837
  0
VERTEX
  8
LAYER_1
 10
63.8602
 20
209.3625
  0
VERTEX
  8
LAYER_1
 10
63.8602
 20
209.3414
  0
VERTEX
  8
LAYER_1
 10
63.8814
 20
209.3202
  0
VERTEX
  8
LAYER_1
 10
63.8814
 20
209.299
  0
VERTEX
  8
LAYER_1
 10
63.9025
 20
209.299
  0
VERTEX
  8
LAYER_1
 10
63.9025
 20
209.2779
  0
VERTEX
  8
LAYER_1
 10
63.9237
 20
209.2567
  0
VERTEX
  8
LAYER_1
 10
63.9237
 20
209.2355
  0
VERTEX
  8
LAYER_1
 10
63.9448
 20
209.2144
  0
VERTEX
  8
LAYER_1
 10
63.9448
 20
209.1932
  0
VERTEX
  8
LAYER_1
 10
63.966
 20
209.172
  0
VERTEX
  8
LAYER_1
 10
63.9872
 20
209.172
  0
VERTEX
  8
LAYER_1
 10
63.9872
 20
209.1509
  0
VERTEX
  8
LAYER_1
 10
64.0083
 20
209.1297
  0
VERTEX
  8
LAYER_1
 10
64.0295
 20
209.1085
  0
VERTEX
  8
LAYER_1
 10
64.0295
 20
209.0874
  0
VERTEX
  8
LAYER_1
 10
64.0507
 20
209.0662
  0
VERTEX
  8
LAYER_1
 10
64.0718
 20
209.045
  0
VERTEX
  8
LAYER_1
 10
64.093
 20
209.0239
  0
VERTEX
  8
LAYER_1
 10
64.093
 20
209.0027
  0
VERTEX
  8
LAYER_1
 10
64.1142
 20
209.0027
  0
VERTEX
  8
LAYER_1
 10
64.1354
 20
208.9815
  0
VERTEX
  8
LAYER_1
 10
64.1565
 20
208.9604
  0
VERTEX
  8
LAYER_1
 10
64.1565
 20
208.9392
  0
VERTEX
  8
LAYER_1
 10
64.1777
 20
208.918
  0
VERTEX
  8
LAYER_1
 10
64.1988
 20
208.8969
  0
VERTEX
  8
LAYER_1
 10
64.22
 20
208.8757
  0
VERTEX
  8
LAYER_1
 10
64.2412
 20
208.8757
  0
VERTEX
  8
LAYER_1
 10
64.2623
 20
208.8545
  0
VERTEX
  8
LAYER_1
 10
64.2623
 20
208.8334
  0
VERTEX
  8
LAYER_1
 10
64.2835
 20
208.8122
  0
VERTEX
  8
LAYER_1
 10
64.3047
 20
208.791
  0
VERTEX
  8
LAYER_1
 10
64.3258
 20
208.791
  0
VERTEX
  8
LAYER_1
 10
64.347
 20
208.7699
  0
VERTEX
  8
LAYER_1
 10
64.3682
 20
208.7487
  0
VERTEX
  8
LAYER_1
 10
64.3894
 20
208.7275
  0
VERTEX
  8
LAYER_1
 10
64.3894
 20
208.7064
  0
VERTEX
  8
LAYER_1
 10
64.4105
 20
208.7064
  0
VERTEX
  8
LAYER_1
 10
64.4317
 20
208.6852
  0
VERTEX
  8
LAYER_1
 10
64.4528
 20
208.664
  0
VERTEX
  8
LAYER_1
 10
64.474
 20
208.664
  0
VERTEX
  8
LAYER_1
 10
64.4952
 20
208.6429
  0
VERTEX
  8
LAYER_1
 10
64.5163
 20
208.6217
  0
VERTEX
  8
LAYER_1
 10
64.5375
 20
208.6217
  0
VERTEX
  8
LAYER_1
 10
64.5587
 20
208.6005
  0
VERTEX
  8
LAYER_1
 10
64.5798
 20
208.5794
  0
VERTEX
  8
LAYER_1
 10
64.601
 20
208.5582
  0
VERTEX
  8
LAYER_1
 10
64.6222
 20
208.537
  0
VERTEX
  8
LAYER_1
 10
64.6434
 20
208.537
  0
VERTEX
  8
LAYER_1
 10
64.6645
 20
208.5159
  0
VERTEX
  8
LAYER_1
 10
64.6857
 20
208.5159
  0
VERTEX
  8
LAYER_1
 10
64.7068
 20
208.4947
  0
VERTEX
  8
LAYER_1
 10
64.728
 20
208.4947
  0
VERTEX
  8
LAYER_1
 10
64.7492
 20
208.4735
  0
VERTEX
  8
LAYER_1
 10
64.7703
 20
208.4524
  0
VERTEX
  8
LAYER_1
 10
64.7915
 20
208.4524
  0
VERTEX
  8
LAYER_1
 10
64.8127
 20
208.4524
  0
VERTEX
  8
LAYER_1
 10
64.8338
 20
208.4312
  0
VERTEX
  8
LAYER_1
 10
98.4889
 20
193.6357
  0
VERTEX
  8
LAYER_1
 10
112.4589
 20
193.6357
  0
SEQEND
  0
POLYLINE
  8
LAYER_1
 40
0.0847
 41
0.0847
 66
1
 10
0
 20
0
 30
0
  0
VERTEX
  8
LAYER_1
 10
146.1139
 20
208.4312
  0
VERTEX
  8
LAYER_1
 10
112.4589
 20
193.6357
  0
SEQEND
  0
POLYLINE
  8
LAYER_1
 40
0.0847
 41
0.0847
 66
1
 10
0
 20
0
 30
0
  0
VERTEX
  8
LAYER_1
 10
146.1139
 20
208.4312
  0
VERTEX
  8
LAYER_1
 10
146.135
 20
208.4524
  0
VERTEX
  8
LAYER_1
 10
146.1562
 20
208.4524
  0
VERTEX
  8
LAYER_1
 10
146.1774
 20
208.4524
  0
VERTEX
  8
LAYER_1
 10
146.1985
 20
208.4735
  0
VERTEX
  8
LAYER_1
 10
146.2197
 20
208.4735
  0
VERTEX
  8
LAYER_1
 10
146.2197
 20
208.4947
  0
VERTEX
  8
LAYER_1
 10
146.2409
 20
208.4947
  0
VERTEX
  8
LAYER_1
 10
146.262
 20
208.5159
  0
VERTEX
  8
LAYER_1
 10
146.2832
 20
208.5159
  0
VERTEX
  8
LAYER_1
 10
146.3044
 20
208.537
  0
VERTEX
  8
LAYER_1
 10
146.3255
 20
208.5582
  0
VERTEX
  8
LAYER_1
 10
146.3467
 20
208.5582
  0
VERTEX
  8
LAYER_1
 10
146.3679
 20
208.5794
  0
VERTEX
  8
LAYER_1
 10
146.389
 20
208.5794
  0
VERTEX
  8
LAYER_1
 10
146.389
 20
208.6005
  0
VERTEX
  8
LAYER_1
 10
146.4102
 20
208.6217
  0
VERTEX
  8
LAYER_1
 10
146.4314
 20
208.6217
  0
VERTEX
  8
LAYER_1
 10
146.4525
 20
208.6429
  0
VERTEX
  8
LAYER_1
 10
146.4737
 20
208.664
  0
VERTEX
  8
LAYER_1
 10
146.4948
 20
208.664
  0
VERTEX
  8
LAYER_1
 10
146.516
 20
208.6852
  0
VERTEX
  8
LAYER_1
 10
146.5372
 20
208.7064
  0
VERTEX
  8
LAYER_1
 10
146.5583
 20
208.7275
  0
VERTEX
  8
LAYER_1
 10
146.5795
 20
208.7275
  0
VERTEX
  8
LAYER_1
 10
146.5795
 20
208.7487
  0
VERTEX
  8
LAYER_1
 10
146.6007
 20
208.7699
  0
VERTEX
  8
LAYER_1
 10
146.6218
 20
208.791
  0
VERTEX
  8
LAYER_1
 10
146.643
 20
208.791
  0
VERTEX
  8
LAYER_1
 10
146.6642
 20
208.8122
  0
VERTEX
  8
LAYER_1
 10
146.6854
 20
208.8334
  0
VERTEX
  8
LAYER_1
 10
146.7065
 20
208.8545
  0
VERTEX
  8
LAYER_1
 10
146.7065
 20
208.8757
  0
VERTEX
  8
LAYER_1
 10
146.7277
 20
208.8969
  0
VERTEX
  8
LAYER_1
 10
146.7489
 20
208.8969
  0
VERTEX
  8
LAYER_1
 10
146.77
 20
208.918
  0
VERTEX
  8
LAYER_1
 10
146.7912
 20
208.9392
  0
VERTEX
  8
LAYER_1
 10
146.8124
 20
208.9604
  0
VERTEX
  8
LAYER_1
 10
146.8124
 20
208.9815
  0
VERTEX
  8
LAYER_1
 10
146.8335
 20
209.0027
  0
VERTEX
  8
LAYER_1
 10
146.8547
 20
209.0239
  0
VERTEX
  8
LAYER_1
 10
146.8759
 20
209.045
  0
VERTEX
  8
LAYER_1
 10
146.897
 20
209.0662
  0
VERTEX
  8
LAYER_1
 10
146.9182
 20
209.0874
  0
VERTEX
  8
LAYER_1
 10
146.9182
 20
209.1085
  0
VERTEX
  8
LAYER_1
 10
146.9394
 20
209.1297
  0
VERTEX
  8
LAYER_1
 10
146.9605
 20
209.1509
  0
VERTEX
  8
LAYER_1
 10
146.9605
 20
209.172
  0
VERTEX
  8
LAYER_1
 10
146.9817
 20
209.1932
  0
VERTEX
  8
LAYER_1
 10
147.0028
 20
209.1932
  0
VERTEX
  8
LAYER_1
 10
147.0028
 20
209.2144
  0
VERTEX
  8
LAYER_1
 10
147.024
 20
209.2355
  0
VERTEX
  8
LAYER_1
 10
147.024
 20
209.2567
  0
VERTEX
  8
LAYER_1
 10
147.0452
 20
209.2779
  0
VERTEX
  8
LAYER_1
 10
147.0452
 20
209.299
  0
VERTEX
  8
LAYER_1
 10
147.0663
 20
209.3202
  0
VERTEX
  8
LAYER_1
 10
147.0875
 20
209.3414
  0
VERTEX
  8
LAYER_1
 10
147.0875
 20
209.3625
  0
VERTEX
  8
LAYER_1
 10
147.1087
 20
209.3837
  0
VERTEX
  8
LAYER_1
 10
147.1087
 20
209.4049
  0
VERTEX
  8
LAYER_1
 10
147.7649
 20
210.8019
  0
SEQEND
  0
POLYLINE
  8
LAYER_1
 40
0.0847
 41
0.0847
 66
1
 10
0
 20
0
 30
0
  0
VERTEX
  8
LAYER_1
 10
100.9865
 20
190.2067
  0
VERTEX
  8
LAYER_1
 10
100.9865
 20
190.3125
  0
SEQEND
  0
POLYLINE
  8
LAYER_1
 40
0.0847
 41
0.0847
 66
1
 10
0
 20
0
 30
0
  0
VERTEX
  8
LAYER_1
 10
100.9865
 20
190.5454
  0
VERTEX
  8
LAYER_1
 10
100.9865
 20
190.6724
  0
SEQEND
  0
POLYLINE
  8
LAYER_1
 40
0.0847
 41
0.0847
 66
1
 10
0
 20
0
 30
0
  0
VERTEX
  8
LAYER_1
 10
109.9612
 20
190.2067
  0
VERTEX
  8
LAYER_1
 10
109.9612
 20
190.3125
  0
SEQEND
  0
POLYLINE
  8
LAYER_1
 40
0.0847
 41
0.0847
 66
1
 10
0
 20
0
 30
0
  0
VERTEX
  8
LAYER_1
 10
109.9612
 20
190.5454
  0
VERTEX
  8
LAYER_1
 10
109.9612
 20
190.6724
  0
SEQEND
  0
POLYLINE
  8
LAYER_1
 40
0.1693
 41
0.1693
 66
1
 10
0
 20
0
 30
0
  0
VERTEX
  8
LAYER_1
 10
109.305
 20
179.8139
  0
VERTEX
  8
LAYER_1
 10
109.6225
 20
179.5599
  0
VERTEX
  8
LAYER_1
 10
109.305
 20
179.327
  0
VERTEX
  8
LAYER_1
 10
109.6225
 20
179.0519
  0
VERTEX
  8
LAYER_1
 10
109.305
 20
178.819
  0
VERTEX
  8
LAYER_1
 10
109.6225
 20
178.565
  0
VERTEX
  8
LAYER_1
 10
109.305
 20
178.311
  0
VERTEX
  8
LAYER_1
 10
109.6225
 20
178.057
  0
SEQEND
  0
POLYLINE
  8
LAYER_1
 40
0.1693
 41
0.1693
 66
1
 10
0
 20
0
 30
0
  0
VERTEX
  8
LAYER_1
 10
103.9922
 20
192.9795
  0
VERTEX
  8
LAYER_1
 10
103.9922
 20
194.7787
  0
SEQEND
  0
POLYLINE
  8
LAYER_1
 40
0.1693
 41
0.1693
 66
1
 10
0
 20
0
 30
0
  0
VERTEX
  8
LAYER_1
 10
106.9555
 20
192.9795
  0
VERTEX
  8
LAYER_1
 10
106.9555
 20
194.7787
  0
SEQEND
  0
POLYLINE
  8
LAYER_1
 40
0.1693
 41
0.1693
 66
1
 10
0
 20
0
 30
0
  0
VERTEX
  8
LAYER_1
 10
101.3252
 20
188.979
  0
VERTEX
  8
LAYER_1
 10
109.6225
 20
188.979
  0
SEQEND
  0
POLYLINE
  8
LAYER_1
 40
0.1693
 41
0.1693
 66
1
 10
0
 20
0
 30
0
  0
VERTEX
  8
LAYER_1
 10
101.6427
 20
182.5444
  0
VERTEX
  8
LAYER_1
 10
101.3252
 20
182.2904
  0
VERTEX
  8
LAYER_1
 10
101.6427
 20
182.0364
  0
VERTEX
  8
LAYER_1
 10
101.3252
 20
181.7824
  0
VERTEX
  8
LAYER_1
 10
101.6427
 20
181.5495
  0
VERTEX
  8
LAYER_1
 10
101.3252
 20
181.2744
  0
VERTEX
  8
LAYER_1
 10
101.6427
 20
181.0415
  0
VERTEX
  8
LAYER_1
 10
101.3252
 20
180.7875
  0
VERTEX
  8
LAYER_1
 10
101.6427
 20
180.5335
  0
VERTEX
  8
LAYER_1
 10
101.3252
 20
180.2795
  0
VERTEX
  8
LAYER_1
 10
101.6427
 20
180.0467
  0
VERTEX
  8
LAYER_1
 10
101.3252
 20
179.7715
  0
SEQEND
  0
POLYLINE
  8
LAYER_1
 40
0.1693
 41
0.1693
 66
1
 10
0
 20
0
 30
0
  0
VERTEX
  8
LAYER_1
 10
109.6225
 20
182.5655
  0
VERTEX
  8
LAYER_1
 10
109.305
 20
182.3115
  0
SEQEND
  0
POLYLINE
  8
LAYER_1
 40
0.1693
 41
0.1693
 66
1
 10
0
 20
0
 30
0
  0
VERTEX
  8
LAYER_1
 10
101.3252
 20
179.7715
  0
VERTEX
  8
LAYER_1
 10
101.6427
 20
179.5387
  0
SEQEND
  0
POLYLINE
  8
LAYER_1
 40
0.1693
 41
0.1693
 66
1
 10
0
 20
0
 30
0
  0
VERTEX
  8
LAYER_1
 10
98.2772
 20
194.821
  0
VERTEX
  8
LAYER_1
 10
98.2772
 20
194.8634
  0
SEQEND
  0
POLYLINE
  8
LAYER_1
 40
0.1693
 41
0.1693
 66
1
 10
0
 20
0
 30
0
  0
VERTEX
  8
LAYER_1
 10
98.2772
 20
194.8422
  0
VERTEX
  8
LAYER_1
 10
98.2772
 20
194.821
  0
VERTEX
  8
LAYER_1
 10
98.2983
 20
194.7999
  0
SEQEND
  0
POLYLINE
  8
LAYER_1
 40
0.1693
 41
0.1693
 66
1
 10
0
 20
0
 30
0
  0
VERTEX
  8
LAYER_1
 10
112.6705
 20
194.821
  0
VERTEX
  8
LAYER_1
 10
112.6705
 20
194.8634
  0
SEQEND
  0
POLYLINE
  8
LAYER_1
 40
0.1693
 41
0.1693
 66
1
 10
0
 20
0
 30
0
  0
VERTEX
  8
LAYER_1
 10
112.607
 20
194.7999
  0
VERTEX
  8
LAYER_1
 10
112.6282
 20
194.7787
 42
0.3850138033
  0
VERTEX
  8
LAYER_1
 10
112.6705
 20
194.821
  0
VERTEX
  8
LAYER_1
 10
112.6493
 20
194.8422
  0
SEQEND
  0
POLYLINE
  8
LAYER_1
 40
0.1693
 41
0.1693
 66
1
 10
0
 20
0
 30
0
  0
VERTEX
  8
LAYER_1
 10
98.3195
 20
194.7787
  0
VERTEX
  8
LAYER_1
 10
112.6282
 20
194.7787
  0
SEQEND
  0
POLYLINE
  8
LAYER_1
 40
0.1693
 41
0.1693
 66
1
 10
0
 20
0
 30
0
  0
VERTEX
  8
LAYER_1
 10
98.4042
 20
195.0327
 42
0.2519078292
  0
VERTEX
  8
LAYER_1
 10
98.2983
 20
194.8634
  0
SEQEND
  0
POLYLINE
  8
LAYER_1
 40
0.1693
 41
0.1693
 66
1
 10
0
 20
0
 30
0
  0
VERTEX
  8
LAYER_1
 10
112.5223
 20
195.0539
 42
0.06895381162
  0
VERTEX
  8
LAYER_1
 10
108.1933
 20
196.3636
 42
0.03951469515
  0
VERTEX
  8
LAYER_1
 10
105.4738
 20
196.5779
 42
0.1073127357
  0
VERTEX
  8
LAYER_1
 10
98.383
 20
195.0327
  0
SEQEND
  0
POLYLINE
  8
LAYER_1
 40
0.1693
 41
0.1693
 66
1
 10
0
 20
0
 30
0
  0
VERTEX
  8
LAYER_1
 10
112.6493
 20
194.8634
 42
0.2986399093
  0
VERTEX
  8
LAYER_1
 10
112.5012
 20
195.0327
  0
SEQEND
  0
POLYLINE
  8
LAYER_1
 40
0.1693
 41
0.1693
 66
1
 10
0
 20
0
 30
0
  0
VERTEX
  8
LAYER_1
 10
101.6427
 20
179.5387
  0
VERTEX
  8
LAYER_1
 10
101.3251
 20
179.2847
  0
VERTEX
  8
LAYER_1
 10
101.6427
 20
179.0307
  0
VERTEX
  8
LAYER_1
 10
101.3251
 20
178.7767
  0
VERTEX
  8
LAYER_1
 10
101.6427
 20
178.5439
  0
VERTEX
  8
LAYER_1
 10
101.3251
 20
178.2687
  0
VERTEX
  8
LAYER_1
 10
101.6427
 20
178.0359
  0
SEQEND
  0
POLYLINE
  8
LAYER_1
 40
0.1693
 41
0.1693
 66
1
 10
0
 20
0
 30
0
  0
VERTEX
  8
LAYER_1
 10
109.305
 20
182.3115
  0
VERTEX
  8
LAYER_1
 10
109.6225
 20
182.0575
  0
VERTEX
  8
LAYER_1
 10
109.305
 20
181.8247
  0
VERTEX
  8
LAYER_1
 10
109.6225
 20
181.5495
  0
VERTEX
  8
LAYER_1
 10
109.305
 20
181.3167
  0
VERTEX
  8
LAYER_1
 10
109.6225
 20
181.0627
  0
VERTEX
  8
LAYER_1
 10
109.305
 20
180.8087
  0
VERTEX
  8
LAYER_1
 10
109.6225
 20
180.5547
  0
VERTEX
  8
LAYER_1
 10
109.305
 20
180.3219
  0
VERTEX
  8
LAYER_1
 10
109.6225
 20
180.0467
  0
VERTEX
  8
LAYER_1
 10
109.305
 20
179.8139
  0
SEQEND
  0
POLYLINE
  8
LAYER_1
 40
0.1693
 41
0.1693
 66
1
 10
0
 20
0
 30
0
  0
VERTEX
  8
LAYER_1
 10
99.0603
 20
192.9795
 42
0.3779057319
  0
VERTEX
  8
LAYER_1
 10
98.9756
 20
192.8737
 42
0.4404387411
  0
VERTEX
  8
LAYER_1
 10
99.0603
 20
192.789
  0
SEQEND
  0
POLYLINE
  8
LAYER_1
 40
0.1693
 41
0.1693
 66
1
 10
0
 20
0
 30
0
  0
VERTEX
  8
LAYER_1
 10
99.0815
 20
192.7679
  0
VERTEX
  8
LAYER_1
 10
101.3251
 20
192.1752
  0
SEQEND
  0
POLYLINE
  8
LAYER_1
 40
0.1693
 41
0.1693
 66
1
 10
0
 20
0
 30
0
  0
VERTEX
  8
LAYER_1
 10
111.8661
 20
192.7679
  0
VERTEX
  8
LAYER_1
 10
109.6225
 20
192.1752
  0
SEQEND
  0
POLYLINE
  8
LAYER_1
 40
0.1693
 41
0.1693
 66
1
 10
0
 20
0
 30
0
  0
VERTEX
  8
LAYER_1
 10
99.0815
 20
192.9795
  0
VERTEX
  8
LAYER_1
 10
111.8661
 20
192.9795
  0
SEQEND
  0
POLYLINE
  8
LAYER_1
 40
0.1693
 41
0.1693
 66
1
 10
0
 20
0
 30
0
  0
VERTEX
  8
LAYER_1
 10
111.845
 20
192.789
 42
0.4459787268
  0
VERTEX
  8
LAYER_1
 10
111.8661
 20
192.7679
 42
0.3000695379
  0
VERTEX
  8
LAYER_1
 10
111.972
 20
192.8737
 42
0.3600644205
  0
VERTEX
  8
LAYER_1
 10
111.8661
 20
192.9795
  0
VERTEX
  8
LAYER_1
 10
111.845
 20
192.9795
  0
SEQEND
  0
POLYLINE
  8
LAYER_1
 40
0.1693
 41
0.1693
 66
1
 10
0
 20
0
 30
0
  0
VERTEX
  8
LAYER_1
 10
99.0815
 20
192.7679
  0
VERTEX
  8
LAYER_1
 10
111.8661
 20
192.7679
  0
SEQEND
  0
POLYLINE
  8
LAYER_1
 40
0.1693
 41
0.1693
 66
1
 10
0
 20
0
 30
0
  0
VERTEX
  8
LAYER_1
 10
101.3251
 20
182.7772
  0
VERTEX
  8
LAYER_1
 10
101.6426
 20
182.5444
  0
SEQEND
  0
POLYLINE
  8
LAYER_1
 40
0.1693
 41
0.1693
 66
1
 10
0
 20
0
 30
0
  0
VERTEX
  8
LAYER_1
 10
109.305
 20
182.8195
  0
VERTEX
  8
LAYER_1
 10
109.6225
 20
182.5655
  0
SEQEND
  0
POLYLINE
  8
LAYER_1
 40
0.0847
 41
0.0847
 66
1
 10
0
 20
0
 30
0
  0
VERTEX
  8
LAYER_1
 10
101.8332
 20
175.0937
  0
VERTEX
  8
LAYER_1
 10
101.8332
 20
181.7189
  0
SEQEND
  0
POLYLINE
  8
LAYER_1
 40
0.0847
 41
0.0847
 66
1
 10
0
 20
0
 30
0
  0
VERTEX
  8
LAYER_1
 10
101.8332
 20
186.1215
  0
VERTEX
  8
LAYER_1
 10
101.8332
 20
192.7679
  0
SEQEND
  0
POLYLINE
  8
LAYER_1
 40
0.0847
 41
0.0847
 66
1
 10
0
 20
0
 30
0
  0
VERTEX
  8
LAYER_1
 10
109.1145
 20
175.0937
  0
VERTEX
  8
LAYER_1
 10
109.1145
 20
181.7189
  0
SEQEND
  0
POLYLINE
  8
LAYER_1
 40
0.0847
 41
0.0847
 66
1
 10
0
 20
0
 30
0
  0
VERTEX
  8
LAYER_1
 10
109.1145
 20
186.1215
  0
VERTEX
  8
LAYER_1
 10
109.1145
 20
192.7679
  0
SEQEND
  0
POLYLINE
  8
LAYER_1
 40
0.1693
 41
0.1693
 66
1
 10
0
 20
0
 30
0
  0
VERTEX
  8
LAYER_1
 10
101.8332
 20
172.977
  0
VERTEX
  8
LAYER_1
 10
101.8332
 20
175.0937
  0
SEQEND
  0
POLYLINE
  8
LAYER_1
 40
0.1693
 41
0.1693
 66
1
 10
0
 20
0
 30
0
  0
VERTEX
  8
LAYER_1
 10
109.1145
 20
172.977
  0
VERTEX
  8
LAYER_1
 10
109.1145
 20
175.0937
  0
SEQEND
  0
POLYLINE
  8
LAYER_1
 40
0.1693
 41
0.1693
 66
1
 10
0
 20
0
 30
0
  0
VERTEX
  8
LAYER_1
 10
101.4733
 20
172.977
  0
VERTEX
  8
LAYER_1
 10
109.5167
 20
172.977
  0
SEQEND
  0
POLYLINE
  8
LAYER_1
 40
0.1693
 41
0.1693
 66
1
 10
0
 20
0
 30
0
  0
VERTEX
  8
LAYER_1
 10
109.4532
 20
172.7654
  0
VERTEX
  8
LAYER_1
 10
109.4532
 20
172.977
  0
SEQEND
  0
POLYLINE
  8
LAYER_1
 40
0.1693
 41
0.1693
 66
1
 10
0
 20
0
 30
0
  0
VERTEX
  8
LAYER_1
 10
101.4733
 20
172.7654
  0
VERTEX
  8
LAYER_1
 10
101.4733
 20
172.977
  0
SEQEND
  0
POLYLINE
  8
LAYER_1
 40
0.1693
 41
0.1693
 66
1
 10
0
 20
0
 30
0
  0
VERTEX
  8
LAYER_1
 10
101.6427
 20
174.5434
  0
VERTEX
  8
LAYER_1
 10
101.3252
 20
174.2682
  0
VERTEX
  8
LAYER_1
 10
101.6427
 20
174.0354
  0
VERTEX
  8
LAYER_1
 10
101.3252
 20
173.7814
  0
VERTEX
  8
LAYER_1
 10
101.6427
 20
173.5274
  0
VERTEX
  8
LAYER_1
 10
101.3252
 20
173.2734
  0
VERTEX
  8
LAYER_1
 10
101.6427
 20
173.0405
  0
SEQEND
  0
POLYLINE
  8
LAYER_1
 40
0.1693
 41
0.1693
 66
1
 10
0
 20
0
 30
0
  0
VERTEX
  8
LAYER_1
 10
109.6225
 20
174.5434
  0
VERTEX
  8
LAYER_1
 10
109.305
 20
174.3105
  0
VERTEX
  8
LAYER_1
 10
109.6225
 20
174.0565
  0
VERTEX
  8
LAYER_1
 10
109.305
 20
173.8237
  0
VERTEX
  8
LAYER_1
 10
109.6225
 20
173.5485
  0
VERTEX
  8
LAYER_1
 10
109.305
 20
173.3157
  0
VERTEX
  8
LAYER_1
 10
109.6225
 20
173.0617
  0
SEQEND
  0
POLYLINE
  8
LAYER_1
 40
0.1693
 41
0.1693
 66
1
 10
0
 20
0
 30
0
  0
VERTEX
  8
LAYER_1
 10
101.6427
 20
173.0405
  0
VERTEX
  8
LAYER_1
 10
101.558
 20
172.977
  0
SEQEND
  0
POLYLINE
  8
LAYER_1
 40
0.1693
 41
0.1693
 66
1
 10
0
 20
0
 30
0
  0
VERTEX
  8
LAYER_1
 10
109.6225
 20
173.0617
  0
VERTEX
  8
LAYER_1
 10
109.5167
 20
172.977
  0
SEQEND
  0
POLYLINE
  8
LAYER_1
 40
0.1693
 41
0.1693
 66
1
 10
0
 20
0
 30
0
  0
VERTEX
  8
LAYER_1
 10
109.305
 20
174.8185
  0
VERTEX
  8
LAYER_1
 10
109.6225
 20
174.5434
  0
SEQEND
  0
POLYLINE
  8
LAYER_1
 40
0.1693
 41
0.1693
 66
1
 10
0
 20
0
 30
0
  0
VERTEX
  8
LAYER_1
 10
101.3252
 20
174.7762
  0
VERTEX
  8
LAYER_1
 10
101.6427
 20
174.5434
  0
SEQEND
  0
POLYLINE
  8
LAYER_1
 40
0.1693
 41
0.1693
 66
1
 10
0
 20
0
 30
0
  0
VERTEX
  8
LAYER_1
 10
101.6427
 20
175.0302
  0
VERTEX
  8
LAYER_1
 10
101.3252
 20
174.7762
  0
SEQEND
  0
POLYLINE
  8
LAYER_1
 40
0.1693
 41
0.1693
 66
1
 10
0
 20
0
 30
0
  0
VERTEX
  8
LAYER_1
 10
109.6225
 20
175.0514
  0
VERTEX
  8
LAYER_1
 10
109.305
 20
174.8185
  0
SEQEND
  0
POLYLINE
  8
LAYER_1
 40
0.1693
 41
0.1693
 66
1
 10
0
 20
0
 30
0
  0
VERTEX
  8
LAYER_1
 10
101.6427
 20
185.042
  0
VERTEX
  8
LAYER_1
 10
101.3252
 20
184.788
  0
VERTEX
  8
LAYER_1
 10
101.6427
 20
184.534
  0
VERTEX
  8
LAYER_1
 10
101.3252
 20
184.28
  0
VERTEX
  8
LAYER_1
 10
101.6427
 20
184.0472
  0
VERTEX
  8
LAYER_1
 10
101.3252
 20
183.772
  0
VERTEX
  8
LAYER_1
 10
101.6427
 20
183.5392
  0
VERTEX
  8
LAYER_1
 10
101.3252
 20
183.2852
  0
VERTEX
  8
LAYER_1
 10
101.6427
 20
183.0312
  0
VERTEX
  8
LAYER_1
 10
101.3252
 20
182.7772
  0
SEQEND
  0
POLYLINE
  8
LAYER_1
 40
0.1693
 41
0.1693
 66
1
 10
0
 20
0
 30
0
  0
VERTEX
  8
LAYER_1
 10
109.305
 20
184.8304
  0
VERTEX
  8
LAYER_1
 10
109.6225
 20
184.5552
  0
VERTEX
  8
LAYER_1
 10
109.305
 20
184.3224
  0
VERTEX
  8
LAYER_1
 10
109.6225
 20
184.0684
  0
VERTEX
  8
LAYER_1
 10
109.305
 20
183.8144
  0
VERTEX
  8
LAYER_1
 10
109.6225
 20
183.5604
  0
VERTEX
  8
LAYER_1
 10
109.305
 20
183.3275
  0
VERTEX
  8
LAYER_1
 10
109.6225
 20
183.0524
  0
VERTEX
  8
LAYER_1
 10
109.305
 20
182.8195
  0
SEQEND
  0
POLYLINE
  8
LAYER_1
 40
0.1693
 41
0.1693
 66
1
 10
0
 20
0
 30
0
  0
VERTEX
  8
LAYER_1
 10
101.558
 20
185.1055
  0
VERTEX
  8
LAYER_1
 10
101.6427
 20
185.042
  0
SEQEND
  0
POLYLINE
  8
LAYER_1
 40
0.1693
 41
0.1693
 66
1
 10
0
 20
0
 30
0
  0
VERTEX
  8
LAYER_1
 10
109.559
 20
185.1055
  0
VERTEX
  8
LAYER_1
 10
109.6225
 20
185.0632
  0
SEQEND
  0
POLYLINE
  8
LAYER_1
 40
0.1693
 41
0.1693
 66
1
 10
0
 20
0
 30
0
  0
VERTEX
  8
LAYER_1
 10
101.6427
 20
178.0358
  0
VERTEX
  8
LAYER_1
 10
101.6003
 20
177.9935
  0
SEQEND
  0
POLYLINE
  8
LAYER_1
 40
0.1693
 41
0.1693
 66
1
 10
0
 20
0
 30
0
  0
VERTEX
  8
LAYER_1
 10
109.6225
 20
178.057
  0
VERTEX
  8
LAYER_1
 10
109.5378
 20
177.9935
  0
SEQEND
  0
POLYLINE
  8
LAYER_1
 40
0.0847
 41
0.0847
 66
1
 10
0
 20
0
 30
0
  0
VERTEX
  8
LAYER_1
 10
102.2777
 20
160.8274
  0
VERTEX
  8
LAYER_1
 10
102.2988
 20
160.8485
  0
SEQEND
  0
POLYLINE
  8
LAYER_1
 40
0.0847
 41
0.0847
 66
1
 10
0
 20
0
 30
0
  0
VERTEX
  8
LAYER_1
 10
102.3835
 20
160.912
  0
VERTEX
  8
LAYER_1
 10
102.4258
 20
160.9544
  0
VERTEX
  8
LAYER_1
 10
102.4893
 20
161.0179
  0
SEQEND
  0
POLYLINE
  8
LAYER_1
 40
0.0847
 41
0.0847
 66
1
 10
0
 20
0
 30
0
  0
VERTEX
  8
LAYER_1
 10
102.6163
 20
161.1449
  0
VERTEX
  8
LAYER_1
 10
102.701
 20
161.2084
  0
VERTEX
  8
LAYER_1
 10
102.7645
 20
161.2507
  0
SEQEND
  0
POLYLINE
  8
LAYER_1
 40
0.0847
 41
0.0847
 66
1
 10
0
 20
0
 30
0
  0
VERTEX
  8
LAYER_1
 10
102.8915
 20
161.3565
  0
VERTEX
  8
LAYER_1
 10
102.955
 20
161.42
  0
VERTEX
  8
LAYER_1
 10
103.0185
 20
161.4624
  0
SEQEND
  0
POLYLINE
  8
LAYER_1
 40
0.0847
 41
0.0847
 66
1
 10
0
 20
0
 30
0
  0
VERTEX
  8
LAYER_1
 10
103.1455
 20
161.547
  0
VERTEX
  8
LAYER_1
 10
103.209
 20
161.5894
  0
VERTEX
  8
LAYER_1
 10
103.2725
 20
161.6105
  0
SEQEND
  0
POLYLINE
  8
LAYER_1
 40
0.0847
 41
0.0847
 66
1
 10
0
 20
0
 30
0
  0
VERTEX
  8
LAYER_1
 10
103.3995
 20
161.6952
  0
VERTEX
  8
LAYER_1
 10
103.4842
 20
161.7375
  0
VERTEX
  8
LAYER_1
 10
103.5477
 20
161.7375
  0
SEQEND
  0
POLYLINE
  8
LAYER_1
 40
0.0847
 41
0.0847
 66
1
 10
0
 20
0
 30
0
  0
VERTEX
  8
LAYER_1
 10
103.6747
 20
161.7799
  0
VERTEX
  8
LAYER_1
 10
103.7382
 20
161.801
  0
VERTEX
  8
LAYER_1
 10
103.7593
 20
161.801
  0
SEQEND
  0
POLYLINE
  8
LAYER_1
 40
0.0847
 41
0.0847
 66
1
 10
0
 20
0
 30
0
  0
VERTEX
  8
LAYER_1
 10
103.844
 20
161.801
  0
VERTEX
  8
LAYER_1
 10
103.8863
 20
161.8222
  0
VERTEX
  8
LAYER_1
 10
103.9075
 20
161.8222
  0
SEQEND
  0
POLYLINE
  8
LAYER_1
 40
0.0847
 41
0.0847
 66
1
 10
0
 20
0
 30
0
  0
VERTEX
  8
LAYER_1
 10
103.9922
 20
161.8222
  0
VERTEX
  8
LAYER_1
 10
104.0345
 20
161.801
  0
VERTEX
  8
LAYER_1
 10
104.098
 20
161.801
  0
SEQEND
  0
POLYLINE
  8
LAYER_1
 40
0.0847
 41
0.0847
 66
1
 10
0
 20
0
 30
0
  0
VERTEX
  8
LAYER_1
 10
104.225
 20
161.7587
  0
VERTEX
  8
LAYER_1
 10
104.2885
 20
161.7375
  0
VERTEX
  8
LAYER_1
 10
104.352
 20
161.7164
  0
SEQEND
  0
POLYLINE
  8
LAYER_1
 40
0.0847
 41
0.0847
 66
1
 10
0
 20
0
 30
0
  0
VERTEX
  8
LAYER_1
 10
104.479
 20
161.6317
  0
VERTEX
  8
LAYER_1
 10
104.5637
 20
161.5894
  0
VERTEX
  8
LAYER_1
 10
104.6272
 20
161.547
  0
SEQEND
  0
POLYLINE
  8
LAYER_1
 40
0.0847
 41
0.0847
 66
1
 10
0
 20
0
 30
0
  0
VERTEX
  8
LAYER_1
 10
104.7542
 20
161.4624
  0
VERTEX
  8
LAYER_1
 10
104.8177
 20
161.42
  0
VERTEX
  8
LAYER_1
 10
104.8812
 20
161.3777
  0
SEQEND
  0
POLYLINE
  8
LAYER_1
 40
0.0847
 41
0.0847
 66
1
 10
0
 20
0
 30
0
  0
VERTEX
  8
LAYER_1
 10
105.0082
 20
161.2719
  0
VERTEX
  8
LAYER_1
 10
105.0717
 20
161.2084
  0
VERTEX
  8
LAYER_1
 10
105.1352
 20
161.1449
  0
SEQEND
  0
POLYLINE
  8
LAYER_1
 40
0.0847
 41
0.0847
 66
1
 10
0
 20
0
 30
0
  0
VERTEX
  8
LAYER_1
 10
105.2622
 20
161.0179
  0
VERTEX
  8
LAYER_1
 10
105.3257
 20
160.9544
  0
VERTEX
  8
LAYER_1
 10
105.3468
 20
160.9332
  0
SEQEND
  0
POLYLINE
  8
LAYER_1
 40
0.0847
 41
0.0847
 66
1
 10
0
 20
0
 30
0
  0
VERTEX
  8
LAYER_1
 10
105.4315
 20
160.8697
  0
VERTEX
  8
LAYER_1
 10
105.4738
 20
160.8274
  0
VERTEX
  8
LAYER_1
 10
105.495
 20
160.8062
  0
SEQEND
  0
POLYLINE
  8
LAYER_1
 40
0.0847
 41
0.0847
 66
1
 10
0
 20
0
 30
0
  0
VERTEX
  8
LAYER_1
 10
105.5797
 20
160.7215
  0
VERTEX
  8
LAYER_1
 10
105.622
 20
160.6792
  0
VERTEX
  8
LAYER_1
 10
105.6855
 20
160.6369
  0
SEQEND
  0
POLYLINE
  8
LAYER_1
 40
0.0847
 41
0.0847
 66
1
 10
0
 20
0
 30
0
  0
VERTEX
  8
LAYER_1
 10
105.8125
 20
160.5099
  0
VERTEX
  8
LAYER_1
 10
105.876
 20
160.4464
  0
VERTEX
  8
LAYER_1
 10
105.9395
 20
160.404
  0
SEQEND
  0
POLYLINE
  8
LAYER_1
 40
0.0847
 41
0.0847
 66
1
 10
0
 20
0
 30
0
  0
VERTEX
  8
LAYER_1
 10
106.0665
 20
160.2982
  0
VERTEX
  8
LAYER_1
 10
106.13
 20
160.2347
  0
VERTEX
  8
LAYER_1
 10
106.1935
 20
160.1924
  0
SEQEND
  0
POLYLINE
  8
LAYER_1
 40
0.0847
 41
0.0847
 66
1
 10
0
 20
0
 30
0
  0
VERTEX
  8
LAYER_1
 10
106.3205
 20
160.1077
  0
VERTEX
  8
LAYER_1
 10
106.384
 20
160.0442
  0
VERTEX
  8
LAYER_1
 10
106.4475
 20
160.023
  0
SEQEND
  0
POLYLINE
  8
LAYER_1
 40
0.0847
 41
0.0847
 66
1
 10
0
 20
0
 30
0
  0
VERTEX
  8
LAYER_1
 10
106.5745
 20
159.9595
  0
VERTEX
  8
LAYER_1
 10
106.6592
 20
159.9172
  0
VERTEX
  8
LAYER_1
 10
106.7227
 20
159.896
  0
SEQEND
  0
POLYLINE
  8
LAYER_1
 40
0.0847
 41
0.0847
 66
1
 10
0
 20
0
 30
0
  0
VERTEX
  8
LAYER_1
 10
106.8497
 20
159.8537
  0
VERTEX
  8
LAYER_1
 10
106.9132
 20
159.8325
  0
VERTEX
  8
LAYER_1
 10
106.9344
 20
159.8325
  0
SEQEND
  0
POLYLINE
  8
LAYER_1
 40
0.0847
 41
0.0847
 66
1
 10
0
 20
0
 30
0
  0
VERTEX
  8
LAYER_1
 10
107.019
 20
159.8325
  0
VERTEX
  8
LAYER_1
 10
107.0614
 20
159.8113
  0
VERTEX
  8
LAYER_1
 10
107.0825
 20
159.8113
  0
SEQEND
  0
POLYLINE
  8
LAYER_1
 40
0.0847
 41
0.0847
 66
1
 10
0
 20
0
 30
0
  0
VERTEX
  8
LAYER_1
 10
107.1672
 20
159.8113
  0
VERTEX
  8
LAYER_1
 10
107.2095
 20
159.8325
  0
VERTEX
  8
LAYER_1
 10
107.273
 20
159.8537
  0
SEQEND
  0
POLYLINE
  8
LAYER_1
 40
0.0847
 41
0.0847
 66
1
 10
0
 20
0
 30
0
  0
VERTEX
  8
LAYER_1
 10
107.4
 20
159.896
  0
VERTEX
  8
LAYER_1
 10
107.4635
 20
159.9172
  0
VERTEX
  8
LAYER_1
 10
107.527
 20
159.9384
  0
SEQEND
  0
POLYLINE
  8
LAYER_1
 40
0.0847
 41
0.0847
 66
1
 10
0
 20
0
 30
0
  0
VERTEX
  8
LAYER_1
 10
107.654
 20
160.0018
  0
VERTEX
  8
LAYER_1
 10
107.7387
 20
160.0442
  0
VERTEX
  8
LAYER_1
 10
107.8022
 20
160.0865
  0
SEQEND
  0
POLYLINE
  8
LAYER_1
 40
0.0847
 41
0.0847
 66
1
 10
0
 20
0
 30
0
  0
VERTEX
  8
LAYER_1
 10
107.9292
 20
160.1712
  0
VERTEX
  8
LAYER_1
 10
107.9927
 20
160.2347
  0
VERTEX
  8
LAYER_1
 10
108.0562
 20
160.277
  0
SEQEND
  0
POLYLINE
  8
LAYER_1
 40
0.0847
 41
0.0847
 66
1
 10
0
 20
0
 30
0
  0
VERTEX
  8
LAYER_1
 10
108.1832
 20
160.3828
  0
VERTEX
  8
LAYER_1
 10
108.2467
 20
160.4464
  0
VERTEX
  8
LAYER_1
 10
108.3102
 20
160.4887
  0
SEQEND
  0
POLYLINE
  8
LAYER_1
 40
0.0847
 41
0.0847
 66
1
 10
0
 20
0
 30
0
  0
VERTEX
  8
LAYER_1
 10
108.4372
 20
160.6157
  0
VERTEX
  8
LAYER_1
 10
108.5219
 20
160.6792
  0
VERTEX
  8
LAYER_1
 10
108.543
 20
160.7004
  0
SEQEND
  0
POLYLINE
  8
LAYER_1
 40
0.0847
 41
0.0847
 66
1
 10
0
 20
0
 30
0
  0
VERTEX
  8
LAYER_1
 10
108.6277
 20
160.785
  0
VERTEX
  8
LAYER_1
 10
108.67
 20
160.8274
  0
SEQEND
  0
POLYLINE
  8
LAYER_1
 40
0.0847
 41
0.0847
 66
1
 10
0
 20
0
 30
0
  0
VERTEX
  8
LAYER_1
 10
102.2777
 20
160.8273
  0
VERTEX
  8
LAYER_1
 10
102.2777
 20
161.8222
  0
SEQEND
  0
POLYLINE
  8
LAYER_1
 40
0.0847
 41
0.0847
 66
1
 10
0
 20
0
 30
0
  0
VERTEX
  8
LAYER_1
 10
102.2777
 20
163.8118
  0
VERTEX
  8
LAYER_1
 10
102.2777
 20
165.8015
  0
SEQEND
  0
POLYLINE
  8
LAYER_1
 40
0.0847
 41
0.0847
 66
1
 10
0
 20
0
 30
0
  0
VERTEX
  8
LAYER_1
 10
102.2777
 20
167.7912
  0
VERTEX
  8
LAYER_1
 10
102.2777
 20
169.7809
  0
SEQEND
  0
POLYLINE
  8
LAYER_1
 40
0.0847
 41
0.0847
 66
1
 10
0
 20
0
 30
0
  0
VERTEX
  8
LAYER_1
 10
102.2777
 20
171.7705
  0
VERTEX
  8
LAYER_1
 10
102.2777
 20
172.7653
  0
SEQEND
  0
POLYLINE
  8
LAYER_1
 40
0.0847
 41
0.0847
 66
1
 10
0
 20
0
 30
0
  0
VERTEX
  8
LAYER_1
 10
108.67
 20
160.8273
  0
VERTEX
  8
LAYER_1
 10
108.67
 20
161.8222
  0
SEQEND
  0
POLYLINE
  8
LAYER_1
 40
0.0847
 41
0.0847
 66
1
 10
0
 20
0
 30
0
  0
VERTEX
  8
LAYER_1
 10
108.67
 20
163.8118
  0
VERTEX
  8
LAYER_1
 10
108.67
 20
165.8015
  0
SEQEND
  0
POLYLINE
  8
LAYER_1
 40
0.0847
 41
0.0847
 66
1
 10
0
 20
0
 30
0
  0
VERTEX
  8
LAYER_1
 10
108.67
 20
167.7912
  0
VERTEX
  8
LAYER_1
 10
108.67
 20
169.7809
  0
SEQEND
  0
POLYLINE
  8
LAYER_1
 40
0.0847
 41
0.0847
 66
1
 10
0
 20
0
 30
0
  0
VERTEX
  8
LAYER_1
 10
108.67
 20
171.7705
  0
VERTEX
  8
LAYER_1
 10
108.67
 20
172.7653
  0
SEQEND
  0
POLYLINE
  8
LAYER_1
 40
0.0847
 41
0.0847
 66
1
 10
0
 20
0
 30
0
  0
VERTEX
  8
LAYER_1
 10
186.7539
 20
173.993
  0
VERTEX
  8
LAYER_1
 10
186.7539
 20
179.0095
  0
SEQEND
  0
POLYLINE
  8
LAYER_1
 40
0.0847
 41
0.0847
 66
1
 10
0
 20
0
 30
0
  0
VERTEX
  8
LAYER_1
 10
186.7539
 20
188.0053
  0
VERTEX
  8
LAYER_1
 10
186.7539
 20
193.0007
  0
SEQEND
  0
POLYLINE
  8
LAYER_1
 40
0.0847
 41
0.0847
 66
1
 10
0
 20
0
 30
0
  0
VERTEX
  8
LAYER_1
 10
186.7539
 20
179.0095
  0
VERTEX
  8
LAYER_1
 10
186.7539
 20
188.0053
  0
SEQEND
  0
POLYLINE
  8
LAYER_1
 40
0.1693
 41
0.1693
 66
1
 10
0
 20
0
 30
0
  0
VERTEX
  8
LAYER_1
 10
186.7538
 20
179.0095
  0
VERTEX
  8
LAYER_1
 10
187.156
 20
177.549
  0
SEQEND
  0
POLYLINE
  8
LAYER_1
 40
0.1693
 41
0.1693
 66
1
 10
0
 20
0
 30
0
  0
VERTEX
  8
LAYER_1
 10
186.7538
 20
179.0095
  0
VERTEX
  8
LAYER_1
 10
186.3728
 20
177.549
  0
SEQEND
  0
POLYLINE
  8
LAYER_1
 40
0.1693
 41
0.1693
 66
1
 10
0
 20
0
 30
0
  0
VERTEX
  8
LAYER_1
 10
186.7538
 20
188.0054
  0
VERTEX
  8
LAYER_1
 10
186.3728
 20
189.4447
  0
SEQEND
  0
POLYLINE
  8
LAYER_1
 40
0.1693
 41
0.1693
 66
1
 10
0
 20
0
 30
0
  0
VERTEX
  8
LAYER_1
 10
186.7538
 20
188.0054
  0
VERTEX
  8
LAYER_1
 10
187.156
 20
189.4447
  0
SEQEND
  0
POLYLINE
  8
LAYER_1
 40
0.0847
 41
0.0847
 66
1
 10
0
 20
0
 30
0
  0
VERTEX
  8
LAYER_1
 10
180.4462
 20
179.0095
  0
VERTEX
  8
LAYER_1
 10
186.7538
 20
179.0095
  0
SEQEND
  0
POLYLINE
  8
LAYER_1
 40
0.0847
 41
0.0847
 66
1
 10
0
 20
0
 30
0
  0
VERTEX
  8
LAYER_1
 10
180.4462
 20
188.0054
  0
VERTEX
  8
LAYER_1
 10
186.7538
 20
188.0054
  0
SEQEND
  0
TEXT
  8
LAYER_1
 10
186.0273
 20
181.8675
 11
186.0273
 21
181.8675
 40
3.6606
 41
0.5
 50
89.99999999
  1
45
  0
POLYLINE
  8
LAYER_1
 40
0.1693
 41
0.1693
 66
1
 10
0
 20
0
 30
0
  0
VERTEX
  8
LAYER_1
 10
95.9912
 20
188.0477
  0
VERTEX
  8
LAYER_1
 10
95.9912
 20
189.0002
  0
SEQEND
  0
POLYLINE
  8
LAYER_1
 40
0.1693
 41
0.1693
 66
1
 10
0
 20
0
 30
0
  0
VERTEX
  8
LAYER_1
 10
96.0335
 20
188.0054
  0
VERTEX
  8
LAYER_1
 10
95.9912
 20
188.0477
  0
SEQEND
  0
POLYLINE
  8
LAYER_1
 40
0.1693
 41
0.1693
 66
1
 10
0
 20
0
 30
0
  0
VERTEX
  8
LAYER_1
 10
95.9912
 20
189.0002
  0
VERTEX
  8
LAYER_1
 10
98.7852
 20
189.995
  0
SEQEND
  0
POLYLINE
  8
LAYER_1
 40
0.1693
 41
0.1693
 66
1
 10
0
 20
0
 30
0
  0
VERTEX
  8
LAYER_1
 10
97.9809
 20
188.0054
  0
VERTEX
  8
LAYER_1
 10
97.9809
 20
188.3017
  0
SEQEND
  0
POLYLINE
  8
LAYER_1
 40
0.1693
 41
0.1693
 66
1
 10
0
 20
0
 30
0
  0
VERTEX
  8
LAYER_1
 10
97.4517
 20
188.3017
  0
VERTEX
  8
LAYER_1
 10
97.9809
 20
188.3017
  0
SEQEND
  0
POLYLINE
  8
LAYER_1
 40
0.1693
 41
0.1693
 66
1
 10
0
 20
0
 30
0
  0
VERTEX
  8
LAYER_1
 10
96.0335
 20
188.0054
  0
VERTEX
  8
LAYER_1
 10
97.4517
 20
188.0054
  0
SEQEND
  0
POLYLINE
  8
LAYER_1
 40
0.1693
 41
0.1693
 66
1
 10
0
 20
0
 30
0
  0
VERTEX
  8
LAYER_1
 10
99.9705
 20
189.6564
  0
VERTEX
  8
LAYER_1
 10
99.9705
 20
189.995
  0
SEQEND
  0
POLYLINE
  8
LAYER_1
 40
0.1693
 41
0.1693
 66
1
 10
0
 20
0
 30
0
  0
VERTEX
  8
LAYER_1
 10
99.3144
 20
189.6564
  0
VERTEX
  8
LAYER_1
 10
99.9705
 20
189.6564
  0
SEQEND
  0
POLYLINE
  8
LAYER_1
 40
0.1693
 41
0.1693
 66
1
 10
0
 20
0
 30
0
  0
VERTEX
  8
LAYER_1
 10
100.9865
 20
188.0054
  0
VERTEX
  8
LAYER_1
 10
100.9865
 20
189.995
  0
SEQEND
  0
POLYLINE
  8
LAYER_1
 40
0.1693
 41
0.1693
 66
1
 10
0
 20
0
 30
0
  0
VERTEX
  8
LAYER_1
 10
99.3144
 20
189.6564
  0
VERTEX
  8
LAYER_1
 10
99.3144
 20
189.995
  0
SEQEND
  0
POLYLINE
  8
LAYER_1
 40
0.1693
 41
0.1693
 66
1
 10
0
 20
0
 30
0
  0
VERTEX
  8
LAYER_1
 10
97.4517
 20
188.0054
  0
VERTEX
  8
LAYER_1
 10
97.4517
 20
188.3017
  0
SEQEND
  0
POLYLINE
  8
LAYER_1
 40
0.1693
 41
0.1693
 66
1
 10
0
 20
0
 30
0
  0
VERTEX
  8
LAYER_1
 10
97.9809
 20
188.0054
  0
VERTEX
  8
LAYER_1
 10
100.9865
 20
188.0054
  0
SEQEND
  0
POLYLINE
  8
LAYER_1
 40
0.1693
 41
0.1693
 66
1
 10
0
 20
0
 30
0
  0
VERTEX
  8
LAYER_1
 10
100.9865
 20
189.995
  0
SEQEND
  0
POLYLINE
  8
LAYER_1
 40
0.1693
 41
0.1693
 66
1
 10
0
 20
0
 30
0
  0
VERTEX
  8
LAYER_1
 10
96.0124
 20
179.0095
  0
VERTEX
  8
LAYER_1
 10
97.4305
 20
179.0095
  0
SEQEND
  0
POLYLINE
  8
LAYER_1
 40
0.1693
 41
0.1693
 66
1
 10
0
 20
0
 30
0
  0
VERTEX
  8
LAYER_1
 10
95.97
 20
178.5015
  0
VERTEX
  8
LAYER_1
 10
95.97
 20
178.9672
  0
SEQEND
  0
POLYLINE
  8
LAYER_1
 40
0.1693
 41
0.1693
 66
1
 10
0
 20
0
 30
0
  0
VERTEX
  8
LAYER_1
 10
95.97
 20
178.5015
  0
VERTEX
  8
LAYER_1
 10
98.764
 20
177.9935
  0
SEQEND
  0
POLYLINE
  8
LAYER_1
 40
0.1693
 41
0.1693
 66
1
 10
0
 20
0
 30
0
  0
VERTEX
  8
LAYER_1
 10
114.9354
 20
178.5015
  0
VERTEX
  8
LAYER_1
 10
114.9354
 20
178.9672
  0
SEQEND
  0
POLYLINE
  8
LAYER_1
 40
0.1693
 41
0.1693
 66
1
 10
0
 20
0
 30
0
  0
VERTEX
  8
LAYER_1
 10
114.9354
 20
178.5015
  0
VERTEX
  8
LAYER_1
 10
112.1414
 20
177.9935
  0
SEQEND
  0
POLYLINE
  8
LAYER_1
 40
0.1693
 41
0.1693
 66
1
 10
0
 20
0
 30
0
  0
VERTEX
  8
LAYER_1
 10
109.94
 20
179.0095
  0
SEQEND
  0
POLYLINE
  8
LAYER_1
 40
0.1693
 41
0.1693
 66
1
 10
0
 20
0
 30
0
  0
VERTEX
  8
LAYER_1
 10
100.9654
 20
179.0095
  0
SEQEND
  0
POLYLINE
  8
LAYER_1
 40
0.1693
 41
0.1693
 66
1
 10
0
 20
0
 30
0
  0
VERTEX
  8
LAYER_1
 10
114.893
 20
179.0095
  0
VERTEX
  8
LAYER_1
 10
114.9354
 20
178.9672
  0
SEQEND
  0
POLYLINE
  8
LAYER_1
 40
0.1693
 41
0.1693
 66
1
 10
0
 20
0
 30
0
  0
VERTEX
  8
LAYER_1
 10
95.97
 20
178.9672
  0
VERTEX
  8
LAYER_1
 10
96.0124
 20
179.0095
  0
SEQEND
  0
POLYLINE
  8
LAYER_1
 40
0.1693
 41
0.1693
 66
1
 10
0
 20
0
 30
0
  0
VERTEX
  8
LAYER_1
 10
99.9494
 20
177.9935
  0
VERTEX
  8
LAYER_1
 10
99.9494
 20
178.3322
  0
SEQEND
  0
POLYLINE
  8
LAYER_1
 40
0.1693
 41
0.1693
 66
1
 10
0
 20
0
 30
0
  0
VERTEX
  8
LAYER_1
 10
97.4305
 20
178.692
  0
VERTEX
  8
LAYER_1
 10
97.9597
 20
178.692
  0
SEQEND
  0
POLYLINE
  8
LAYER_1
 40
0.1693
 41
0.1693
 66
1
 10
0
 20
0
 30
0
  0
VERTEX
  8
LAYER_1
 10
113.4749
 20
178.692
  0
VERTEX
  8
LAYER_1
 10
113.4749
 20
179.0095
  0
SEQEND
  0
POLYLINE
  8
LAYER_1
 40
0.1693
 41
0.1693
 66
1
 10
0
 20
0
 30
0
  0
VERTEX
  8
LAYER_1
 10
112.9457
 20
178.692
  0
VERTEX
  8
LAYER_1
 10
113.4749
 20
178.692
  0
SEQEND
  0
POLYLINE
  8
LAYER_1
 40
0.1693
 41
0.1693
 66
1
 10
0
 20
0
 30
0
  0
VERTEX
  8
LAYER_1
 10
98.764
 20
177.9935
  0
VERTEX
  8
LAYER_1
 10
99.3144
 20
177.9935
  0
SEQEND
  0
POLYLINE
  8
LAYER_1
 40
0.1693
 41
0.1693
 66
1
 10
0
 20
0
 30
0
  0
VERTEX
  8
LAYER_1
 10
97.9597
 20
179.0095
  0
VERTEX
  8
LAYER_1
 10
100.9653
 20
179.0095
  0
SEQEND
  0
POLYLINE
  8
LAYER_1
 40
0.1693
 41
0.1693
 66
1
 10
0
 20
0
 30
0
  0
VERTEX
  8
LAYER_1
 10
99.3144
 20
178.3322
  0
VERTEX
  8
LAYER_1
 10
99.9493
 20
178.3322
  0
SEQEND
  0
POLYLINE
  8
LAYER_1
 40
0.1693
 41
0.1693
 66
1
 10
0
 20
0
 30
0
  0
VERTEX
  8
LAYER_1
 10
111.6122
 20
177.9935
  0
VERTEX
  8
LAYER_1
 10
111.6122
 20
178.3322
  0
SEQEND
  0
POLYLINE
  8
LAYER_1
 40
0.1693
 41
0.1693
 66
1
 10
0
 20
0
 30
0
  0
VERTEX
  8
LAYER_1
 10
110.956
 20
178.3322
  0
VERTEX
  8
LAYER_1
 10
111.6122
 20
178.3322
  0
SEQEND
  0
POLYLINE
  8
LAYER_1
 40
0.1693
 41
0.1693
 66
1
 10
0
 20
0
 30
0
  0
VERTEX
  8
LAYER_1
 10
97.9597
 20
178.692
  0
VERTEX
  8
LAYER_1
 10
97.9597
 20
179.0095
  0
SEQEND
  0
POLYLINE
  8
LAYER_1
 40
0.1693
 41
0.1693
 66
1
 10
0
 20
0
 30
0
  0
VERTEX
  8
LAYER_1
 10
97.4305
 20
178.692
  0
VERTEX
  8
LAYER_1
 10
97.4305
 20
179.0095
  0
SEQEND
  0
POLYLINE
  8
LAYER_1
 40
0.1693
 41
0.1693
 66
1
 10
0
 20
0
 30
0
  0
VERTEX
  8
LAYER_1
 10
99.3144
 20
177.9935
  0
VERTEX
  8
LAYER_1
 10
99.3144
 20
178.3322
  0
SEQEND
  0
POLYLINE
  8
LAYER_1
 40
0.1693
 41
0.1693
 66
1
 10
0
 20
0
 30
0
  0
VERTEX
  8
LAYER_1
 10
100.9653
 20
177.9935
  0
VERTEX
  8
LAYER_1
 10
100.9653
 20
179.0095
  0
SEQEND
  0
POLYLINE
  8
LAYER_1
 40
0.1693
 41
0.1693
 66
1
 10
0
 20
0
 30
0
  0
VERTEX
  8
LAYER_1
 10
112.9457
 20
178.692
  0
VERTEX
  8
LAYER_1
 10
112.9457
 20
179.0095
  0
SEQEND
  0
POLYLINE
  8
LAYER_1
 40
0.1693
 41
0.1693
 66
1
 10
0
 20
0
 30
0
  0
VERTEX
  8
LAYER_1
 10
113.4748
 20
179.0095
  0
VERTEX
  8
LAYER_1
 10
114.893
 20
179.0095
  0
SEQEND
  0
POLYLINE
  8
LAYER_1
 40
0.1693
 41
0.1693
 66
1
 10
0
 20
0
 30
0
  0
VERTEX
  8
LAYER_1
 10
111.6122
 20
177.9935
  0
VERTEX
  8
LAYER_1
 10
112.1413
 20
177.9935
  0
SEQEND
  0
POLYLINE
  8
LAYER_1
 40
0.1693
 41
0.1693
 66
1
 10
0
 20
0
 30
0
  0
VERTEX
  8
LAYER_1
 10
110.956
 20
177.9935
  0
VERTEX
  8
LAYER_1
 10
110.956
 20
178.3322
  0
SEQEND
  0
POLYLINE
  8
LAYER_1
 40
0.1693
 41
0.1693
 66
1
 10
0
 20
0
 30
0
  0
VERTEX
  8
LAYER_1
 10
109.94
 20
177.9935
  0
VERTEX
  8
LAYER_1
 10
109.94
 20
179.0095
  0
SEQEND
  0
POLYLINE
  8
LAYER_1
 40
0.1693
 41
0.1693
 66
1
 10
0
 20
0
 30
0
  0
VERTEX
  8
LAYER_1
 10
114.9565
 20
188.0477
  0
VERTEX
  8
LAYER_1
 10
114.9565
 20
189.0002
  0
SEQEND
  0
POLYLINE
  8
LAYER_1
 40
0.1693
 41
0.1693
 66
1
 10
0
 20
0
 30
0
  0
VERTEX
  8
LAYER_1
 10
114.9142
 20
188.0054
  0
VERTEX
  8
LAYER_1
 10
114.9565
 20
188.0477
  0
SEQEND
  0
POLYLINE
  8
LAYER_1
 40
0.1693
 41
0.1693
 66
1
 10
0
 20
0
 30
0
  0
VERTEX
  8
LAYER_1
 10
114.9565
 20
189.0002
  0
VERTEX
  8
LAYER_1
 10
112.1625
 20
189.995
  0
SEQEND
  0
POLYLINE
  8
LAYER_1
 40
0.1693
 41
0.1693
 66
1
 10
0
 20
0
 30
0
  0
VERTEX
  8
LAYER_1
 10
112.9668
 20
188.0054
  0
VERTEX
  8
LAYER_1
 10
112.9668
 20
188.3017
  0
VERTEX
  8
LAYER_1
 10
113.496
 20
188.3017
  0
SEQEND
  0
POLYLINE
  8
LAYER_1
 40
0.1693
 41
0.1693
 66
1
 10
0
 20
0
 30
0
  0
VERTEX
  8
LAYER_1
 10
113.496
 20
188.0054
  0
VERTEX
  8
LAYER_1
 10
114.9142
 20
188.0054
  0
SEQEND
  0
POLYLINE
  8
LAYER_1
 40
0.1693
 41
0.1693
 66
1
 10
0
 20
0
 30
0
  0
VERTEX
  8
LAYER_1
 10
110.9772
 20
189.6564
  0
VERTEX
  8
LAYER_1
 10
110.9772
 20
189.995
  0
SEQEND
  0
POLYLINE
  8
LAYER_1
 40
0.1693
 41
0.1693
 66
1
 10
0
 20
0
 30
0
  0
VERTEX
  8
LAYER_1
 10
110.9772
 20
189.6564
  0
VERTEX
  8
LAYER_1
 10
111.6333
 20
189.6564
  0
SEQEND
  0
POLYLINE
  8
LAYER_1
 40
0.1693
 41
0.1693
 66
1
 10
0
 20
0
 30
0
  0
VERTEX
  8
LAYER_1
 10
109.9612
 20
188.0054
  0
VERTEX
  8
LAYER_1
 10
109.9612
 20
189.995
  0
SEQEND
  0
POLYLINE
  8
LAYER_1
 40
0.1693
 41
0.1693
 66
1
 10
0
 20
0
 30
0
  0
VERTEX
  8
LAYER_1
 10
111.6333
 20
189.6564
  0
VERTEX
  8
LAYER_1
 10
111.6333
 20
189.995
  0
SEQEND
  0
POLYLINE
  8
LAYER_1
 40
0.1693
 41
0.1693
 66
1
 10
0
 20
0
 30
0
  0
VERTEX
  8
LAYER_1
 10
113.496
 20
188.0054
  0
VERTEX
  8
LAYER_1
 10
113.496
 20
188.3017
  0
SEQEND
  0
POLYLINE
  8
LAYER_1
 40
0.1693
 41
0.1693
 66
1
 10
0
 20
0
 30
0
  0
VERTEX
  8
LAYER_1
 10
109.9612
 20
188.0054
  0
VERTEX
  8
LAYER_1
 10
112.9668
 20
188.0054
  0
SEQEND
  0
POLYLINE
  8
LAYER_1
 40
0.1693
 41
0.1693
 66
1
 10
0
 20
0
 30
0
  0
VERTEX
  8
LAYER_1
 10
109.9612
 20
189.995
  0
SEQEND
  0
POLYLINE
  8
LAYER_1
 40
0.0847
 41
0.0847
 66
1
 10
0
 20
0
 30
0
  0
VERTEX
  8
LAYER_1
 10
100.8807
 20
188.0054
  0
VERTEX
  8
LAYER_1
 10
100.9865
 20
188.09
  0
SEQEND
  0
POLYLINE
  8
LAYER_1
 40
0.0847
 41
0.0847
 66
1
 10
0
 20
0
 30
0
  0
VERTEX
  8
LAYER_1
 10
100.6055
 20
188.0054
  0
VERTEX
  8
LAYER_1
 10
100.9865
 20
188.3864
  0
SEQEND
  0
POLYLINE
  8
LAYER_1
 40
0.0847
 41
0.0847
 66
1
 10
0
 20
0
 30
0
  0
VERTEX
  8
LAYER_1
 10
100.3303
 20
188.0054
  0
VERTEX
  8
LAYER_1
 10
100.9865
 20
188.6615
  0
SEQEND
  0
POLYLINE
  8
LAYER_1
 40
0.0847
 41
0.0847
 66
1
 10
0
 20
0
 30
0
  0
VERTEX
  8
LAYER_1
 10
100.034
 20
188.0054
  0
VERTEX
  8
LAYER_1
 10
100.9865
 20
188.9367
  0
SEQEND
  0
POLYLINE
  8
LAYER_1
 40
0.0847
 41
0.0847
 66
1
 10
0
 20
0
 30
0
  0
VERTEX
  8
LAYER_1
 10
99.7588
 20
188.0054
  0
VERTEX
  8
LAYER_1
 10
100.9865
 20
189.233
  0
SEQEND
  0
POLYLINE
  8
LAYER_1
 40
0.0847
 41
0.0847
 66
1
 10
0
 20
0
 30
0
  0
VERTEX
  8
LAYER_1
 10
99.4837
 20
188.0054
  0
VERTEX
  8
LAYER_1
 10
100.9865
 20
189.5082
  0
SEQEND
  0
POLYLINE
  8
LAYER_1
 40
0.0847
 41
0.0847
 66
1
 10
0
 20
0
 30
0
  0
VERTEX
  8
LAYER_1
 10
99.1873
 20
188.0054
  0
VERTEX
  8
LAYER_1
 10
100.9865
 20
189.8045
  0
SEQEND
  0
POLYLINE
  8
LAYER_1
 40
0.0847
 41
0.0847
 66
1
 10
0
 20
0
 30
0
  0
VERTEX
  8
LAYER_1
 10
98.9122
 20
188.0054
  0
VERTEX
  8
LAYER_1
 10
100.9018
 20
189.995
  0
SEQEND
  0
POLYLINE
  8
LAYER_1
 40
0.0847
 41
0.0847
 66
1
 10
0
 20
0
 30
0
  0
VERTEX
  8
LAYER_1
 10
98.6158
 20
188.0054
  0
VERTEX
  8
LAYER_1
 10
100.6267
 20
189.995
  0
SEQEND
  0
POLYLINE
  8
LAYER_1
 40
0.0847
 41
0.0847
 66
1
 10
0
 20
0
 30
0
  0
VERTEX
  8
LAYER_1
 10
98.3407
 20
188.0054
  0
VERTEX
  8
LAYER_1
 10
100.3515
 20
189.995
  0
SEQEND
  0
POLYLINE
  8
LAYER_1
 40
0.0847
 41
0.0847
 66
1
 10
0
 20
0
 30
0
  0
VERTEX
  8
LAYER_1
 10
98.0655
 20
188.0054
  0
VERTEX
  8
LAYER_1
 10
99.7165
 20
189.6564
  0
SEQEND
  0
POLYLINE
  8
LAYER_1
 40
0.0847
 41
0.0847
 66
1
 10
0
 20
0
 30
0
  0
VERTEX
  8
LAYER_1
 10
99.9705
 20
189.9104
  0
VERTEX
  8
LAYER_1
 10
100.0552
 20
189.995
  0
SEQEND
  0
POLYLINE
  8
LAYER_1
 40
0.0847
 41
0.0847
 66
1
 10
0
 20
0
 30
0
  0
VERTEX
  8
LAYER_1
 10
97.9808
 20
188.217
  0
VERTEX
  8
LAYER_1
 10
99.4413
 20
189.6564
  0
SEQEND
  0
POLYLINE
  8
LAYER_1
 40
0.0847
 41
0.0847
 66
1
 10
0
 20
0
 30
0
  0
VERTEX
  8
LAYER_1
 10
97.7903
 20
188.3017
  0
VERTEX
  8
LAYER_1
 10
99.3143
 20
189.8257
  0
SEQEND
  0
POLYLINE
  8
LAYER_1
 40
0.0847
 41
0.0847
 66
1
 10
0
 20
0
 30
0
  0
VERTEX
  8
LAYER_1
 10
97.2188
 20
188.0054
  0
VERTEX
  8
LAYER_1
 10
97.4517
 20
188.2382
  0
SEQEND
  0
POLYLINE
  8
LAYER_1
 40
0.0847
 41
0.0847
 66
1
 10
0
 20
0
 30
0
  0
VERTEX
  8
LAYER_1
 10
97.5152
 20
188.3017
  0
VERTEX
  8
LAYER_1
 10
99.2085
 20
189.995
  0
SEQEND
  0
POLYLINE
  8
LAYER_1
 40
0.0847
 41
0.0847
 66
1
 10
0
 20
0
 30
0
  0
VERTEX
  8
LAYER_1
 10
96.9225
 20
188.0054
  0
VERTEX
  8
LAYER_1
 10
98.9333
 20
189.995
  0
SEQEND
  0
POLYLINE
  8
LAYER_1
 40
0.0847
 41
0.0847
 66
1
 10
0
 20
0
 30
0
  0
VERTEX
  8
LAYER_1
 10
96.6473
 20
188.0054
  0
VERTEX
  8
LAYER_1
 10
98.5735
 20
189.9315
  0
SEQEND
  0
POLYLINE
  8
LAYER_1
 40
0.0847
 41
0.0847
 66
1
 10
0
 20
0
 30
0
  0
VERTEX
  8
LAYER_1
 10
96.3722
 20
188.0054
  0
VERTEX
  8
LAYER_1
 10
98.129
 20
189.7622
  0
SEQEND
  0
POLYLINE
  8
LAYER_1
 40
0.0847
 41
0.0847
 66
1
 10
0
 20
0
 30
0
  0
VERTEX
  8
LAYER_1
 10
96.0758
 20
188.0054
  0
VERTEX
  8
LAYER_1
 10
97.6845
 20
189.614
  0
SEQEND
  0
POLYLINE
  8
LAYER_1
 40
0.0847
 41
0.0847
 66
1
 10
0
 20
0
 30
0
  0
VERTEX
  8
LAYER_1
 10
95.9912
 20
188.1959
  0
VERTEX
  8
LAYER_1
 10
97.24
 20
189.4447
  0
SEQEND
  0
POLYLINE
  8
LAYER_1
 40
0.0847
 41
0.0847
 66
1
 10
0
 20
0
 30
0
  0
VERTEX
  8
LAYER_1
 10
95.9912
 20
188.471
  0
VERTEX
  8
LAYER_1
 10
96.8167
 20
189.2965
  0
SEQEND
  0
POLYLINE
  8
LAYER_1
 40
0.0847
 41
0.0847
 66
1
 10
0
 20
0
 30
0
  0
VERTEX
  8
LAYER_1
 10
95.9912
 20
188.7462
  0
VERTEX
  8
LAYER_1
 10
96.3722
 20
189.1484
  0
SEQEND
  0
POLYLINE
  8
LAYER_1
 40
0.0847
 41
0.0847
 66
1
 10
0
 20
0
 30
0
  0
VERTEX
  8
LAYER_1
 10
114.7237
 20
188.0054
  0
VERTEX
  8
LAYER_1
 10
114.9565
 20
188.2382
  0
SEQEND
  0
POLYLINE
  8
LAYER_1
 40
0.0847
 41
0.0847
 66
1
 10
0
 20
0
 30
0
  0
VERTEX
  8
LAYER_1
 10
114.4485
 20
188.0054
  0
VERTEX
  8
LAYER_1
 10
114.9565
 20
188.5134
  0
SEQEND
  0
POLYLINE
  8
LAYER_1
 40
0.0847
 41
0.0847
 66
1
 10
0
 20
0
 30
0
  0
VERTEX
  8
LAYER_1
 10
114.1522
 20
188.0054
  0
VERTEX
  8
LAYER_1
 10
114.9565
 20
188.8097
  0
SEQEND
  0
POLYLINE
  8
LAYER_1
 40
0.0847
 41
0.0847
 66
1
 10
0
 20
0
 30
0
  0
VERTEX
  8
LAYER_1
 10
113.877
 20
188.0054
  0
VERTEX
  8
LAYER_1
 10
114.893
 20
189.0214
  0
SEQEND
  0
POLYLINE
  8
LAYER_1
 40
0.0847
 41
0.0847
 66
1
 10
0
 20
0
 30
0
  0
VERTEX
  8
LAYER_1
 10
113.6019
 20
188.0054
  0
VERTEX
  8
LAYER_1
 10
114.6814
 20
189.106
  0
SEQEND
  0
POLYLINE
  8
LAYER_1
 40
0.0847
 41
0.0847
 66
1
 10
0
 20
0
 30
0
  0
VERTEX
  8
LAYER_1
 10
113.496
 20
188.1958
  0
VERTEX
  8
LAYER_1
 10
114.4908
 20
189.1695
  0
SEQEND
  0
POLYLINE
  8
LAYER_1
 40
0.0847
 41
0.0847
 66
1
 10
0
 20
0
 30
0
  0
VERTEX
  8
LAYER_1
 10
113.3267
 20
188.3017
  0
VERTEX
  8
LAYER_1
 10
114.2792
 20
189.2542
  0
SEQEND
  0
POLYLINE
  8
LAYER_1
 40
0.0847
 41
0.0847
 66
1
 10
0
 20
0
 30
0
  0
VERTEX
  8
LAYER_1
 10
112.7552
 20
188.0054
  0
VERTEX
  8
LAYER_1
 10
112.9668
 20
188.217
  0
SEQEND
  0
POLYLINE
  8
LAYER_1
 40
0.0847
 41
0.0847
 66
1
 10
0
 20
0
 30
0
  0
VERTEX
  8
LAYER_1
 10
113.0515
 20
188.3017
  0
VERTEX
  8
LAYER_1
 10
114.0675
 20
189.3177
  0
SEQEND
  0
POLYLINE
  8
LAYER_1
 40
0.0847
 41
0.0847
 66
1
 10
0
 20
0
 30
0
  0
VERTEX
  8
LAYER_1
 10
112.4589
 20
188.0054
  0
VERTEX
  8
LAYER_1
 10
113.8559
 20
189.4024
  0
SEQEND
  0
POLYLINE
  8
LAYER_1
 40
0.0847
 41
0.0847
 66
1
 10
0
 20
0
 30
0
  0
VERTEX
  8
LAYER_1
 10
112.1837
 20
188.0054
  0
VERTEX
  8
LAYER_1
 10
113.6442
 20
189.4659
  0
SEQEND
  0
POLYLINE
  8
LAYER_1
 40
0.0847
 41
0.0847
 66
1
 10
0
 20
0
 30
0
  0
VERTEX
  8
LAYER_1
 10
111.8874
 20
188.0054
  0
VERTEX
  8
LAYER_1
 10
113.4325
 20
189.5505
  0
SEQEND
  0
POLYLINE
  8
LAYER_1
 40
0.0847
 41
0.0847
 66
1
 10
0
 20
0
 30
0
  0
VERTEX
  8
LAYER_1
 10
111.6122
 20
188.0054
  0
VERTEX
  8
LAYER_1
 10
113.242
 20
189.614
  0
SEQEND
  0
POLYLINE
  8
LAYER_1
 40
0.0847
 41
0.0847
 66
1
 10
0
 20
0
 30
0
  0
VERTEX
  8
LAYER_1
 10
111.337
 20
188.0054
  0
VERTEX
  8
LAYER_1
 10
113.0304
 20
189.6987
  0
SEQEND
  0
POLYLINE
  8
LAYER_1
 40
0.0847
 41
0.0847
 66
1
 10
0
 20
0
 30
0
  0
VERTEX
  8
LAYER_1
 10
111.0407
 20
188.0054
  0
VERTEX
  8
LAYER_1
 10
112.8187
 20
189.7622
  0
SEQEND
  0
POLYLINE
  8
LAYER_1
 40
0.0847
 41
0.0847
 66
1
 10
0
 20
0
 30
0
  0
VERTEX
  8
LAYER_1
 10
110.7655
 20
188.0054
  0
VERTEX
  8
LAYER_1
 10
112.607
 20
189.8469
  0
SEQEND
  0
POLYLINE
  8
LAYER_1
 40
0.0847
 41
0.0847
 66
1
 10
0
 20
0
 30
0
  0
VERTEX
  8
LAYER_1
 10
110.4904
 20
188.0054
  0
VERTEX
  8
LAYER_1
 10
112.3954
 20
189.9104
  0
SEQEND
  0
POLYLINE
  8
LAYER_1
 40
0.0847
 41
0.0847
 66
1
 10
0
 20
0
 30
0
  0
VERTEX
  8
LAYER_1
 10
110.194
 20
188.0054
  0
VERTEX
  8
LAYER_1
 10
112.1837
 20
189.995
  0
SEQEND
  0
POLYLINE
  8
LAYER_1
 40
0.0847
 41
0.0847
 66
1
 10
0
 20
0
 30
0
  0
VERTEX
  8
LAYER_1
 10
109.9612
 20
188.0477
  0
VERTEX
  8
LAYER_1
 10
111.5699
 20
189.6564
  0
SEQEND
  0
POLYLINE
  8
LAYER_1
 40
0.0847
 41
0.0847
 66
1
 10
0
 20
0
 30
0
  0
VERTEX
  8
LAYER_1
 10
111.6334
 20
189.6987
  0
VERTEX
  8
LAYER_1
 10
111.9085
 20
189.995
  0
SEQEND
  0
POLYLINE
  8
LAYER_1
 40
0.0847
 41
0.0847
 66
1
 10
0
 20
0
 30
0
  0
VERTEX
  8
LAYER_1
 10
109.9612
 20
188.3228
  0
VERTEX
  8
LAYER_1
 10
111.2947
 20
189.6564
  0
SEQEND
  0
POLYLINE
  8
LAYER_1
 40
0.0847
 41
0.0847
 66
1
 10
0
 20
0
 30
0
  0
VERTEX
  8
LAYER_1
 10
109.9612
 20
188.6192
  0
VERTEX
  8
LAYER_1
 10
111.0195
 20
189.6563
  0
SEQEND
  0
POLYLINE
  8
LAYER_1
 40
0.0847
 41
0.0847
 66
1
 10
0
 20
0
 30
0
  0
VERTEX
  8
LAYER_1
 10
109.9612
 20
188.8943
  0
VERTEX
  8
LAYER_1
 10
110.9772
 20
189.9103
  0
SEQEND
  0
POLYLINE
  8
LAYER_1
 40
0.0847
 41
0.0847
 66
1
 10
0
 20
0
 30
0
  0
VERTEX
  8
LAYER_1
 10
109.9612
 20
189.1695
  0
VERTEX
  8
LAYER_1
 10
110.7867
 20
189.995
  0
SEQEND
  0
POLYLINE
  8
LAYER_1
 40
0.0847
 41
0.0847
 66
1
 10
0
 20
0
 30
0
  0
VERTEX
  8
LAYER_1
 10
109.9612
 20
189.4658
  0
VERTEX
  8
LAYER_1
 10
110.5115
 20
189.995
  0
SEQEND
  0
POLYLINE
  8
LAYER_1
 40
0.0847
 41
0.0847
 66
1
 10
0
 20
0
 30
0
  0
VERTEX
  8
LAYER_1
 10
109.9612
 20
189.741
  0
VERTEX
  8
LAYER_1
 10
110.2152
 20
189.995
  0
SEQEND
  0
POLYLINE
  8
LAYER_1
 40
0.1693
 41
0.1693
 66
1
 10
0
 20
0
 30
0
  0
VERTEX
  8
LAYER_1
 10
99.9493
 20
177.9935
  0
VERTEX
  8
LAYER_1
 10
100.9653
 20
177.9935
  0
SEQEND
  0
POLYLINE
  8
LAYER_1
 40
0.1693
 41
0.1693
 66
1
 10
0
 20
0
 30
0
  0
VERTEX
  8
LAYER_1
 10
109.94
 20
177.9935
  0
VERTEX
  8
LAYER_1
 10
110.956
 20
177.9935
  0
SEQEND
  0
POLYLINE
  8
LAYER_1
 40
0.0847
 41
0.0847
 66
1
 10
0
 20
0
 30
0
  0
VERTEX
  8
LAYER_1
 10
114.8295
 20
178.4804
  0
VERTEX
  8
LAYER_1
 10
114.9353
 20
178.6074
  0
SEQEND
  0
POLYLINE
  8
LAYER_1
 40
0.0847
 41
0.0847
 66
1
 10
0
 20
0
 30
0
  0
VERTEX
  8
LAYER_1
 10
114.4697
 20
178.4169
  0
VERTEX
  8
LAYER_1
 10
114.9353
 20
178.8825
  0
SEQEND
  0
POLYLINE
  8
LAYER_1
 40
0.0847
 41
0.0847
 66
1
 10
0
 20
0
 30
0
  0
VERTEX
  8
LAYER_1
 10
114.131
 20
178.3534
  0
VERTEX
  8
LAYER_1
 10
114.766
 20
179.0095
  0
SEQEND
  0
POLYLINE
  8
LAYER_1
 40
0.0847
 41
0.0847
 66
1
 10
0
 20
0
 30
0
  0
VERTEX
  8
LAYER_1
 10
113.7924
 20
178.2899
  0
VERTEX
  8
LAYER_1
 10
114.4908
 20
179.0095
  0
SEQEND
  0
POLYLINE
  8
LAYER_1
 40
0.0847
 41
0.0847
 66
1
 10
0
 20
0
 30
0
  0
VERTEX
  8
LAYER_1
 10
113.4325
 20
178.2264
  0
VERTEX
  8
LAYER_1
 10
114.2157
 20
179.0095
  0
SEQEND
  0
POLYLINE
  8
LAYER_1
 40
0.0847
 41
0.0847
 66
1
 10
0
 20
0
 30
0
  0
VERTEX
  8
LAYER_1
 10
113.0939
 20
178.1629
  0
VERTEX
  8
LAYER_1
 10
113.9194
 20
179.0095
  0
SEQEND
  0
POLYLINE
  8
LAYER_1
 40
0.0847
 41
0.0847
 66
1
 10
0
 20
0
 30
0
  0
VERTEX
  8
LAYER_1
 10
112.7552
 20
178.1205
  0
VERTEX
  8
LAYER_1
 10
113.3479
 20
178.692
  0
SEQEND
  0
POLYLINE
  8
LAYER_1
 40
0.0847
 41
0.0847
 66
1
 10
0
 20
0
 30
0
  0
VERTEX
  8
LAYER_1
 10
113.4749
 20
178.8402
  0
VERTEX
  8
LAYER_1
 10
113.6442
 20
179.0095
  0
SEQEND
  0
POLYLINE
  8
LAYER_1
 40
0.0847
 41
0.0847
 66
1
 10
0
 20
0
 30
0
  0
VERTEX
  8
LAYER_1
 10
112.4165
 20
178.057
  0
VERTEX
  8
LAYER_1
 10
113.0727
 20
178.692
  0
SEQEND
  0
POLYLINE
  8
LAYER_1
 40
0.0847
 41
0.0847
 66
1
 10
0
 20
0
 30
0
  0
VERTEX
  8
LAYER_1
 10
112.0779
 20
177.9935
  0
VERTEX
  8
LAYER_1
 10
112.9457
 20
178.8614
  0
SEQEND
  0
POLYLINE
  8
LAYER_1
 40
0.0847
 41
0.0847
 66
1
 10
0
 20
0
 30
0
  0
VERTEX
  8
LAYER_1
 10
111.8027
 20
177.9935
  0
VERTEX
  8
LAYER_1
 10
112.7975
 20
179.0095
  0
SEQEND
  0
POLYLINE
  8
LAYER_1
 40
0.0847
 41
0.0847
 66
1
 10
0
 20
0
 30
0
  0
VERTEX
  8
LAYER_1
 10
111.6122
 20
178.0994
  0
VERTEX
  8
LAYER_1
 10
112.5224
 20
179.0095
  0
SEQEND
  0
POLYLINE
  8
LAYER_1
 40
0.0847
 41
0.0847
 66
1
 10
0
 20
0
 30
0
  0
VERTEX
  8
LAYER_1
 10
111.5699
 20
178.3322
  0
VERTEX
  8
LAYER_1
 10
112.226
 20
179.0095
  0
SEQEND
  0
POLYLINE
  8
LAYER_1
 40
0.0847
 41
0.0847
 66
1
 10
0
 20
0
 30
0
  0
VERTEX
  8
LAYER_1
 10
110.956
 20
177.9935
  0
VERTEX
  8
LAYER_1
 10
110.956
 20
178.0147
  0
SEQEND
  0
POLYLINE
  8
LAYER_1
 40
0.0847
 41
0.0847
 66
1
 10
0
 20
0
 30
0
  0
VERTEX
  8
LAYER_1
 10
111.2947
 20
178.3322
  0
VERTEX
  8
LAYER_1
 10
111.9509
 20
179.0095
  0
SEQEND
  0
POLYLINE
  8
LAYER_1
 40
0.0847
 41
0.0847
 66
1
 10
0
 20
0
 30
0
  0
VERTEX
  8
LAYER_1
 10
110.6597
 20
177.9935
  0
VERTEX
  8
LAYER_1
 10
110.956
 20
178.2899
  0
SEQEND
  0
POLYLINE
  8
LAYER_1
 40
0.0847
 41
0.0847
 66
1
 10
0
 20
0
 30
0
  0
VERTEX
  8
LAYER_1
 10
110.9984
 20
178.3322
  0
VERTEX
  8
LAYER_1
 10
111.6757
 20
179.0095
  0
SEQEND
  0
POLYLINE
  8
LAYER_1
 40
0.0847
 41
0.0847
 66
1
 10
0
 20
0
 30
0
  0
VERTEX
  8
LAYER_1
 10
110.3845
 20
177.9935
  0
VERTEX
  8
LAYER_1
 10
111.3794
 20
179.0095
  0
SEQEND
  0
POLYLINE
  8
LAYER_1
 40
0.0847
 41
0.0847
 66
1
 10
0
 20
0
 30
0
  0
VERTEX
  8
LAYER_1
 10
110.1094
 20
177.9935
  0
VERTEX
  8
LAYER_1
 10
111.1042
 20
179.0095
  0
SEQEND
  0
POLYLINE
  8
LAYER_1
 40
0.0847
 41
0.0847
 66
1
 10
0
 20
0
 30
0
  0
VERTEX
  8
LAYER_1
 10
100.796
 20
177.9935
  0
VERTEX
  8
LAYER_1
 10
100.9654
 20
178.184
  0
SEQEND
  0
POLYLINE
  8
LAYER_1
 40
0.0847
 41
0.0847
 66
1
 10
0
 20
0
 30
0
  0
VERTEX
  8
LAYER_1
 10
100.4997
 20
177.9935
  0
VERTEX
  8
LAYER_1
 10
100.9654
 20
178.4592
  0
SEQEND
  0
POLYLINE
  8
LAYER_1
 40
0.0847
 41
0.0847
 66
1
 10
0
 20
0
 30
0
  0
VERTEX
  8
LAYER_1
 10
100.2245
 20
177.9935
  0
VERTEX
  8
LAYER_1
 10
100.9654
 20
178.7344
  0
SEQEND
  0
POLYLINE
  8
LAYER_1
 40
0.0847
 41
0.0847
 66
1
 10
0
 20
0
 30
0
  0
VERTEX
  8
LAYER_1
 10
99.9494
 20
178.0147
  0
VERTEX
  8
LAYER_1
 10
100.9442
 20
179.0095
  0
SEQEND
  0
POLYLINE
  8
LAYER_1
 40
0.0847
 41
0.0847
 66
1
 10
0
 20
0
 30
0
  0
VERTEX
  8
LAYER_1
 10
99.9494
 20
178.2899
  0
VERTEX
  8
LAYER_1
 10
100.6479
 20
179.0095
  0
SEQEND
  0
POLYLINE
  8
LAYER_1
 40
0.0847
 41
0.0847
 66
1
 10
0
 20
0
 30
0
  0
VERTEX
  8
LAYER_1
 10
99.7165
 20
178.3322
  0
VERTEX
  8
LAYER_1
 10
100.3727
 20
179.0095
  0
SEQEND
  0
POLYLINE
  8
LAYER_1
 40
0.0847
 41
0.0847
 66
1
 10
0
 20
0
 30
0
  0
VERTEX
  8
LAYER_1
 10
99.0815
 20
177.9935
  0
VERTEX
  8
LAYER_1
 10
99.3144
 20
178.2052
  0
SEQEND
  0
POLYLINE
  8
LAYER_1
 40
0.0847
 41
0.0847
 66
1
 10
0
 20
0
 30
0
  0
VERTEX
  8
LAYER_1
 10
99.4202
 20
178.3322
  0
VERTEX
  8
LAYER_1
 10
100.0975
 20
179.0095
  0
SEQEND
  0
POLYLINE
  8
LAYER_1
 40
0.0847
 41
0.0847
 66
1
 10
0
 20
0
 30
0
  0
VERTEX
  8
LAYER_1
 10
98.8064
 20
177.9935
  0
VERTEX
  8
LAYER_1
 10
99.8012
 20
179.0095
  0
SEQEND
  0
POLYLINE
  8
LAYER_1
 40
0.0847
 41
0.0847
 66
1
 10
0
 20
0
 30
0
  0
VERTEX
  8
LAYER_1
 10
98.5524
 20
178.0359
  0
VERTEX
  8
LAYER_1
 10
99.526
 20
179.0095
  0
SEQEND
  0
POLYLINE
  8
LAYER_1
 40
0.0847
 41
0.0847
 66
1
 10
0
 20
0
 30
0
  0
VERTEX
  8
LAYER_1
 10
98.3195
 20
178.0782
  0
VERTEX
  8
LAYER_1
 10
99.2509
 20
179.0095
  0
SEQEND
  0
POLYLINE
  8
LAYER_1
 40
0.0847
 41
0.0847
 66
1
 10
0
 20
0
 30
0
  0
VERTEX
  8
LAYER_1
 10
98.0867
 20
178.1205
  0
VERTEX
  8
LAYER_1
 10
98.9545
 20
179.0095
  0
SEQEND
  0
POLYLINE
  8
LAYER_1
 40
0.0847
 41
0.0847
 66
1
 10
0
 20
0
 30
0
  0
VERTEX
  8
LAYER_1
 10
97.8327
 20
178.1629
  0
VERTEX
  8
LAYER_1
 10
98.6794
 20
179.0095
  0
SEQEND
  0
POLYLINE
  8
LAYER_1
 40
0.0847
 41
0.0847
 66
1
 10
0
 20
0
 30
0
  0
VERTEX
  8
LAYER_1
 10
97.5999
 20
178.2052
  0
VERTEX
  8
LAYER_1
 10
98.383
 20
179.0095
  0
SEQEND
  0
POLYLINE
  8
LAYER_1
 40
0.0847
 41
0.0847
 66
1
 10
0
 20
0
 30
0
  0
VERTEX
  8
LAYER_1
 10
97.367
 20
178.2475
  0
VERTEX
  8
LAYER_1
 10
97.8115
 20
178.692
  0
SEQEND
  0
POLYLINE
  8
LAYER_1
 40
0.0847
 41
0.0847
 66
1
 10
0
 20
0
 30
0
  0
VERTEX
  8
LAYER_1
 10
97.9597
 20
178.8614
  0
VERTEX
  8
LAYER_1
 10
98.1079
 20
179.0095
  0
SEQEND
  0
POLYLINE
  8
LAYER_1
 40
0.0847
 41
0.0847
 66
1
 10
0
 20
0
 30
0
  0
VERTEX
  8
LAYER_1
 10
97.113
 20
178.2899
  0
VERTEX
  8
LAYER_1
 10
97.5364
 20
178.692
  0
SEQEND
  0
POLYLINE
  8
LAYER_1
 40
0.0847
 41
0.0847
 66
1
 10
0
 20
0
 30
0
  0
VERTEX
  8
LAYER_1
 10
96.8802
 20
178.3322
  0
VERTEX
  8
LAYER_1
 10
97.4305
 20
178.8825
  0
SEQEND
  0
POLYLINE
  8
LAYER_1
 40
0.0847
 41
0.0847
 66
1
 10
0
 20
0
 30
0
  0
VERTEX
  8
LAYER_1
 10
96.6474
 20
178.3745
  0
VERTEX
  8
LAYER_1
 10
97.2612
 20
179.0095
  0
SEQEND
  0
POLYLINE
  8
LAYER_1
 40
0.0847
 41
0.0847
 66
1
 10
0
 20
0
 30
0
  0
VERTEX
  8
LAYER_1
 10
96.3934
 20
178.4169
  0
VERTEX
  8
LAYER_1
 10
96.986
 20
179.0095
  0
SEQEND
  0
POLYLINE
  8
LAYER_1
 40
0.0847
 41
0.0847
 66
1
 10
0
 20
0
 30
0
  0
VERTEX
  8
LAYER_1
 10
96.1605
 20
178.4592
  0
VERTEX
  8
LAYER_1
 10
96.6897
 20
179.0095
  0
SEQEND
  0
POLYLINE
  8
LAYER_1
 40
0.0847
 41
0.0847
 66
1
 10
0
 20
0
 30
0
  0
VERTEX
  8
LAYER_1
 10
95.97
 20
178.5439
  0
VERTEX
  8
LAYER_1
 10
96.4145
 20
179.0095
  0
SEQEND
  0
POLYLINE
  8
LAYER_1
 40
0.0847
 41
0.0847
 66
1
 10
0
 20
0
 30
0
  0
VERTEX
  8
LAYER_1
 10
95.97
 20
178.8402
  0
VERTEX
  8
LAYER_1
 10
96.1394
 20
179.0095
  0
SEQEND
  0
POLYLINE
  8
LAYER_1
 40
0.0847
 41
0.0847
 66
1
 10
0
 20
0
 30
0
  0
VERTEX
  8
LAYER_1
 10
109.94
 20
178.1205
  0
VERTEX
  8
LAYER_1
 10
110.8079
 20
179.0095
  0
SEQEND
  0
POLYLINE
  8
LAYER_1
 40
0.0847
 41
0.0847
 66
1
 10
0
 20
0
 30
0
  0
VERTEX
  8
LAYER_1
 10
109.94
 20
178.692
  0
VERTEX
  8
LAYER_1
 10
110.2575
 20
179.0095
  0
SEQEND
  0
POLYLINE
  8
LAYER_1
 40
0.0847
 41
0.0847
 66
1
 10
0
 20
0
 30
0
  0
VERTEX
  8
LAYER_1
 10
109.94
 20
178.4169
  0
VERTEX
  8
LAYER_1
 10
110.5327
 20
179.0095
  0
SEQEND
  0
POLYLINE
  8
LAYER_1
 40
0.1693
 41
0.1693
 66
1
 10
0
 20
0
 30
0
  0
VERTEX
  8
LAYER_1
 10
109.94
 20
179.0095
  0
VERTEX
  8
LAYER_1
 10
112.9457
 20
179.0095
  0
SEQEND
  0
POLYLINE
  8
LAYER_1
 40
0.0847
 41
0.0847
 66
1
 10
0
 20
0
 30
0
  0
VERTEX
  8
LAYER_1
 10
109.94
 20
178.9672
  0
VERTEX
  8
LAYER_1
 10
109.9612
 20
179.0095
  0
SEQEND
  0
POLYLINE
  8
LAYER_1
 40
0.0847
 41
0.0847
 66
1
 10
0
 20
0
 30
0
  0
VERTEX
  8
LAYER_1
 10
114.4273
 20
178.7344
  0
VERTEX
  8
LAYER_1
 10
149.6275
 20
190.0585
  0
SEQEND
  0
POLYLINE
  8
LAYER_1
 40
0.0847
 41
0.0847
 66
1
 10
0
 20
0
 30
0
  0
VERTEX
  8
LAYER_1
 10
111.464
 20
189.8257
  0
VERTEX
  8
LAYER_1
 10
150.4107
 20
165.5052
  0
SEQEND
  0
POLYLINE
  8
LAYER_1
 40
0.1693
 41
0.1693
 66
1
 10
0
 20
0
 30
0
  0
VERTEX
  8
LAYER_1
 10
99.3778
 20
192.5774
  0
VERTEX
  8
LAYER_1
 10
111.5698
 20
192.5774
  0
SEQEND
  0
POLYLINE
  8
LAYER_1
 40
0.1693
 41
0.1693
 66
1
 10
0
 20
0
 30
0
  0
VERTEX
  8
LAYER_1
 10
99.3778
 20
192.5774
  0
VERTEX
  8
LAYER_1
 10
99.3778
 20
192.7679
  0
VERTEX
  8
LAYER_1
 10
111.5698
 20
192.7679
  0
SEQEND
  0
POLYLINE
  8
LAYER_1
 40
0.1693
 41
0.1693
 66
1
 10
0
 20
0
 30
0
  0
VERTEX
  8
LAYER_1
 10
111.5698
 20
192.5774
  0
VERTEX
  8
LAYER_1
 10
111.5698
 20
192.7679
  0
SEQEND
  0
POLYLINE
  8
LAYER_1
 40
0.0847
 41
0.0847
 66
1
 10
0
 20
0
 30
0
  0
VERTEX
  8
LAYER_1
 10
99.5895
 20
192.7679
  0
VERTEX
  8
LAYER_1
 10
99.8012
 20
192.5774
  0
SEQEND
  0
POLYLINE
  8
LAYER_1
 40
0.0847
 41
0.0847
 66
1
 10
0
 20
0
 30
0
  0
VERTEX
  8
LAYER_1
 10
111.4428
 20
192.7679
  0
VERTEX
  8
LAYER_1
 10
111.5698
 20
192.662
  0
SEQEND
  0
POLYLINE
  8
LAYER_1
 40
0.0847
 41
0.0847
 66
1
 10
0
 20
0
 30
0
  0
VERTEX
  8
LAYER_1
 10
100.4362
 20
192.7679
  0
VERTEX
  8
LAYER_1
 10
100.6478
 20
192.5774
  0
SEQEND
  0
POLYLINE
  8
LAYER_1
 40
0.0847
 41
0.0847
 66
1
 10
0
 20
0
 30
0
  0
VERTEX
  8
LAYER_1
 10
101.2828
 20
192.7679
  0
VERTEX
  8
LAYER_1
 10
101.4945
 20
192.5774
  0
SEQEND
  0
POLYLINE
  8
LAYER_1
 40
0.0847
 41
0.0847
 66
1
 10
0
 20
0
 30
0
  0
VERTEX
  8
LAYER_1
 10
102.1295
 20
192.7679
  0
VERTEX
  8
LAYER_1
 10
102.3412
 20
192.5774
  0
SEQEND
  0
POLYLINE
  8
LAYER_1
 40
0.0847
 41
0.0847
 66
1
 10
0
 20
0
 30
0
  0
VERTEX
  8
LAYER_1
 10
102.9973
 20
192.7679
  0
VERTEX
  8
LAYER_1
 10
103.1878
 20
192.5774
  0
SEQEND
  0
POLYLINE
  8
LAYER_1
 40
0.0847
 41
0.0847
 66
1
 10
0
 20
0
 30
0
  0
VERTEX
  8
LAYER_1
 10
103.844
 20
192.7679
  0
VERTEX
  8
LAYER_1
 10
104.0345
 20
192.5774
  0
SEQEND
  0
POLYLINE
  8
LAYER_1
 40
0.0847
 41
0.0847
 66
1
 10
0
 20
0
 30
0
  0
VERTEX
  8
LAYER_1
 10
104.6907
 20
192.7679
  0
VERTEX
  8
LAYER_1
 10
104.8812
 20
192.5774
  0
SEQEND
  0
POLYLINE
  8
LAYER_1
 40
0.0847
 41
0.0847
 66
1
 10
0
 20
0
 30
0
  0
VERTEX
  8
LAYER_1
 10
105.5162
 20
192.7679
  0
VERTEX
  8
LAYER_1
 10
105.7067
 20
192.5774
  0
SEQEND
  0
POLYLINE
  8
LAYER_1
 40
0.0847
 41
0.0847
 66
1
 10
0
 20
0
 30
0
  0
VERTEX
  8
LAYER_1
 10
106.3628
 20
192.7679
  0
VERTEX
  8
LAYER_1
 10
106.5533
 20
192.5774
  0
SEQEND
  0
POLYLINE
  8
LAYER_1
 40
0.0847
 41
0.0847
 66
1
 10
0
 20
0
 30
0
  0
VERTEX
  8
LAYER_1
 10
107.2095
 20
192.7679
  0
VERTEX
  8
LAYER_1
 10
107.4
 20
192.5774
  0
SEQEND
  0
POLYLINE
  8
LAYER_1
 40
0.0847
 41
0.0847
 66
1
 10
0
 20
0
 30
0
  0
VERTEX
  8
LAYER_1
 10
108.0562
 20
192.7679
  0
VERTEX
  8
LAYER_1
 10
108.2466
 20
192.5774
  0
SEQEND
  0
POLYLINE
  8
LAYER_1
 40
0.0847
 41
0.0847
 66
1
 10
0
 20
0
 30
0
  0
VERTEX
  8
LAYER_1
 10
108.9028
 20
192.7679
  0
VERTEX
  8
LAYER_1
 10
109.1145
 20
192.5774
  0
SEQEND
  0
POLYLINE
  8
LAYER_1
 40
0.0847
 41
0.0847
 66
1
 10
0
 20
0
 30
0
  0
VERTEX
  8
LAYER_1
 10
109.7495
 20
192.7679
  0
VERTEX
  8
LAYER_1
 10
109.9611
 20
192.5774
  0
SEQEND
  0
POLYLINE
  8
LAYER_1
 40
0.0847
 41
0.0847
 66
1
 10
0
 20
0
 30
0
  0
VERTEX
  8
LAYER_1
 10
110.5961
 20
192.7679
  0
VERTEX
  8
LAYER_1
 10
110.8078
 20
192.5774
  0
SEQEND
  0
POLYLINE
  8
LAYER_1
 40
0.1693
 41
0.1693
 66
1
 10
0
 20
0
 30
0
  0
VERTEX
  8
LAYER_1
 10
99.9705
 20
192.5774
  0
VERTEX
  8
LAYER_1
 10
100.9865
 20
192.5774
  0
SEQEND
  0
POLYLINE
  8
LAYER_1
 40
0.1693
 41
0.1693
 66
1
 10
0
 20
0
 30
0
  0
VERTEX
  8
LAYER_1
 10
109.9612
 20
192.5774
  0
VERTEX
  8
LAYER_1
 10
110.9772
 20
192.5774
  0
SEQEND
  0
POLYLINE
  8
LAYER_1
 40
0.1693
 41
0.1693
 66
1
 10
0
 20
0
 30
0
  0
VERTEX
  8
LAYER_1
 10
101.3252
 20
188.0054
  0
VERTEX
  8
LAYER_1
 10
101.3252
 20
192.1752
  0
SEQEND
  0
POLYLINE
  8
LAYER_1
 40
0.1693
 41
0.1693
 66
1
 10
0
 20
0
 30
0
  0
VERTEX
  8
LAYER_1
 10
109.6225
 20
188.0054
  0
VERTEX
  8
LAYER_1
 10
109.6225
 20
192.1752
  0
SEQEND
  0
POLYLINE
  8
LAYER_1
 40
0.1693
 41
0.1693
 66
1
 10
0
 20
0
 30
0
  0
VERTEX
  8
LAYER_1
 10
98.4888
 20
189.995
  0
VERTEX
  8
LAYER_1
 10
98.4888
 20
190.7994
  0
SEQEND
  0
POLYLINE
  8
LAYER_1
 40
0.1693
 41
0.1693
 66
1
 10
0
 20
0
 30
0
  0
VERTEX
  8
LAYER_1
 10
112.4588
 20
189.995
  0
VERTEX
  8
LAYER_1
 10
112.4588
 20
190.7994
  0
SEQEND
  0
POLYLINE
  8
LAYER_1
 40
0.1693
 41
0.1693
 66
1
 10
0
 20
0
 30
0
  0
VERTEX
  8
LAYER_1
 10
98.4888
 20
189.995
  0
VERTEX
  8
LAYER_1
 10
112.4588
 20
189.995
  0
SEQEND
  0
POLYLINE
  8
LAYER_1
 40
0.0847
 41
0.0847
 66
1
 10
0
 20
0
 30
0
  0
VERTEX
  8
LAYER_1
 10
111.2735
 20
192.7044
  0
VERTEX
  8
LAYER_1
 10
150.1778
 20
193.7839
  0
SEQEND
  0
TEXT
  8
LAYER_1
 10
152.6118
 20
156.8692
 11
152.6118
 21
156.8692
 40
3.0419
 41
0.5
  1
örÉàâgâëâbâv%%c32
  0
ENDBLK
  0
BLOCK
  8
LAYER_1
  2
AIGNBL01010003
 70
64
 10
0
 20
0
 30
0
  3
AIGNBL01010003
  0
POLYLINE
  8
LAYER_1
 40
0.1693
 41
0.1693
 66
1
 10
0
 20
0
 30
0
  0
VERTEX
  8
LAYER_1
 10
44.1321
 20
106.3066
  0
VERTEX
  8
LAYER_1
 10
161.1838
 20
106.3066
  0
SEQEND
  0
TEXT
  8
LAYER_1
 10
48.6196
 20
99.8084
 11
48.6196
 21
99.8084
 40
3.1022
 41
0.5
  1
üyâZâbâgôÓùeüz
  0
TEXT
  8
LAYER_1
 10
48.6192
 20
94.7919
 11
48.6192
 21
94.7919
 40
3.6606
 41
0.5
  1
üESUS304 âXâeâôâîâX â}âEâôâeâBâôâOâfâBâXâN 5/10mmâXâyü[âTü[
  0
TEXT
  8
LAYER_1
 10
48.6192
 20
89.7965
 11
48.6192
 21
89.7965
 40
3.6606
 41
0.5
  1
üEäOâèâôâOü~2üiô¹öÆüEìò èe1üj
  0
TEXT
  8
LAYER_1
 10
127.3169
 20
107.7671
 11
127.3169
 21
107.7671
 40
3.6606
 41
0.5
  1
üªôVö┬î·ü@10045å@æ╬ë×
  0
TEXT
  8
LAYER_1
 10
48.4714
 20
69.4978
 11
48.4714
 21
69.4978
 40
3.1022
 41
0.5
  1
üªâ}âEâôâeâBâôâOâfâBâXâNé═üAÉàÉ­é╠ìéé│üEôVö┬é╠î·é¦é╔ë×éÂé─ÅÒë║ô³éÛæÍéªë┬ö\é┼éÀüB
  0
TEXT
  8
LAYER_1
 10
48.4711
 20
84.4837
 11
48.4711
 21
84.4837
 40
3.6606
 41
0.5
  1
üEJORGERÉ╗ örÉàïÓï´ âNâìü[âÇâüâbâLüi100å@üj
  0
TEXT
  8
LAYER_1
 10
48.4711
 20
79.4883
 11
48.4711
 21
79.4883
 40
3.1022
 41
0.5
  1
üEâXâ`âìü[âïâpâbâLâô
  0
TEXT
  8
LAYER_1
 10
48.5558
 20
74.4929
 11
48.5558
 21
74.4929
 40
3.6606
 41
0.5
  1
üEôVö┬î┼ÆÞùp Ä¸ÄëâpâbâLâôòtì└òté½âiâbâgü~2
  0
ENDBLK
  0
BLOCK
  8
LAYER_1
  2
AIGNBL01010004
 70
64
 10
0
 20
0
 30
0
  3
AIGNBL01010004
  0
INSERT
  8
LAYER_1
  2
AIGNBL01020005
 10
0
 20
0
 30
0
  0
INSERT
  8
LAYER_1
  2
AIGNBL0102000E
 10
0
 20
0
 30
0
  0
ENDBLK
  0
ENDSEC
  0
SECTION
  2
ENTITIES
  0
TEXT
  8
LAYER_1
 10
68.1608
 20
237.1057
 11
68.1608
 21
237.1057
 40
5.1558
 41
0.5
  1
DilosüiâfâBâìâXüjÉ¶û╩â{âEâï ÄµéÞòté»É}
  0
TEXT
  8
LAYER_1
 10
35.5141
 20
139.4081
 11
35.5141
 21
139.4081
 40
3.6606
 41
0.5
  1
üªÅÒïLÄµéÞòté»É}é═üASLAVIA CRYSTAL Dilosâ}âEâôâeâBâôâOâfâBâXâNâZâbâgé­ùpéóé¢éÓé╠éãé╚éÞé▄éÀüB
  0
INSERT
  8
LAYER_1
  2
AIGNBL01010002
 10
0
 20
0
 30
0
  0
INSERT
  8
LAYER_1
  2
AIGNBL01010003
 10
0
 20
0
 30
0
  0
TEXT
  8
LAYER_1
 10
186.826
 20
54.0008
 11
186.826
 21
54.0008
 40
3.3848
 41
0.5
  1
ü£TEL 0120-65-1232ü£FAX 06-6532-1580
  0
TEXT
  8
LAYER_1
 10
186.826
 20
50.4861
 11
186.826
 21
50.4861
 40
3.3848
 41
0.5
  1
hits@hiratatile.co.jp
  0
INSERT
  8
LAYER_1
  2
AIGNBL01010004
 10
0
 20
0
 30
0
  0
ENDSEC
  0
EOF
