  0
SECTION
  2
HEADER
  9
$ACADVER
  1
AC1009
  9
$LUNITS
 70
2
  9
$LUPREC
 70
4
  9
$LTSCALE
 40
1.0
  9
$EXTMIN
 10
-33.2277
 20
49.7179
 30
0
  9
$EXTMAX
 10
245.4165
 20
241.0004
 30
0
  0
ENDSEC
  0
SECTION
  2
TABLES
  0
TABLE
  2
LTYPE
 70
256
  0
ENDTAB
  0
TABLE
  2
LAYER
 70
1
  0
LAYER
  2
LAYER_1
 70
64
 62
7
  6
CONTINUOUS
  0
ENDTAB
  0
TABLE
  2
STYLE
 70
6
  0
STYLE
  2
STANDARD
 70
0
 40
0
 50
0
 71
0
 41
0
 42
0
  3
TXT
  4
BIGFONT
  0
ENDTAB
  0
ENDSEC
  0
SECTION
  2
BLOCKS
  0
BLOCK
  8
LAYER_1
  2
AIGNBL01040007
 70
64
 10
0
 20
0
 30
0
  3
AIGNBL01040007
  0
POLYLINE
  8
LAYER_1
 40
0.05
 41
0.05
 66
1
 10
0
 20
0
 30
0
 70
1
  0
VERTEX
  8
LAYER_1
 10
157.5551
 20
53.6067
  0
VERTEX
  8
LAYER_1
 10
157.0662
 20
52.4216
  0
VERTEX
  8
LAYER_1
 10
156.4382
 20
52.4216
  0
VERTEX
  8
LAYER_1
 10
158.0377
 20
56.1874
  0
VERTEX
  8
LAYER_1
 10
158.7709
 20
56.1874
  0
VERTEX
  8
LAYER_1
 10
160.3773
 20
52.4216
  0
VERTEX
  8
LAYER_1
 10
159.7272
 20
52.4216
  0
VERTEX
  8
LAYER_1
 10
159.2246
 20
53.6067
  0
SEQEND
  0
POLYLINE
  8
LAYER_1
 40
0.05
 41
0.05
 66
1
 10
0
 20
0
 30
0
 70
1
  0
VERTEX
  8
LAYER_1
 10
159.0988
 20
53.9856
  0
VERTEX
  8
LAYER_1
 10
158.6379
 20
55.0705
  0
VERTEX
  8
LAYER_1
 10
158.3933
 20
55.7575
  0
VERTEX
  8
LAYER_1
 10
158.3795
 20
55.7575
  0
VERTEX
  8
LAYER_1
 10
158.1418
 20
55.075
  0
VERTEX
  8
LAYER_1
 10
157.6812
 20
53.9856
  0
SEQEND
  0
ENDBLK
  0
BLOCK
  8
LAYER_1
  2
AIGNBL01040008
 70
64
 10
0
 20
0
 30
0
  3
AIGNBL01040008
  0
POLYLINE
  8
LAYER_1
 40
0.05
 41
0.05
 66
1
 10
0
 20
0
 30
0
 70
1
  0
VERTEX
  8
LAYER_1
 10
164.7426
 20
51.8683
 42
-0.01559967508
  0
VERTEX
  8
LAYER_1
 10
162.9405
 20
52.3044
  0
VERTEX
  8
LAYER_1
 10
162.6538
 20
52.3599
 42
-0.08356944747
  0
VERTEX
  8
LAYER_1
 10
161.7898
 20
52.5261
 42
-0.0975043791
  0
VERTEX
  8
LAYER_1
 10
161.1286
 20
52.932
 42
-0.2129077902
  0
VERTEX
  8
LAYER_1
 10
160.5799
 20
54.2647
 42
-0.09684612991
  0
VERTEX
  8
LAYER_1
 10
160.7245
 20
55.0381
 42
-0.2046351071
  0
VERTEX
  8
LAYER_1
 10
161.772
 20
56.0624
 42
-0.09825619238
  0
VERTEX
  8
LAYER_1
 10
162.773
 20
56.2488
 42
-0.08554836282
  0
VERTEX
  8
LAYER_1
 10
163.6416
 20
56.1075
 42
-0.1004347897
  0
VERTEX
  8
LAYER_1
 10
164.3067
 20
55.7132
 42
-0.2140895568
  0
VERTEX
  8
LAYER_1
 10
164.8821
 20
54.3433
 42
-0.09539620281
  0
VERTEX
  8
LAYER_1
 10
164.7432
 20
53.5755
 42
-0.2143310008
  0
VERTEX
  8
LAYER_1
 10
163.7204
 20
52.597
 42
-0.02339132607
  0
VERTEX
  8
LAYER_1
 10
163.5413
 20
52.5387
  0
VERTEX
  8
LAYER_1
 10
163.5413
 20
52.5163
 42
0.01711831943
  0
VERTEX
  8
LAYER_1
 10
164.9176
 20
52.2762
  0
SEQEND
  0
POLYLINE
  8
LAYER_1
 40
0.05
 41
0.05
 66
1
 10
0
 20
0
 30
0
 70
1
  0
VERTEX
  8
LAYER_1
 10
164.2399
 20
54.3219
 42
0.1071511414
  0
VERTEX
  8
LAYER_1
 10
164.0886
 20
55.0267
 42
0.2976450246
  0
VERTEX
  8
LAYER_1
 10
162.7517
 20
55.8522
 42
0.1072291499
  0
VERTEX
  8
LAYER_1
 10
162.0618
 20
55.7127
 42
0.2386106109
  0
VERTEX
  8
LAYER_1
 10
161.2749
 20
54.7071
 42
0.05752849981
  0
VERTEX
  8
LAYER_1
 10
161.2293
 20
54.2771
 42
0.218096749
  0
VERTEX
  8
LAYER_1
 10
161.7599
 20
53.0817
 42
0.1772796408
  0
VERTEX
  8
LAYER_1
 10
162.7237
 20
52.7561
 42
0.1075185771
  0
VERTEX
  8
LAYER_1
 10
163.4051
 20
52.8951
 42
0.2370926009
  0
VERTEX
  8
LAYER_1
 10
164.1922
 20
53.8947
 42
0.05601310134
  0
SEQEND
  0
ENDBLK
  0
BLOCK
  8
LAYER_1
  2
AIGNBL01040009
 70
64
 10
0
 20
0
 30
0
  3
AIGNBL01040009
  0
POLYLINE
  8
LAYER_1
 40
0.05
 41
0.05
 66
1
 10
0
 20
0
 30
0
 70
1
  0
VERTEX
  8
LAYER_1
 10
166.2095
 20
56.1874
  0
VERTEX
  8
LAYER_1
 10
166.2095
 20
53.9581
 42
0.114533087
  0
VERTEX
  8
LAYER_1
 10
166.3434
 20
53.2923
 42
0.1464774934
  0
VERTEX
  8
LAYER_1
 10
166.6938
 20
52.9071
 42
0.1362552487
  0
VERTEX
  8
LAYER_1
 10
167.3061
 20
52.7561
 42
0.1219300979
  0
VERTEX
  8
LAYER_1
 10
167.9292
 20
52.8908
 42
0.1503016186
  0
VERTEX
  8
LAYER_1
 10
168.301
 20
53.2598
 42
0.1256239276
  0
VERTEX
  8
LAYER_1
 10
168.4516
 20
53.9581
  0
VERTEX
  8
LAYER_1
 10
168.4516
 20
56.1874
  0
VERTEX
  8
LAYER_1
 10
169.0662
 20
56.1874
  0
VERTEX
  8
LAYER_1
 10
169.0662
 20
53.9915
 42
-0.09997505101
  0
VERTEX
  8
LAYER_1
 10
168.9313
 20
53.2488
 42
-0.1214984503
  0
VERTEX
  8
LAYER_1
 10
168.558
 20
52.7421
 42
-0.1106235892
  0
VERTEX
  8
LAYER_1
 10
167.9326
 20
52.4355
 42
-0.06128954947
  0
VERTEX
  8
LAYER_1
 10
167.2851
 20
52.3599
 42
-0.09418508724
  0
VERTEX
  8
LAYER_1
 10
166.4659
 20
52.498
 42
-0.2431728796
  0
VERTEX
  8
LAYER_1
 10
165.6624
 20
53.4087
 42
-0.06320085329
  0
VERTEX
  8
LAYER_1
 10
165.5949
 20
53.9695
  0
VERTEX
  8
LAYER_1
 10
165.5949
 20
56.1874
  0
SEQEND
  0
ENDBLK
  0
BLOCK
  8
LAYER_1
  2
AIGNBL0104000A
 70
64
 10
0
 20
0
 30
0
  3
AIGNBL0104000A
  0
POLYLINE
  8
LAYER_1
 40
0.05
 41
0.05
 66
1
 10
0
 20
0
 30
0
 70
1
  0
VERTEX
  8
LAYER_1
 10
170.8125
 20
53.6067
  0
VERTEX
  8
LAYER_1
 10
170.3233
 20
52.4216
  0
VERTEX
  8
LAYER_1
 10
169.6953
 20
52.4216
  0
VERTEX
  8
LAYER_1
 10
171.2945
 20
56.1874
  0
VERTEX
  8
LAYER_1
 10
172.0276
 20
56.1874
  0
VERTEX
  8
LAYER_1
 10
173.634
 20
52.4216
  0
VERTEX
  8
LAYER_1
 10
172.9846
 20
52.4216
  0
VERTEX
  8
LAYER_1
 10
172.482
 20
53.6067
  0
SEQEND
  0
POLYLINE
  8
LAYER_1
 40
0.05
 41
0.05
 66
1
 10
0
 20
0
 30
0
 70
1
  0
VERTEX
  8
LAYER_1
 10
172.3559
 20
53.9856
  0
VERTEX
  8
LAYER_1
 10
171.8946
 20
55.0705
  0
VERTEX
  8
LAYER_1
 10
171.65
 20
55.7575
  0
VERTEX
  8
LAYER_1
 10
171.6362
 20
55.7575
  0
VERTEX
  8
LAYER_1
 10
171.3989
 20
55.075
  0
VERTEX
  8
LAYER_1
 10
170.9379
 20
53.9856
  0
SEQEND
  0
ENDBLK
  0
BLOCK
  8
LAYER_1
  2
AIGNBL0104000B
 70
64
 10
0
 20
0
 30
0
  3
AIGNBL0104000B
  0
POLYLINE
  8
LAYER_1
 40
0.05
 41
0.05
 66
1
 10
0
 20
0
 30
0
 70
1
  0
VERTEX
  8
LAYER_1
 10
174.6748
 20
56.1426
 42
-0.03245981043
  0
VERTEX
  8
LAYER_1
 10
175.8416
 20
56.2157
 42
-0.08081710393
  0
VERTEX
  8
LAYER_1
 10
176.7981
 20
56.0839
 42
-0.07812211839
  0
VERTEX
  8
LAYER_1
 10
177.1615
 20
55.9029
 42
-0.2483368586
  0
VERTEX
  8
LAYER_1
 10
177.5731
 20
55.1146
 42
-0.226147
  0
VERTEX
  8
LAYER_1
 10
177.21
 20
54.3105
 42
-0.1097236176
  0
VERTEX
  8
LAYER_1
 10
176.5818
 20
53.9972
 42
-0.06566039781
  0
VERTEX
  8
LAYER_1
 10
175.7714
 20
53.8968
 42
-0.06232747682
  0
VERTEX
  8
LAYER_1
 10
175.2828
 20
53.9302
  0
VERTEX
  8
LAYER_1
 10
175.2828
 20
52.4216
  0
VERTEX
  8
LAYER_1
 10
174.6748
 20
52.4216
  0
SEQEND
  0
POLYLINE
  8
LAYER_1
 40
0.05
 41
0.05
 66
1
 10
0
 20
0
 30
0
 70
1
  0
VERTEX
  8
LAYER_1
 10
175.2828
 20
54.3271
 42
0.04202445636
  0
VERTEX
  8
LAYER_1
 10
175.7852
 20
54.2878
 42
0.1032333559
  0
VERTEX
  8
LAYER_1
 10
176.5043
 20
54.4151
 42
0.1555698608
  0
VERTEX
  8
LAYER_1
 10
176.8691
 20
54.7196
 42
0.1352698132
  0
VERTEX
  8
LAYER_1
 10
176.9661
 20
55.0922
 42
0.1736824711
  0
VERTEX
  8
LAYER_1
 10
176.8313
 20
55.4995
 42
0.151721714
  0
VERTEX
  8
LAYER_1
 10
176.4102
 20
55.759
 42
0.06880216409
  0
VERTEX
  8
LAYER_1
 10
175.8558
 20
55.8298
 42
0.06336772289
  0
VERTEX
  8
LAYER_1
 10
175.2828
 20
55.7906
  0
SEQEND
  0
ENDBLK
  0
BLOCK
  8
LAYER_1
  2
AIGNBL0104000C
 70
64
 10
0
 20
0
 30
0
  3
AIGNBL0104000C
  0
POLYLINE
  8
LAYER_1
 40
0.05
 41
0.05
 66
1
 10
0
 20
0
 30
0
 70
1
  0
VERTEX
  8
LAYER_1
 10
179.1252
 20
55.8856
 42
-0.276560599
  0
VERTEX
  8
LAYER_1
 10
178.9856
 20
55.6455
 42
-0.1265502936
  0
VERTEX
  8
LAYER_1
 10
178.7335
 20
55.5838
 42
-0.22367962
  0
VERTEX
  8
LAYER_1
 10
178.4232
 20
55.7162
 42
-0.1709078449
  0
VERTEX
  8
LAYER_1
 10
178.3631
 20
55.8856
 42
-0.2643879937
  0
VERTEX
  8
LAYER_1
 10
178.5125
 20
56.1327
 42
-0.1290073663
  0
VERTEX
  8
LAYER_1
 10
178.7472
 20
56.1926
 42
-0.2253241111
  0
VERTEX
  8
LAYER_1
 10
179.0641
 20
56.0619
 42
-0.1691304651
  0
SEQEND
  0
POLYLINE
  8
LAYER_1
 40
0.05
 41
0.05
 66
1
 10
0
 20
0
 30
0
 70
1
  0
VERTEX
  8
LAYER_1
 10
178.4396
 20
52.4216
  0
VERTEX
  8
LAYER_1
 10
178.4396
 20
55.1256
  0
VERTEX
  8
LAYER_1
 10
179.0542
 20
55.1256
  0
VERTEX
  8
LAYER_1
 10
179.0542
 20
52.4216
  0
SEQEND
  0
ENDBLK
  0
BLOCK
  8
LAYER_1
  2
AIGNBL0104000D
 70
64
 10
0
 20
0
 30
0
  3
AIGNBL0104000D
  0
POLYLINE
  8
LAYER_1
 40
0.05
 41
0.05
 66
1
 10
0
 20
0
 30
0
 70
1
  0
VERTEX
  8
LAYER_1
 10
180.9259
 20
53.6067
  0
VERTEX
  8
LAYER_1
 10
180.4377
 20
52.4216
  0
VERTEX
  8
LAYER_1
 10
179.8087
 20
52.4216
  0
VERTEX
  8
LAYER_1
 10
181.4082
 20
56.1874
  0
VERTEX
  8
LAYER_1
 10
182.142
 20
56.1874
  0
VERTEX
  8
LAYER_1
 10
183.7485
 20
52.4216
  0
VERTEX
  8
LAYER_1
 10
183.0987
 20
52.4216
  0
VERTEX
  8
LAYER_1
 10
182.5961
 20
53.6067
  0
SEQEND
  0
POLYLINE
  8
LAYER_1
 40
0.05
 41
0.05
 66
1
 10
0
 20
0
 30
0
 70
1
  0
VERTEX
  8
LAYER_1
 10
182.47
 20
53.9856
  0
VERTEX
  8
LAYER_1
 10
182.009
 20
55.0705
  0
VERTEX
  8
LAYER_1
 10
181.7651
 20
55.7575
  0
VERTEX
  8
LAYER_1
 10
181.7503
 20
55.7575
  0
VERTEX
  8
LAYER_1
 10
181.5133
 20
55.075
  0
VERTEX
  8
LAYER_1
 10
181.0523
 20
53.9856
  0
SEQEND
  0
ENDBLK
  0
BLOCK
  8
LAYER_1
  2
AIGNBL01030006
 70
64
 10
0
 20
0
 30
0
  3
AIGNBL01030006
  0
INSERT
  8
LAYER_1
  2
AIGNBL01040007
 10
0
 20
0
 30
0
  0
INSERT
  8
LAYER_1
  2
AIGNBL01040008
 10
0
 20
0
 30
0
  0
INSERT
  8
LAYER_1
  2
AIGNBL01040009
 10
0
 20
0
 30
0
  0
INSERT
  8
LAYER_1
  2
AIGNBL0104000A
 10
0
 20
0
 30
0
  0
INSERT
  8
LAYER_1
  2
AIGNBL0104000B
 10
0
 20
0
 30
0
  0
INSERT
  8
LAYER_1
  2
AIGNBL0104000C
 10
0
 20
0
 30
0
  0
INSERT
  8
LAYER_1
  2
AIGNBL0104000D
 10
0
 20
0
 30
0
  0
ENDBLK
  0
BLOCK
  8
LAYER_1
  2
AIGNBL0103000F
 70
64
 10
0
 20
0
 30
0
  3
AIGNBL0103000F
  0
POLYLINE
  8
LAYER_1
 40
0.05
 41
0.05
 66
1
 10
0
 20
0
 30
0
 70
1
  0
VERTEX
  8
LAYER_1
 10
156.5481
 20
50.5223
  0
VERTEX
  8
LAYER_1
 10
157.1013
 20
50.5223
  0
VERTEX
  8
LAYER_1
 10
157.1013
 20
50.4286
  0
VERTEX
  8
LAYER_1
 10
156.443
 20
50.4286
  0
VERTEX
  8
LAYER_1
 10
156.443
 20
51.4618
  0
VERTEX
  8
LAYER_1
 10
157.0838
 20
51.4618
  0
VERTEX
  8
LAYER_1
 10
157.0838
 20
51.3684
  0
VERTEX
  8
LAYER_1
 10
156.5481
 20
51.3684
  0
VERTEX
  8
LAYER_1
 10
156.5481
 20
51.0139
  0
VERTEX
  8
LAYER_1
 10
157.0486
 20
51.0139
  0
VERTEX
  8
LAYER_1
 10
157.0486
 20
50.9206
  0
VERTEX
  8
LAYER_1
 10
156.5481
 20
50.9206
  0
SEQEND
  0
ENDBLK
  0
BLOCK
  8
LAYER_1
  2
AIGNBL01030010
 70
64
 10
0
 20
0
 30
0
  3
AIGNBL01030010
  0
POLYLINE
  8
LAYER_1
 40
0.05
 41
0.05
 66
1
 10
0
 20
0
 30
0
 70
1
  0
VERTEX
  8
LAYER_1
 10
158.241
 20
50.5819
  0
VERTEX
  8
LAYER_1
 10
158.2438
 20
50.5819
  0
VERTEX
  8
LAYER_1
 10
158.2438
 20
51.4618
  0
VERTEX
  8
LAYER_1
 10
158.3488
 20
51.4618
  0
VERTEX
  8
LAYER_1
 10
158.3488
 20
50.4286
  0
VERTEX
  8
LAYER_1
 10
158.2179
 20
50.4286
  0
VERTEX
  8
LAYER_1
 10
157.6168
 20
51.3174
  0
VERTEX
  8
LAYER_1
 10
157.6133
 20
51.3174
  0
VERTEX
  8
LAYER_1
 10
157.6133
 20
50.4286
  0
VERTEX
  8
LAYER_1
 10
157.5086
 20
50.4286
  0
VERTEX
  8
LAYER_1
 10
157.5086
 20
51.4618
  0
VERTEX
  8
LAYER_1
 10
157.6398
 20
51.4618
  0
SEQEND
  0
ENDBLK
  0
BLOCK
  8
LAYER_1
  2
AIGNBL01030011
 70
64
 10
0
 20
0
 30
0
  3
AIGNBL01030011
  0
POLYLINE
  8
LAYER_1
 40
0.05
 41
0.05
 66
1
 10
0
 20
0
 30
0
 70
1
  0
VERTEX
  8
LAYER_1
 10
158.8218
 20
50.6405
  0
VERTEX
  8
LAYER_1
 10
158.8763
 20
50.5375
 42
0.1809219053
  0
VERTEX
  8
LAYER_1
 10
158.9896
 20
50.4958
  0
VERTEX
  8
LAYER_1
 10
159.0788
 20
50.5154
  0
VERTEX
  8
LAYER_1
 10
159.135
 20
50.5688
  0
VERTEX
  8
LAYER_1
 10
159.1639
 20
50.6453
  0
VERTEX
  8
LAYER_1
 10
159.1722
 20
50.7349
  0
VERTEX
  8
LAYER_1
 10
159.1722
 20
51.4618
  0
VERTEX
  8
LAYER_1
 10
159.2773
 20
51.4618
  0
VERTEX
  8
LAYER_1
 10
159.2773
 20
50.7263
  0
VERTEX
  8
LAYER_1
 10
159.2659
 20
50.6184
  0
VERTEX
  8
LAYER_1
 10
159.2246
 20
50.5134
  0
VERTEX
  8
LAYER_1
 10
159.1398
 20
50.4338
  0
VERTEX
  8
LAYER_1
 10
159.001
 20
50.4024
 42
-0.1846674817
  0
VERTEX
  8
LAYER_1
 10
158.8163
 20
50.4624
 42
-0.1764563828
  0
VERTEX
  8
LAYER_1
 10
158.724
 20
50.6139
  0
SEQEND
  0
ENDBLK
  0
BLOCK
  8
LAYER_1
  2
AIGNBL01030012
 70
64
 10
0
 20
0
 30
0
  3
AIGNBL01030012
  0
POLYLINE
  8
LAYER_1
 40
0.05
 41
0.05
 66
1
 10
0
 20
0
 30
0
 70
1
  0
VERTEX
  8
LAYER_1
 10
160.7656
 20
50.9454
 42
-0.103587114
  0
VERTEX
  8
LAYER_1
 10
160.7246
 20
50.728
 42
-0.1000549391
  0
VERTEX
  8
LAYER_1
 10
160.6119
 20
50.5564
  0
VERTEX
  8
LAYER_1
 10
160.441
 20
50.4434
 42
-0.09506675375
  0
VERTEX
  8
LAYER_1
 10
160.2271
 20
50.4024
 42
-0.1010765979
  0
VERTEX
  8
LAYER_1
 10
160.0135
 20
50.4434
 42
-0.1005668876
  0
VERTEX
  8
LAYER_1
 10
159.8426
 20
50.5564
 42
-0.09506076213
  0
VERTEX
  8
LAYER_1
 10
159.7293
 20
50.728
 42
-0.0931359716
  0
VERTEX
  8
LAYER_1
 10
159.6886
 20
50.9454
 42
-0.1020962526
  0
VERTEX
  8
LAYER_1
 10
159.7293
 20
51.1628
 42
-0.1007559602
  0
VERTEX
  8
LAYER_1
 10
159.8426
 20
51.3343
 42
-0.09625543395
  0
VERTEX
  8
LAYER_1
 10
160.0135
 20
51.4473
 42
-0.0952064105
  0
VERTEX
  8
LAYER_1
 10
160.2271
 20
51.4883
 42
-0.101175466
  0
VERTEX
  8
LAYER_1
 10
160.441
 20
51.4473
 42
-0.09853409661
  0
VERTEX
  8
LAYER_1
 10
160.6119
 20
51.3343
 42
-0.09562840933
  0
VERTEX
  8
LAYER_1
 10
160.7246
 20
51.1628
 42
-0.09393796777
  0
SEQEND
  0
POLYLINE
  8
LAYER_1
 40
0.05
 41
0.05
 66
1
 10
0
 20
0
 30
0
 70
1
  0
VERTEX
  8
LAYER_1
 10
160.6546
 20
50.9447
  0
VERTEX
  8
LAYER_1
 10
160.6257
 20
51.1166
  0
VERTEX
  8
LAYER_1
 10
160.5409
 20
51.2599
  0
VERTEX
  8
LAYER_1
 10
160.4059
 20
51.3581
  0
VERTEX
  8
LAYER_1
 10
160.2271
 20
51.395
  0
VERTEX
  8
LAYER_1
 10
160.0483
 20
51.3581
  0
VERTEX
  8
LAYER_1
 10
159.9136
 20
51.2599
  0
VERTEX
  8
LAYER_1
 10
159.8289
 20
51.1166
  0
VERTEX
  8
LAYER_1
 10
159.7996
 20
50.9447
  0
VERTEX
  8
LAYER_1
 10
159.8289
 20
50.7728
  0
VERTEX
  8
LAYER_1
 10
159.9136
 20
50.6298
  0
VERTEX
  8
LAYER_1
 10
160.0483
 20
50.5323
 42
0.1008257054
  0
VERTEX
  8
LAYER_1
 10
160.2271
 20
50.4958
  0
VERTEX
  8
LAYER_1
 10
160.4059
 20
50.5323
  0
VERTEX
  8
LAYER_1
 10
160.5409
 20
50.6298
  0
VERTEX
  8
LAYER_1
 10
160.6257
 20
50.7728
  0
SEQEND
  0
ENDBLK
  0
BLOCK
  8
LAYER_1
  2
AIGNBL01030013
 70
64
 10
0
 20
0
 30
0
  3
AIGNBL01030013
  0
POLYLINE
  8
LAYER_1
 40
0.05
 41
0.05
 66
1
 10
0
 20
0
 30
0
 70
1
  0
VERTEX
  8
LAYER_1
 10
161.5404
 20
50.4286
  0
VERTEX
  8
LAYER_1
 10
161.4356
 20
50.4286
  0
VERTEX
  8
LAYER_1
 10
161.4356
 20
50.874
  0
VERTEX
  8
LAYER_1
 10
161.0488
 20
51.4618
  0
VERTEX
  8
LAYER_1
 10
161.18
 20
51.4618
  0
VERTEX
  8
LAYER_1
 10
161.4911
 20
50.9616
  0
VERTEX
  8
LAYER_1
 10
161.8046
 20
51.4618
  0
VERTEX
  8
LAYER_1
 10
161.9269
 20
51.4618
  0
VERTEX
  8
LAYER_1
 10
161.5404
 20
50.874
  0
SEQEND
  0
ENDBLK
  0
BLOCK
  8
LAYER_1
  2
AIGNBL01030014
 70
64
 10
0
 20
0
 30
0
  3
AIGNBL01030014
  0
POLYLINE
  8
LAYER_1
 40
0.05
 41
0.05
 66
1
 10
0
 20
0
 30
0
 70
1
  0
VERTEX
  8
LAYER_1
 10
162.8319
 20
51.4618
  0
VERTEX
  8
LAYER_1
 10
163.1396
 20
51.4618
  0
VERTEX
  8
LAYER_1
 10
163.2581
 20
51.4494
  0
VERTEX
  8
LAYER_1
 10
163.3649
 20
51.407
  0
VERTEX
  8
LAYER_1
 10
163.4427
 20
51.3261
  0
VERTEX
  8
LAYER_1
 10
163.4724
 20
51.1979
 42
-0.1787887146
  0
VERTEX
  8
LAYER_1
 10
163.4224
 20
51.0556
 42
-0.1642670326
  0
VERTEX
  8
LAYER_1
 10
163.2891
 20
50.976
  0
VERTEX
  8
LAYER_1
 10
163.2891
 20
50.9733
 42
-0.1734673322
  0
VERTEX
  8
LAYER_1
 10
163.4558
 20
50.8951
 42
-0.1923137572
  0
VERTEX
  8
LAYER_1
 10
163.522
 20
50.7146
  0
VERTEX
  8
LAYER_1
 10
163.4948
 20
50.5974
  0
VERTEX
  8
LAYER_1
 10
163.4186
 20
50.5068
  0
VERTEX
  8
LAYER_1
 10
163.2977
 20
50.4493
  0
VERTEX
  8
LAYER_1
 10
163.1379
 20
50.4286
  0
VERTEX
  8
LAYER_1
 10
162.8319
 20
50.4286
  0
SEQEND
  0
POLYLINE
  8
LAYER_1
 40
0.05
 41
0.05
 66
1
 10
0
 20
0
 30
0
 70
1
  0
VERTEX
  8
LAYER_1
 10
162.937
 20
51.0094
  0
VERTEX
  8
LAYER_1
 10
163.1485
 20
51.0094
  0
VERTEX
  8
LAYER_1
 10
163.2254
 20
51.0184
  0
VERTEX
  8
LAYER_1
 10
163.2956
 20
51.048
  0
VERTEX
  8
LAYER_1
 10
163.3477
 20
51.1045
  0
VERTEX
  8
LAYER_1
 10
163.3673
 20
51.1907
  0
VERTEX
  8
LAYER_1
 10
163.3477
 20
51.2744
  0
VERTEX
  8
LAYER_1
 10
163.2946
 20
51.3305
  0
VERTEX
  8
LAYER_1
 10
163.2157
 20
51.3619
  0
VERTEX
  8
LAYER_1
 10
163.1192
 20
51.3715
  0
VERTEX
  8
LAYER_1
 10
162.937
 20
51.3715
  0
SEQEND
  0
POLYLINE
  8
LAYER_1
 40
0.05
 41
0.05
 66
1
 10
0
 20
0
 30
0
 70
1
  0
VERTEX
  8
LAYER_1
 10
162.937
 20
50.5192
  0
VERTEX
  8
LAYER_1
 10
163.1327
 20
50.5192
  0
VERTEX
  8
LAYER_1
 10
163.2412
 20
50.5302
  0
VERTEX
  8
LAYER_1
 10
163.3318
 20
50.565
  0
VERTEX
  8
LAYER_1
 10
163.3935
 20
50.6281
  0
VERTEX
  8
LAYER_1
 10
163.4169
 20
50.7208
 42
0.2554060681
  0
VERTEX
  8
LAYER_1
 10
163.3477
 20
50.873
 42
0.1380642909
  0
VERTEX
  8
LAYER_1
 10
163.1516
 20
50.9233
  0
VERTEX
  8
LAYER_1
 10
162.937
 20
50.9233
  0
SEQEND
  0
ENDBLK
  0
BLOCK
  8
LAYER_1
  2
AIGNBL01030015
 70
64
 10
0
 20
0
 30
0
  3
AIGNBL01030015
  0
POLYLINE
  8
LAYER_1
 40
0.05
 41
0.05
 66
1
 10
0
 20
0
 30
0
 70
1
  0
VERTEX
  8
LAYER_1
 10
163.954
 20
50.4286
  0
VERTEX
  8
LAYER_1
 10
163.8386
 20
50.4286
  0
VERTEX
  8
LAYER_1
 10
164.2854
 20
51.4618
  0
VERTEX
  8
LAYER_1
 10
164.3877
 20
51.4618
  0
VERTEX
  8
LAYER_1
 10
164.8311
 20
50.4286
  0
VERTEX
  8
LAYER_1
 10
164.7143
 20
50.4286
  0
VERTEX
  8
LAYER_1
 10
164.6003
 20
50.7001
  0
VERTEX
  8
LAYER_1
 10
164.0663
 20
50.7001
  0
SEQEND
  0
POLYLINE
  8
LAYER_1
 40
0.05
 41
0.05
 66
1
 10
0
 20
0
 30
0
 70
1
  0
VERTEX
  8
LAYER_1
 10
164.1056
 20
50.7965
  0
VERTEX
  8
LAYER_1
 10
164.561
 20
50.7965
  0
VERTEX
  8
LAYER_1
 10
164.3333
 20
51.3454
  0
SEQEND
  0
ENDBLK
  0
BLOCK
  8
LAYER_1
  2
AIGNBL01030016
 70
64
 10
0
 20
0
 30
0
  3
AIGNBL01030016
  0
POLYLINE
  8
LAYER_1
 40
0.05
 41
0.05
 66
1
 10
0
 20
0
 30
0
 70
1
  0
VERTEX
  8
LAYER_1
 10
165.5157
 20
50.4286
  0
VERTEX
  8
LAYER_1
 10
165.4106
 20
50.4286
  0
VERTEX
  8
LAYER_1
 10
165.4106
 20
51.3684
  0
VERTEX
  8
LAYER_1
 10
165.0644
 20
51.3684
  0
VERTEX
  8
LAYER_1
 10
165.0644
 20
51.4618
  0
VERTEX
  8
LAYER_1
 10
165.8612
 20
51.4618
  0
VERTEX
  8
LAYER_1
 10
165.8612
 20
51.3684
  0
VERTEX
  8
LAYER_1
 10
165.5157
 20
51.3684
  0
SEQEND
  0
ENDBLK
  0
BLOCK
  8
LAYER_1
  2
AIGNBL01030017
 70
64
 10
0
 20
0
 30
0
  3
AIGNBL01030017
  0
POLYLINE
  8
LAYER_1
 40
0.05
 41
0.05
 66
1
 10
0
 20
0
 30
0
 70
1
  0
VERTEX
  8
LAYER_1
 10
166.2174
 20
51.4618
  0
VERTEX
  8
LAYER_1
 10
166.3221
 20
51.4618
  0
VERTEX
  8
LAYER_1
 10
166.3221
 20
51.0139
  0
VERTEX
  8
LAYER_1
 10
166.8858
 20
51.0139
  0
VERTEX
  8
LAYER_1
 10
166.8858
 20
51.4618
  0
VERTEX
  8
LAYER_1
 10
166.9908
 20
51.4618
  0
VERTEX
  8
LAYER_1
 10
166.9908
 20
50.4286
  0
VERTEX
  8
LAYER_1
 10
166.8858
 20
50.4286
  0
VERTEX
  8
LAYER_1
 10
166.8858
 20
50.9178
  0
VERTEX
  8
LAYER_1
 10
166.3221
 20
50.9178
  0
VERTEX
  8
LAYER_1
 10
166.3221
 20
50.4286
  0
VERTEX
  8
LAYER_1
 10
166.2174
 20
50.4286
  0
SEQEND
  0
ENDBLK
  0
BLOCK
  8
LAYER_1
  2
AIGNBL01030018
 70
64
 10
0
 20
0
 30
0
  3
AIGNBL01030018
  0
POLYLINE
  8
LAYER_1
 40
0.05
 41
0.05
 66
1
 10
0
 20
0
 30
0
 70
1
  0
VERTEX
  8
LAYER_1
 10
167.5713
 20
50.4286
  0
VERTEX
  8
LAYER_1
 10
167.4663
 20
50.4286
  0
VERTEX
  8
LAYER_1
 10
167.4663
 20
51.4618
  0
VERTEX
  8
LAYER_1
 10
167.7701
 20
51.4618
  0
VERTEX
  8
LAYER_1
 10
167.9107
 20
51.4473
  0
VERTEX
  8
LAYER_1
 10
168.0233
 20
51.3998
  0
VERTEX
  8
LAYER_1
 10
168.0967
 20
51.3143
  0
VERTEX
  8
LAYER_1
 10
168.1229
 20
51.1862
  0
VERTEX
  8
LAYER_1
 10
168.1029
 20
51.0825
  0
VERTEX
  8
LAYER_1
 10
168.0475
 20
51.0015
  0
VERTEX
  8
LAYER_1
 10
167.9641
 20
50.9467
  0
VERTEX
  8
LAYER_1
 10
167.859
 20
50.9206
  0
VERTEX
  8
LAYER_1
 10
168.1611
 20
50.4286
  0
VERTEX
  8
LAYER_1
 10
168.0327
 20
50.4286
  0
VERTEX
  8
LAYER_1
 10
167.7467
 20
50.9116
  0
VERTEX
  8
LAYER_1
 10
167.5713
 20
50.9116
  0
SEQEND
  0
POLYLINE
  8
LAYER_1
 40
0.05
 41
0.05
 66
1
 10
0
 20
0
 30
0
 70
1
  0
VERTEX
  8
LAYER_1
 10
167.5713
 20
51.0022
  0
VERTEX
  8
LAYER_1
 10
167.7539
 20
51.0022
 42
0.1657798624
  0
VERTEX
  8
LAYER_1
 10
167.9496
 20
51.048
 42
0.2503949893
  0
VERTEX
  8
LAYER_1
 10
168.0182
 20
51.1862
  0
VERTEX
  8
LAYER_1
 10
167.9989
 20
51.272
  0
VERTEX
  8
LAYER_1
 10
167.9465
 20
51.3292
  0
VERTEX
  8
LAYER_1
 10
167.8649
 20
51.3612
  0
VERTEX
  8
LAYER_1
 10
167.7584
 20
51.3715
  0
VERTEX
  8
LAYER_1
 10
167.5713
 20
51.3715
  0
SEQEND
  0
ENDBLK
  0
BLOCK
  8
LAYER_1
  2
AIGNBL01030019
 70
64
 10
0
 20
0
 30
0
  3
AIGNBL01030019
  0
POLYLINE
  8
LAYER_1
 40
0.05
 41
0.05
 66
1
 10
0
 20
0
 30
0
 70
1
  0
VERTEX
  8
LAYER_1
 10
169.5633
 20
50.9454
 42
-0.1000954639
  0
VERTEX
  8
LAYER_1
 10
169.5227
 20
50.728
 42
-0.1001905425
  0
VERTEX
  8
LAYER_1
 10
169.4093
 20
50.5564
 42
-0.09598116796
  0
VERTEX
  8
LAYER_1
 10
169.2388
 20
50.4434
 42
-0.09506675375
  0
VERTEX
  8
LAYER_1
 10
169.0249
 20
50.4024
 42
-0.1012184087
  0
VERTEX
  8
LAYER_1
 10
168.8109
 20
50.4434
 42
-0.1000476754
  0
VERTEX
  8
LAYER_1
 10
168.6404
 20
50.5564
 42
-0.09638651026
  0
VERTEX
  8
LAYER_1
 10
168.5274
 20
50.728
 42
-0.0931359716
  0
VERTEX
  8
LAYER_1
 10
168.4867
 20
50.9454
 42
-0.1020962526
  0
VERTEX
  8
LAYER_1
 10
168.5274
 20
51.1628
 42
-0.101889112
  0
VERTEX
  8
LAYER_1
 10
168.6404
 20
51.3343
 42
-0.09563682649
  0
VERTEX
  8
LAYER_1
 10
168.8109
 20
51.4473
 42
-0.0950295922
  0
VERTEX
  8
LAYER_1
 10
169.0249
 20
51.4883
 42
-0.101175466
  0
VERTEX
  8
LAYER_1
 10
169.2388
 20
51.4473
 42
-0.101575919
  0
VERTEX
  8
LAYER_1
 10
169.4093
 20
51.3343
 42
-0.09449174073
  0
VERTEX
  8
LAYER_1
 10
169.5227
 20
51.1628
 42
-0.09273041258
  0
SEQEND
  0
POLYLINE
  8
LAYER_1
 40
0.05
 41
0.05
 66
1
 10
0
 20
0
 30
0
 70
1
  0
VERTEX
  8
LAYER_1
 10
169.4524
 20
50.9447
  0
VERTEX
  8
LAYER_1
 10
169.4231
 20
51.1166
  0
VERTEX
  8
LAYER_1
 10
169.3383
 20
51.2599
  0
VERTEX
  8
LAYER_1
 10
169.2036
 20
51.3581
  0
VERTEX
  8
LAYER_1
 10
169.0249
 20
51.395
  0
VERTEX
  8
LAYER_1
 10
168.846
 20
51.3581
  0
VERTEX
  8
LAYER_1
 10
168.711
 20
51.2599
  0
VERTEX
  8
LAYER_1
 10
168.6262
 20
51.1166
  0
VERTEX
  8
LAYER_1
 10
168.5973
 20
50.9447
  0
VERTEX
  8
LAYER_1
 10
168.6262
 20
50.7728
  0
VERTEX
  8
LAYER_1
 10
168.711
 20
50.6298
  0
VERTEX
  8
LAYER_1
 10
168.846
 20
50.5323
  0
VERTEX
  8
LAYER_1
 10
169.0249
 20
50.4958
  0
VERTEX
  8
LAYER_1
 10
169.2036
 20
50.5323
  0
VERTEX
  8
LAYER_1
 10
169.3383
 20
50.6298
  0
VERTEX
  8
LAYER_1
 10
169.4231
 20
50.7728
  0
SEQEND
  0
ENDBLK
  0
BLOCK
  8
LAYER_1
  2
AIGNBL0103001A
 70
64
 10
0
 20
0
 30
0
  3
AIGNBL0103001A
  0
POLYLINE
  8
LAYER_1
 40
0.05
 41
0.05
 66
1
 10
0
 20
0
 30
0
 70
1
  0
VERTEX
  8
LAYER_1
 10
171.0051
 20
50.9454
 42
-0.1041417444
  0
VERTEX
  8
LAYER_1
 10
170.9641
 20
50.728
 42
-0.1000549391
  0
VERTEX
  8
LAYER_1
 10
170.8514
 20
50.5564
 42
-0.09536478376
  0
VERTEX
  8
LAYER_1
 10
170.6805
 20
50.4434
 42
-0.09507606236
  0
VERTEX
  8
LAYER_1
 10
170.4666
 20
50.4024
 42
-0.101822328
  0
VERTEX
  8
LAYER_1
 10
170.253
 20
50.4434
 42
-0.102112669
  0
VERTEX
  8
LAYER_1
 10
170.0821
 20
50.5564
 42
-0.09442769366
  0
VERTEX
  8
LAYER_1
 10
169.9688
 20
50.728
 42
-0.0931359716
  0
VERTEX
  8
LAYER_1
 10
169.9281
 20
50.9454
 42
-0.1020962526
  0
VERTEX
  8
LAYER_1
 10
169.9688
 20
51.1628
 42
-0.1007688052
  0
VERTEX
  8
LAYER_1
 10
170.0821
 20
51.3343
 42
-0.09625543395
  0
VERTEX
  8
LAYER_1
 10
170.253
 20
51.4473
 42
-0.09528409444
  0
VERTEX
  8
LAYER_1
 10
170.4666
 20
51.4883
 42
-0.101185532
  0
VERTEX
  8
LAYER_1
 10
170.6805
 20
51.4473
 42
-0.09904343471
  0
VERTEX
  8
LAYER_1
 10
170.8514
 20
51.3343
 42
-0.09562840933
  0
VERTEX
  8
LAYER_1
 10
170.9641
 20
51.1628
 42
-0.09397287008
  0
SEQEND
  0
POLYLINE
  8
LAYER_1
 40
0.05
 41
0.05
 66
1
 10
0
 20
0
 30
0
 70
1
  0
VERTEX
  8
LAYER_1
 10
170.8941
 20
50.9447
  0
VERTEX
  8
LAYER_1
 10
170.8652
 20
51.1166
  0
VERTEX
  8
LAYER_1
 10
170.7804
 20
51.2599
  0
VERTEX
  8
LAYER_1
 10
170.6454
 20
51.3581
  0
VERTEX
  8
LAYER_1
 10
170.4666
 20
51.395
  0
VERTEX
  8
LAYER_1
 10
170.2878
 20
51.3581
  0
VERTEX
  8
LAYER_1
 10
170.1531
 20
51.2599
  0
VERTEX
  8
LAYER_1
 10
170.0684
 20
51.1166
  0
VERTEX
  8
LAYER_1
 10
170.0391
 20
50.9447
  0
VERTEX
  8
LAYER_1
 10
170.0684
 20
50.7728
  0
VERTEX
  8
LAYER_1
 10
170.1531
 20
50.6298
  0
VERTEX
  8
LAYER_1
 10
170.2878
 20
50.5323
  0
VERTEX
  8
LAYER_1
 10
170.4666
 20
50.4958
  0
VERTEX
  8
LAYER_1
 10
170.6454
 20
50.5323
  0
VERTEX
  8
LAYER_1
 10
170.7804
 20
50.6298
  0
VERTEX
  8
LAYER_1
 10
170.8652
 20
50.7728
  0
SEQEND
  0
ENDBLK
  0
BLOCK
  8
LAYER_1
  2
AIGNBL0103001B
 70
64
 10
0
 20
0
 30
0
  3
AIGNBL0103001B
  0
POLYLINE
  8
LAYER_1
 40
0.05
 41
0.05
 66
1
 10
0
 20
0
 30
0
 70
1
  0
VERTEX
  8
LAYER_1
 10
171.9359
 20
50.6067
  0
VERTEX
  8
LAYER_1
 10
171.9377
 20
50.6067
  0
VERTEX
  8
LAYER_1
 10
172.2832
 20
51.4618
  0
VERTEX
  8
LAYER_1
 10
172.4441
 20
51.4618
  0
VERTEX
  8
LAYER_1
 10
172.4441
 20
50.4286
  0
VERTEX
  8
LAYER_1
 10
172.3387
 20
50.4286
  0
VERTEX
  8
LAYER_1
 10
172.3387
 20
51.3261
  0
VERTEX
  8
LAYER_1
 10
172.3359
 20
51.3261
  0
VERTEX
  8
LAYER_1
 10
171.9625
 20
50.4286
  0
VERTEX
  8
LAYER_1
 10
171.907
 20
50.4286
  0
VERTEX
  8
LAYER_1
 10
171.5332
 20
51.3261
  0
VERTEX
  8
LAYER_1
 10
171.5305
 20
51.3261
  0
VERTEX
  8
LAYER_1
 10
171.5305
 20
50.4286
  0
VERTEX
  8
LAYER_1
 10
171.4254
 20
50.4286
  0
VERTEX
  8
LAYER_1
 10
171.4254
 20
51.4618
  0
VERTEX
  8
LAYER_1
 10
171.5859
 20
51.4618
  0
SEQEND
  0
ENDBLK
  0
BLOCK
  8
LAYER_1
  2
AIGNBL0103001C
 70
64
 10
0
 20
0
 30
0
  3
AIGNBL0103001C
  0
POLYLINE
  8
LAYER_1
 40
0.05
 41
0.05
 66
1
 10
0
 20
0
 30
0
 70
1
  0
VERTEX
  8
LAYER_1
 10
173.5906
 20
50.5223
  0
VERTEX
  8
LAYER_1
 10
174.1439
 20
50.5223
  0
VERTEX
  8
LAYER_1
 10
174.1439
 20
50.4286
  0
VERTEX
  8
LAYER_1
 10
173.4855
 20
50.4286
  0
VERTEX
  8
LAYER_1
 10
173.4855
 20
51.4618
  0
VERTEX
  8
LAYER_1
 10
174.1263
 20
51.4618
  0
VERTEX
  8
LAYER_1
 10
174.1263
 20
51.3684
  0
VERTEX
  8
LAYER_1
 10
173.5906
 20
51.3684
  0
VERTEX
  8
LAYER_1
 10
173.5906
 20
51.0139
  0
VERTEX
  8
LAYER_1
 10
174.0912
 20
51.0139
  0
VERTEX
  8
LAYER_1
 10
174.0912
 20
50.9206
  0
VERTEX
  8
LAYER_1
 10
173.5906
 20
50.9206
  0
SEQEND
  0
ENDBLK
  0
BLOCK
  8
LAYER_1
  2
AIGNBL0103001D
 70
64
 10
0
 20
0
 30
0
  3
AIGNBL0103001D
  0
POLYLINE
  8
LAYER_1
 40
0.05
 41
0.05
 66
1
 10
0
 20
0
 30
0
 70
1
  0
VERTEX
  8
LAYER_1
 10
174.8891
 20
51.0446
  0
VERTEX
  8
LAYER_1
 10
175.1712
 20
51.4618
  0
VERTEX
  8
LAYER_1
 10
175.2963
 20
51.4618
  0
VERTEX
  8
LAYER_1
 10
174.9538
 20
50.9702
  0
VERTEX
  8
LAYER_1
 10
175.3332
 20
50.4286
  0
VERTEX
  8
LAYER_1
 10
175.2019
 20
50.4286
  0
VERTEX
  8
LAYER_1
 10
174.8863
 20
50.8944
  0
VERTEX
  8
LAYER_1
 10
174.5728
 20
50.4286
  0
VERTEX
  8
LAYER_1
 10
174.4412
 20
50.4286
  0
VERTEX
  8
LAYER_1
 10
174.8209
 20
50.9715
  0
VERTEX
  8
LAYER_1
 10
174.475
 20
51.4618
  0
VERTEX
  8
LAYER_1
 10
174.6066
 20
51.4618
  0
SEQEND
  0
ENDBLK
  0
BLOCK
  8
LAYER_1
  2
AIGNBL0103001E
 70
64
 10
0
 20
0
 30
0
  3
AIGNBL0103001E
  0
POLYLINE
  8
LAYER_1
 40
0.05
 41
0.05
 66
1
 10
0
 20
0
 30
0
 70
1
  0
VERTEX
  8
LAYER_1
 10
175.6994
 20
51.4618
  0
VERTEX
  8
LAYER_1
 10
175.9915
 20
51.4618
  0
VERTEX
  8
LAYER_1
 10
176.1345
 20
51.4453
  0
VERTEX
  8
LAYER_1
 10
176.2444
 20
51.3939
  0
VERTEX
  8
LAYER_1
 10
176.3154
 20
51.3078
  0
VERTEX
  8
LAYER_1
 10
176.3398
 20
51.1862
  0
VERTEX
  8
LAYER_1
 10
176.3147
 20
51.0642
  0
VERTEX
  8
LAYER_1
 10
176.243
 20
50.9781
  0
VERTEX
  8
LAYER_1
 10
176.1321
 20
50.9264
  0
VERTEX
  8
LAYER_1
 10
175.9884
 20
50.9089
  0
VERTEX
  8
LAYER_1
 10
175.8044
 20
50.9089
  0
VERTEX
  8
LAYER_1
 10
175.8044
 20
50.4286
  0
VERTEX
  8
LAYER_1
 10
175.6994
 20
50.4286
  0
SEQEND
  0
POLYLINE
  8
LAYER_1
 40
0.05
 41
0.05
 66
1
 10
0
 20
0
 30
0
 70
1
  0
VERTEX
  8
LAYER_1
 10
175.8044
 20
50.9977
  0
VERTEX
  8
LAYER_1
 10
175.9822
 20
50.9977
 42
0.1829203509
  0
VERTEX
  8
LAYER_1
 10
176.1706
 20
51.0459
 42
0.2347011275
  0
VERTEX
  8
LAYER_1
 10
176.2351
 20
51.1862
 42
0.26486771
  0
VERTEX
  8
LAYER_1
 10
176.1686
 20
51.3271
 42
0.126412566
  0
VERTEX
  8
LAYER_1
 10
175.9822
 20
51.3715
  0
VERTEX
  8
LAYER_1
 10
175.8044
 20
51.3715
  0
SEQEND
  0
ENDBLK
  0
BLOCK
  8
LAYER_1
  2
AIGNBL0103001F
 70
64
 10
0
 20
0
 30
0
  3
AIGNBL0103001F
  0
POLYLINE
  8
LAYER_1
 40
0.05
 41
0.05
 66
1
 10
0
 20
0
 30
0
 70
1
  0
VERTEX
  8
LAYER_1
 10
176.8521
 20
50.5223
  0
VERTEX
  8
LAYER_1
 10
177.4054
 20
50.5223
  0
VERTEX
  8
LAYER_1
 10
177.4054
 20
50.4286
  0
VERTEX
  8
LAYER_1
 10
176.747
 20
50.4286
  0
VERTEX
  8
LAYER_1
 10
176.747
 20
51.4618
  0
VERTEX
  8
LAYER_1
 10
177.3878
 20
51.4618
  0
VERTEX
  8
LAYER_1
 10
177.3878
 20
51.3684
  0
VERTEX
  8
LAYER_1
 10
176.8521
 20
51.3684
  0
VERTEX
  8
LAYER_1
 10
176.8521
 20
51.0139
  0
VERTEX
  8
LAYER_1
 10
177.3527
 20
51.0139
  0
VERTEX
  8
LAYER_1
 10
177.3527
 20
50.9206
  0
VERTEX
  8
LAYER_1
 10
176.8521
 20
50.9206
  0
SEQEND
  0
ENDBLK
  0
BLOCK
  8
LAYER_1
  2
AIGNBL01030020
 70
64
 10
0
 20
0
 30
0
  3
AIGNBL01030020
  0
POLYLINE
  8
LAYER_1
 40
0.05
 41
0.05
 66
1
 10
0
 20
0
 30
0
 70
1
  0
VERTEX
  8
LAYER_1
 10
177.9173
 20
50.4286
  0
VERTEX
  8
LAYER_1
 10
177.8122
 20
50.4286
  0
VERTEX
  8
LAYER_1
 10
177.8122
 20
51.4618
  0
VERTEX
  8
LAYER_1
 10
178.1161
 20
51.4618
  0
VERTEX
  8
LAYER_1
 10
178.2567
 20
51.4473
  0
VERTEX
  8
LAYER_1
 10
178.3693
 20
51.3998
  0
VERTEX
  8
LAYER_1
 10
178.443
 20
51.3143
  0
VERTEX
  8
LAYER_1
 10
178.4689
 20
51.1862
  0
VERTEX
  8
LAYER_1
 10
178.4489
 20
51.0825
  0
VERTEX
  8
LAYER_1
 10
178.3934
 20
51.0015
  0
VERTEX
  8
LAYER_1
 10
178.3101
 20
50.9467
  0
VERTEX
  8
LAYER_1
 10
178.205
 20
50.9206
  0
VERTEX
  8
LAYER_1
 10
178.5071
 20
50.4286
  0
VERTEX
  8
LAYER_1
 10
178.3786
 20
50.4286
  0
VERTEX
  8
LAYER_1
 10
178.0927
 20
50.9116
  0
VERTEX
  8
LAYER_1
 10
177.9173
 20
50.9116
  0
SEQEND
  0
POLYLINE
  8
LAYER_1
 40
0.05
 41
0.05
 66
1
 10
0
 20
0
 30
0
 70
1
  0
VERTEX
  8
LAYER_1
 10
177.9173
 20
51.0022
  0
VERTEX
  8
LAYER_1
 10
178.0999
 20
51.0022
 42
0.1667734107
  0
VERTEX
  8
LAYER_1
 10
178.2956
 20
51.048
 42
0.2503091692
  0
VERTEX
  8
LAYER_1
 10
178.3641
 20
51.1862
  0
VERTEX
  8
LAYER_1
 10
178.3452
 20
51.272
  0
VERTEX
  8
LAYER_1
 10
178.2925
 20
51.3292
  0
VERTEX
  8
LAYER_1
 10
178.2108
 20
51.3612
  0
VERTEX
  8
LAYER_1
 10
178.1044
 20
51.3715
  0
VERTEX
  8
LAYER_1
 10
177.9173
 20
51.3715
  0
SEQEND
  0
ENDBLK
  0
BLOCK
  8
LAYER_1
  2
AIGNBL01030021
 70
64
 10
0
 20
0
 30
0
  3
AIGNBL01030021
  0
POLYLINE
  8
LAYER_1
 40
0.05
 41
0.05
 66
1
 10
0
 20
0
 30
0
 70
1
  0
VERTEX
  8
LAYER_1
 10
178.9929
 20
50.4286
  0
VERTEX
  8
LAYER_1
 10
178.8882
 20
50.4286
  0
VERTEX
  8
LAYER_1
 10
178.8882
 20
51.4618
  0
VERTEX
  8
LAYER_1
 10
178.9929
 20
51.4618
  0
SEQEND
  0
ENDBLK
  0
BLOCK
  8
LAYER_1
  2
AIGNBL01030022
 70
64
 10
0
 20
0
 30
0
  3
AIGNBL01030022
  0
POLYLINE
  8
LAYER_1
 40
0.05
 41
0.05
 66
1
 10
0
 20
0
 30
0
 70
1
  0
VERTEX
  8
LAYER_1
 10
179.5737
 20
50.5223
  0
VERTEX
  8
LAYER_1
 10
180.1267
 20
50.5223
  0
VERTEX
  8
LAYER_1
 10
180.1267
 20
50.4286
  0
VERTEX
  8
LAYER_1
 10
179.4687
 20
50.4286
  0
VERTEX
  8
LAYER_1
 10
179.4687
 20
51.4618
  0
VERTEX
  8
LAYER_1
 10
180.1094
 20
51.4618
  0
VERTEX
  8
LAYER_1
 10
180.1094
 20
51.3684
  0
VERTEX
  8
LAYER_1
 10
179.5737
 20
51.3684
  0
VERTEX
  8
LAYER_1
 10
179.5737
 20
51.0139
  0
VERTEX
  8
LAYER_1
 10
180.0743
 20
51.0139
  0
VERTEX
  8
LAYER_1
 10
180.0743
 20
50.9206
  0
VERTEX
  8
LAYER_1
 10
179.5737
 20
50.9206
  0
SEQEND
  0
ENDBLK
  0
BLOCK
  8
LAYER_1
  2
AIGNBL01030023
 70
64
 10
0
 20
0
 30
0
  3
AIGNBL01030023
  0
POLYLINE
  8
LAYER_1
 40
0.05
 41
0.05
 66
1
 10
0
 20
0
 30
0
 70
1
  0
VERTEX
  8
LAYER_1
 10
181.2666
 20
50.5819
  0
VERTEX
  8
LAYER_1
 10
181.2694
 20
50.5819
  0
VERTEX
  8
LAYER_1
 10
181.2694
 20
51.4618
  0
VERTEX
  8
LAYER_1
 10
181.3745
 20
51.4618
  0
VERTEX
  8
LAYER_1
 10
181.3745
 20
50.4286
  0
VERTEX
  8
LAYER_1
 10
181.2432
 20
50.4286
  0
VERTEX
  8
LAYER_1
 10
180.642
 20
51.3174
  0
VERTEX
  8
LAYER_1
 10
180.6389
 20
51.3174
  0
VERTEX
  8
LAYER_1
 10
180.6389
 20
50.4286
  0
VERTEX
  8
LAYER_1
 10
180.5339
 20
50.4286
  0
VERTEX
  8
LAYER_1
 10
180.5339
 20
51.4618
  0
VERTEX
  8
LAYER_1
 10
180.6655
 20
51.4618
  0
SEQEND
  0
ENDBLK
  0
BLOCK
  8
LAYER_1
  2
AIGNBL01030024
 70
64
 10
0
 20
0
 30
0
  3
AIGNBL01030024
  0
POLYLINE
  8
LAYER_1
 40
0.05
 41
0.05
 66
1
 10
0
 20
0
 30
0
 70
1
  0
VERTEX
  8
LAYER_1
 10
182.7201
 20
50.5964
  0
VERTEX
  8
LAYER_1
 10
182.6564
 20
50.522
  0
VERTEX
  8
LAYER_1
 10
182.5703
 20
50.4603
  0
VERTEX
  8
LAYER_1
 10
182.4621
 20
50.4179
  0
VERTEX
  8
LAYER_1
 10
182.3333
 20
50.4024
 42
-0.100982896
  0
VERTEX
  8
LAYER_1
 10
182.1172
 20
50.4434
 42
-0.1036559164
  0
VERTEX
  8
LAYER_1
 10
181.9467
 20
50.5564
 42
-0.09812017057
  0
VERTEX
  8
LAYER_1
 10
181.8351
 20
50.728
 42
-0.09232404316
  0
VERTEX
  8
LAYER_1
 10
181.7948
 20
50.9454
 42
-0.1039024847
  0
VERTEX
  8
LAYER_1
 10
181.8358
 20
51.1628
 42
-0.1006255151
  0
VERTEX
  8
LAYER_1
 10
181.9484
 20
51.3343
 42
-0.09509197705
  0
VERTEX
  8
LAYER_1
 10
182.1193
 20
51.4473
 42
-0.0950295922
  0
VERTEX
  8
LAYER_1
 10
182.3333
 20
51.4883
  0
VERTEX
  8
LAYER_1
 10
182.4449
 20
51.4763
  0
VERTEX
  8
LAYER_1
 10
182.5479
 20
51.4428
  0
VERTEX
  8
LAYER_1
 10
182.6354
 20
51.3912
  0
VERTEX
  8
LAYER_1
 10
182.7012
 20
51.3233
  0
VERTEX
  8
LAYER_1
 10
182.6137
 20
51.2589
  0
VERTEX
  8
LAYER_1
 10
182.5703
 20
51.3088
  0
VERTEX
  8
LAYER_1
 10
182.5069
 20
51.3526
  0
VERTEX
  8
LAYER_1
 10
182.4273
 20
51.3832
  0
VERTEX
  8
LAYER_1
 10
182.3346
 20
51.395
  0
VERTEX
  8
LAYER_1
 10
182.1544
 20
51.3584
  0
VERTEX
  8
LAYER_1
 10
182.0194
 20
51.2603
  0
VERTEX
  8
LAYER_1
 10
181.9346
 20
51.1169
  0
VERTEX
  8
LAYER_1
 10
181.9057
 20
50.9454
  0
VERTEX
  8
LAYER_1
 10
181.9357
 20
50.7738
  0
VERTEX
  8
LAYER_1
 10
182.0211
 20
50.6305
  0
VERTEX
  8
LAYER_1
 10
182.1562
 20
50.5323
 42
0.1010490553
  0
VERTEX
  8
LAYER_1
 10
182.3346
 20
50.4958
  0
VERTEX
  8
LAYER_1
 10
182.5038
 20
50.5323
 42
0.1324826472
  0
VERTEX
  8
LAYER_1
 10
182.6381
 20
50.6491
  0
SEQEND
  0
ENDBLK
  0
BLOCK
  8
LAYER_1
  2
AIGNBL01030025
 70
64
 10
0
 20
0
 30
0
  3
AIGNBL01030025
  0
POLYLINE
  8
LAYER_1
 40
0.05
 41
0.05
 66
1
 10
0
 20
0
 30
0
 70
1
  0
VERTEX
  8
LAYER_1
 10
183.2073
 20
50.5223
  0
VERTEX
  8
LAYER_1
 10
183.7606
 20
50.5223
  0
VERTEX
  8
LAYER_1
 10
183.7606
 20
50.4286
  0
VERTEX
  8
LAYER_1
 10
183.1022
 20
50.4286
  0
VERTEX
  8
LAYER_1
 10
183.1022
 20
51.4618
  0
VERTEX
  8
LAYER_1
 10
183.743
 20
51.4618
  0
VERTEX
  8
LAYER_1
 10
183.743
 20
51.3684
  0
VERTEX
  8
LAYER_1
 10
183.2073
 20
51.3684
  0
VERTEX
  8
LAYER_1
 10
183.2073
 20
51.0139
  0
VERTEX
  8
LAYER_1
 10
183.7078
 20
51.0139
  0
VERTEX
  8
LAYER_1
 10
183.7078
 20
50.9206
  0
VERTEX
  8
LAYER_1
 10
183.2073
 20
50.9206
  0
SEQEND
  0
ENDBLK
  0
BLOCK
  8
LAYER_1
  2
AIGNBL01020005
 70
64
 10
0
 20
0
 30
0
  3
AIGNBL01020005
  0
INSERT
  8
LAYER_1
  2
AIGNBL01030006
 10
0
 20
0
 30
0
  0
ENDBLK
  0
BLOCK
  8
LAYER_1
  2
AIGNBL0102000E
 70
64
 10
0
 20
0
 30
0
  3
AIGNBL0102000E
  0
INSERT
  8
LAYER_1
  2
AIGNBL0103000F
 10
0
 20
0
 30
0
  0
INSERT
  8
LAYER_1
  2
AIGNBL01030010
 10
0
 20
0
 30
0
  0
INSERT
  8
LAYER_1
  2
AIGNBL01030011
 10
0
 20
0
 30
0
  0
INSERT
  8
LAYER_1
  2
AIGNBL01030012
 10
0
 20
0
 30
0
  0
INSERT
  8
LAYER_1
  2
AIGNBL01030013
 10
0
 20
0
 30
0
  0
INSERT
  8
LAYER_1
  2
AIGNBL01030014
 10
0
 20
0
 30
0
  0
INSERT
  8
LAYER_1
  2
AIGNBL01030015
 10
0
 20
0
 30
0
  0
INSERT
  8
LAYER_1
  2
AIGNBL01030016
 10
0
 20
0
 30
0
  0
INSERT
  8
LAYER_1
  2
AIGNBL01030017
 10
0
 20
0
 30
0
  0
INSERT
  8
LAYER_1
  2
AIGNBL01030018
 10
0
 20
0
 30
0
  0
INSERT
  8
LAYER_1
  2
AIGNBL01030019
 10
0
 20
0
 30
0
  0
INSERT
  8
LAYER_1
  2
AIGNBL0103001A
 10
0
 20
0
 30
0
  0
INSERT
  8
LAYER_1
  2
AIGNBL0103001B
 10
0
 20
0
 30
0
  0
INSERT
  8
LAYER_1
  2
AIGNBL0103001C
 10
0
 20
0
 30
0
  0
INSERT
  8
LAYER_1
  2
AIGNBL0103001D
 10
0
 20
0
 30
0
  0
INSERT
  8
LAYER_1
  2
AIGNBL0103001E
 10
0
 20
0
 30
0
  0
INSERT
  8
LAYER_1
  2
AIGNBL0103001F
 10
0
 20
0
 30
0
  0
INSERT
  8
LAYER_1
  2
AIGNBL01030020
 10
0
 20
0
 30
0
  0
INSERT
  8
LAYER_1
  2
AIGNBL01030021
 10
0
 20
0
 30
0
  0
INSERT
  8
LAYER_1
  2
AIGNBL01030022
 10
0
 20
0
 30
0
  0
INSERT
  8
LAYER_1
  2
AIGNBL01030023
 10
0
 20
0
 30
0
  0
INSERT
  8
LAYER_1
  2
AIGNBL01030024
 10
0
 20
0
 30
0
  0
INSERT
  8
LAYER_1
  2
AIGNBL01030025
 10
0
 20
0
 30
0
  0
ENDBLK
  0
BLOCK
  8
LAYER_1
  2
AIGNBL01010002
 70
64
 10
0
 20
0
 30
0
  3
AIGNBL01010002
  0
POLYLINE
  8
LAYER_1
 40
0.05
 41
0.05
 66
1
 10
0
 20
0
 30
0
 70
1
  0
VERTEX
  8
LAYER_1
 10
99.7014
 20
188.4013
  0
VERTEX
  8
LAYER_1
 10
99.7014
 20
188.105
  0
VERTEX
  8
LAYER_1
 10
100.294
 20
188.105
  0
VERTEX
  8
LAYER_1
 10
100.294
 20
188.4013
  0
SEQEND
  0
POLYLINE
  8
LAYER_1
 40
0.0847
 41
0.0847
 66
1
 10
0
 20
0
 30
0
 70
1
  0
VERTEX
  8
LAYER_1
 10
99.7014
 20
188.4013
  0
VERTEX
  8
LAYER_1
 10
99.7014
 20
188.105
  0
VERTEX
  8
LAYER_1
 10
100.294
 20
188.105
  0
VERTEX
  8
LAYER_1
 10
100.294
 20
188.4013
  0
SEQEND
  0
POLYLINE
  8
LAYER_1
 40
0.05
 41
0.05
 66
1
 10
0
 20
0
 30
0
 70
1
  0
VERTEX
  8
LAYER_1
 10
97.6482
 20
186.4116
  0
VERTEX
  8
LAYER_1
 10
97.6482
 20
186.708
  0
VERTEX
  8
LAYER_1
 10
98.1562
 20
186.708
  0
VERTEX
  8
LAYER_1
 10
98.1562
 20
186.4116
  0
SEQEND
  0
POLYLINE
  8
LAYER_1
 40
0.0847
 41
0.0847
 66
1
 10
0
 20
0
 30
0
 70
1
  0
VERTEX
  8
LAYER_1
 10
97.6482
 20
186.4116
  0
VERTEX
  8
LAYER_1
 10
97.6482
 20
186.708
  0
VERTEX
  8
LAYER_1
 10
98.1562
 20
186.708
  0
VERTEX
  8
LAYER_1
 10
98.1562
 20
186.4116
  0
SEQEND
  0
POLYLINE
  8
LAYER_1
 40
0.05
 41
0.05
 66
1
 10
0
 20
0
 30
0
 70
1
  0
VERTEX
  8
LAYER_1
 10
111.47
 20
188.4013
  0
VERTEX
  8
LAYER_1
 10
111.47
 20
188.105
  0
VERTEX
  8
LAYER_1
 10
110.8774
 20
188.105
  0
VERTEX
  8
LAYER_1
 10
110.8774
 20
188.4013
  0
SEQEND
  0
POLYLINE
  8
LAYER_1
 40
0.0847
 41
0.0847
 66
1
 10
0
 20
0
 30
0
 70
1
  0
VERTEX
  8
LAYER_1
 10
111.47
 20
188.4013
  0
VERTEX
  8
LAYER_1
 10
111.47
 20
188.105
  0
VERTEX
  8
LAYER_1
 10
110.8774
 20
188.105
  0
VERTEX
  8
LAYER_1
 10
110.8774
 20
188.4013
  0
SEQEND
  0
POLYLINE
  8
LAYER_1
 40
0.05
 41
0.05
 66
1
 10
0
 20
0
 30
0
 70
1
  0
VERTEX
  8
LAYER_1
 10
113.5232
 20
186.4116
  0
VERTEX
  8
LAYER_1
 10
113.5232
 20
186.708
  0
VERTEX
  8
LAYER_1
 10
113.0152
 20
186.708
  0
VERTEX
  8
LAYER_1
 10
113.0152
 20
186.4116
  0
SEQEND
  0
POLYLINE
  8
LAYER_1
 40
0.0847
 41
0.0847
 66
1
 10
0
 20
0
 30
0
 70
1
  0
VERTEX
  8
LAYER_1
 10
113.5232
 20
186.4116
  0
VERTEX
  8
LAYER_1
 10
113.5232
 20
186.708
  0
VERTEX
  8
LAYER_1
 10
113.0152
 20
186.708
  0
VERTEX
  8
LAYER_1
 10
113.0152
 20
186.4116
  0
SEQEND
  0
POLYLINE
  8
LAYER_1
 40
0.1693
 41
0.1693
 66
1
 10
0
 20
0
 30
0
  0
VERTEX
  8
LAYER_1
 10
110.073
 20
186.4116
  0
VERTEX
  8
LAYER_1
 10
116.3807
 20
186.4116
  0
SEQEND
  0
POLYLINE
  8
LAYER_1
 40
0.0847
 41
0.0847
 66
1
 10
0
 20
0
 30
0
  0
VERTEX
  8
LAYER_1
 10
113.0152
 20
177.0983
  0
VERTEX
  8
LAYER_1
 10
113.0152
 20
177.4158
  0
SEQEND
  0
POLYLINE
  8
LAYER_1
 40
0.0847
 41
0.0847
 66
1
 10
0
 20
0
 30
0
  0
VERTEX
  8
LAYER_1
 10
116.1055
 20
177.0771
  0
VERTEX
  8
LAYER_1
 10
149.7394
 20
188.4648
  0
SEQEND
  0
POLYLINE
  8
LAYER_1
 40
0.0847
 41
0.0847
 66
1
 10
0
 20
0
 30
0
  0
VERTEX
  8
LAYER_1
 10
162.3547
 20
177.4158
  0
VERTEX
  8
LAYER_1
 10
171.3505
 20
186.4116
  0
SEQEND
  0
POLYLINE
  8
LAYER_1
 40
0.0847
 41
0.0847
 66
1
 10
0
 20
0
 30
0
  0
VERTEX
  8
LAYER_1
 10
159.5396
 20
177.4158
  0
VERTEX
  8
LAYER_1
 10
168.5354
 20
186.4116
  0
SEQEND
  0
POLYLINE
  8
LAYER_1
 40
0.0847
 41
0.0847
 66
1
 10
0
 20
0
 30
0
  0
VERTEX
  8
LAYER_1
 10
156.7032
 20
177.4158
  0
VERTEX
  8
LAYER_1
 10
165.6991
 20
186.4116
  0
SEQEND
  0
POLYLINE
  8
LAYER_1
 40
0.0847
 41
0.0847
 66
1
 10
0
 20
0
 30
0
  0
VERTEX
  8
LAYER_1
 10
153.8669
 20
177.4158
  0
VERTEX
  8
LAYER_1
 10
162.8839
 20
186.4116
  0
SEQEND
  0
POLYLINE
  8
LAYER_1
 40
0.0847
 41
0.0847
 66
1
 10
0
 20
0
 30
0
  0
VERTEX
  8
LAYER_1
 10
151.0517
 20
177.4158
  0
VERTEX
  8
LAYER_1
 10
160.0476
 20
186.4116
  0
SEQEND
  0
POLYLINE
  8
LAYER_1
 40
0.0847
 41
0.0847
 66
1
 10
0
 20
0
 30
0
  0
VERTEX
  8
LAYER_1
 10
105.5857
 20
151.656
  0
VERTEX
  8
LAYER_1
 10
105.5857
 20
153.9208
  0
SEQEND
  0
POLYLINE
  8
LAYER_1
 40
0.0847
 41
0.0847
 66
1
 10
0
 20
0
 30
0
  0
VERTEX
  8
LAYER_1
 10
105.5857
 20
154.831
  0
VERTEX
  8
LAYER_1
 10
105.5857
 20
155.7411
  0
SEQEND
  0
POLYLINE
  8
LAYER_1
 40
0.0847
 41
0.0847
 66
1
 10
0
 20
0
 30
0
  0
VERTEX
  8
LAYER_1
 10
105.5857
 20
156.6513
  0
VERTEX
  8
LAYER_1
 10
105.5857
 20
161.2021
  0
SEQEND
  0
POLYLINE
  8
LAYER_1
 40
0.0847
 41
0.0847
 66
1
 10
0
 20
0
 30
0
  0
VERTEX
  8
LAYER_1
 10
105.5857
 20
162.1123
  0
VERTEX
  8
LAYER_1
 10
105.5857
 20
163.0225
  0
SEQEND
  0
POLYLINE
  8
LAYER_1
 40
0.0847
 41
0.0847
 66
1
 10
0
 20
0
 30
0
  0
VERTEX
  8
LAYER_1
 10
105.5857
 20
163.9326
  0
VERTEX
  8
LAYER_1
 10
105.5857
 20
168.4835
  0
SEQEND
  0
POLYLINE
  8
LAYER_1
 40
0.0847
 41
0.0847
 66
1
 10
0
 20
0
 30
0
  0
VERTEX
  8
LAYER_1
 10
105.5857
 20
169.3936
  0
VERTEX
  8
LAYER_1
 10
105.5857
 20
170.3038
  0
SEQEND
  0
POLYLINE
  8
LAYER_1
 40
0.0847
 41
0.0847
 66
1
 10
0
 20
0
 30
0
  0
VERTEX
  8
LAYER_1
 10
105.5857
 20
171.214
  0
VERTEX
  8
LAYER_1
 10
105.5857
 20
175.7648
  0
SEQEND
  0
POLYLINE
  8
LAYER_1
 40
0.0847
 41
0.0847
 66
1
 10
0
 20
0
 30
0
  0
VERTEX
  8
LAYER_1
 10
105.5857
 20
176.675
  0
VERTEX
  8
LAYER_1
 10
105.5857
 20
177.5851
  0
SEQEND
  0
POLYLINE
  8
LAYER_1
 40
0.0847
 41
0.0847
 66
1
 10
0
 20
0
 30
0
  0
VERTEX
  8
LAYER_1
 10
105.5857
 20
178.4953
  0
VERTEX
  8
LAYER_1
 10
105.5857
 20
183.0461
  0
SEQEND
  0
POLYLINE
  8
LAYER_1
 40
0.0847
 41
0.0847
 66
1
 10
0
 20
0
 30
0
  0
VERTEX
  8
LAYER_1
 10
105.5857
 20
183.9563
  0
VERTEX
  8
LAYER_1
 10
105.5857
 20
184.8665
  0
SEQEND
  0
POLYLINE
  8
LAYER_1
 40
0.0847
 41
0.0847
 66
1
 10
0
 20
0
 30
0
  0
VERTEX
  8
LAYER_1
 10
105.5857
 20
185.7766
  0
VERTEX
  8
LAYER_1
 10
105.5857
 20
190.3275
  0
SEQEND
  0
POLYLINE
  8
LAYER_1
 40
0.0847
 41
0.0847
 66
1
 10
0
 20
0
 30
0
  0
VERTEX
  8
LAYER_1
 10
105.5857
 20
191.2376
  0
VERTEX
  8
LAYER_1
 10
105.5857
 20
192.1266
  0
SEQEND
  0
POLYLINE
  8
LAYER_1
 40
0.0847
 41
0.0847
 66
1
 10
0
 20
0
 30
0
  0
VERTEX
  8
LAYER_1
 10
105.5857
 20
193.0368
  0
VERTEX
  8
LAYER_1
 10
105.5857
 20
197.5876
  0
SEQEND
  0
POLYLINE
  8
LAYER_1
 40
0.0847
 41
0.0847
 66
1
 10
0
 20
0
 30
0
  0
VERTEX
  8
LAYER_1
 10
105.5857
 20
198.4978
  0
VERTEX
  8
LAYER_1
 10
105.5857
 20
199.408
  0
SEQEND
  0
POLYLINE
  8
LAYER_1
 40
0.0847
 41
0.0847
 66
1
 10
0
 20
0
 30
0
  0
VERTEX
  8
LAYER_1
 10
105.5857
 20
200.3181
  0
VERTEX
  8
LAYER_1
 10
105.5857
 20
204.869
  0
SEQEND
  0
POLYLINE
  8
LAYER_1
 40
0.0847
 41
0.0847
 66
1
 10
0
 20
0
 30
0
  0
VERTEX
  8
LAYER_1
 10
105.5857
 20
205.7791
  0
VERTEX
  8
LAYER_1
 10
105.5857
 20
206.6893
  0
SEQEND
  0
POLYLINE
  8
LAYER_1
 40
0.0847
 41
0.0847
 66
1
 10
0
 20
0
 30
0
  0
VERTEX
  8
LAYER_1
 10
105.5857
 20
207.5995
  0
VERTEX
  8
LAYER_1
 10
105.5857
 20
212.1503
  0
SEQEND
  0
POLYLINE
  8
LAYER_1
 40
0.0847
 41
0.0847
 66
1
 10
0
 20
0
 30
0
  0
VERTEX
  8
LAYER_1
 10
105.5857
 20
213.0605
  0
VERTEX
  8
LAYER_1
 10
105.5857
 20
213.9706
  0
SEQEND
  0
POLYLINE
  8
LAYER_1
 40
0.0847
 41
0.0847
 66
1
 10
0
 20
0
 30
0
  0
VERTEX
  8
LAYER_1
 10
105.5857
 20
214.8808
  0
VERTEX
  8
LAYER_1
 10
105.5857
 20
219.4316
  0
SEQEND
  0
POLYLINE
  8
LAYER_1
 40
0.0847
 41
0.0847
 66
1
 10
0
 20
0
 30
0
  0
VERTEX
  8
LAYER_1
 10
105.5857
 20
220.3418
  0
VERTEX
  8
LAYER_1
 10
105.5857
 20
221.252
  0
SEQEND
  0
POLYLINE
  8
LAYER_1
 40
0.0847
 41
0.0847
 66
1
 10
0
 20
0
 30
0
  0
VERTEX
  8
LAYER_1
 10
105.5857
 20
222.1621
  0
VERTEX
  8
LAYER_1
 10
105.5857
 20
226.713
  0
SEQEND
  0
POLYLINE
  8
LAYER_1
 40
0.0847
 41
0.0847
 66
1
 10
0
 20
0
 30
0
  0
VERTEX
  8
LAYER_1
 10
105.5857
 20
227.6231
  0
VERTEX
  8
LAYER_1
 10
105.5857
 20
228.5333
  0
SEQEND
  0
POLYLINE
  8
LAYER_1
 40
0.0847
 41
0.0847
 66
1
 10
0
 20
0
 30
0
  0
VERTEX
  8
LAYER_1
 10
105.5857
 20
229.4435
  0
VERTEX
  8
LAYER_1
 10
105.5857
 20
231.7295
  0
SEQEND
  0
POLYLINE
  8
LAYER_1
 40
0.1693
 41
0.1693
 66
1
 10
0
 20
0
 30
0
  0
VERTEX
  8
LAYER_1
 10
95.5104
 20
187.47
 42
0.3805216407
  0
VERTEX
  8
LAYER_1
 10
94.7907
 20
186.6868
  0
SEQEND
  0
POLYLINE
  8
LAYER_1
 40
0.1693
 41
0.1693
 66
1
 10
0
 20
0
 30
0
  0
VERTEX
  8
LAYER_1
 10
97.7964
 20
188.4013
  0
SEQEND
  0
POLYLINE
  8
LAYER_1
 40
0.1693
 41
0.1693
 66
1
 10
0
 20
0
 30
0
  0
VERTEX
  8
LAYER_1
 10
97.0767
 20
187.597
  0
VERTEX
  8
LAYER_1
 10
95.5315
 20
187.47
  0
SEQEND
  0
POLYLINE
  8
LAYER_1
 40
0.1693
 41
0.1693
 66
1
 10
0
 20
0
 30
0
  0
VERTEX
  8
LAYER_1
 10
97.0344
 20
187.6181
 42
0.4007450057
  0
VERTEX
  8
LAYER_1
 10
97.7964
 20
188.4013
  0
VERTEX
  8
LAYER_1
 10
97.7964
 20
188.4225
  0
SEQEND
  0
POLYLINE
  8
LAYER_1
 40
0.1693
 41
0.1693
 66
1
 10
0
 20
0
 30
0
  0
VERTEX
  8
LAYER_1
 10
94.7907
 20
186.4116
  0
VERTEX
  8
LAYER_1
 10
94.7907
 20
186.6656
  0
SEQEND
  0
POLYLINE
  8
LAYER_1
 40
0.254
 41
0.254
 66
1
 10
0
 20
0
 30
0
  0
VERTEX
  8
LAYER_1
 10
99.0875
 20
177.4158
  0
VERTEX
  8
LAYER_1
 10
99.0875
 20
186.4116
  0
SEQEND
  0
POLYLINE
  8
LAYER_1
 40
0.254
 41
0.254
 66
1
 10
0
 20
0
 30
0
  0
VERTEX
  8
LAYER_1
 10
112.0839
 20
177.4158
  0
VERTEX
  8
LAYER_1
 10
112.0839
 20
186.4116
  0
SEQEND
  0
POLYLINE
  8
LAYER_1
 40
0.1693
 41
0.1693
 66
1
 10
0
 20
0
 30
0
  0
VERTEX
  8
LAYER_1
 10
110.2847
 20
176.3998
  0
VERTEX
  8
LAYER_1
 10
113.7772
 20
176.3998
  0
SEQEND
  0
POLYLINE
  8
LAYER_1
 40
0.1693
 41
0.1693
 66
1
 10
0
 20
0
 30
0
  0
VERTEX
  8
LAYER_1
 10
95.9549
 20
176.7173
  0
VERTEX
  8
LAYER_1
 10
97.5
 20
176.7173
  0
SEQEND
  0
POLYLINE
  8
LAYER_1
 40
0.1693
 41
0.1693
 66
1
 10
0
 20
0
 30
0
  0
VERTEX
  8
LAYER_1
 10
95.5315
 20
176.8231
 42
0.07473818582
  0
VERTEX
  8
LAYER_1
 10
95.9337
 20
176.7173
  0
SEQEND
  0
POLYLINE
  8
LAYER_1
 40
0.1693
 41
0.1693
 66
1
 10
0
 20
0
 30
0
  0
VERTEX
  8
LAYER_1
 10
94.7907
 20
177.3523
  0
VERTEX
  8
LAYER_1
 10
94.7907
 20
177.4158
  0
SEQEND
  0
POLYLINE
  8
LAYER_1
 40
0.1693
 41
0.1693
 66
1
 10
0
 20
0
 30
0
  0
VERTEX
  8
LAYER_1
 10
94.8119
 20
177.2888
 42
0.06721590811
  0
VERTEX
  8
LAYER_1
 10
95.5104
 20
176.802
  0
SEQEND
  0
POLYLINE
  8
LAYER_1
 40
0.1693
 41
0.1693
 66
1
 10
0
 20
0
 30
0
  0
VERTEX
  8
LAYER_1
 10
94.7907
 20
177.3735
  0
VERTEX
  8
LAYER_1
 10
94.7907
 20
177.3523
  0
VERTEX
  8
LAYER_1
 10
94.7907
 20
177.31
  0
SEQEND
  0
POLYLINE
  8
LAYER_1
 40
0.1693
 41
0.1693
 66
1
 10
0
 20
0
 30
0
  0
VERTEX
  8
LAYER_1
 10
97.7964
 20
176.421
 42
0.3680801033
  0
VERTEX
  8
LAYER_1
 10
97.5
 20
176.6961
  0
VERTEX
  8
LAYER_1
 10
97.4788
 20
176.6961
  0
SEQEND
  0
POLYLINE
  8
LAYER_1
 40
0.1693
 41
0.1693
 66
1
 10
0
 20
0
 30
0
  0
VERTEX
  8
LAYER_1
 10
114.0735
 20
176.7173
  0
VERTEX
  8
LAYER_1
 10
115.6187
 20
176.7173
  0
SEQEND
  0
POLYLINE
  8
LAYER_1
 40
0.1693
 41
0.1693
 66
1
 10
0
 20
0
 30
0
  0
VERTEX
  8
LAYER_1
 10
115.5975
 20
176.7173
  0
VERTEX
  8
LAYER_1
 10
115.6187
 20
176.7173
 42
0.1076698171
  0
VERTEX
  8
LAYER_1
 10
116.0209
 20
176.8231
  0
SEQEND
  0
POLYLINE
  8
LAYER_1
 40
0.1693
 41
0.1693
 66
1
 10
0
 20
0
 30
0
  0
VERTEX
  8
LAYER_1
 10
116.7829
 20
177.3523
  0
VERTEX
  8
LAYER_1
 10
116.7829
 20
177.4158
  0
SEQEND
  0
POLYLINE
  8
LAYER_1
 40
0.1693
 41
0.1693
 66
1
 10
0
 20
0
 30
0
  0
VERTEX
  8
LAYER_1
 10
116.0209
 20
176.802
 42
0.1038682167
  0
VERTEX
  8
LAYER_1
 10
116.7194
 20
177.2888
  0
SEQEND
  0
POLYLINE
  8
LAYER_1
 40
0.1693
 41
0.1693
 66
1
 10
0
 20
0
 30
0
  0
VERTEX
  8
LAYER_1
 10
116.7405
 20
177.2888
  0
VERTEX
  8
LAYER_1
 10
116.7829
 20
177.3523
 42
0.4459787266
  0
VERTEX
  8
LAYER_1
 10
116.7617
 20
177.3735
  0
SEQEND
  0
POLYLINE
  8
LAYER_1
 40
0.1693
 41
0.1693
 66
1
 10
0
 20
0
 30
0
  0
VERTEX
  8
LAYER_1
 10
114.0524
 20
176.6961
 42
0.4038634256
  0
VERTEX
  8
LAYER_1
 10
113.7772
 20
176.421
  0
SEQEND
  0
POLYLINE
  8
LAYER_1
 40
0.1693
 41
0.1693
 66
1
 10
0
 20
0
 30
0
  0
VERTEX
  8
LAYER_1
 10
97.7964
 20
176.3998
  0
VERTEX
  8
LAYER_1
 10
100.8867
 20
176.3998
  0
SEQEND
  0
POLYLINE
  8
LAYER_1
 40
0.1693
 41
0.1693
 66
1
 10
0
 20
0
 30
0
  0
VERTEX
  8
LAYER_1
 10
100.0612
 20
176.3998
  0
VERTEX
  8
LAYER_1
 10
111.1102
 20
176.3998
  0
SEQEND
  0
POLYLINE
  8
LAYER_1
 40
0.1693
 41
0.1693
 66
1
 10
0
 20
0
 30
0
  0
VERTEX
  8
LAYER_1
 10
100.04
 20
176.3998
 42
0.3548528461
  0
VERTEX
  8
LAYER_1
 10
99.9342
 20
176.3575
  0
SEQEND
  0
POLYLINE
  8
LAYER_1
 40
0.1693
 41
0.1693
 66
1
 10
0
 20
0
 30
0
  0
VERTEX
  8
LAYER_1
 10
99.4685
 20
175.9765
  0
VERTEX
  8
LAYER_1
 10
99.9342
 20
176.3575
  0
SEQEND
  0
POLYLINE
  8
LAYER_1
 40
0.1693
 41
0.1693
 66
1
 10
0
 20
0
 30
0
  0
VERTEX
  8
LAYER_1
 10
99.4685
 20
175.9553
 42
0.2328101076
  0
VERTEX
  8
LAYER_1
 10
99.405
 20
175.8283
  0
SEQEND
  0
POLYLINE
  8
LAYER_1
 40
0.1693
 41
0.1693
 66
1
 10
0
 20
0
 30
0
  0
VERTEX
  8
LAYER_1
 10
99.405
 20
175.2991
  0
VERTEX
  8
LAYER_1
 10
99.405
 20
175.8071
  0
SEQEND
  0
POLYLINE
  8
LAYER_1
 40
0.1693
 41
0.1693
 66
1
 10
0
 20
0
 30
0
  0
VERTEX
  8
LAYER_1
 10
99.405
 20
175.2991
  0
VERTEX
  8
LAYER_1
 10
111.7664
 20
175.2991
  0
VERTEX
  8
LAYER_1
 10
111.7664
 20
175.8071
  0
SEQEND
  0
POLYLINE
  8
LAYER_1
 40
0.1693
 41
0.1693
 66
1
 10
0
 20
0
 30
0
  0
VERTEX
  8
LAYER_1
 10
111.7664
 20
175.8283
 42
0.132955867
  0
VERTEX
  8
LAYER_1
 10
111.6817
 20
175.9765
  0
SEQEND
  0
POLYLINE
  8
LAYER_1
 40
0.1693
 41
0.1693
 66
1
 10
0
 20
0
 30
0
  0
VERTEX
  8
LAYER_1
 10
111.7029
 20
175.9765
  0
VERTEX
  8
LAYER_1
 10
111.2372
 20
176.3575
  0
SEQEND
  0
POLYLINE
  8
LAYER_1
 40
0.1693
 41
0.1693
 66
1
 10
0
 20
0
 30
0
  0
VERTEX
  8
LAYER_1
 10
111.216
 20
176.3786
  0
VERTEX
  8
LAYER_1
 10
111.1102
 20
176.3998
  0
VERTEX
  8
LAYER_1
 10
111.089
 20
176.3998
  0
SEQEND
  0
POLYLINE
  8
LAYER_1
 40
0.1693
 41
0.1693
 66
1
 10
0
 20
0
 30
0
  0
VERTEX
  8
LAYER_1
 10
99.5955
 20
174.7065
  0
VERTEX
  8
LAYER_1
 10
111.5759
 20
174.7065
  0
SEQEND
  0
POLYLINE
  8
LAYER_1
 40
0.1693
 41
0.1693
 66
1
 10
0
 20
0
 30
0
  0
VERTEX
  8
LAYER_1
 10
101.056
 20
173.5
  0
VERTEX
  8
LAYER_1
 10
101.056
 20
174.7065
  0
SEQEND
  0
POLYLINE
  8
LAYER_1
 40
0.1693
 41
0.1693
 66
1
 10
0
 20
0
 30
0
  0
VERTEX
  8
LAYER_1
 10
99.5955
 20
174.7065
  0
VERTEX
  8
LAYER_1
 10
99.5955
 20
175.2991
  0
SEQEND
  0
POLYLINE
  8
LAYER_1
 40
0.1693
 41
0.1693
 66
1
 10
0
 20
0
 30
0
  0
VERTEX
  8
LAYER_1
 10
110.1154
 20
173.5
  0
VERTEX
  8
LAYER_1
 10
110.1154
 20
174.7065
  0
SEQEND
  0
POLYLINE
  8
LAYER_1
 40
0.1693
 41
0.1693
 66
1
 10
0
 20
0
 30
0
  0
VERTEX
  8
LAYER_1
 10
101.056
 20
173.5
  0
VERTEX
  8
LAYER_1
 10
110.1154
 20
173.5
  0
SEQEND
  0
POLYLINE
  8
LAYER_1
 40
0.1693
 41
0.1693
 66
1
 10
0
 20
0
 30
0
  0
VERTEX
  8
LAYER_1
 10
111.5759
 20
174.7065
  0
VERTEX
  8
LAYER_1
 10
111.5759
 20
175.2991
  0
SEQEND
  0
POLYLINE
  8
LAYER_1
 40
0.1693
 41
0.1693
 66
1
 10
0
 20
0
 30
0
  0
VERTEX
  8
LAYER_1
 10
94.7907
 20
186.4116
  0
VERTEX
  8
LAYER_1
 10
101.0984
 20
186.4116
  0
SEQEND
  0
POLYLINE
  8
LAYER_1
 40
0.1693
 41
0.1693
 66
1
 10
0
 20
0
 30
0
  0
VERTEX
  8
LAYER_1
 10
94.7907
 20
177.4158
  0
VERTEX
  8
LAYER_1
 10
100.8867
 20
177.4158
  0
SEQEND
  0
POLYLINE
  8
LAYER_1
 40
0.1693
 41
0.1693
 66
1
 10
0
 20
0
 30
0
  0
VERTEX
  8
LAYER_1
 10
110.2847
 20
177.4158
  0
VERTEX
  8
LAYER_1
 10
116.7829
 20
177.4158
  0
SEQEND
  0
POLYLINE
  8
LAYER_1
 40
0.0847
 41
0.0847
 66
1
 10
0
 20
0
 30
0
  0
VERTEX
  8
LAYER_1
 10
116.4654
 20
177.0348
  0
VERTEX
  8
LAYER_1
 10
116.7829
 20
177.3523
  0
SEQEND
  0
POLYLINE
  8
LAYER_1
 40
0.0847
 41
0.0847
 66
1
 10
0
 20
0
 30
0
  0
VERTEX
  8
LAYER_1
 10
115.8727
 20
176.7385
  0
VERTEX
  8
LAYER_1
 10
116.55
 20
177.4158
  0
SEQEND
  0
POLYLINE
  8
LAYER_1
 40
0.0847
 41
0.0847
 66
1
 10
0
 20
0
 30
0
  0
VERTEX
  8
LAYER_1
 10
115.5552
 20
176.7173
  0
VERTEX
  8
LAYER_1
 10
116.2537
 20
177.4158
  0
SEQEND
  0
POLYLINE
  8
LAYER_1
 40
0.0847
 41
0.0847
 66
1
 10
0
 20
0
 30
0
  0
VERTEX
  8
LAYER_1
 10
115.28
 20
176.7173
  0
VERTEX
  8
LAYER_1
 10
115.9785
 20
177.4158
  0
SEQEND
  0
POLYLINE
  8
LAYER_1
 40
0.0847
 41
0.0847
 66
1
 10
0
 20
0
 30
0
  0
VERTEX
  8
LAYER_1
 10
114.9837
 20
176.7173
  0
VERTEX
  8
LAYER_1
 10
115.6822
 20
177.4158
  0
SEQEND
  0
POLYLINE
  8
LAYER_1
 40
0.0847
 41
0.0847
 66
1
 10
0
 20
0
 30
0
  0
VERTEX
  8
LAYER_1
 10
114.7085
 20
176.7173
  0
VERTEX
  8
LAYER_1
 10
115.407
 20
177.4158
  0
SEQEND
  0
POLYLINE
  8
LAYER_1
 40
0.0847
 41
0.0847
 66
1
 10
0
 20
0
 30
0
  0
VERTEX
  8
LAYER_1
 10
114.4334
 20
176.7173
  0
VERTEX
  8
LAYER_1
 10
115.1319
 20
177.4158
  0
SEQEND
  0
POLYLINE
  8
LAYER_1
 40
0.0847
 41
0.0847
 66
1
 10
0
 20
0
 30
0
  0
VERTEX
  8
LAYER_1
 10
114.137
 20
176.7173
  0
VERTEX
  8
LAYER_1
 10
114.8355
 20
177.4158
  0
SEQEND
  0
POLYLINE
  8
LAYER_1
 40
0.0847
 41
0.0847
 66
1
 10
0
 20
0
 30
0
  0
VERTEX
  8
LAYER_1
 10
113.5656
 20
176.3998
  0
VERTEX
  8
LAYER_1
 10
114.5604
 20
177.4158
  0
SEQEND
  0
POLYLINE
  8
LAYER_1
 40
0.0847
 41
0.0847
 66
1
 10
0
 20
0
 30
0
  0
VERTEX
  8
LAYER_1
 10
113.2692
 20
176.3998
  0
VERTEX
  8
LAYER_1
 10
114.2852
 20
177.4158
  0
SEQEND
  0
POLYLINE
  8
LAYER_1
 40
0.0847
 41
0.0847
 66
1
 10
0
 20
0
 30
0
  0
VERTEX
  8
LAYER_1
 10
112.9941
 20
176.3998
  0
VERTEX
  8
LAYER_1
 10
113.9889
 20
177.4158
  0
SEQEND
  0
POLYLINE
  8
LAYER_1
 40
0.0847
 41
0.0847
 66
1
 10
0
 20
0
 30
0
  0
VERTEX
  8
LAYER_1
 10
111.8722
 20
176.3998
  0
VERTEX
  8
LAYER_1
 10
112.867
 20
177.4158
  0
SEQEND
  0
POLYLINE
  8
LAYER_1
 40
0.0847
 41
0.0847
 66
1
 10
0
 20
0
 30
0
  0
VERTEX
  8
LAYER_1
 10
111.5759
 20
176.3998
  0
VERTEX
  8
LAYER_1
 10
112.5919
 20
177.4158
  0
SEQEND
  0
POLYLINE
  8
LAYER_1
 40
0.0847
 41
0.0847
 66
1
 10
0
 20
0
 30
0
  0
VERTEX
  8
LAYER_1
 10
110.4541
 20
176.3998
  0
VERTEX
  8
LAYER_1
 10
111.4489
 20
177.4158
  0
SEQEND
  0
POLYLINE
  8
LAYER_1
 40
0.0847
 41
0.0847
 66
1
 10
0
 20
0
 30
0
  0
VERTEX
  8
LAYER_1
 10
110.2847
 20
176.5056
  0
VERTEX
  8
LAYER_1
 10
111.1737
 20
177.4158
  0
SEQEND
  0
POLYLINE
  8
LAYER_1
 40
0.0847
 41
0.0847
 66
1
 10
0
 20
0
 30
0
  0
VERTEX
  8
LAYER_1
 10
110.2847
 20
176.802
  0
VERTEX
  8
LAYER_1
 10
110.8774
 20
177.4158
  0
SEQEND
  0
POLYLINE
  8
LAYER_1
 40
0.0847
 41
0.0847
 66
1
 10
0
 20
0
 30
0
  0
VERTEX
  8
LAYER_1
 10
110.2847
 20
177.0771
  0
VERTEX
  8
LAYER_1
 10
110.6022
 20
177.4158
  0
SEQEND
  0
POLYLINE
  8
LAYER_1
 40
0.0847
 41
0.0847
 66
1
 10
0
 20
0
 30
0
  0
VERTEX
  8
LAYER_1
 10
110.2847
 20
177.3735
  0
VERTEX
  8
LAYER_1
 10
110.3271
 20
177.4158
  0
SEQEND
  0
POLYLINE
  8
LAYER_1
 40
0.0847
 41
0.0847
 66
1
 10
0
 20
0
 30
0
  0
VERTEX
  8
LAYER_1
 10
100.8656
 20
176.3998
  0
VERTEX
  8
LAYER_1
 10
100.8867
 20
176.4421
  0
SEQEND
  0
POLYLINE
  8
LAYER_1
 40
0.0847
 41
0.0847
 66
1
 10
0
 20
0
 30
0
  0
VERTEX
  8
LAYER_1
 10
100.5692
 20
176.3998
  0
VERTEX
  8
LAYER_1
 10
100.8867
 20
176.7385
  0
SEQEND
  0
POLYLINE
  8
LAYER_1
 40
0.0847
 41
0.0847
 66
1
 10
0
 20
0
 30
0
  0
VERTEX
  8
LAYER_1
 10
99.1511
 20
176.3998
  0
VERTEX
  8
LAYER_1
 10
100.167
 20
177.4158
  0
SEQEND
  0
POLYLINE
  8
LAYER_1
 40
0.0847
 41
0.0847
 66
1
 10
0
 20
0
 30
0
  0
VERTEX
  8
LAYER_1
 10
98.8759
 20
176.3998
  0
VERTEX
  8
LAYER_1
 10
99.8707
 20
177.4158
  0
SEQEND
  0
POLYLINE
  8
LAYER_1
 40
0.0847
 41
0.0847
 66
1
 10
0
 20
0
 30
0
  0
VERTEX
  8
LAYER_1
 10
98.6007
 20
176.3998
  0
VERTEX
  8
LAYER_1
 10
99.5955
 20
177.4158
  0
SEQEND
  0
POLYLINE
  8
LAYER_1
 40
0.0847
 41
0.0847
 66
1
 10
0
 20
0
 30
0
  0
VERTEX
  8
LAYER_1
 10
98.3044
 20
176.3998
  0
VERTEX
  8
LAYER_1
 10
99.2992
 20
177.4158
  0
SEQEND
  0
POLYLINE
  8
LAYER_1
 40
0.0847
 41
0.0847
 66
1
 10
0
 20
0
 30
0
  0
VERTEX
  8
LAYER_1
 10
98.0292
 20
176.3998
  0
VERTEX
  8
LAYER_1
 10
99.024
 20
177.4158
  0
SEQEND
  0
POLYLINE
  8
LAYER_1
 40
0.0847
 41
0.0847
 66
1
 10
0
 20
0
 30
0
  0
VERTEX
  8
LAYER_1
 10
97.7964
 20
176.4633
  0
VERTEX
  8
LAYER_1
 10
98.7489
 20
177.4158
  0
SEQEND
  0
POLYLINE
  8
LAYER_1
 40
0.0847
 41
0.0847
 66
1
 10
0
 20
0
 30
0
  0
VERTEX
  8
LAYER_1
 10
97.6906
 20
176.6326
  0
VERTEX
  8
LAYER_1
 10
98.4526
 20
177.4158
  0
SEQEND
  0
POLYLINE
  8
LAYER_1
 40
0.0847
 41
0.0847
 66
1
 10
0
 20
0
 30
0
  0
VERTEX
  8
LAYER_1
 10
96.9074
 20
176.7173
  0
VERTEX
  8
LAYER_1
 10
97.6059
 20
177.4158
  0
SEQEND
  0
POLYLINE
  8
LAYER_1
 40
0.0847
 41
0.0847
 66
1
 10
0
 20
0
 30
0
  0
VERTEX
  8
LAYER_1
 10
96.6322
 20
176.7173
  0
VERTEX
  8
LAYER_1
 10
97.3307
 20
177.4158
  0
SEQEND
  0
POLYLINE
  8
LAYER_1
 40
0.0847
 41
0.0847
 66
1
 10
0
 20
0
 30
0
  0
VERTEX
  8
LAYER_1
 10
96.3571
 20
176.7173
  0
VERTEX
  8
LAYER_1
 10
97.0556
 20
177.4158
  0
SEQEND
  0
POLYLINE
  8
LAYER_1
 40
0.0847
 41
0.0847
 66
1
 10
0
 20
0
 30
0
  0
VERTEX
  8
LAYER_1
 10
96.0607
 20
176.7173
  0
VERTEX
  8
LAYER_1
 10
96.7592
 20
177.4158
  0
SEQEND
  0
POLYLINE
  8
LAYER_1
 40
0.0847
 41
0.0847
 66
1
 10
0
 20
0
 30
0
  0
VERTEX
  8
LAYER_1
 10
95.7856
 20
176.7173
  0
VERTEX
  8
LAYER_1
 10
96.4841
 20
177.4158
  0
SEQEND
  0
POLYLINE
  8
LAYER_1
 40
0.0847
 41
0.0847
 66
1
 10
0
 20
0
 30
0
  0
VERTEX
  8
LAYER_1
 10
95.5739
 20
176.7808
  0
VERTEX
  8
LAYER_1
 10
96.2089
 20
177.4158
  0
SEQEND
  0
POLYLINE
  8
LAYER_1
 40
0.0847
 41
0.0847
 66
1
 10
0
 20
0
 30
0
  0
VERTEX
  8
LAYER_1
 10
95.3834
 20
176.8655
  0
VERTEX
  8
LAYER_1
 10
95.9126
 20
177.4158
  0
SEQEND
  0
POLYLINE
  8
LAYER_1
 40
0.0847
 41
0.0847
 66
1
 10
0
 20
0
 30
0
  0
VERTEX
  8
LAYER_1
 10
95.2141
 20
176.9713
  0
VERTEX
  8
LAYER_1
 10
95.6374
 20
177.4158
  0
SEQEND
  0
POLYLINE
  8
LAYER_1
 40
0.0847
 41
0.0847
 66
1
 10
0
 20
0
 30
0
  0
VERTEX
  8
LAYER_1
 10
95.0447
 20
177.0983
  0
VERTEX
  8
LAYER_1
 10
95.341
 20
177.4158
  0
SEQEND
  0
POLYLINE
  8
LAYER_1
 40
0.0847
 41
0.0847
 66
1
 10
0
 20
0
 30
0
  0
VERTEX
  8
LAYER_1
 10
94.8754
 20
177.2253
  0
VERTEX
  8
LAYER_1
 10
95.0659
 20
177.4158
  0
SEQEND
  0
POLYLINE
  8
LAYER_1
 40
0.0847
 41
0.0847
 66
1
 10
0
 20
0
 30
0
  0
VERTEX
  8
LAYER_1
 10
100.9502
 20
186.4116
  0
VERTEX
  8
LAYER_1
 10
101.0984
 20
186.5386
  0
SEQEND
  0
POLYLINE
  8
LAYER_1
 40
0.0847
 41
0.0847
 66
1
 10
0
 20
0
 30
0
  0
VERTEX
  8
LAYER_1
 10
100.675
 20
186.4116
  0
VERTEX
  8
LAYER_1
 10
101.0984
 20
186.835
  0
SEQEND
  0
POLYLINE
  8
LAYER_1
 40
0.0847
 41
0.0847
 66
1
 10
0
 20
0
 30
0
  0
VERTEX
  8
LAYER_1
 10
100.3999
 20
186.4116
  0
VERTEX
  8
LAYER_1
 10
101.0984
 20
187.1101
  0
SEQEND
  0
POLYLINE
  8
LAYER_1
 40
0.0847
 41
0.0847
 66
1
 10
0
 20
0
 30
0
  0
VERTEX
  8
LAYER_1
 10
100.1035
 20
186.4116
  0
VERTEX
  8
LAYER_1
 10
101.0984
 20
187.4065
  0
SEQEND
  0
POLYLINE
  8
LAYER_1
 40
0.0847
 41
0.0847
 66
1
 10
0
 20
0
 30
0
  0
VERTEX
  8
LAYER_1
 10
99.8284
 20
186.4116
  0
VERTEX
  8
LAYER_1
 10
101.0984
 20
187.6816
  0
SEQEND
  0
POLYLINE
  8
LAYER_1
 40
0.0847
 41
0.0847
 66
1
 10
0
 20
0
 30
0
  0
VERTEX
  8
LAYER_1
 10
99.5321
 20
186.4116
  0
VERTEX
  8
LAYER_1
 10
101.0984
 20
187.9568
  0
SEQEND
  0
POLYLINE
  8
LAYER_1
 40
0.0847
 41
0.0847
 66
1
 10
0
 20
0
 30
0
  0
VERTEX
  8
LAYER_1
 10
99.2569
 20
186.4116
  0
VERTEX
  8
LAYER_1
 10
101.0984
 20
188.2531
  0
SEQEND
  0
POLYLINE
  8
LAYER_1
 40
0.0847
 41
0.0847
 66
1
 10
0
 20
0
 30
0
  0
VERTEX
  8
LAYER_1
 10
98.9817
 20
186.4116
  0
VERTEX
  8
LAYER_1
 10
100.9714
 20
188.4013
  0
SEQEND
  0
POLYLINE
  8
LAYER_1
 40
0.0847
 41
0.0847
 66
1
 10
0
 20
0
 30
0
  0
VERTEX
  8
LAYER_1
 10
98.6854
 20
186.4116
  0
VERTEX
  8
LAYER_1
 10
100.6962
 20
188.4013
  0
SEQEND
  0
POLYLINE
  8
LAYER_1
 40
0.0847
 41
0.0847
 66
1
 10
0
 20
0
 30
0
  0
VERTEX
  8
LAYER_1
 10
98.4102
 20
186.4116
  0
VERTEX
  8
LAYER_1
 10
100.3999
 20
188.4013
  0
SEQEND
  0
POLYLINE
  8
LAYER_1
 40
0.0847
 41
0.0847
 66
1
 10
0
 20
0
 30
0
  0
VERTEX
  8
LAYER_1
 10
98.1351
 20
186.4116
  0
VERTEX
  8
LAYER_1
 10
100.1247
 20
188.4013
  0
SEQEND
  0
POLYLINE
  8
LAYER_1
 40
0.0847
 41
0.0847
 66
1
 10
0
 20
0
 30
0
  0
VERTEX
  8
LAYER_1
 10
97.8387
 20
186.4116
  0
VERTEX
  8
LAYER_1
 10
99.8495
 20
188.4013
  0
SEQEND
  0
POLYLINE
  8
LAYER_1
 40
0.0847
 41
0.0847
 66
1
 10
0
 20
0
 30
0
  0
VERTEX
  8
LAYER_1
 10
97.5636
 20
186.4116
  0
VERTEX
  8
LAYER_1
 10
99.5532
 20
188.4013
  0
SEQEND
  0
POLYLINE
  8
LAYER_1
 40
0.0847
 41
0.0847
 66
1
 10
0
 20
0
 30
0
  0
VERTEX
  8
LAYER_1
 10
97.2884
 20
186.4116
  0
VERTEX
  8
LAYER_1
 10
99.2781
 20
188.4013
  0
SEQEND
  0
POLYLINE
  8
LAYER_1
 40
0.0847
 41
0.0847
 66
1
 10
0
 20
0
 30
0
  0
VERTEX
  8
LAYER_1
 10
96.9921
 20
186.4116
  0
VERTEX
  8
LAYER_1
 10
99.0029
 20
188.4013
  0
SEQEND
  0
POLYLINE
  8
LAYER_1
 40
0.0847
 41
0.0847
 66
1
 10
0
 20
0
 30
0
  0
VERTEX
  8
LAYER_1
 10
96.7169
 20
186.4116
  0
VERTEX
  8
LAYER_1
 10
98.7066
 20
188.4013
  0
SEQEND
  0
POLYLINE
  8
LAYER_1
 40
0.0847
 41
0.0847
 66
1
 10
0
 20
0
 30
0
  0
VERTEX
  8
LAYER_1
 10
96.4206
 20
186.4116
  0
VERTEX
  8
LAYER_1
 10
98.4314
 20
188.4013
  0
SEQEND
  0
POLYLINE
  8
LAYER_1
 40
0.0847
 41
0.0847
 66
1
 10
0
 20
0
 30
0
  0
VERTEX
  8
LAYER_1
 10
96.1454
 20
186.4116
  0
VERTEX
  8
LAYER_1
 10
98.1562
 20
188.4013
  0
SEQEND
  0
POLYLINE
  8
LAYER_1
 40
0.0847
 41
0.0847
 66
1
 10
0
 20
0
 30
0
  0
VERTEX
  8
LAYER_1
 10
95.8702
 20
186.4116
  0
VERTEX
  8
LAYER_1
 10
97.0556
 20
187.597
  0
SEQEND
  0
POLYLINE
  8
LAYER_1
 40
0.0847
 41
0.0847
 66
1
 10
0
 20
0
 30
0
  0
VERTEX
  8
LAYER_1
 10
97.7964
 20
188.3378
  0
VERTEX
  8
LAYER_1
 10
97.8599
 20
188.4013
  0
SEQEND
  0
POLYLINE
  8
LAYER_1
 40
0.0847
 41
0.0847
 66
1
 10
0
 20
0
 30
0
  0
VERTEX
  8
LAYER_1
 10
95.5739
 20
186.4116
  0
VERTEX
  8
LAYER_1
 10
96.7592
 20
187.5758
  0
SEQEND
  0
POLYLINE
  8
LAYER_1
 40
0.0847
 41
0.0847
 66
1
 10
0
 20
0
 30
0
  0
VERTEX
  8
LAYER_1
 10
95.2987
 20
186.4116
  0
VERTEX
  8
LAYER_1
 10
96.4417
 20
187.5546
  0
SEQEND
  0
POLYLINE
  8
LAYER_1
 40
0.0847
 41
0.0847
 66
1
 10
0
 20
0
 30
0
  0
VERTEX
  8
LAYER_1
 10
95.0236
 20
186.4116
  0
VERTEX
  8
LAYER_1
 10
96.1242
 20
187.5335
  0
SEQEND
  0
POLYLINE
  8
LAYER_1
 40
0.0847
 41
0.0847
 66
1
 10
0
 20
0
 30
0
  0
VERTEX
  8
LAYER_1
 10
94.7907
 20
186.4751
  0
VERTEX
  8
LAYER_1
 10
95.8279
 20
187.4911
  0
SEQEND
  0
POLYLINE
  8
LAYER_1
 40
0.0847
 41
0.0847
 66
1
 10
0
 20
0
 30
0
  0
VERTEX
  8
LAYER_1
 10
94.7907
 20
186.7503
  0
VERTEX
  8
LAYER_1
 10
95.5104
 20
187.47
  0
SEQEND
  0
POLYLINE
  8
LAYER_1
 40
0.254
 41
0.254
 66
1
 10
0
 20
0
 30
0
  0
VERTEX
  8
LAYER_1
 10
34.4445
 20
186.4116
  0
VERTEX
  8
LAYER_1
 10
99.0875
 20
186.4116
  0
SEQEND
  0
POLYLINE
  8
LAYER_1
 40
0.254
 41
0.254
 66
1
 10
0
 20
0
 30
0
  0
VERTEX
  8
LAYER_1
 10
34.4445
 20
177.4158
  0
VERTEX
  8
LAYER_1
 10
99.0875
 20
177.4158
  0
SEQEND
  0
POLYLINE
  8
LAYER_1
 40
0.254
 41
0.254
 66
1
 10
0
 20
0
 30
0
  0
VERTEX
  8
LAYER_1
 10
112.0839
 20
186.4116
  0
VERTEX
  8
LAYER_1
 10
176.7269
 20
186.4116
  0
SEQEND
  0
POLYLINE
  8
LAYER_1
 40
0.254
 41
0.254
 66
1
 10
0
 20
0
 30
0
  0
VERTEX
  8
LAYER_1
 10
112.0839
 20
177.4158
  0
VERTEX
  8
LAYER_1
 10
176.7269
 20
177.4158
  0
SEQEND
  0
POLYLINE
  8
LAYER_1
 40
0.0847
 41
0.0847
 66
1
 10
0
 20
0
 30
0
  0
VERTEX
  8
LAYER_1
 10
176.4937
 20
177.4158
  0
VERTEX
  8
LAYER_1
 10
177.171
 20
178.072
  0
SEQEND
  0
POLYLINE
  8
LAYER_1
 40
0.0847
 41
0.0847
 66
1
 10
0
 20
0
 30
0
  0
VERTEX
  8
LAYER_1
 10
173.6785
 20
177.4158
  0
VERTEX
  8
LAYER_1
 10
177.298
 20
181.0353
  0
SEQEND
  0
POLYLINE
  8
LAYER_1
 40
0.0847
 41
0.0847
 66
1
 10
0
 20
0
 30
0
  0
VERTEX
  8
LAYER_1
 10
170.8422
 20
177.4158
  0
VERTEX
  8
LAYER_1
 10
176.1762
 20
182.7498
  0
SEQEND
  0
POLYLINE
  8
LAYER_1
 40
0.0847
 41
0.0847
 66
1
 10
0
 20
0
 30
0
  0
VERTEX
  8
LAYER_1
 10
168.027
 20
177.4158
  0
VERTEX
  8
LAYER_1
 10
176.1974
 20
185.5861
  0
SEQEND
  0
POLYLINE
  8
LAYER_1
 40
0.0847
 41
0.0847
 66
1
 10
0
 20
0
 30
0
  0
VERTEX
  8
LAYER_1
 10
165.1907
 20
177.4158
  0
VERTEX
  8
LAYER_1
 10
174.1865
 20
186.4116
  0
SEQEND
  0
POLYLINE
  8
LAYER_1
 40
0.0847
 41
0.0847
 66
1
 10
0
 20
0
 30
0
  0
VERTEX
  8
LAYER_1
 10
148.2151
 20
177.4158
  0
VERTEX
  8
LAYER_1
 10
157.2109
 20
186.4116
  0
SEQEND
  0
POLYLINE
  8
LAYER_1
 40
0.0847
 41
0.0847
 66
1
 10
0
 20
0
 30
0
  0
VERTEX
  8
LAYER_1
 10
145.3999
 20
177.4158
  0
VERTEX
  8
LAYER_1
 10
154.3957
 20
186.4116
  0
SEQEND
  0
POLYLINE
  8
LAYER_1
 40
0.0847
 41
0.0847
 66
1
 10
0
 20
0
 30
0
  0
VERTEX
  8
LAYER_1
 10
142.5636
 20
177.4158
  0
VERTEX
  8
LAYER_1
 10
151.5594
 20
186.4116
  0
SEQEND
  0
POLYLINE
  8
LAYER_1
 40
0.0847
 41
0.0847
 66
1
 10
0
 20
0
 30
0
  0
VERTEX
  8
LAYER_1
 10
139.7272
 20
177.4158
  0
VERTEX
  8
LAYER_1
 10
148.7231
 20
186.4116
  0
SEQEND
  0
POLYLINE
  8
LAYER_1
 40
0.0847
 41
0.0847
 66
1
 10
0
 20
0
 30
0
  0
VERTEX
  8
LAYER_1
 10
136.9121
 20
177.4158
  0
VERTEX
  8
LAYER_1
 10
145.9079
 20
186.4116
  0
SEQEND
  0
POLYLINE
  8
LAYER_1
 40
0.0847
 41
0.0847
 66
1
 10
0
 20
0
 30
0
  0
VERTEX
  8
LAYER_1
 10
134.0757
 20
177.4158
  0
VERTEX
  8
LAYER_1
 10
143.0716
 20
186.4116
  0
SEQEND
  0
POLYLINE
  8
LAYER_1
 40
0.0847
 41
0.0847
 66
1
 10
0
 20
0
 30
0
  0
VERTEX
  8
LAYER_1
 10
131.2394
 20
177.4158
  0
VERTEX
  8
LAYER_1
 10
140.2564
 20
186.4116
  0
SEQEND
  0
POLYLINE
  8
LAYER_1
 40
0.0847
 41
0.0847
 66
1
 10
0
 20
0
 30
0
  0
VERTEX
  8
LAYER_1
 10
128.4242
 20
177.4158
  0
VERTEX
  8
LAYER_1
 10
137.4201
 20
186.4116
  0
SEQEND
  0
POLYLINE
  8
LAYER_1
 40
0.0847
 41
0.0847
 66
1
 10
0
 20
0
 30
0
  0
VERTEX
  8
LAYER_1
 10
125.5879
 20
177.4158
  0
VERTEX
  8
LAYER_1
 10
134.5837
 20
186.4116
  0
SEQEND
  0
POLYLINE
  8
LAYER_1
 40
0.0847
 41
0.0847
 66
1
 10
0
 20
0
 30
0
  0
VERTEX
  8
LAYER_1
 10
122.7727
 20
177.4158
  0
VERTEX
  8
LAYER_1
 10
131.7686
 20
186.4116
  0
SEQEND
  0
POLYLINE
  8
LAYER_1
 40
0.0847
 41
0.0847
 66
1
 10
0
 20
0
 30
0
  0
VERTEX
  8
LAYER_1
 10
119.9364
 20
177.4158
  0
VERTEX
  8
LAYER_1
 10
128.9322
 20
186.4116
  0
SEQEND
  0
POLYLINE
  8
LAYER_1
 40
0.0847
 41
0.0847
 66
1
 10
0
 20
0
 30
0
  0
VERTEX
  8
LAYER_1
 10
117.1
 20
177.4158
  0
VERTEX
  8
LAYER_1
 10
126.0959
 20
186.4116
  0
SEQEND
  0
POLYLINE
  8
LAYER_1
 40
0.0847
 41
0.0847
 66
1
 10
0
 20
0
 30
0
  0
VERTEX
  8
LAYER_1
 10
114.2849
 20
177.4158
  0
VERTEX
  8
LAYER_1
 10
123.2807
 20
186.4116
  0
SEQEND
  0
POLYLINE
  8
LAYER_1
 40
0.0847
 41
0.0847
 66
1
 10
0
 20
0
 30
0
  0
VERTEX
  8
LAYER_1
 10
112.0835
 20
178.0296
  0
VERTEX
  8
LAYER_1
 10
120.4444
 20
186.4116
  0
SEQEND
  0
POLYLINE
  8
LAYER_1
 40
0.0847
 41
0.0847
 66
1
 10
0
 20
0
 30
0
  0
VERTEX
  8
LAYER_1
 10
112.0835
 20
180.866
  0
VERTEX
  8
LAYER_1
 10
117.6292
 20
186.4116
  0
SEQEND
  0
POLYLINE
  8
LAYER_1
 40
0.0847
 41
0.0847
 66
1
 10
0
 20
0
 30
0
  0
VERTEX
  8
LAYER_1
 10
112.0835
 20
183.6811
  0
VERTEX
  8
LAYER_1
 10
114.7929
 20
186.4116
  0
SEQEND
  0
POLYLINE
  8
LAYER_1
 40
0.0847
 41
0.0847
 66
1
 10
0
 20
0
 30
0
  0
VERTEX
  8
LAYER_1
 10
97.3304
 20
177.4158
  0
VERTEX
  8
LAYER_1
 10
99.0872
 20
179.1726
  0
SEQEND
  0
POLYLINE
  8
LAYER_1
 40
0.0847
 41
0.0847
 66
1
 10
0
 20
0
 30
0
  0
VERTEX
  8
LAYER_1
 10
94.494
 20
177.4158
  0
VERTEX
  8
LAYER_1
 10
99.0872
 20
182.009
  0
SEQEND
  0
POLYLINE
  8
LAYER_1
 40
0.0847
 41
0.0847
 66
1
 10
0
 20
0
 30
0
  0
VERTEX
  8
LAYER_1
 10
91.6789
 20
177.4158
  0
VERTEX
  8
LAYER_1
 10
99.0872
 20
184.8241
  0
SEQEND
  0
POLYLINE
  8
LAYER_1
 40
0.0847
 41
0.0847
 66
1
 10
0
 20
0
 30
0
  0
VERTEX
  8
LAYER_1
 10
88.8425
 20
177.4158
  0
VERTEX
  8
LAYER_1
 10
97.8384
 20
186.4116
  0
SEQEND
  0
POLYLINE
  8
LAYER_1
 40
0.0847
 41
0.0847
 66
1
 10
0
 20
0
 30
0
  0
VERTEX
  8
LAYER_1
 10
86.0062
 20
177.4158
  0
VERTEX
  8
LAYER_1
 10
95.0232
 20
186.4116
  0
SEQEND
  0
POLYLINE
  8
LAYER_1
 40
0.0847
 41
0.0847
 66
1
 10
0
 20
0
 30
0
  0
VERTEX
  8
LAYER_1
 10
83.191
 20
177.4158
  0
VERTEX
  8
LAYER_1
 10
92.1869
 20
186.4116
  0
SEQEND
  0
POLYLINE
  8
LAYER_1
 40
0.0847
 41
0.0847
 66
1
 10
0
 20
0
 30
0
  0
VERTEX
  8
LAYER_1
 10
80.3547
 20
177.4158
  0
VERTEX
  8
LAYER_1
 10
89.3505
 20
186.4116
  0
SEQEND
  0
POLYLINE
  8
LAYER_1
 40
0.0847
 41
0.0847
 66
1
 10
0
 20
0
 30
0
  0
VERTEX
  8
LAYER_1
 10
77.5395
 20
177.4158
  0
VERTEX
  8
LAYER_1
 10
86.5354
 20
186.4116
  0
SEQEND
  0
POLYLINE
  8
LAYER_1
 40
0.0847
 41
0.0847
 66
1
 10
0
 20
0
 30
0
  0
VERTEX
  8
LAYER_1
 10
74.7032
 20
177.4158
  0
VERTEX
  8
LAYER_1
 10
83.699
 20
186.4116
  0
SEQEND
  0
POLYLINE
  8
LAYER_1
 40
0.0847
 41
0.0847
 66
1
 10
0
 20
0
 30
0
  0
VERTEX
  8
LAYER_1
 10
71.8668
 20
177.4158
  0
VERTEX
  8
LAYER_1
 10
80.8838
 20
186.4116
  0
SEQEND
  0
POLYLINE
  8
LAYER_1
 40
0.0847
 41
0.0847
 66
1
 10
0
 20
0
 30
0
  0
VERTEX
  8
LAYER_1
 10
69.0517
 20
177.4158
  0
VERTEX
  8
LAYER_1
 10
78.0475
 20
186.4116
  0
SEQEND
  0
POLYLINE
  8
LAYER_1
 40
0.0847
 41
0.0847
 66
1
 10
0
 20
0
 30
0
  0
VERTEX
  8
LAYER_1
 10
66.2153
 20
177.4158
  0
VERTEX
  8
LAYER_1
 10
75.2112
 20
186.4116
  0
SEQEND
  0
POLYLINE
  8
LAYER_1
 40
0.0847
 41
0.0847
 66
1
 10
0
 20
0
 30
0
  0
VERTEX
  8
LAYER_1
 10
63.379
 20
177.4158
  0
VERTEX
  8
LAYER_1
 10
72.396
 20
186.4116
  0
SEQEND
  0
POLYLINE
  8
LAYER_1
 40
0.0847
 41
0.0847
 66
1
 10
0
 20
0
 30
0
  0
VERTEX
  8
LAYER_1
 10
60.5638
 20
177.4158
  0
VERTEX
  8
LAYER_1
 10
69.5597
 20
186.4116
  0
SEQEND
  0
POLYLINE
  8
LAYER_1
 40
0.0847
 41
0.0847
 66
1
 10
0
 20
0
 30
0
  0
VERTEX
  8
LAYER_1
 10
57.7275
 20
177.4158
  0
VERTEX
  8
LAYER_1
 10
66.7233
 20
186.4116
  0
SEQEND
  0
POLYLINE
  8
LAYER_1
 40
0.0847
 41
0.0847
 66
1
 10
0
 20
0
 30
0
  0
VERTEX
  8
LAYER_1
 10
54.9123
 20
177.4158
  0
VERTEX
  8
LAYER_1
 10
63.9082
 20
186.4116
  0
SEQEND
  0
POLYLINE
  8
LAYER_1
 40
0.0847
 41
0.0847
 66
1
 10
0
 20
0
 30
0
  0
VERTEX
  8
LAYER_1
 10
52.076
 20
177.4158
  0
VERTEX
  8
LAYER_1
 10
61.0718
 20
186.4116
  0
SEQEND
  0
POLYLINE
  8
LAYER_1
 40
0.0847
 41
0.0847
 66
1
 10
0
 20
0
 30
0
  0
VERTEX
  8
LAYER_1
 10
49.2397
 20
177.4158
  0
VERTEX
  8
LAYER_1
 10
58.2567
 20
186.4116
  0
SEQEND
  0
POLYLINE
  8
LAYER_1
 40
0.0847
 41
0.0847
 66
1
 10
0
 20
0
 30
0
  0
VERTEX
  8
LAYER_1
 10
46.4245
 20
177.4158
  0
VERTEX
  8
LAYER_1
 10
55.4203
 20
186.4116
  0
SEQEND
  0
POLYLINE
  8
LAYER_1
 40
0.0847
 41
0.0847
 66
1
 10
0
 20
0
 30
0
  0
VERTEX
  8
LAYER_1
 10
43.5882
 20
177.4158
  0
VERTEX
  8
LAYER_1
 10
52.584
 20
186.4116
  0
SEQEND
  0
POLYLINE
  8
LAYER_1
 40
0.0847
 41
0.0847
 66
1
 10
0
 20
0
 30
0
  0
VERTEX
  8
LAYER_1
 10
40.773
 20
177.4158
  0
VERTEX
  8
LAYER_1
 10
49.7688
 20
186.4116
  0
SEQEND
  0
POLYLINE
  8
LAYER_1
 40
0.0847
 41
0.0847
 66
1
 10
0
 20
0
 30
0
  0
VERTEX
  8
LAYER_1
 10
37.9367
 20
177.4158
  0
VERTEX
  8
LAYER_1
 10
46.9325
 20
186.4116
  0
SEQEND
  0
POLYLINE
  8
LAYER_1
 40
0.0847
 41
0.0847
 66
1
 10
0
 20
0
 30
0
  0
VERTEX
  8
LAYER_1
 10
35.1003
 20
177.4158
  0
VERTEX
  8
LAYER_1
 10
44.0962
 20
186.4116
  0
SEQEND
  0
POLYLINE
  8
LAYER_1
 40
0.0847
 41
0.0847
 66
1
 10
0
 20
0
 30
0
  0
VERTEX
  8
LAYER_1
 10
33.6398
 20
178.7705
  0
VERTEX
  8
LAYER_1
 10
41.281
 20
186.4116
  0
SEQEND
  0
POLYLINE
  8
LAYER_1
 40
0.0847
 41
0.0847
 66
1
 10
0
 20
0
 30
0
  0
VERTEX
  8
LAYER_1
 10
35.2062
 20
183.1731
  0
VERTEX
  8
LAYER_1
 10
38.4447
 20
186.4116
  0
SEQEND
  0
POLYLINE
  8
LAYER_1
 40
0.0847
 41
0.0847
 66
1
 10
0
 20
0
 30
0
  0
VERTEX
  8
LAYER_1
 10
34.9098
 20
185.692
  0
VERTEX
  8
LAYER_1
 10
35.6295
 20
186.4116
  0
SEQEND
  0
POLYLINE
  8
LAYER_1
 40
0.0847
 41
0.0847
 66
1
 10
0
 20
0
 30
0
  0
VERTEX
  8
LAYER_1
 10
113.5652
 20
187.3853
  0
VERTEX
  8
LAYER_1
 10
149.739
 20
188.4648
  0
SEQEND
  0
POLYLINE
  8
LAYER_1
 40
0.0847
 41
0.0847
 66
1
 10
0
 20
0
 30
0
  0
VERTEX
  8
LAYER_1
 10
99.701
 20
188.105
  0
VERTEX
  8
LAYER_1
 10
99.8492
 20
188.105
  0
SEQEND
  0
POLYLINE
  8
LAYER_1
 40
0.0847
 41
0.0847
 66
1
 10
0
 20
0
 30
0
  0
VERTEX
  8
LAYER_1
 10
100.1455
 20
188.105
  0
VERTEX
  8
LAYER_1
 10
100.2937
 20
188.105
  0
SEQEND
  0
POLYLINE
  8
LAYER_1
 40
0.0847
 41
0.0847
 66
1
 10
0
 20
0
 30
0
  0
VERTEX
  8
LAYER_1
 10
99.701
 20
188.105
  0
VERTEX
  8
LAYER_1
 10
99.701
 20
188.1685
  0
SEQEND
  0
POLYLINE
  8
LAYER_1
 40
0.0847
 41
0.0847
 66
1
 10
0
 20
0
 30
0
  0
VERTEX
  8
LAYER_1
 10
99.701
 20
188.3166
  0
VERTEX
  8
LAYER_1
 10
99.701
 20
188.4013
  0
SEQEND
  0
POLYLINE
  8
LAYER_1
 40
0.0847
 41
0.0847
 66
1
 10
0
 20
0
 30
0
  0
VERTEX
  8
LAYER_1
 10
100.2937
 20
188.105
  0
VERTEX
  8
LAYER_1
 10
100.2937
 20
188.1685
  0
SEQEND
  0
POLYLINE
  8
LAYER_1
 40
0.0847
 41
0.0847
 66
1
 10
0
 20
0
 30
0
  0
VERTEX
  8
LAYER_1
 10
100.2937
 20
188.3166
  0
VERTEX
  8
LAYER_1
 10
100.2937
 20
188.4013
  0
SEQEND
  0
POLYLINE
  8
LAYER_1
 40
0.0847
 41
0.0847
 66
1
 10
0
 20
0
 30
0
  0
VERTEX
  8
LAYER_1
 10
99.701
 20
176.7173
  0
VERTEX
  8
LAYER_1
 10
99.8492
 20
176.7173
  0
SEQEND
  0
POLYLINE
  8
LAYER_1
 40
0.0847
 41
0.0847
 66
1
 10
0
 20
0
 30
0
  0
VERTEX
  8
LAYER_1
 10
100.1455
 20
176.7173
  0
VERTEX
  8
LAYER_1
 10
100.2937
 20
176.7173
  0
SEQEND
  0
POLYLINE
  8
LAYER_1
 40
0.0847
 41
0.0847
 66
1
 10
0
 20
0
 30
0
  0
VERTEX
  8
LAYER_1
 10
99.701
 20
176.3998
  0
VERTEX
  8
LAYER_1
 10
99.701
 20
176.4633
  0
SEQEND
  0
POLYLINE
  8
LAYER_1
 40
0.0847
 41
0.0847
 66
1
 10
0
 20
0
 30
0
  0
VERTEX
  8
LAYER_1
 10
99.701
 20
176.6326
  0
VERTEX
  8
LAYER_1
 10
99.701
 20
176.7173
  0
SEQEND
  0
POLYLINE
  8
LAYER_1
 40
0.0847
 41
0.0847
 66
1
 10
0
 20
0
 30
0
  0
VERTEX
  8
LAYER_1
 10
100.2937
 20
176.3998
  0
VERTEX
  8
LAYER_1
 10
100.2937
 20
176.4633
  0
SEQEND
  0
POLYLINE
  8
LAYER_1
 40
0.0847
 41
0.0847
 66
1
 10
0
 20
0
 30
0
  0
VERTEX
  8
LAYER_1
 10
100.2937
 20
176.6326
  0
VERTEX
  8
LAYER_1
 10
100.2937
 20
176.7173
  0
SEQEND
  0
POLYLINE
  8
LAYER_1
 40
0.0847
 41
0.0847
 66
1
 10
0
 20
0
 30
0
  0
VERTEX
  8
LAYER_1
 10
111.4697
 20
176.3998
  0
VERTEX
  8
LAYER_1
 10
111.4697
 20
176.4633
  0
SEQEND
  0
POLYLINE
  8
LAYER_1
 40
0.0847
 41
0.0847
 66
1
 10
0
 20
0
 30
0
  0
VERTEX
  8
LAYER_1
 10
111.4697
 20
176.6326
  0
VERTEX
  8
LAYER_1
 10
111.4697
 20
176.7173
  0
SEQEND
  0
POLYLINE
  8
LAYER_1
 40
0.0847
 41
0.0847
 66
1
 10
0
 20
0
 30
0
  0
VERTEX
  8
LAYER_1
 10
110.877
 20
176.7173
  0
VERTEX
  8
LAYER_1
 10
111.0252
 20
176.7173
  0
SEQEND
  0
POLYLINE
  8
LAYER_1
 40
0.0847
 41
0.0847
 66
1
 10
0
 20
0
 30
0
  0
VERTEX
  8
LAYER_1
 10
111.3215
 20
176.7173
  0
VERTEX
  8
LAYER_1
 10
111.4697
 20
176.7173
  0
SEQEND
  0
POLYLINE
  8
LAYER_1
 40
0.0847
 41
0.0847
 66
1
 10
0
 20
0
 30
0
  0
VERTEX
  8
LAYER_1
 10
110.877
 20
176.3998
  0
VERTEX
  8
LAYER_1
 10
110.877
 20
176.4633
  0
SEQEND
  0
POLYLINE
  8
LAYER_1
 40
0.0847
 41
0.0847
 66
1
 10
0
 20
0
 30
0
  0
VERTEX
  8
LAYER_1
 10
110.877
 20
176.6326
  0
VERTEX
  8
LAYER_1
 10
110.877
 20
176.7173
  0
SEQEND
  0
POLYLINE
  8
LAYER_1
 40
0.1693
 41
0.1693
 66
1
 10
0
 20
0
 30
0
  0
VERTEX
  8
LAYER_1
 10
100.0612
 20
186.4116
  0
VERTEX
  8
LAYER_1
 10
111.1102
 20
186.4116
  0
SEQEND
  0
POLYLINE
  8
LAYER_1
 40
0.1693
 41
0.1693
 66
1
 10
0
 20
0
 30
0
  0
VERTEX
  8
LAYER_1
 10
100.04
 20
186.3905
 42
0.3551278831
  0
VERTEX
  8
LAYER_1
 10
99.9342
 20
186.3481
  0
SEQEND
  0
POLYLINE
  8
LAYER_1
 40
0.1693
 41
0.1693
 66
1
 10
0
 20
0
 30
0
  0
VERTEX
  8
LAYER_1
 10
99.4685
 20
185.9671
  0
VERTEX
  8
LAYER_1
 10
99.9342
 20
186.3693
  0
SEQEND
  0
POLYLINE
  8
LAYER_1
 40
0.1693
 41
0.1693
 66
1
 10
0
 20
0
 30
0
  0
VERTEX
  8
LAYER_1
 10
99.4685
 20
185.9671
 42
0.233112743
  0
VERTEX
  8
LAYER_1
 10
99.405
 20
185.8401
  0
SEQEND
  0
POLYLINE
  8
LAYER_1
 40
0.1693
 41
0.1693
 66
1
 10
0
 20
0
 30
0
  0
VERTEX
  8
LAYER_1
 10
99.405
 20
185.311
  0
VERTEX
  8
LAYER_1
 10
99.405
 20
185.819
  0
SEQEND
  0
POLYLINE
  8
LAYER_1
 40
0.1693
 41
0.1693
 66
1
 10
0
 20
0
 30
0
  0
VERTEX
  8
LAYER_1
 10
99.405
 20
185.311
  0
VERTEX
  8
LAYER_1
 10
111.7664
 20
185.311
  0
VERTEX
  8
LAYER_1
 10
111.7664
 20
185.819
  0
SEQEND
  0
POLYLINE
  8
LAYER_1
 40
0.1693
 41
0.1693
 66
1
 10
0
 20
0
 30
0
  0
VERTEX
  8
LAYER_1
 10
111.7664
 20
185.8401
 42
0.133516775
  0
VERTEX
  8
LAYER_1
 10
111.6817
 20
185.9883
  0
SEQEND
  0
POLYLINE
  8
LAYER_1
 40
0.1693
 41
0.1693
 66
1
 10
0
 20
0
 30
0
  0
VERTEX
  8
LAYER_1
 10
111.7029
 20
185.9671
  0
VERTEX
  8
LAYER_1
 10
111.2372
 20
186.3693
  0
SEQEND
  0
POLYLINE
  8
LAYER_1
 40
0.1693
 41
0.1693
 66
1
 10
0
 20
0
 30
0
  0
VERTEX
  8
LAYER_1
 10
99.5955
 20
184.6971
  0
VERTEX
  8
LAYER_1
 10
111.5759
 20
184.6971
  0
SEQEND
  0
POLYLINE
  8
LAYER_1
 40
0.1693
 41
0.1693
 66
1
 10
0
 20
0
 30
0
  0
VERTEX
  8
LAYER_1
 10
101.0561
 20
183.5118
  0
VERTEX
  8
LAYER_1
 10
101.0561
 20
184.6971
  0
SEQEND
  0
POLYLINE
  8
LAYER_1
 40
0.1693
 41
0.1693
 66
1
 10
0
 20
0
 30
0
  0
VERTEX
  8
LAYER_1
 10
99.5955
 20
184.6971
  0
VERTEX
  8
LAYER_1
 10
99.5955
 20
185.311
  0
SEQEND
  0
POLYLINE
  8
LAYER_1
 40
0.1693
 41
0.1693
 66
1
 10
0
 20
0
 30
0
  0
VERTEX
  8
LAYER_1
 10
110.1154
 20
183.5118
  0
VERTEX
  8
LAYER_1
 10
110.1154
 20
184.6971
  0
SEQEND
  0
POLYLINE
  8
LAYER_1
 40
0.1693
 41
0.1693
 66
1
 10
0
 20
0
 30
0
  0
VERTEX
  8
LAYER_1
 10
101.0561
 20
183.5118
  0
VERTEX
  8
LAYER_1
 10
110.1154
 20
183.5118
  0
SEQEND
  0
POLYLINE
  8
LAYER_1
 40
0.1693
 41
0.1693
 66
1
 10
0
 20
0
 30
0
  0
VERTEX
  8
LAYER_1
 10
111.5759
 20
184.6971
  0
VERTEX
  8
LAYER_1
 10
111.5759
 20
185.311
  0
SEQEND
  0
POLYLINE
  8
LAYER_1
 40
0.0847
 41
0.0847
 66
1
 10
0
 20
0
 30
0
  0
VERTEX
  8
LAYER_1
 10
101.0984
 20
186.4116
  0
VERTEX
  8
LAYER_1
 10
101.0984
 20
187.1525
  0
SEQEND
  0
POLYLINE
  8
LAYER_1
 40
0.0847
 41
0.0847
 66
1
 10
0
 20
0
 30
0
  0
VERTEX
  8
LAYER_1
 10
101.0984
 20
187.6393
  0
VERTEX
  8
LAYER_1
 10
101.0984
 20
188.4013
  0
SEQEND
  0
POLYLINE
  8
LAYER_1
 40
0.0847
 41
0.0847
 66
1
 10
0
 20
0
 30
0
  0
VERTEX
  8
LAYER_1
 10
100.8867
 20
176.3998
  0
VERTEX
  8
LAYER_1
 10
100.8867
 20
176.7808
  0
SEQEND
  0
POLYLINE
  8
LAYER_1
 40
0.0847
 41
0.0847
 66
1
 10
0
 20
0
 30
0
  0
VERTEX
  8
LAYER_1
 10
100.8867
 20
177.0348
  0
VERTEX
  8
LAYER_1
 10
100.8867
 20
177.4158
  0
SEQEND
  0
POLYLINE
  8
LAYER_1
 40
0.0847
 41
0.0847
 66
1
 10
0
 20
0
 30
0
  0
VERTEX
  8
LAYER_1
 10
110.2847
 20
176.3998
  0
VERTEX
  8
LAYER_1
 10
110.2847
 20
176.7808
  0
SEQEND
  0
POLYLINE
  8
LAYER_1
 40
0.0847
 41
0.0847
 66
1
 10
0
 20
0
 30
0
  0
VERTEX
  8
LAYER_1
 10
110.2847
 20
177.0348
  0
VERTEX
  8
LAYER_1
 10
110.2847
 20
177.4158
  0
SEQEND
  0
POLYLINE
  8
LAYER_1
 40
0.0847
 41
0.0847
 66
1
 10
0
 20
0
 30
0
  0
VERTEX
  8
LAYER_1
 10
100.8867
 20
177.4158
  0
VERTEX
  8
LAYER_1
 10
101.183
 20
177.4158
  0
SEQEND
  0
POLYLINE
  8
LAYER_1
 40
0.0847
 41
0.0847
 66
1
 10
0
 20
0
 30
0
  0
VERTEX
  8
LAYER_1
 10
101.3735
 20
177.4158
  0
VERTEX
  8
LAYER_1
 10
101.691
 20
177.4158
  0
SEQEND
  0
POLYLINE
  8
LAYER_1
 40
0.0847
 41
0.0847
 66
1
 10
0
 20
0
 30
0
  0
VERTEX
  8
LAYER_1
 10
109.692
 20
177.4158
  0
VERTEX
  8
LAYER_1
 10
109.9037
 20
177.4158
  0
SEQEND
  0
POLYLINE
  8
LAYER_1
 40
0.0847
 41
0.0847
 66
1
 10
0
 20
0
 30
0
  0
VERTEX
  8
LAYER_1
 10
110.0519
 20
177.4158
  0
VERTEX
  8
LAYER_1
 10
110.2847
 20
177.4158
  0
SEQEND
  0
POLYLINE
  8
LAYER_1
 40
0.0847
 41
0.0847
 66
1
 10
0
 20
0
 30
0
  0
VERTEX
  8
LAYER_1
 10
107.914
 20
194.6666
  0
VERTEX
  8
LAYER_1
 10
116.0208
 20
204.9536
  0
SEQEND
  0
POLYLINE
  8
LAYER_1
 40
0.0847
 41
0.0847
 66
1
 10
0
 20
0
 30
0
  0
VERTEX
  8
LAYER_1
 10
97.6482
 20
177.0983
  0
VERTEX
  8
LAYER_1
 10
98.1562
 20
177.0983
  0
SEQEND
  0
POLYLINE
  8
LAYER_1
 40
0.0847
 41
0.0847
 66
1
 10
0
 20
0
 30
0
  0
VERTEX
  8
LAYER_1
 10
97.6482
 20
177.0983
  0
VERTEX
  8
LAYER_1
 10
97.6482
 20
177.4158
  0
SEQEND
  0
POLYLINE
  8
LAYER_1
 40
0.0847
 41
0.0847
 66
1
 10
0
 20
0
 30
0
  0
VERTEX
  8
LAYER_1
 10
98.1562
 20
177.0983
  0
VERTEX
  8
LAYER_1
 10
98.1562
 20
177.4158
  0
SEQEND
  0
POLYLINE
  8
LAYER_1
 40
0.0847
 41
0.0847
 66
1
 10
0
 20
0
 30
0
  0
VERTEX
  8
LAYER_1
 10
113.0152
 20
177.0983
  0
VERTEX
  8
LAYER_1
 10
113.5232
 20
177.0983
  0
VERTEX
  8
LAYER_1
 10
113.5232
 20
177.4158
  0
SEQEND
  0
POLYLINE
  8
LAYER_1
 40
0.0847
 41
0.0847
 66
1
 10
0
 20
0
 30
0
  0
VERTEX
  8
LAYER_1
 10
97.6482
 20
186.708
  0
VERTEX
  8
LAYER_1
 10
98.1562
 20
186.708
  0
SEQEND
  0
POLYLINE
  8
LAYER_1
 40
0.0847
 41
0.0847
 66
1
 10
0
 20
0
 30
0
  0
VERTEX
  8
LAYER_1
 10
97.6482
 20
186.4116
  0
VERTEX
  8
LAYER_1
 10
97.6482
 20
186.708
  0
SEQEND
  0
POLYLINE
  8
LAYER_1
 40
0.0847
 41
0.0847
 66
1
 10
0
 20
0
 30
0
  0
VERTEX
  8
LAYER_1
 10
98.1562
 20
186.4116
  0
VERTEX
  8
LAYER_1
 10
98.1562
 20
186.708
  0
SEQEND
  0
POLYLINE
  8
LAYER_1
 40
0.0847
 41
0.0847
 66
1
 10
0
 20
0
 30
0
  0
VERTEX
  8
LAYER_1
 10
107.152
 20
164.61
  0
VERTEX
  8
LAYER_1
 10
151.729
 20
156.4608
  0
SEQEND
  0
POLYLINE
  8
LAYER_1
 40
0.0847
 41
0.0847
 66
1
 10
0
 20
0
 30
0
  0
VERTEX
  8
LAYER_1
 10
100.6115
 20
185.2051
  0
VERTEX
  8
LAYER_1
 10
51.399
 20
158.4505
  0
SEQEND
  0
POLYLINE
  8
LAYER_1
 40
0.0847
 41
0.0847
 66
1
 10
0
 20
0
 30
0
  0
VERTEX
  8
LAYER_1
 10
102.0932
 20
173.881
  0
VERTEX
  8
LAYER_1
 10
51.399
 20
158.4505
  0
SEQEND
  0
POLYLINE
  8
LAYER_1
 40
0.0847
 41
0.0847
 66
1
 10
0
 20
0
 30
0
  0
VERTEX
  8
LAYER_1
 10
97.881
 20
186.581
  0
VERTEX
  8
LAYER_1
 10
50.2984
 20
166.5996
  0
SEQEND
  0
TEXT
  8
LAYER_1
 10
140.2567
 20
173.3306
 11
140.2567
 21
173.3306
 40
4.2535
 41
0.5
  1
ôVö┬èJî¹Éíû@üF65067
  0
TEXT
  8
LAYER_1
 10
116.6981
 20
205.0866
 11
116.6981
 21
205.0866
 40
3.0419
 41
0.5
  1
JORGERÉ╗ örÉàïÓï´100mm
  0
TEXT
  8
LAYER_1
 10
150.2892
 20
191.3011
 11
150.2892
 21
191.3011
 40
2.5779
 41
0.5
  1
âXâ`âìü[âïâpâbâLâô
  0
POLYLINE
  8
LAYER_1
 40
0.0847
 41
0.0847
 66
1
 10
0
 20
0
 30
0
  0
VERTEX
  8
LAYER_1
 10
34.4445
 20
186.4116
  0
VERTEX
  8
LAYER_1
 10
34.5927
 20
186.2
  0
VERTEX
  8
LAYER_1
 10
34.8255
 20
185.8401
  0
VERTEX
  8
LAYER_1
 10
35.0584
 20
185.4591
  0
VERTEX
  8
LAYER_1
 10
35.2277
 20
185.0993
  0
VERTEX
  8
LAYER_1
 10
35.3759
 20
184.7395
  0
VERTEX
  8
LAYER_1
 10
35.4605
 20
184.3796
  0
VERTEX
  8
LAYER_1
 10
35.4605
 20
184.168
  0
VERTEX
  8
LAYER_1
 10
35.4605
 20
183.9351
  0
VERTEX
  8
LAYER_1
 10
35.3759
 20
183.5753
  0
VERTEX
  8
LAYER_1
 10
35.2277
 20
183.2155
  0
VERTEX
  8
LAYER_1
 10
35.0584
 20
182.8556
  0
VERTEX
  8
LAYER_1
 10
34.8255
 20
182.4746
  0
VERTEX
  8
LAYER_1
 10
34.5927
 20
182.1148
  0
VERTEX
  8
LAYER_1
 10
34.2964
 20
181.6915
  0
VERTEX
  8
LAYER_1
 10
34.0635
 20
181.3316
  0
VERTEX
  8
LAYER_1
 10
33.8307
 20
180.9718
  0
VERTEX
  8
LAYER_1
 10
33.6402
 20
180.5908
  0
VERTEX
  8
LAYER_1
 10
33.5132
 20
180.231
  0
VERTEX
  8
LAYER_1
 10
33.4285
 20
179.8711
  0
VERTEX
  8
LAYER_1
 10
33.4074
 20
179.6595
  0
VERTEX
  8
LAYER_1
 10
33.4285
 20
179.4478
  0
VERTEX
  8
LAYER_1
 10
33.5132
 20
179.088
  0
VERTEX
  8
LAYER_1
 10
33.6402
 20
178.707
  0
VERTEX
  8
LAYER_1
 10
33.8307
 20
178.3471
  0
VERTEX
  8
LAYER_1
 10
34.0635
 20
177.9873
  0
VERTEX
  8
LAYER_1
 10
34.2964
 20
177.6275
  0
VERTEX
  8
LAYER_1
 10
34.4445
 20
177.4158
  0
SEQEND
  0
POLYLINE
  8
LAYER_1
 40
0.0847
 41
0.0847
 66
1
 10
0
 20
0
 30
0
  0
VERTEX
  8
LAYER_1
 10
176.7269
 20
186.4116
  0
VERTEX
  8
LAYER_1
 10
176.5787
 20
186.2
  0
VERTEX
  8
LAYER_1
 10
176.3459
 20
185.8401
  0
VERTEX
  8
LAYER_1
 10
176.113
 20
185.4591
  0
VERTEX
  8
LAYER_1
 10
175.9437
 20
185.0993
  0
VERTEX
  8
LAYER_1
 10
175.7955
 20
184.7395
  0
VERTEX
  8
LAYER_1
 10
175.7109
 20
184.3796
  0
VERTEX
  8
LAYER_1
 10
175.7109
 20
184.168
  0
VERTEX
  8
LAYER_1
 10
175.7109
 20
183.9351
  0
VERTEX
  8
LAYER_1
 10
175.7955
 20
183.5753
  0
VERTEX
  8
LAYER_1
 10
175.9437
 20
183.2155
  0
VERTEX
  8
LAYER_1
 10
176.113
 20
182.8556
  0
VERTEX
  8
LAYER_1
 10
176.3459
 20
182.4746
  0
VERTEX
  8
LAYER_1
 10
176.5787
 20
182.1148
  0
VERTEX
  8
LAYER_1
 10
176.875
 20
181.6915
  0
VERTEX
  8
LAYER_1
 10
177.1079
 20
181.3316
  0
VERTEX
  8
LAYER_1
 10
177.3407
 20
180.9718
  0
VERTEX
  8
LAYER_1
 10
177.5312
 20
180.5908
  0
VERTEX
  8
LAYER_1
 10
177.6582
 20
180.231
  0
VERTEX
  8
LAYER_1
 10
177.7429
 20
179.8711
  0
VERTEX
  8
LAYER_1
 10
177.764
 20
179.6595
  0
VERTEX
  8
LAYER_1
 10
177.7429
 20
179.4478
  0
VERTEX
  8
LAYER_1
 10
177.6582
 20
179.088
  0
VERTEX
  8
LAYER_1
 10
177.5312
 20
178.707
  0
VERTEX
  8
LAYER_1
 10
177.3407
 20
178.3471
  0
VERTEX
  8
LAYER_1
 10
177.1079
 20
177.9873
  0
VERTEX
  8
LAYER_1
 10
176.875
 20
177.6275
  0
VERTEX
  8
LAYER_1
 10
176.7269
 20
177.4158
  0
SEQEND
  0
TEXT
  8
LAYER_1
 10
150.6493
 20
187.7875
 11
150.6493
 21
187.7875
 40
2.5779
 41
0.5
  1
â}âEâôâeâBâôâOâfâBâXâN
  0
TEXT
  8
LAYER_1
 10
32.8145
 20
165.6685
 11
32.8145
 21
165.6685
 40
2.5779
 41
0.5
  1
äOâèâôâOüiìòüj
  0
TEXT
  8
LAYER_1
 10
151.0936
 20
162.1546
 11
151.0936
 21
162.1546
 40
2.5779
 41
0.5
  1
äOâèâôâOüiô¹öÆüj
  0
TEXT
  8
LAYER_1
 10
18.2304
 20
157.0957
 11
18.2304
 21
157.0957
 40
2.5779
 41
0.5
  1
Ä¸ÄëâpâbâLâôòtì└òté½âiâbâg
  0
POLYLINE
  8
LAYER_1
 40
0.1693
 41
0.1693
 66
1
 10
0
 20
0
 30
0
  0
VERTEX
  8
LAYER_1
 10
91.5734
 20
191.4493
  0
VERTEX
  8
LAYER_1
 10
92.1237
 20
191.4281
  0
SEQEND
  0
POLYLINE
  8
LAYER_1
 40
0.1693
 41
0.1693
 66
1
 10
0
 20
0
 30
0
  0
VERTEX
  8
LAYER_1
 10
94.4944
 20
191.1953
  0
VERTEX
  8
LAYER_1
 10
94.071
 20
191.2588
  0
SEQEND
  0
POLYLINE
  8
LAYER_1
 40
0.0847
 41
0.0847
 66
1
 10
0
 20
0
 30
0
  0
VERTEX
  8
LAYER_1
 10
48.4145
 20
215.0925
  0
VERTEX
  8
LAYER_1
 10
51.0392
 20
211.0708
  0
SEQEND
  0
POLYLINE
  8
LAYER_1
 40
0.0847
 41
0.0847
 66
1
 10
0
 20
0
 30
0
  0
VERTEX
  8
LAYER_1
 10
48.4145
 20
215.0925
 42
0.2759582579
  0
VERTEX
  8
LAYER_1
 10
46.6365
 20
216.1931
  0
VERTEX
  8
LAYER_1
 10
46.6154
 20
216.1931
  0
SEQEND
  0
POLYLINE
  8
LAYER_1
 40
0.1693
 41
0.1693
 66
1
 10
0
 20
0
 30
0
  0
VERTEX
  8
LAYER_1
 10
38.8049
 20
213.6108
  0
VERTEX
  8
LAYER_1
 10
38.8049
 20
213.9918
  0
VERTEX
  8
LAYER_1
 10
38.8472
 20
214.3516
  0
VERTEX
  8
LAYER_1
 10
38.9107
 20
214.6691
  0
SEQEND
  0
POLYLINE
  8
LAYER_1
 40
0.1693
 41
0.1693
 66
1
 10
0
 20
0
 30
0
  0
VERTEX
  8
LAYER_1
 10
38.9954
 20
214.9655
  0
VERTEX
  8
LAYER_1
 10
39.1012
 20
215.2195
  0
VERTEX
  8
LAYER_1
 10
39.2282
 20
215.4523
  0
VERTEX
  8
LAYER_1
 10
39.3764
 20
215.6428
  0
VERTEX
  8
LAYER_1
 10
39.5457
 20
215.8121
  0
VERTEX
  8
LAYER_1
 10
39.7574
 20
215.9603
  0
VERTEX
  8
LAYER_1
 10
39.9902
 20
216.0661
  0
VERTEX
  8
LAYER_1
 10
40.223
 20
216.1508
  0
VERTEX
  8
LAYER_1
 10
40.4982
 20
216.1931
  0
VERTEX
  8
LAYER_1
 10
40.7945
 20
216.2143
  0
SEQEND
  0
POLYLINE
  8
LAYER_1
 40
0.1693
 41
0.1693
 66
1
 10
0
 20
0
 30
0
  0
VERTEX
  8
LAYER_1
 10
172.3665
 20
213.6108
  0
VERTEX
  8
LAYER_1
 10
172.3665
 20
213.9918
  0
VERTEX
  8
LAYER_1
 10
172.3242
 20
214.3516
  0
VERTEX
  8
LAYER_1
 10
172.2607
 20
214.6691
  0
VERTEX
  8
LAYER_1
 10
172.176
 20
214.9655
  0
VERTEX
  8
LAYER_1
 10
172.0702
 20
215.2195
  0
VERTEX
  8
LAYER_1
 10
171.9432
 20
215.4523
  0
VERTEX
  8
LAYER_1
 10
171.795
 20
215.6428
  0
VERTEX
  8
LAYER_1
 10
171.6257
 20
215.8121
  0
VERTEX
  8
LAYER_1
 10
171.414
 20
215.9603
  0
VERTEX
  8
LAYER_1
 10
171.1812
 20
216.0661
  0
VERTEX
  8
LAYER_1
 10
170.9484
 20
216.1508
  0
VERTEX
  8
LAYER_1
 10
170.6732
 20
216.1931
  0
VERTEX
  8
LAYER_1
 10
170.3769
 20
216.2143
  0
SEQEND
  0
POLYLINE
  8
LAYER_1
 40
0.0847
 41
0.0847
 66
1
 10
0
 20
0
 30
0
  0
VERTEX
  8
LAYER_1
 10
141.95
 20
195.0688
  0
VERTEX
  8
LAYER_1
 10
141.442
 20
194.9206
  0
VERTEX
  8
LAYER_1
 10
140.9129
 20
194.7725
  0
VERTEX
  8
LAYER_1
 10
139.9604
 20
194.5396
  0
VERTEX
  8
LAYER_1
 10
139.029
 20
194.3491
  0
VERTEX
  8
LAYER_1
 10
135.4519
 20
193.8411
  0
VERTEX
  8
LAYER_1
 10
133.8644
 20
193.6506
  0
VERTEX
  8
LAYER_1
 10
132.2557
 20
193.5025
  0
VERTEX
  8
LAYER_1
 10
130.6894
 20
193.3755
  0
VERTEX
  8
LAYER_1
 10
130.0544
 20
193.3755
  0
VERTEX
  8
LAYER_1
 10
129.3982
 20
193.3755
  0
VERTEX
  8
LAYER_1
 10
128.742
 20
193.3966
  0
VERTEX
  8
LAYER_1
 10
128.107
 20
193.3966
  0
VERTEX
  8
LAYER_1
 10
127.472
 20
193.4178
  0
VERTEX
  8
LAYER_1
 10
126.837
 20
193.4178
  0
VERTEX
  8
LAYER_1
 10
126.202
 20
193.439
  0
VERTEX
  8
LAYER_1
 10
125.5882
 20
193.4601
  0
VERTEX
  8
LAYER_1
 10
124.9744
 20
193.4601
  0
SEQEND
  0
POLYLINE
  8
LAYER_1
 40
0.0847
 41
0.0847
 66
1
 10
0
 20
0
 30
0
  0
VERTEX
  8
LAYER_1
 10
85.5832
 20
193.4601
  0
VERTEX
  8
LAYER_1
 10
84.9694
 20
193.439
  0
VERTEX
  8
LAYER_1
 10
84.3344
 20
193.4178
  0
VERTEX
  8
LAYER_1
 10
83.6994
 20
193.4178
  0
VERTEX
  8
LAYER_1
 10
83.0644
 20
193.3966
  0
VERTEX
  8
LAYER_1
 10
82.4294
 20
193.3966
  0
VERTEX
  8
LAYER_1
 10
81.7732
 20
193.3755
  0
VERTEX
  8
LAYER_1
 10
81.117
 20
193.3755
  0
VERTEX
  8
LAYER_1
 10
80.482
 20
193.3755
  0
VERTEX
  8
LAYER_1
 10
78.9157
 20
193.5025
  0
VERTEX
  8
LAYER_1
 10
77.307
 20
193.6506
  0
VERTEX
  8
LAYER_1
 10
75.7195
 20
193.8411
  0
VERTEX
  8
LAYER_1
 10
72.1424
 20
194.3491
  0
VERTEX
  8
LAYER_1
 10
71.211
 20
194.5396
  0
VERTEX
  8
LAYER_1
 10
70.2585
 20
194.7725
  0
VERTEX
  8
LAYER_1
 10
69.7294
 20
194.9206
  0
VERTEX
  8
LAYER_1
 10
69.2214
 20
195.0688
  0
VERTEX
  8
LAYER_1
 10
68.3324
 20
195.3651
  0
VERTEX
  8
LAYER_1
 10
67.4645
 20
195.6826
  0
VERTEX
  8
LAYER_1
 10
66.5967
 20
196.0213
  0
VERTEX
  8
LAYER_1
 10
65.7289
 20
196.4023
  0
VERTEX
  8
LAYER_1
 10
64.861
 20
196.8045
  0
VERTEX
  8
LAYER_1
 10
64.3742
 20
197.0373
  0
VERTEX
  8
LAYER_1
 10
63.7392
 20
197.376
  0
SEQEND
  0
POLYLINE
  8
LAYER_1
 40
0.1693
 41
0.1693
 66
1
 10
0
 20
0
 30
0
  0
VERTEX
  8
LAYER_1
 10
113.5655
 20
188.613
  0
VERTEX
  8
LAYER_1
 10
113.5655
 20
190.6026
  0
SEQEND
  0
POLYLINE
  8
LAYER_1
 40
0.1693
 41
0.1693
 66
1
 10
0
 20
0
 30
0
  0
VERTEX
  8
LAYER_1
 10
51.5472
 20
206.2236
  0
VERTEX
  8
LAYER_1
 10
52.4574
 20
204.996
  0
VERTEX
  8
LAYER_1
 10
53.431
 20
203.8318
  0
VERTEX
  8
LAYER_1
 10
53.7909
 20
203.3873
  0
VERTEX
  8
LAYER_1
 10
54.4047
 20
202.6253
  0
VERTEX
  8
LAYER_1
 10
55.0397
 20
201.8633
  0
VERTEX
  8
LAYER_1
 10
55.6747
 20
201.1225
  0
VERTEX
  8
LAYER_1
 10
56.352
 20
200.4028
  0
VERTEX
  8
LAYER_1
 10
57.0294
 20
199.7043
  0
VERTEX
  8
LAYER_1
 10
57.4527
 20
199.3233
  0
VERTEX
  8
LAYER_1
 10
58.003
 20
198.8576
  0
VERTEX
  8
LAYER_1
 10
58.9767
 20
198.0745
  0
VERTEX
  8
LAYER_1
 10
59.9927
 20
197.3548
  0
VERTEX
  8
LAYER_1
 10
61.0722
 20
196.6986
  0
VERTEX
  8
LAYER_1
 10
62.1517
 20
196.0636
  0
VERTEX
  8
LAYER_1
 10
63.2735
 20
195.471
  0
VERTEX
  8
LAYER_1
 10
63.9297
 20
195.1323
  0
VERTEX
  8
LAYER_1
 10
64.4377
 20
194.8995
  0
VERTEX
  8
LAYER_1
 10
65.3267
 20
194.4761
  0
VERTEX
  8
LAYER_1
 10
66.2157
 20
194.0951
  0
VERTEX
  8
LAYER_1
 10
67.1047
 20
193.7353
  0
VERTEX
  8
LAYER_1
 10
68.0149
 20
193.3966
  0
VERTEX
  8
LAYER_1
 10
68.925
 20
193.1003
  0
VERTEX
  8
LAYER_1
 10
69.4542
 20
192.9521
  0
VERTEX
  8
LAYER_1
 10
70.0257
 20
192.7828
  0
VERTEX
  8
LAYER_1
 10
70.9994
 20
192.55
  0
VERTEX
  8
LAYER_1
 10
71.973
 20
192.3595
  0
VERTEX
  8
LAYER_1
 10
75.5925
 20
191.8303
  0
VERTEX
  8
LAYER_1
 10
77.2012
 20
191.6398
  0
VERTEX
  8
LAYER_1
 10
78.831
 20
191.4916
  0
VERTEX
  8
LAYER_1
 10
80.4397
 20
191.3646
  0
VERTEX
  8
LAYER_1
 10
81.117
 20
191.3646
  0
VERTEX
  8
LAYER_1
 10
81.7944
 20
191.3646
  0
VERTEX
  8
LAYER_1
 10
82.4294
 20
191.3858
  0
VERTEX
  8
LAYER_1
 10
83.0855
 20
191.3858
  0
VERTEX
  8
LAYER_1
 10
83.7205
 20
191.407
  0
VERTEX
  8
LAYER_1
 10
84.3555
 20
191.407
  0
VERTEX
  8
LAYER_1
 10
84.9905
 20
191.4281
  0
VERTEX
  8
LAYER_1
 10
85.6044
 20
191.4281
  0
SEQEND
  0
POLYLINE
  8
LAYER_1
 40
0.1693
 41
0.1693
 66
1
 10
0
 20
0
 30
0
  0
VERTEX
  8
LAYER_1
 10
121.9264
 20
191.4916
  0
VERTEX
  8
LAYER_1
 10
121.3337
 20
191.4916
  0
SEQEND
  0
POLYLINE
  8
LAYER_1
 40
0.1693
 41
0.1693
 66
1
 10
0
 20
0
 30
0
  0
VERTEX
  8
LAYER_1
 10
122.519
 20
191.4916
  0
VERTEX
  8
LAYER_1
 10
121.9264
 20
191.4916
  0
SEQEND
  0
POLYLINE
  8
LAYER_1
 40
0.1693
 41
0.1693
 66
1
 10
0
 20
0
 30
0
  0
VERTEX
  8
LAYER_1
 10
123.1117
 20
191.4916
  0
VERTEX
  8
LAYER_1
 10
122.519
 20
191.4916
  0
SEQEND
  0
POLYLINE
  8
LAYER_1
 40
0.1693
 41
0.1693
 66
1
 10
0
 20
0
 30
0
  0
VERTEX
  8
LAYER_1
 10
123.7255
 20
191.4705
  0
VERTEX
  8
LAYER_1
 10
123.1117
 20
191.4916
  0
SEQEND
  0
POLYLINE
  8
LAYER_1
 40
0.1693
 41
0.1693
 66
1
 10
0
 20
0
 30
0
  0
VERTEX
  8
LAYER_1
 10
124.3394
 20
191.4705
  0
VERTEX
  8
LAYER_1
 10
123.7255
 20
191.4705
  0
SEQEND
  0
POLYLINE
  8
LAYER_1
 40
0.1693
 41
0.1693
 66
1
 10
0
 20
0
 30
0
  0
VERTEX
  8
LAYER_1
 10
124.9532
 20
191.4493
  0
VERTEX
  8
LAYER_1
 10
124.3393
 20
191.4705
  0
SEQEND
  0
POLYLINE
  8
LAYER_1
 40
0.1693
 41
0.1693
 66
1
 10
0
 20
0
 30
0
  0
VERTEX
  8
LAYER_1
 10
125.567
 20
191.4281
  0
VERTEX
  8
LAYER_1
 10
124.9532
 20
191.4493
  0
SEQEND
  0
POLYLINE
  8
LAYER_1
 40
0.1693
 41
0.1693
 66
1
 10
0
 20
0
 30
0
  0
VERTEX
  8
LAYER_1
 10
126.1808
 20
191.4281
  0
VERTEX
  8
LAYER_1
 10
125.567
 20
191.4281
  0
SEQEND
  0
POLYLINE
  8
LAYER_1
 40
0.1693
 41
0.1693
 66
1
 10
0
 20
0
 30
0
  0
VERTEX
  8
LAYER_1
 10
126.8158
 20
191.407
  0
VERTEX
  8
LAYER_1
 10
126.1808
 20
191.4281
  0
SEQEND
  0
POLYLINE
  8
LAYER_1
 40
0.1693
 41
0.1693
 66
1
 10
0
 20
0
 30
0
  0
VERTEX
  8
LAYER_1
 10
127.4508
 20
191.407
  0
VERTEX
  8
LAYER_1
 10
126.8158
 20
191.407
  0
SEQEND
  0
POLYLINE
  8
LAYER_1
 40
0.1693
 41
0.1693
 66
1
 10
0
 20
0
 30
0
  0
VERTEX
  8
LAYER_1
 10
128.0858
 20
191.3858
  0
VERTEX
  8
LAYER_1
 10
127.4508
 20
191.407
  0
SEQEND
  0
POLYLINE
  8
LAYER_1
 40
0.1693
 41
0.1693
 66
1
 10
0
 20
0
 30
0
  0
VERTEX
  8
LAYER_1
 10
128.742
 20
191.3858
  0
VERTEX
  8
LAYER_1
 10
128.0858
 20
191.3858
  0
SEQEND
  0
POLYLINE
  8
LAYER_1
 40
0.1693
 41
0.1693
 66
1
 10
0
 20
0
 30
0
  0
VERTEX
  8
LAYER_1
 10
129.377
 20
191.3646
  0
VERTEX
  8
LAYER_1
 10
128.742
 20
191.3858
  0
SEQEND
  0
POLYLINE
  8
LAYER_1
 40
0.1693
 41
0.1693
 66
1
 10
0
 20
0
 30
0
  0
VERTEX
  8
LAYER_1
 10
130.0543
 20
191.3646
  0
VERTEX
  8
LAYER_1
 10
129.377
 20
191.3646
  0
SEQEND
  0
POLYLINE
  8
LAYER_1
 40
0.1693
 41
0.1693
 66
1
 10
0
 20
0
 30
0
  0
VERTEX
  8
LAYER_1
 10
130.7317
 20
191.3646
  0
VERTEX
  8
LAYER_1
 10
130.0543
 20
191.3646
  0
SEQEND
  0
POLYLINE
  8
LAYER_1
 40
0.1693
 41
0.1693
 66
1
 10
0
 20
0
 30
0
  0
VERTEX
  8
LAYER_1
 10
132.3403
 20
191.4916
  0
VERTEX
  8
LAYER_1
 10
130.7317
 20
191.3646
  0
SEQEND
  0
POLYLINE
  8
LAYER_1
 40
0.1693
 41
0.1693
 66
1
 10
0
 20
0
 30
0
  0
VERTEX
  8
LAYER_1
 10
133.9702
 20
191.6398
  0
VERTEX
  8
LAYER_1
 10
132.3403
 20
191.4916
  0
SEQEND
  0
POLYLINE
  8
LAYER_1
 40
0.1693
 41
0.1693
 66
1
 10
0
 20
0
 30
0
  0
VERTEX
  8
LAYER_1
 10
135.5788
 20
191.8303
  0
VERTEX
  8
LAYER_1
 10
133.9702
 20
191.6398
  0
SEQEND
  0
POLYLINE
  8
LAYER_1
 40
0.1693
 41
0.1693
 66
1
 10
0
 20
0
 30
0
  0
VERTEX
  8
LAYER_1
 10
139.1983
 20
192.3595
  0
VERTEX
  8
LAYER_1
 10
135.5788
 20
191.8303
  0
SEQEND
  0
POLYLINE
  8
LAYER_1
 40
0.1693
 41
0.1693
 66
1
 10
0
 20
0
 30
0
  0
VERTEX
  8
LAYER_1
 10
140.172
 20
192.55
  0
VERTEX
  8
LAYER_1
 10
139.1983
 20
192.3595
  0
SEQEND
  0
POLYLINE
  8
LAYER_1
 40
0.1693
 41
0.1693
 66
1
 10
0
 20
0
 30
0
  0
VERTEX
  8
LAYER_1
 10
141.1457
 20
192.7828
  0
VERTEX
  8
LAYER_1
 10
140.172
 20
192.55
  0
SEQEND
  0
POLYLINE
  8
LAYER_1
 40
0.1693
 41
0.1693
 66
1
 10
0
 20
0
 30
0
  0
VERTEX
  8
LAYER_1
 10
141.7172
 20
192.9521
  0
VERTEX
  8
LAYER_1
 10
141.1456
 20
192.7828
  0
SEQEND
  0
POLYLINE
  8
LAYER_1
 40
0.1693
 41
0.1693
 66
1
 10
0
 20
0
 30
0
  0
VERTEX
  8
LAYER_1
 10
142.2463
 20
193.1003
  0
VERTEX
  8
LAYER_1
 10
141.7172
 20
192.9521
  0
SEQEND
  0
POLYLINE
  8
LAYER_1
 40
0.1693
 41
0.1693
 66
1
 10
0
 20
0
 30
0
  0
VERTEX
  8
LAYER_1
 10
143.1565
 20
193.3966
  0
VERTEX
  8
LAYER_1
 10
142.2463
 20
193.1003
  0
SEQEND
  0
POLYLINE
  8
LAYER_1
 40
0.1693
 41
0.1693
 66
1
 10
0
 20
0
 30
0
  0
VERTEX
  8
LAYER_1
 10
144.0667
 20
193.7353
  0
VERTEX
  8
LAYER_1
 10
143.1565
 20
193.3966
  0
SEQEND
  0
POLYLINE
  8
LAYER_1
 40
0.1693
 41
0.1693
 66
1
 10
0
 20
0
 30
0
  0
VERTEX
  8
LAYER_1
 10
144.9557
 20
194.0951
  0
VERTEX
  8
LAYER_1
 10
144.0667
 20
193.7353
  0
SEQEND
  0
POLYLINE
  8
LAYER_1
 40
0.1693
 41
0.1693
 66
1
 10
0
 20
0
 30
0
  0
VERTEX
  8
LAYER_1
 10
145.8447
 20
194.4761
  0
VERTEX
  8
LAYER_1
 10
144.9557
 20
194.0951
  0
SEQEND
  0
POLYLINE
  8
LAYER_1
 40
0.1693
 41
0.1693
 66
1
 10
0
 20
0
 30
0
  0
VERTEX
  8
LAYER_1
 10
146.7337
 20
194.8995
  0
VERTEX
  8
LAYER_1
 10
145.8447
 20
194.4761
  0
SEQEND
  0
POLYLINE
  8
LAYER_1
 40
0.1693
 41
0.1693
 66
1
 10
0
 20
0
 30
0
  0
VERTEX
  8
LAYER_1
 10
147.2417
 20
195.1323
  0
VERTEX
  8
LAYER_1
 10
146.7337
 20
194.8995
  0
SEQEND
  0
POLYLINE
  8
LAYER_1
 40
0.1693
 41
0.1693
 66
1
 10
0
 20
0
 30
0
  0
VERTEX
  8
LAYER_1
 10
147.8979
 20
195.471
  0
VERTEX
  8
LAYER_1
 10
147.2417
 20
195.1323
  0
SEQEND
  0
POLYLINE
  8
LAYER_1
 40
0.1693
 41
0.1693
 66
1
 10
0
 20
0
 30
0
  0
VERTEX
  8
LAYER_1
 10
149.0197
 20
196.0636
  0
VERTEX
  8
LAYER_1
 10
147.8978
 20
195.471
  0
SEQEND
  0
POLYLINE
  8
LAYER_1
 40
0.1693
 41
0.1693
 66
1
 10
0
 20
0
 30
0
  0
VERTEX
  8
LAYER_1
 10
150.0992
 20
196.6986
  0
VERTEX
  8
LAYER_1
 10
149.0197
 20
196.0636
  0
SEQEND
  0
POLYLINE
  8
LAYER_1
 40
0.1693
 41
0.1693
 66
1
 10
0
 20
0
 30
0
  0
VERTEX
  8
LAYER_1
 10
151.1787
 20
197.3548
  0
VERTEX
  8
LAYER_1
 10
150.0992
 20
196.6986
  0
SEQEND
  0
POLYLINE
  8
LAYER_1
 40
0.1693
 41
0.1693
 66
1
 10
0
 20
0
 30
0
  0
VERTEX
  8
LAYER_1
 10
152.1947
 20
198.0745
  0
VERTEX
  8
LAYER_1
 10
151.1787
 20
197.3548
  0
SEQEND
  0
POLYLINE
  8
LAYER_1
 40
0.1693
 41
0.1693
 66
1
 10
0
 20
0
 30
0
  0
VERTEX
  8
LAYER_1
 10
153.1684
 20
198.8576
  0
VERTEX
  8
LAYER_1
 10
152.1947
 20
198.0745
  0
SEQEND
  0
POLYLINE
  8
LAYER_1
 40
0.1693
 41
0.1693
 66
1
 10
0
 20
0
 30
0
  0
VERTEX
  8
LAYER_1
 10
153.7187
 20
199.3233
  0
VERTEX
  8
LAYER_1
 10
153.1683
 20
198.8576
  0
SEQEND
  0
POLYLINE
  8
LAYER_1
 40
0.1693
 41
0.1693
 66
1
 10
0
 20
0
 30
0
  0
VERTEX
  8
LAYER_1
 10
154.142
 20
199.7043
  0
VERTEX
  8
LAYER_1
 10
153.7187
 20
199.3233
  0
SEQEND
  0
POLYLINE
  8
LAYER_1
 40
0.1693
 41
0.1693
 66
1
 10
0
 20
0
 30
0
  0
VERTEX
  8
LAYER_1
 10
154.8194
 20
200.4028
  0
VERTEX
  8
LAYER_1
 10
154.142
 20
199.7043
  0
SEQEND
  0
POLYLINE
  8
LAYER_1
 40
0.1693
 41
0.1693
 66
1
 10
0
 20
0
 30
0
  0
VERTEX
  8
LAYER_1
 10
155.4967
 20
201.1225
  0
VERTEX
  8
LAYER_1
 10
154.8193
 20
200.4028
  0
SEQEND
  0
POLYLINE
  8
LAYER_1
 40
0.1693
 41
0.1693
 66
1
 10
0
 20
0
 30
0
  0
VERTEX
  8
LAYER_1
 10
156.1317
 20
201.8633
  0
VERTEX
  8
LAYER_1
 10
155.4967
 20
201.1225
  0
SEQEND
  0
POLYLINE
  8
LAYER_1
 40
0.1693
 41
0.1693
 66
1
 10
0
 20
0
 30
0
  0
VERTEX
  8
LAYER_1
 10
156.7667
 20
202.6253
  0
VERTEX
  8
LAYER_1
 10
156.1317
 20
201.8633
  0
SEQEND
  0
POLYLINE
  8
LAYER_1
 40
0.1693
 41
0.1693
 66
1
 10
0
 20
0
 30
0
  0
VERTEX
  8
LAYER_1
 10
157.3805
 20
203.3873
  0
VERTEX
  8
LAYER_1
 10
156.7667
 20
202.6253
  0
SEQEND
  0
POLYLINE
  8
LAYER_1
 40
0.1693
 41
0.1693
 66
1
 10
0
 20
0
 30
0
  0
VERTEX
  8
LAYER_1
 10
157.7404
 20
203.8318
  0
VERTEX
  8
LAYER_1
 10
157.3805
 20
203.3873
  0
SEQEND
  0
POLYLINE
  8
LAYER_1
 40
0.1693
 41
0.1693
 66
1
 10
0
 20
0
 30
0
  0
VERTEX
  8
LAYER_1
 10
158.714
 20
204.996
  0
VERTEX
  8
LAYER_1
 10
157.7404
 20
203.8318
  0
SEQEND
  0
POLYLINE
  8
LAYER_1
 40
0.1693
 41
0.1693
 66
1
 10
0
 20
0
 30
0
  0
VERTEX
  8
LAYER_1
 10
159.6242
 20
206.2236
  0
VERTEX
  8
LAYER_1
 10
158.714
 20
204.996
  0
SEQEND
  0
POLYLINE
  8
LAYER_1
 40
0.1693
 41
0.1693
 66
1
 10
0
 20
0
 30
0
  0
VERTEX
  8
LAYER_1
 10
160.492
 20
207.5148
  0
VERTEX
  8
LAYER_1
 10
159.6242
 20
206.2236
  0
SEQEND
  0
POLYLINE
  8
LAYER_1
 40
0.1693
 41
0.1693
 66
1
 10
0
 20
0
 30
0
  0
VERTEX
  8
LAYER_1
 10
161.2964
 20
208.9118
  0
VERTEX
  8
LAYER_1
 10
160.492
 20
207.5148
  0
SEQEND
  0
POLYLINE
  8
LAYER_1
 40
0.1693
 41
0.1693
 66
1
 10
0
 20
0
 30
0
  0
VERTEX
  8
LAYER_1
 10
162.0372
 20
210.3935
  0
VERTEX
  8
LAYER_1
 10
161.2964
 20
208.9118
  0
SEQEND
  0
POLYLINE
  8
LAYER_1
 40
0.1693
 41
0.1693
 66
1
 10
0
 20
0
 30
0
  0
VERTEX
  8
LAYER_1
 10
162.1007
 20
210.5628
  0
VERTEX
  8
LAYER_1
 10
162.0372
 20
210.3935
  0
SEQEND
  0
POLYLINE
  8
LAYER_1
 40
0.1693
 41
0.1693
 66
1
 10
0
 20
0
 30
0
  0
VERTEX
  8
LAYER_1
 10
164.1962
 20
212.4678
  0
VERTEX
  8
LAYER_1
 10
164.1538
 20
212.4678
  0
VERTEX
  8
LAYER_1
 10
164.1115
 20
212.4466
  0
VERTEX
  8
LAYER_1
 10
164.0904
 20
212.4255
  0
VERTEX
  8
LAYER_1
 10
164.048
 20
212.4043
  0
VERTEX
  8
LAYER_1
 10
164.0057
 20
212.4043
  0
VERTEX
  8
LAYER_1
 10
163.9634
 20
212.3831
  0
VERTEX
  8
LAYER_1
 10
163.921
 20
212.362
  0
VERTEX
  8
LAYER_1
 10
163.8787
 20
212.3408
  0
VERTEX
  8
LAYER_1
 10
163.8575
 20
212.3196
  0
VERTEX
  8
LAYER_1
 10
163.8152
 20
212.2985
  0
VERTEX
  8
LAYER_1
 10
163.7729
 20
212.2773
  0
VERTEX
  8
LAYER_1
 10
163.7305
 20
212.2561
  0
VERTEX
  8
LAYER_1
 10
163.6882
 20
212.235
  0
VERTEX
  8
LAYER_1
 10
163.6458
 20
212.2138
  0
VERTEX
  8
LAYER_1
 10
163.6035
 20
212.1926
  0
VERTEX
  8
LAYER_1
 10
163.5612
 20
212.1715
  0
VERTEX
  8
LAYER_1
 10
163.54
 20
212.1503
  0
VERTEX
  8
LAYER_1
 10
163.4977
 20
212.1291
  0
VERTEX
  8
LAYER_1
 10
163.4554
 20
212.0868
  0
VERTEX
  8
LAYER_1
 10
163.413
 20
212.0656
  0
VERTEX
  8
LAYER_1
 10
163.3707
 20
212.0445
  0
VERTEX
  8
LAYER_1
 10
163.3284
 20
212.0021
  0
VERTEX
  8
LAYER_1
 10
163.286
 20
211.981
  0
VERTEX
  8
LAYER_1
 10
163.2649
 20
211.9386
  0
VERTEX
  8
LAYER_1
 10
163.2225
 20
211.9175
  0
VERTEX
  8
LAYER_1
 10
163.1802
 20
211.8963
  0
VERTEX
  8
LAYER_1
 10
163.1379
 20
211.854
  0
VERTEX
  8
LAYER_1
 10
163.0955
 20
211.8328
  0
VERTEX
  8
LAYER_1
 10
163.0532
 20
211.7905
  0
VERTEX
  8
LAYER_1
 10
163.032
 20
211.7693
  0
VERTEX
  8
LAYER_1
 10
162.9897
 20
211.727
  0
VERTEX
  8
LAYER_1
 10
162.9474
 20
211.6846
  0
VERTEX
  8
LAYER_1
 10
162.905
 20
211.6635
  0
VERTEX
  8
LAYER_1
 10
162.8839
 20
211.6211
  0
VERTEX
  8
LAYER_1
 10
162.8415
 20
211.5788
  0
VERTEX
  8
LAYER_1
 10
162.7992
 20
211.5576
  0
VERTEX
  8
LAYER_1
 10
162.778
 20
211.5153
  0
VERTEX
  8
LAYER_1
 10
162.7357
 20
211.473
  0
VERTEX
  8
LAYER_1
 10
162.7145
 20
211.4518
  0
VERTEX
  8
LAYER_1
 10
162.6722
 20
211.4095
  0
VERTEX
  8
LAYER_1
 10
162.6299
 20
211.3671
  0
VERTEX
  8
LAYER_1
 10
162.6087
 20
211.346
  0
VERTEX
  8
LAYER_1
 10
162.5663
 20
211.3036
  0
VERTEX
  8
LAYER_1
 10
162.5452
 20
211.2613
  0
VERTEX
  8
LAYER_1
 10
162.524
 20
211.219
  0
VERTEX
  8
LAYER_1
 10
162.4817
 20
211.1978
  0
VERTEX
  8
LAYER_1
 10
162.4605
 20
211.1555
  0
VERTEX
  8
LAYER_1
 10
162.4182
 20
211.1131
  0
VERTEX
  8
LAYER_1
 10
162.397
 20
211.0708
  0
VERTEX
  8
LAYER_1
 10
162.3759
 20
211.0285
  0
VERTEX
  8
LAYER_1
 10
162.3547
 20
211.0073
  0
VERTEX
  8
LAYER_1
 10
162.3335
 20
210.965
  0
VERTEX
  8
LAYER_1
 10
162.2912
 20
210.9226
  0
VERTEX
  8
LAYER_1
 10
162.27
 20
210.8803
  0
VERTEX
  8
LAYER_1
 10
162.2489
 20
210.8591
  0
VERTEX
  8
LAYER_1
 10
162.2277
 20
210.8168
  0
VERTEX
  8
LAYER_1
 10
162.2065
 20
210.7745
  0
VERTEX
  8
LAYER_1
 10
162.1854
 20
210.7321
  0
VERTEX
  8
LAYER_1
 10
162.1642
 20
210.711
  0
VERTEX
  8
LAYER_1
 10
162.143
 20
210.6686
  0
VERTEX
  8
LAYER_1
 10
162.143
 20
210.6263
  0
VERTEX
  8
LAYER_1
 10
162.1219
 20
210.584
  0
VERTEX
  8
LAYER_1
 10
162.1007
 20
210.5628
  0
SEQEND
  0
POLYLINE
  8
LAYER_1
 40
0.1693
 41
0.1693
 66
1
 10
0
 20
0
 30
0
  0
VERTEX
  8
LAYER_1
 10
50.6794
 20
207.5148
  0
VERTEX
  8
LAYER_1
 10
51.5472
 20
206.2236
  0
SEQEND
  0
POLYLINE
  8
LAYER_1
 40
0.1693
 41
0.1693
 66
1
 10
0
 20
0
 30
0
  0
VERTEX
  8
LAYER_1
 10
49.875
 20
208.9118
  0
VERTEX
  8
LAYER_1
 10
50.6794
 20
207.5148
  0
SEQEND
  0
POLYLINE
  8
LAYER_1
 40
0.1693
 41
0.1693
 66
1
 10
0
 20
0
 30
0
  0
VERTEX
  8
LAYER_1
 10
49.1342
 20
210.3935
  0
VERTEX
  8
LAYER_1
 10
49.875
 20
208.9118
  0
SEQEND
  0
POLYLINE
  8
LAYER_1
 40
0.1693
 41
0.1693
 66
1
 10
0
 20
0
 30
0
  0
VERTEX
  8
LAYER_1
 10
49.0707
 20
210.5628
  0
VERTEX
  8
LAYER_1
 10
49.1342
 20
210.3935
  0
SEQEND
  0
POLYLINE
  8
LAYER_1
 40
0.1693
 41
0.1693
 66
1
 10
0
 20
0
 30
0
  0
VERTEX
  8
LAYER_1
 10
49.0707
 20
210.5628
  0
VERTEX
  8
LAYER_1
 10
49.0495
 20
210.6051
  0
VERTEX
  8
LAYER_1
 10
49.0284
 20
210.6263
  0
VERTEX
  8
LAYER_1
 10
49.0072
 20
210.6686
  0
VERTEX
  8
LAYER_1
 10
49.0072
 20
210.711
  0
VERTEX
  8
LAYER_1
 10
48.986
 20
210.7533
  0
VERTEX
  8
LAYER_1
 10
48.9649
 20
210.7745
  0
VERTEX
  8
LAYER_1
 10
48.9437
 20
210.8168
  0
VERTEX
  8
LAYER_1
 10
48.9225
 20
210.8591
  0
VERTEX
  8
LAYER_1
 10
48.9014
 20
210.9015
  0
VERTEX
  8
LAYER_1
 10
48.859
 20
210.9226
  0
VERTEX
  8
LAYER_1
 10
48.8379
 20
210.965
  0
VERTEX
  8
LAYER_1
 10
48.8167
 20
211.0073
  0
VERTEX
  8
LAYER_1
 10
48.7955
 20
211.0496
  0
VERTEX
  8
LAYER_1
 10
48.7744
 20
211.092
  0
VERTEX
  8
LAYER_1
 10
48.732
 20
211.1131
  0
VERTEX
  8
LAYER_1
 10
48.7109
 20
211.1555
  0
VERTEX
  8
LAYER_1
 10
48.6897
 20
211.1978
  0
VERTEX
  8
LAYER_1
 10
48.6474
 20
211.2401
  0
VERTEX
  8
LAYER_1
 10
48.6262
 20
211.2613
  0
VERTEX
  8
LAYER_1
 10
48.5839
 20
211.3036
  0
VERTEX
  8
LAYER_1
 10
48.5627
 20
211.346
  0
VERTEX
  8
LAYER_1
 10
48.5204
 20
211.3883
  0
VERTEX
  8
LAYER_1
 10
48.4992
 20
211.4095
  0
VERTEX
  8
LAYER_1
 10
48.4569
 20
211.4518
  0
VERTEX
  8
LAYER_1
 10
48.4357
 20
211.4941
  0
VERTEX
  8
LAYER_1
 10
48.3934
 20
211.5153
  0
VERTEX
  8
LAYER_1
 10
48.351
 20
211.5576
  0
VERTEX
  8
LAYER_1
 10
48.3299
 20
211.6
  0
VERTEX
  8
LAYER_1
 10
48.2875
 20
211.6211
  0
VERTEX
  8
LAYER_1
 10
48.2452
 20
211.6635
  0
VERTEX
  8
LAYER_1
 10
48.224
 20
211.7058
  0
VERTEX
  8
LAYER_1
 10
48.1817
 20
211.727
  0
VERTEX
  8
LAYER_1
 10
48.1394
 20
211.7693
  0
VERTEX
  8
LAYER_1
 10
48.097
 20
211.7905
  0
VERTEX
  8
LAYER_1
 10
48.0547
 20
211.8328
  0
VERTEX
  8
LAYER_1
 10
48.0335
 20
211.854
  0
VERTEX
  8
LAYER_1
 10
47.9912
 20
211.8963
  0
VERTEX
  8
LAYER_1
 10
47.9489
 20
211.9175
  0
VERTEX
  8
LAYER_1
 10
47.9065
 20
211.9598
  0
VERTEX
  8
LAYER_1
 10
47.8642
 20
211.981
  0
VERTEX
  8
LAYER_1
 10
47.8219
 20
212.0233
  0
VERTEX
  8
LAYER_1
 10
47.8007
 20
212.0445
  0
VERTEX
  8
LAYER_1
 10
47.7584
 20
212.0656
  0
VERTEX
  8
LAYER_1
 10
47.716
 20
212.0868
  0
SEQEND
  0
POLYLINE
  8
LAYER_1
 40
0.1693
 41
0.1693
 66
1
 10
0
 20
0
 30
0
  0
VERTEX
  8
LAYER_1
 10
47.716
 20
212.0868
  0
VERTEX
  8
LAYER_1
 10
47.6737
 20
212.1291
  0
VERTEX
  8
LAYER_1
 10
47.6314
 20
212.1503
  0
VERTEX
  8
LAYER_1
 10
47.589
 20
212.1715
  0
VERTEX
  8
LAYER_1
 10
47.5467
 20
212.1926
  0
VERTEX
  8
LAYER_1
 10
47.5044
 20
212.2138
  0
VERTEX
  8
LAYER_1
 10
47.4832
 20
212.235
  0
VERTEX
  8
LAYER_1
 10
47.4409
 20
212.2773
  0
VERTEX
  8
LAYER_1
 10
47.3985
 20
212.2985
  0
VERTEX
  8
LAYER_1
 10
47.3562
 20
212.3196
  0
VERTEX
  8
LAYER_1
 10
47.3139
 20
212.3196
  0
VERTEX
  8
LAYER_1
 10
47.2715
 20
212.3408
  0
VERTEX
  8
LAYER_1
 10
47.2292
 20
212.362
  0
VERTEX
  8
LAYER_1
 10
47.208
 20
212.3831
  0
VERTEX
  8
LAYER_1
 10
47.1657
 20
212.4043
  0
VERTEX
  8
LAYER_1
 10
47.1234
 20
212.4255
  0
VERTEX
  8
LAYER_1
 10
47.081
 20
212.4255
  0
VERTEX
  8
LAYER_1
 10
47.0387
 20
212.4466
  0
VERTEX
  8
LAYER_1
 10
47.0175
 20
212.4678
  0
VERTEX
  8
LAYER_1
 10
46.9752
 20
212.4678
  0
VERTEX
  8
LAYER_1
 10
43.5039
 20
213.6108
  0
SEQEND
  0
POLYLINE
  8
LAYER_1
 40
0.1693
 41
0.1693
 66
1
 10
0
 20
0
 30
0
  0
VERTEX
  8
LAYER_1
 10
164.1962
 20
212.4678
  0
VERTEX
  8
LAYER_1
 10
167.6675
 20
213.6108
  0
SEQEND
  0
POLYLINE
  8
LAYER_1
 40
0.1693
 41
0.1693
 66
1
 10
0
 20
0
 30
0
  0
VERTEX
  8
LAYER_1
 10
162.016
 20
213.6108
  0
VERTEX
  8
LAYER_1
 10
172.3665
 20
213.6108
  0
SEQEND
  0
POLYLINE
  8
LAYER_1
 40
0.1693
 41
0.1693
 66
1
 10
0
 20
0
 30
0
  0
VERTEX
  8
LAYER_1
 10
40.7945
 20
216.2143
  0
VERTEX
  8
LAYER_1
 10
46.6365
 20
216.2143
  0
SEQEND
  0
POLYLINE
  8
LAYER_1
 40
0.1693
 41
0.1693
 66
1
 10
0
 20
0
 30
0
  0
VERTEX
  8
LAYER_1
 10
164.5349
 20
216.2143
  0
VERTEX
  8
LAYER_1
 10
170.6732
 20
216.2143
  0
SEQEND
  0
POLYLINE
  8
LAYER_1
 40
0.1693
 41
0.1693
 66
1
 10
0
 20
0
 30
0
  0
VERTEX
  8
LAYER_1
 10
38.8049
 20
213.6108
  0
VERTEX
  8
LAYER_1
 10
49.1554
 20
213.6108
  0
SEQEND
  0
POLYLINE
  8
LAYER_1
 40
0.0847
 41
0.0847
 66
1
 10
0
 20
0
 30
0
  0
VERTEX
  8
LAYER_1
 10
60.162
 20
199.6831
  0
VERTEX
  8
LAYER_1
 10
59.273
 20
200.4028
  0
VERTEX
  8
LAYER_1
 10
58.7862
 20
200.805
  0
VERTEX
  8
LAYER_1
 10
58.4264
 20
201.1436
  0
VERTEX
  8
LAYER_1
 10
57.7914
 20
201.7786
  0
VERTEX
  8
LAYER_1
 10
57.1775
 20
202.456
  0
VERTEX
  8
LAYER_1
 10
56.5637
 20
203.1545
  0
VERTEX
  8
LAYER_1
 10
55.971
 20
203.8953
  0
VERTEX
  8
LAYER_1
 10
55.3572
 20
204.6361
  0
VERTEX
  8
LAYER_1
 10
54.9762
 20
205.1018
  0
VERTEX
  8
LAYER_1
 10
54.0237
 20
206.2448
  0
VERTEX
  8
LAYER_1
 10
53.177
 20
207.3666
  0
VERTEX
  8
LAYER_1
 10
52.3727
 20
208.5731
  0
VERTEX
  8
LAYER_1
 10
51.6319
 20
209.8643
  0
SEQEND
  0
POLYLINE
  8
LAYER_1
 40
0.0847
 41
0.0847
 66
1
 10
0
 20
0
 30
0
  0
VERTEX
  8
LAYER_1
 10
51.0392
 20
211.0708
  0
VERTEX
  8
LAYER_1
 10
51.6319
 20
209.8643
  0
SEQEND
  0
POLYLINE
  8
LAYER_1
 40
0.0847
 41
0.0847
 66
1
 10
0
 20
0
 30
0
  0
VERTEX
  8
LAYER_1
 10
62.5539
 20
198.0321
  0
VERTEX
  8
LAYER_1
 10
62.7655
 20
197.9051
  0
SEQEND
  0
POLYLINE
  8
LAYER_1
 40
0.0847
 41
0.0847
 66
1
 10
0
 20
0
 30
0
  0
VERTEX
  8
LAYER_1
 10
62.7655
 20
197.884
  0
VERTEX
  8
LAYER_1
 10
63.7392
 20
197.376
  0
SEQEND
  0
POLYLINE
  8
LAYER_1
 40
0.0847
 41
0.0847
 66
1
 10
0
 20
0
 30
0
  0
VERTEX
  8
LAYER_1
 10
62.5539
 20
198.011
  0
VERTEX
  8
LAYER_1
 10
60.162
 20
199.6831
  0
SEQEND
  0
POLYLINE
  8
LAYER_1
 40
0.0847
 41
0.0847
 66
1
 10
0
 20
0
 30
0
  0
VERTEX
  8
LAYER_1
 10
162.7569
 20
215.0925
  0
VERTEX
  8
LAYER_1
 10
160.1322
 20
211.0708
  0
SEQEND
  0
POLYLINE
  8
LAYER_1
 40
0.0847
 41
0.0847
 66
1
 10
0
 20
0
 30
0
  0
VERTEX
  8
LAYER_1
 10
164.5137
 20
216.1931
 42
0.2784076816
  0
VERTEX
  8
LAYER_1
 10
162.7357
 20
215.0925
  0
SEQEND
  0
POLYLINE
  8
LAYER_1
 40
0.0847
 41
0.0847
 66
1
 10
0
 20
0
 30
0
  0
VERTEX
  8
LAYER_1
 10
146.3104
 20
196.8045
  0
VERTEX
  8
LAYER_1
 10
146.7972
 20
197.0373
  0
VERTEX
  8
LAYER_1
 10
147.4322
 20
197.376
  0
SEQEND
  0
POLYLINE
  8
LAYER_1
 40
0.0847
 41
0.0847
 66
1
 10
0
 20
0
 30
0
  0
VERTEX
  8
LAYER_1
 10
151.0094
 20
199.6831
  0
VERTEX
  8
LAYER_1
 10
151.8984
 20
200.4028
  0
VERTEX
  8
LAYER_1
 10
152.3852
 20
200.805
  0
VERTEX
  8
LAYER_1
 10
152.745
 20
201.1436
  0
VERTEX
  8
LAYER_1
 10
153.38
 20
201.7786
  0
VERTEX
  8
LAYER_1
 10
153.9939
 20
202.456
  0
VERTEX
  8
LAYER_1
 10
154.6077
 20
203.1545
  0
VERTEX
  8
LAYER_1
 10
155.2004
 20
203.8953
  0
VERTEX
  8
LAYER_1
 10
155.8142
 20
204.6361
  0
VERTEX
  8
LAYER_1
 10
156.1952
 20
205.1018
  0
VERTEX
  8
LAYER_1
 10
157.1477
 20
206.2448
  0
VERTEX
  8
LAYER_1
 10
157.9944
 20
207.3666
  0
VERTEX
  8
LAYER_1
 10
158.7987
 20
208.5731
  0
VERTEX
  8
LAYER_1
 10
159.5396
 20
209.8643
  0
SEQEND
  0
POLYLINE
  8
LAYER_1
 40
0.0847
 41
0.0847
 66
1
 10
0
 20
0
 30
0
  0
VERTEX
  8
LAYER_1
 10
160.1322
 20
211.0708
  0
VERTEX
  8
LAYER_1
 10
159.5395
 20
209.8643
  0
SEQEND
  0
POLYLINE
  8
LAYER_1
 40
0.0847
 41
0.0847
 66
1
 10
0
 20
0
 30
0
  0
VERTEX
  8
LAYER_1
 10
148.3636
 20
197.884
  0
VERTEX
  8
LAYER_1
 10
148.5752
 20
198.011
  0
SEQEND
  0
POLYLINE
  8
LAYER_1
 40
0.0847
 41
0.0847
 66
1
 10
0
 20
0
 30
0
  0
VERTEX
  8
LAYER_1
 10
148.4059
 20
197.884
  0
VERTEX
  8
LAYER_1
 10
147.4322
 20
197.376
  0
SEQEND
  0
POLYLINE
  8
LAYER_1
 40
0.0847
 41
0.0847
 66
1
 10
0
 20
0
 30
0
  0
VERTEX
  8
LAYER_1
 10
148.6175
 20
198.011
  0
VERTEX
  8
LAYER_1
 10
151.0094
 20
199.6831
  0
SEQEND
  0
POLYLINE
  8
LAYER_1
 40
0.0847
 41
0.0847
 66
1
 10
0
 20
0
 30
0
  0
VERTEX
  8
LAYER_1
 10
141.95
 20
195.0688
  0
VERTEX
  8
LAYER_1
 10
142.839
 20
195.3651
  0
VERTEX
  8
LAYER_1
 10
143.7069
 20
195.6826
  0
VERTEX
  8
LAYER_1
 10
144.5747
 20
196.0213
  0
VERTEX
  8
LAYER_1
 10
145.4425
 20
196.4023
  0
VERTEX
  8
LAYER_1
 10
146.3104
 20
196.8045
  0
SEQEND
  0
POLYLINE
  8
LAYER_1
 40
0.0847
 41
0.0847
 66
1
 10
0
 20
0
 30
0
  0
VERTEX
  8
LAYER_1
 10
49.1554
 20
213.6108
  0
VERTEX
  8
LAYER_1
 10
50.002
 20
213.6108
  0
SEQEND
  0
POLYLINE
  8
LAYER_1
 40
0.0847
 41
0.0847
 66
1
 10
0
 20
0
 30
0
  0
VERTEX
  8
LAYER_1
 10
51.7165
 20
213.6108
  0
VERTEX
  8
LAYER_1
 10
53.4099
 20
213.6108
  0
SEQEND
  0
POLYLINE
  8
LAYER_1
 40
0.0847
 41
0.0847
 66
1
 10
0
 20
0
 30
0
  0
VERTEX
  8
LAYER_1
 10
55.1244
 20
213.6108
  0
VERTEX
  8
LAYER_1
 10
56.8389
 20
213.6108
  0
SEQEND
  0
POLYLINE
  8
LAYER_1
 40
0.0847
 41
0.0847
 66
1
 10
0
 20
0
 30
0
  0
VERTEX
  8
LAYER_1
 10
58.5534
 20
213.6108
  0
VERTEX
  8
LAYER_1
 10
60.2679
 20
213.6108
  0
SEQEND
  0
POLYLINE
  8
LAYER_1
 40
0.0847
 41
0.0847
 66
1
 10
0
 20
0
 30
0
  0
VERTEX
  8
LAYER_1
 10
61.9612
 20
213.6108
  0
VERTEX
  8
LAYER_1
 10
63.6757
 20
213.6108
  0
SEQEND
  0
POLYLINE
  8
LAYER_1
 40
0.0847
 41
0.0847
 66
1
 10
0
 20
0
 30
0
  0
VERTEX
  8
LAYER_1
 10
65.3902
 20
213.6108
  0
VERTEX
  8
LAYER_1
 10
67.1047
 20
213.6108
  0
SEQEND
  0
POLYLINE
  8
LAYER_1
 40
0.0847
 41
0.0847
 66
1
 10
0
 20
0
 30
0
  0
VERTEX
  8
LAYER_1
 10
68.8192
 20
213.6108
  0
VERTEX
  8
LAYER_1
 10
70.5125
 20
213.6108
  0
SEQEND
  0
POLYLINE
  8
LAYER_1
 40
0.0847
 41
0.0847
 66
1
 10
0
 20
0
 30
0
  0
VERTEX
  8
LAYER_1
 10
72.227
 20
213.6108
  0
VERTEX
  8
LAYER_1
 10
73.9415
 20
213.6108
  0
SEQEND
  0
POLYLINE
  8
LAYER_1
 40
0.0847
 41
0.0847
 66
1
 10
0
 20
0
 30
0
  0
VERTEX
  8
LAYER_1
 10
75.656
 20
213.6108
  0
VERTEX
  8
LAYER_1
 10
77.3705
 20
213.6108
  0
SEQEND
  0
POLYLINE
  8
LAYER_1
 40
0.0847
 41
0.0847
 66
1
 10
0
 20
0
 30
0
  0
VERTEX
  8
LAYER_1
 10
79.0639
 20
213.6108
  0
VERTEX
  8
LAYER_1
 10
80.7784
 20
213.6108
  0
SEQEND
  0
POLYLINE
  8
LAYER_1
 40
0.0847
 41
0.0847
 66
1
 10
0
 20
0
 30
0
  0
VERTEX
  8
LAYER_1
 10
82.4929
 20
213.6108
  0
VERTEX
  8
LAYER_1
 10
84.2074
 20
213.6108
  0
SEQEND
  0
POLYLINE
  8
LAYER_1
 40
0.0847
 41
0.0847
 66
1
 10
0
 20
0
 30
0
  0
VERTEX
  8
LAYER_1
 10
85.9007
 20
213.6108
  0
VERTEX
  8
LAYER_1
 10
87.6152
 20
213.6108
  0
SEQEND
  0
POLYLINE
  8
LAYER_1
 40
0.0847
 41
0.0847
 66
1
 10
0
 20
0
 30
0
  0
VERTEX
  8
LAYER_1
 10
89.3297
 20
213.6108
  0
VERTEX
  8
LAYER_1
 10
91.0442
 20
213.6108
  0
SEQEND
  0
POLYLINE
  8
LAYER_1
 40
0.0847
 41
0.0847
 66
1
 10
0
 20
0
 30
0
  0
VERTEX
  8
LAYER_1
 10
92.7587
 20
213.6108
  0
VERTEX
  8
LAYER_1
 10
94.452
 20
213.6108
  0
SEQEND
  0
POLYLINE
  8
LAYER_1
 40
0.0847
 41
0.0847
 66
1
 10
0
 20
0
 30
0
  0
VERTEX
  8
LAYER_1
 10
96.1665
 20
213.6108
  0
VERTEX
  8
LAYER_1
 10
97.881
 20
213.6108
  0
SEQEND
  0
POLYLINE
  8
LAYER_1
 40
0.0847
 41
0.0847
 66
1
 10
0
 20
0
 30
0
  0
VERTEX
  8
LAYER_1
 10
99.5955
 20
213.6108
  0
VERTEX
  8
LAYER_1
 10
101.31
 20
213.6108
  0
SEQEND
  0
POLYLINE
  8
LAYER_1
 40
0.0847
 41
0.0847
 66
1
 10
0
 20
0
 30
0
  0
VERTEX
  8
LAYER_1
 10
103.0034
 20
213.6108
  0
VERTEX
  8
LAYER_1
 10
104.7179
 20
213.6108
  0
SEQEND
  0
POLYLINE
  8
LAYER_1
 40
0.0847
 41
0.0847
 66
1
 10
0
 20
0
 30
0
  0
VERTEX
  8
LAYER_1
 10
106.4324
 20
213.6108
  0
VERTEX
  8
LAYER_1
 10
108.1469
 20
213.6108
  0
SEQEND
  0
POLYLINE
  8
LAYER_1
 40
0.0847
 41
0.0847
 66
1
 10
0
 20
0
 30
0
  0
VERTEX
  8
LAYER_1
 10
109.8402
 20
213.6108
  0
VERTEX
  8
LAYER_1
 10
111.5547
 20
213.6108
  0
SEQEND
  0
POLYLINE
  8
LAYER_1
 40
0.0847
 41
0.0847
 66
1
 10
0
 20
0
 30
0
  0
VERTEX
  8
LAYER_1
 10
113.2692
 20
213.6108
  0
VERTEX
  8
LAYER_1
 10
114.9837
 20
213.6108
  0
SEQEND
  0
POLYLINE
  8
LAYER_1
 40
0.0847
 41
0.0847
 66
1
 10
0
 20
0
 30
0
  0
VERTEX
  8
LAYER_1
 10
116.6982
 20
213.6108
  0
VERTEX
  8
LAYER_1
 10
118.3915
 20
213.6108
  0
SEQEND
  0
POLYLINE
  8
LAYER_1
 40
0.0847
 41
0.0847
 66
1
 10
0
 20
0
 30
0
  0
VERTEX
  8
LAYER_1
 10
120.1061
 20
213.6108
  0
VERTEX
  8
LAYER_1
 10
121.8205
 20
213.6108
  0
SEQEND
  0
POLYLINE
  8
LAYER_1
 40
0.0847
 41
0.0847
 66
1
 10
0
 20
0
 30
0
  0
VERTEX
  8
LAYER_1
 10
123.5351
 20
213.6108
  0
VERTEX
  8
LAYER_1
 10
125.2495
 20
213.6108
  0
SEQEND
  0
POLYLINE
  8
LAYER_1
 40
0.0847
 41
0.0847
 66
1
 10
0
 20
0
 30
0
  0
VERTEX
  8
LAYER_1
 10
126.9429
 20
213.6108
  0
VERTEX
  8
LAYER_1
 10
128.6574
 20
213.6108
  0
SEQEND
  0
POLYLINE
  8
LAYER_1
 40
0.0847
 41
0.0847
 66
1
 10
0
 20
0
 30
0
  0
VERTEX
  8
LAYER_1
 10
130.3719
 20
213.6108
  0
VERTEX
  8
LAYER_1
 10
132.0864
 20
213.6108
  0
SEQEND
  0
POLYLINE
  8
LAYER_1
 40
0.0847
 41
0.0847
 66
1
 10
0
 20
0
 30
0
  0
VERTEX
  8
LAYER_1
 10
133.7797
 20
213.6108
  0
VERTEX
  8
LAYER_1
 10
135.4942
 20
213.6108
  0
SEQEND
  0
POLYLINE
  8
LAYER_1
 40
0.0847
 41
0.0847
 66
1
 10
0
 20
0
 30
0
  0
VERTEX
  8
LAYER_1
 10
137.2087
 20
213.6108
  0
VERTEX
  8
LAYER_1
 10
138.9232
 20
213.6108
  0
SEQEND
  0
POLYLINE
  8
LAYER_1
 40
0.0847
 41
0.0847
 66
1
 10
0
 20
0
 30
0
  0
VERTEX
  8
LAYER_1
 10
140.6377
 20
213.6108
  0
VERTEX
  8
LAYER_1
 10
142.331
 20
213.6108
  0
SEQEND
  0
POLYLINE
  8
LAYER_1
 40
0.0847
 41
0.0847
 66
1
 10
0
 20
0
 30
0
  0
VERTEX
  8
LAYER_1
 10
144.0455
 20
213.6108
  0
VERTEX
  8
LAYER_1
 10
145.76
 20
213.6108
  0
SEQEND
  0
POLYLINE
  8
LAYER_1
 40
0.0847
 41
0.0847
 66
1
 10
0
 20
0
 30
0
  0
VERTEX
  8
LAYER_1
 10
147.4745
 20
213.6108
  0
VERTEX
  8
LAYER_1
 10
149.189
 20
213.6108
  0
SEQEND
  0
POLYLINE
  8
LAYER_1
 40
0.0847
 41
0.0847
 66
1
 10
0
 20
0
 30
0
  0
VERTEX
  8
LAYER_1
 10
150.8824
 20
213.6108
  0
VERTEX
  8
LAYER_1
 10
152.5968
 20
213.6108
  0
SEQEND
  0
POLYLINE
  8
LAYER_1
 40
0.0847
 41
0.0847
 66
1
 10
0
 20
0
 30
0
  0
VERTEX
  8
LAYER_1
 10
154.3113
 20
213.6108
  0
VERTEX
  8
LAYER_1
 10
156.0258
 20
213.6108
  0
SEQEND
  0
POLYLINE
  8
LAYER_1
 40
0.0847
 41
0.0847
 66
1
 10
0
 20
0
 30
0
  0
VERTEX
  8
LAYER_1
 10
157.7403
 20
213.6108
  0
VERTEX
  8
LAYER_1
 10
159.4337
 20
213.6108
  0
SEQEND
  0
POLYLINE
  8
LAYER_1
 40
0.0847
 41
0.0847
 66
1
 10
0
 20
0
 30
0
  0
VERTEX
  8
LAYER_1
 10
161.1482
 20
213.6108
  0
VERTEX
  8
LAYER_1
 10
162.016
 20
213.6108
  0
SEQEND
  0
POLYLINE
  8
LAYER_1
 40
0.0847
 41
0.0847
 66
1
 10
0
 20
0
 30
0
  0
VERTEX
  8
LAYER_1
 10
46.6365
 20
216.2143
  0
VERTEX
  8
LAYER_1
 10
47.4831
 20
216.2143
  0
SEQEND
  0
POLYLINE
  8
LAYER_1
 40
0.0847
 41
0.0847
 66
1
 10
0
 20
0
 30
0
  0
VERTEX
  8
LAYER_1
 10
49.2188
 20
216.2143
  0
VERTEX
  8
LAYER_1
 10
50.9545
 20
216.2143
  0
SEQEND
  0
POLYLINE
  8
LAYER_1
 40
0.0847
 41
0.0847
 66
1
 10
0
 20
0
 30
0
  0
VERTEX
  8
LAYER_1
 10
52.6902
 20
216.2143
  0
VERTEX
  8
LAYER_1
 10
54.4258
 20
216.2143
  0
SEQEND
  0
POLYLINE
  8
LAYER_1
 40
0.0847
 41
0.0847
 66
1
 10
0
 20
0
 30
0
  0
VERTEX
  8
LAYER_1
 10
56.1615
 20
216.2143
  0
VERTEX
  8
LAYER_1
 10
57.8971
 20
216.2143
  0
SEQEND
  0
POLYLINE
  8
LAYER_1
 40
0.0847
 41
0.0847
 66
1
 10
0
 20
0
 30
0
  0
VERTEX
  8
LAYER_1
 10
59.6328
 20
216.2143
  0
VERTEX
  8
LAYER_1
 10
61.3685
 20
216.2143
  0
SEQEND
  0
POLYLINE
  8
LAYER_1
 40
0.0847
 41
0.0847
 66
1
 10
0
 20
0
 30
0
  0
VERTEX
  8
LAYER_1
 10
63.1041
 20
216.2143
  0
VERTEX
  8
LAYER_1
 10
64.8398
 20
216.2143
  0
SEQEND
  0
POLYLINE
  8
LAYER_1
 40
0.0847
 41
0.0847
 66
1
 10
0
 20
0
 30
0
  0
VERTEX
  8
LAYER_1
 10
66.5543
 20
216.2143
  0
VERTEX
  8
LAYER_1
 10
68.29
 20
216.2143
  0
SEQEND
  0
POLYLINE
  8
LAYER_1
 40
0.0847
 41
0.0847
 66
1
 10
0
 20
0
 30
0
  0
VERTEX
  8
LAYER_1
 10
70.0256
 20
216.2143
  0
VERTEX
  8
LAYER_1
 10
71.7613
 20
216.2143
  0
SEQEND
  0
POLYLINE
  8
LAYER_1
 40
0.0847
 41
0.0847
 66
1
 10
0
 20
0
 30
0
  0
VERTEX
  8
LAYER_1
 10
73.497
 20
216.2143
  0
VERTEX
  8
LAYER_1
 10
75.2326
 20
216.2143
  0
SEQEND
  0
POLYLINE
  8
LAYER_1
 40
0.0847
 41
0.0847
 66
1
 10
0
 20
0
 30
0
  0
VERTEX
  8
LAYER_1
 10
76.9683
 20
216.2143
  0
VERTEX
  8
LAYER_1
 10
78.704
 20
216.2143
  0
SEQEND
  0
POLYLINE
  8
LAYER_1
 40
0.0847
 41
0.0847
 66
1
 10
0
 20
0
 30
0
  0
VERTEX
  8
LAYER_1
 10
80.4396
 20
216.2143
  0
VERTEX
  8
LAYER_1
 10
82.1753
 20
216.2143
  0
SEQEND
  0
POLYLINE
  8
LAYER_1
 40
0.0847
 41
0.0847
 66
1
 10
0
 20
0
 30
0
  0
VERTEX
  8
LAYER_1
 10
83.911
 20
216.2143
  0
VERTEX
  8
LAYER_1
 10
85.6466
 20
216.2143
  0
SEQEND
  0
POLYLINE
  8
LAYER_1
 40
0.0847
 41
0.0847
 66
1
 10
0
 20
0
 30
0
  0
VERTEX
  8
LAYER_1
 10
87.3611
 20
216.2143
  0
VERTEX
  8
LAYER_1
 10
89.0968
 20
216.2143
  0
SEQEND
  0
POLYLINE
  8
LAYER_1
 40
0.0847
 41
0.0847
 66
1
 10
0
 20
0
 30
0
  0
VERTEX
  8
LAYER_1
 10
90.8325
 20
216.2143
  0
VERTEX
  8
LAYER_1
 10
92.5681
 20
216.2143
  0
SEQEND
  0
POLYLINE
  8
LAYER_1
 40
0.0847
 41
0.0847
 66
1
 10
0
 20
0
 30
0
  0
VERTEX
  8
LAYER_1
 10
94.3038
 20
216.2143
  0
VERTEX
  8
LAYER_1
 10
96.0395
 20
216.2143
  0
SEQEND
  0
POLYLINE
  8
LAYER_1
 40
0.0847
 41
0.0847
 66
1
 10
0
 20
0
 30
0
  0
VERTEX
  8
LAYER_1
 10
97.7751
 20
216.2143
  0
VERTEX
  8
LAYER_1
 10
99.5108
 20
216.2143
  0
SEQEND
  0
POLYLINE
  8
LAYER_1
 40
0.0847
 41
0.0847
 66
1
 10
0
 20
0
 30
0
  0
VERTEX
  8
LAYER_1
 10
101.2465
 20
216.2143
  0
VERTEX
  8
LAYER_1
 10
102.9821
 20
216.2143
  0
SEQEND
  0
POLYLINE
  8
LAYER_1
 40
0.0847
 41
0.0847
 66
1
 10
0
 20
0
 30
0
  0
VERTEX
  8
LAYER_1
 10
104.7178
 20
216.2143
  0
VERTEX
  8
LAYER_1
 10
106.4323
 20
216.2143
  0
SEQEND
  0
POLYLINE
  8
LAYER_1
 40
0.0847
 41
0.0847
 66
1
 10
0
 20
0
 30
0
  0
VERTEX
  8
LAYER_1
 10
108.168
 20
216.2143
  0
VERTEX
  8
LAYER_1
 10
109.9036
 20
216.2143
  0
SEQEND
  0
POLYLINE
  8
LAYER_1
 40
0.0847
 41
0.0847
 66
1
 10
0
 20
0
 30
0
  0
VERTEX
  8
LAYER_1
 10
111.6393
 20
216.2143
  0
VERTEX
  8
LAYER_1
 10
113.375
 20
216.2143
  0
SEQEND
  0
POLYLINE
  8
LAYER_1
 40
0.0847
 41
0.0847
 66
1
 10
0
 20
0
 30
0
  0
VERTEX
  8
LAYER_1
 10
115.1106
 20
216.2143
  0
VERTEX
  8
LAYER_1
 10
116.8463
 20
216.2143
  0
SEQEND
  0
POLYLINE
  8
LAYER_1
 40
0.0847
 41
0.0847
 66
1
 10
0
 20
0
 30
0
  0
VERTEX
  8
LAYER_1
 10
118.582
 20
216.2143
  0
VERTEX
  8
LAYER_1
 10
120.3176
 20
216.2143
  0
SEQEND
  0
POLYLINE
  8
LAYER_1
 40
0.0847
 41
0.0847
 66
1
 10
0
 20
0
 30
0
  0
VERTEX
  8
LAYER_1
 10
122.0533
 20
216.2143
  0
VERTEX
  8
LAYER_1
 10
123.789
 20
216.2143
  0
SEQEND
  0
POLYLINE
  8
LAYER_1
 40
0.0847
 41
0.0847
 66
1
 10
0
 20
0
 30
0
  0
VERTEX
  8
LAYER_1
 10
125.5035
 20
216.2143
  0
VERTEX
  8
LAYER_1
 10
127.2391
 20
216.2143
  0
SEQEND
  0
POLYLINE
  8
LAYER_1
 40
0.0847
 41
0.0847
 66
1
 10
0
 20
0
 30
0
  0
VERTEX
  8
LAYER_1
 10
128.9748
 20
216.2143
  0
VERTEX
  8
LAYER_1
 10
130.7105
 20
216.2143
  0
SEQEND
  0
POLYLINE
  8
LAYER_1
 40
0.0847
 41
0.0847
 66
1
 10
0
 20
0
 30
0
  0
VERTEX
  8
LAYER_1
 10
132.4461
 20
216.2143
  0
VERTEX
  8
LAYER_1
 10
134.1818
 20
216.2143
  0
SEQEND
  0
POLYLINE
  8
LAYER_1
 40
0.0847
 41
0.0847
 66
1
 10
0
 20
0
 30
0
  0
VERTEX
  8
LAYER_1
 10
135.9175
 20
216.2143
  0
VERTEX
  8
LAYER_1
 10
137.6531
 20
216.2143
  0
SEQEND
  0
POLYLINE
  8
LAYER_1
 40
0.0847
 41
0.0847
 66
1
 10
0
 20
0
 30
0
  0
VERTEX
  8
LAYER_1
 10
139.3888
 20
216.2143
  0
VERTEX
  8
LAYER_1
 10
141.1245
 20
216.2143
  0
SEQEND
  0
POLYLINE
  8
LAYER_1
 40
0.0847
 41
0.0847
 66
1
 10
0
 20
0
 30
0
  0
VERTEX
  8
LAYER_1
 10
142.8601
 20
216.2143
  0
VERTEX
  8
LAYER_1
 10
144.5958
 20
216.2143
  0
SEQEND
  0
POLYLINE
  8
LAYER_1
 40
0.0847
 41
0.0847
 66
1
 10
0
 20
0
 30
0
  0
VERTEX
  8
LAYER_1
 10
146.3103
 20
216.2143
  0
VERTEX
  8
LAYER_1
 10
148.046
 20
216.2143
  0
SEQEND
  0
POLYLINE
  8
LAYER_1
 40
0.0847
 41
0.0847
 66
1
 10
0
 20
0
 30
0
  0
VERTEX
  8
LAYER_1
 10
149.7817
 20
216.2143
  0
VERTEX
  8
LAYER_1
 10
151.5173
 20
216.2143
  0
SEQEND
  0
POLYLINE
  8
LAYER_1
 40
0.0847
 41
0.0847
 66
1
 10
0
 20
0
 30
0
  0
VERTEX
  8
LAYER_1
 10
153.253
 20
216.2143
  0
VERTEX
  8
LAYER_1
 10
154.9887
 20
216.2143
  0
SEQEND
  0
POLYLINE
  8
LAYER_1
 40
0.0847
 41
0.0847
 66
1
 10
0
 20
0
 30
0
  0
VERTEX
  8
LAYER_1
 10
156.7243
 20
216.2143
  0
VERTEX
  8
LAYER_1
 10
158.46
 20
216.2143
  0
SEQEND
  0
POLYLINE
  8
LAYER_1
 40
0.0847
 41
0.0847
 66
1
 10
0
 20
0
 30
0
  0
VERTEX
  8
LAYER_1
 10
160.1957
 20
216.2143
  0
VERTEX
  8
LAYER_1
 10
161.9314
 20
216.2143
  0
SEQEND
  0
POLYLINE
  8
LAYER_1
 40
0.0847
 41
0.0847
 66
1
 10
0
 20
0
 30
0
  0
VERTEX
  8
LAYER_1
 10
163.667
 20
216.2143
  0
VERTEX
  8
LAYER_1
 10
164.5349
 20
216.2143
  0
SEQEND
  0
POLYLINE
  8
LAYER_1
 40
0.0847
 41
0.0847
 66
1
 10
0
 20
0
 30
0
  0
VERTEX
  8
LAYER_1
 10
88.0385
 20
193.5025
  0
VERTEX
  8
LAYER_1
 10
87.4247
 20
193.4813
  0
VERTEX
  8
LAYER_1
 10
86.8109
 20
193.4813
  0
VERTEX
  8
LAYER_1
 10
86.197
 20
193.4601
  0
VERTEX
  8
LAYER_1
 10
85.5832
 20
193.4601
  0
SEQEND
  0
POLYLINE
  8
LAYER_1
 40
0.1693
 41
0.1693
 66
1
 10
0
 20
0
 30
0
  0
VERTEX
  8
LAYER_1
 10
85.6044
 20
191.4281
  0
VERTEX
  8
LAYER_1
 10
86.2182
 20
191.4493
  0
VERTEX
  8
LAYER_1
 10
86.832
 20
191.4705
  0
VERTEX
  8
LAYER_1
 10
87.4459
 20
191.4705
  0
VERTEX
  8
LAYER_1
 10
88.0597
 20
191.4916
  0
VERTEX
  8
LAYER_1
 10
88.6524
 20
191.4916
  0
VERTEX
  8
LAYER_1
 10
89.245
 20
191.4916
  0
VERTEX
  8
LAYER_1
 10
89.8377
 20
191.4916
  0
VERTEX
  8
LAYER_1
 10
90.4304
 20
191.4916
  0
VERTEX
  8
LAYER_1
 10
91.0019
 20
191.4705
  0
VERTEX
  8
LAYER_1
 10
91.5734
 20
191.4493
  0
SEQEND
  0
POLYLINE
  8
LAYER_1
 40
0.1693
 41
0.1693
 66
1
 10
0
 20
0
 30
0
  0
VERTEX
  8
LAYER_1
 10
97.6059
 20
190.6026
  0
VERTEX
  8
LAYER_1
 10
97.4154
 20
190.645
  0
VERTEX
  8
LAYER_1
 10
97.0979
 20
190.7085
  0
VERTEX
  8
LAYER_1
 10
96.7804
 20
190.7931
  0
VERTEX
  8
LAYER_1
 10
96.4417
 20
190.8566
  0
VERTEX
  8
LAYER_1
 10
96.1242
 20
190.9201
  0
VERTEX
  8
LAYER_1
 10
95.8067
 20
190.9836
  0
VERTEX
  8
LAYER_1
 10
95.6162
 20
191.026
  0
VERTEX
  8
LAYER_1
 10
95.3622
 20
191.0683
  0
VERTEX
  8
LAYER_1
 10
94.9389
 20
191.1318
  0
VERTEX
  8
LAYER_1
 10
94.4944
 20
191.1953
  0
SEQEND
  0
POLYLINE
  8
LAYER_1
 40
0.1693
 41
0.1693
 66
1
 10
0
 20
0
 30
0
  0
VERTEX
  8
LAYER_1
 10
94.071
 20
191.2588
  0
VERTEX
  8
LAYER_1
 10
93.6265
 20
191.3223
  0
VERTEX
  8
LAYER_1
 10
93.182
 20
191.3646
  0
SEQEND
  0
POLYLINE
  8
LAYER_1
 40
0.1693
 41
0.1693
 66
1
 10
0
 20
0
 30
0
  0
VERTEX
  8
LAYER_1
 10
92.1237
 20
191.4281
  0
VERTEX
  8
LAYER_1
 10
92.9069
 20
191.407
  0
SEQEND
  0
POLYLINE
  8
LAYER_1
 40
0.1693
 41
0.1693
 66
1
 10
0
 20
0
 30
0
  0
VERTEX
  8
LAYER_1
 10
93.182
 20
191.3646
  0
VERTEX
  8
LAYER_1
 10
92.9069
 20
191.407
  0
SEQEND
  0
POLYLINE
  8
LAYER_1
 40
0.0847
 41
0.0847
 66
1
 10
0
 20
0
 30
0
  0
VERTEX
  8
LAYER_1
 10
89.245
 20
193.5025
  0
VERTEX
  8
LAYER_1
 10
88.6524
 20
193.5025
  0
VERTEX
  8
LAYER_1
 10
88.0385
 20
193.5025
  0
SEQEND
  0
POLYLINE
  8
LAYER_1
 40
0.0847
 41
0.0847
 66
1
 10
0
 20
0
 30
0
  0
VERTEX
  8
LAYER_1
 10
99.1087
 20
190.6026
  0
VERTEX
  8
LAYER_1
 10
99.0029
 20
190.7085
  0
SEQEND
  0
POLYLINE
  8
LAYER_1
 40
0.1693
 41
0.1693
 66
1
 10
0
 20
0
 30
0
  0
VERTEX
  8
LAYER_1
 10
119.598
 20
191.4493
  0
VERTEX
  8
LAYER_1
 10
119.0477
 20
191.4281
  0
SEQEND
  0
POLYLINE
  8
LAYER_1
 40
0.1693
 41
0.1693
 66
1
 10
0
 20
0
 30
0
  0
VERTEX
  8
LAYER_1
 10
116.677
 20
191.1953
  0
VERTEX
  8
LAYER_1
 10
117.1004
 20
191.2588
  0
SEQEND
  0
POLYLINE
  8
LAYER_1
 40
0.1693
 41
0.1693
 66
1
 10
0
 20
0
 30
0
  0
VERTEX
  8
LAYER_1
 10
121.3337
 20
191.4916
  0
VERTEX
  8
LAYER_1
 10
120.741
 20
191.4916
  0
VERTEX
  8
LAYER_1
 10
120.1695
 20
191.4705
  0
VERTEX
  8
LAYER_1
 10
119.598
 20
191.4493
  0
SEQEND
  0
POLYLINE
  8
LAYER_1
 40
0.1693
 41
0.1693
 66
1
 10
0
 20
0
 30
0
  0
VERTEX
  8
LAYER_1
 10
113.5655
 20
190.6026
  0
VERTEX
  8
LAYER_1
 10
113.756
 20
190.645
  0
VERTEX
  8
LAYER_1
 10
114.0735
 20
190.7085
  0
VERTEX
  8
LAYER_1
 10
114.391
 20
190.7931
  0
VERTEX
  8
LAYER_1
 10
114.7297
 20
190.8566
  0
VERTEX
  8
LAYER_1
 10
115.0472
 20
190.9201
  0
VERTEX
  8
LAYER_1
 10
115.3647
 20
190.9836
  0
VERTEX
  8
LAYER_1
 10
115.5552
 20
191.026
  0
VERTEX
  8
LAYER_1
 10
115.8092
 20
191.0683
  0
VERTEX
  8
LAYER_1
 10
116.2325
 20
191.1318
  0
VERTEX
  8
LAYER_1
 10
116.677
 20
191.1953
  0
SEQEND
  0
POLYLINE
  8
LAYER_1
 40
0.1693
 41
0.1693
 66
1
 10
0
 20
0
 30
0
  0
VERTEX
  8
LAYER_1
 10
117.1004
 20
191.2588
  0
VERTEX
  8
LAYER_1
 10
117.5449
 20
191.3223
  0
VERTEX
  8
LAYER_1
 10
117.9894
 20
191.3646
  0
SEQEND
  0
POLYLINE
  8
LAYER_1
 40
0.1693
 41
0.1693
 66
1
 10
0
 20
0
 30
0
  0
VERTEX
  8
LAYER_1
 10
119.0477
 20
191.4281
  0
VERTEX
  8
LAYER_1
 10
118.2645
 20
191.407
  0
SEQEND
  0
POLYLINE
  8
LAYER_1
 40
0.1693
 41
0.1693
 66
1
 10
0
 20
0
 30
0
  0
VERTEX
  8
LAYER_1
 10
117.9894
 20
191.3646
  0
VERTEX
  8
LAYER_1
 10
118.2645
 20
191.407
  0
SEQEND
  0
POLYLINE
  8
LAYER_1
 40
0.0847
 41
0.0847
 66
1
 10
0
 20
0
 30
0
  0
VERTEX
  8
LAYER_1
 10
121.9264
 20
193.5025
  0
VERTEX
  8
LAYER_1
 10
122.519
 20
193.5025
  0
SEQEND
  0
POLYLINE
  8
LAYER_1
 40
0.0847
 41
0.0847
 66
1
 10
0
 20
0
 30
0
  0
VERTEX
  8
LAYER_1
 10
112.0627
 20
190.6026
  0
VERTEX
  8
LAYER_1
 10
112.1685
 20
190.7085
  0
SEQEND
  0
POLYLINE
  8
LAYER_1
 40
0.0847
 41
0.0847
 66
1
 10
0
 20
0
 30
0
  0
VERTEX
  8
LAYER_1
 10
123.1329
 20
193.5025
  0
VERTEX
  8
LAYER_1
 10
123.7467
 20
193.4813
  0
VERTEX
  8
LAYER_1
 10
124.3605
 20
193.4813
  0
VERTEX
  8
LAYER_1
 10
124.9744
 20
193.4601
  0
SEQEND
  0
POLYLINE
  8
LAYER_1
 40
0.0847
 41
0.0847
 66
1
 10
0
 20
0
 30
0
  0
VERTEX
  8
LAYER_1
 10
122.519
 20
193.5025
  0
VERTEX
  8
LAYER_1
 10
123.1329
 20
193.5025
  0
SEQEND
  0
POLYLINE
  8
LAYER_1
 40
0.0847
 41
0.0847
 66
1
 10
0
 20
0
 30
0
  0
VERTEX
  8
LAYER_1
 10
121.1432
 20
193.5025
  0
VERTEX
  8
LAYER_1
 10
121.9264
 20
193.5025
  0
SEQEND
  0
POLYLINE
  8
LAYER_1
 40
0.0847
 41
0.0847
 66
1
 10
0
 20
0
 30
0
  0
VERTEX
  8
LAYER_1
 10
99.1087
 20
190.6026
  0
VERTEX
  8
LAYER_1
 10
98.897
 20
190.772
  0
VERTEX
  8
LAYER_1
 10
98.5584
 20
191.0895
  0
VERTEX
  8
LAYER_1
 10
98.1985
 20
191.407
  0
VERTEX
  8
LAYER_1
 10
97.8175
 20
191.7033
  0
VERTEX
  8
LAYER_1
 10
97.4365
 20
191.9785
  0
VERTEX
  8
LAYER_1
 10
97.0555
 20
192.2113
  0
VERTEX
  8
LAYER_1
 10
96.8227
 20
192.3383
  0
VERTEX
  8
LAYER_1
 10
96.6322
 20
192.4441
  0
VERTEX
  8
LAYER_1
 10
96.3147
 20
192.5711
  0
VERTEX
  8
LAYER_1
 10
95.976
 20
192.6981
  0
VERTEX
  8
LAYER_1
 10
95.6374
 20
192.7828
  0
VERTEX
  8
LAYER_1
 10
95.2987
 20
192.8886
  0
VERTEX
  8
LAYER_1
 10
94.96
 20
192.9521
  0
VERTEX
  8
LAYER_1
 10
94.7484
 20
192.9945
  0
VERTEX
  8
LAYER_1
 10
94.3674
 20
193.0791
  0
VERTEX
  8
LAYER_1
 10
93.69
 20
193.185
  0
VERTEX
  8
LAYER_1
 10
93.0127
 20
193.2696
  0
VERTEX
  8
LAYER_1
 10
92.3142
 20
193.3331
  0
VERTEX
  8
LAYER_1
 10
91.6369
 20
193.3966
  0
VERTEX
  8
LAYER_1
 10
90.9595
 20
193.439
  0
VERTEX
  8
LAYER_1
 10
90.5574
 20
193.4601
  0
VERTEX
  8
LAYER_1
 10
90.0494
 20
193.5025
  0
VERTEX
  8
LAYER_1
 10
89.245
 20
193.5025
  0
SEQEND
  0
POLYLINE
  8
LAYER_1
 40
0.0847
 41
0.0847
 66
1
 10
0
 20
0
 30
0
  0
VERTEX
  8
LAYER_1
 10
112.0627
 20
190.6026
  0
VERTEX
  8
LAYER_1
 10
112.2744
 20
190.772
  0
VERTEX
  8
LAYER_1
 10
112.613
 20
191.0895
  0
VERTEX
  8
LAYER_1
 10
112.9729
 20
191.407
  0
VERTEX
  8
LAYER_1
 10
113.3539
 20
191.7033
  0
VERTEX
  8
LAYER_1
 10
113.7349
 20
191.9785
  0
VERTEX
  8
LAYER_1
 10
114.1159
 20
192.2113
  0
VERTEX
  8
LAYER_1
 10
114.3487
 20
192.3383
  0
VERTEX
  8
LAYER_1
 10
114.5392
 20
192.4441
  0
VERTEX
  8
LAYER_1
 10
114.8567
 20
192.5711
  0
VERTEX
  8
LAYER_1
 10
115.1954
 20
192.6981
  0
VERTEX
  8
LAYER_1
 10
115.534
 20
192.7828
  0
VERTEX
  8
LAYER_1
 10
115.8727
 20
192.8886
  0
VERTEX
  8
LAYER_1
 10
116.2114
 20
192.9521
  0
VERTEX
  8
LAYER_1
 10
116.423
 20
192.9945
  0
VERTEX
  8
LAYER_1
 10
116.804
 20
193.0791
  0
VERTEX
  8
LAYER_1
 10
117.4814
 20
193.185
  0
VERTEX
  8
LAYER_1
 10
118.1587
 20
193.2696
  0
VERTEX
  8
LAYER_1
 10
118.8572
 20
193.3331
  0
VERTEX
  8
LAYER_1
 10
119.5345
 20
193.3966
  0
VERTEX
  8
LAYER_1
 10
120.2119
 20
193.439
  0
VERTEX
  8
LAYER_1
 10
120.614
 20
193.4601
  0
VERTEX
  8
LAYER_1
 10
121.1432
 20
193.5025
  0
SEQEND
  0
POLYLINE
  8
LAYER_1
 40
0.1693
 41
0.1693
 66
1
 10
0
 20
0
 30
0
  0
VERTEX
  8
LAYER_1
 10
104.104
 20
190.7931
  0
VERTEX
  8
LAYER_1
 10
104.104
 20
192.5923
  0
SEQEND
  0
POLYLINE
  8
LAYER_1
 40
0.1693
 41
0.1693
 66
1
 10
0
 20
0
 30
0
  0
VERTEX
  8
LAYER_1
 10
107.0674
 20
190.7931
  0
VERTEX
  8
LAYER_1
 10
107.0674
 20
192.5923
  0
SEQEND
  0
POLYLINE
  8
LAYER_1
 40
0.1693
 41
0.1693
 66
1
 10
0
 20
0
 30
0
  0
VERTEX
  8
LAYER_1
 10
101.437
 20
186.7926
  0
VERTEX
  8
LAYER_1
 10
109.7344
 20
186.7926
  0
SEQEND
  0
POLYLINE
  8
LAYER_1
 40
0.1693
 41
0.1693
 66
1
 10
0
 20
0
 30
0
  0
VERTEX
  8
LAYER_1
 10
101.7545
 20
182.3688
  0
VERTEX
  8
LAYER_1
 10
101.437
 20
182.0936
  0
VERTEX
  8
LAYER_1
 10
101.7545
 20
181.8608
  0
VERTEX
  8
LAYER_1
 10
101.437
 20
181.6068
  0
VERTEX
  8
LAYER_1
 10
101.7545
 20
181.3528
  0
VERTEX
  8
LAYER_1
 10
101.437
 20
181.0988
  0
VERTEX
  8
LAYER_1
 10
101.7545
 20
180.866
  0
VERTEX
  8
LAYER_1
 10
101.437
 20
180.5908
  0
VERTEX
  8
LAYER_1
 10
101.7545
 20
180.358
  0
VERTEX
  8
LAYER_1
 10
101.437
 20
180.104
  0
VERTEX
  8
LAYER_1
 10
101.7545
 20
179.85
  0
VERTEX
  8
LAYER_1
 10
101.437
 20
179.596
  0
VERTEX
  8
LAYER_1
 10
101.7545
 20
179.3631
  0
VERTEX
  8
LAYER_1
 10
101.437
 20
179.1091
  0
VERTEX
  8
LAYER_1
 10
101.7545
 20
178.8551
  0
VERTEX
  8
LAYER_1
 10
101.437
 20
178.6011
  0
VERTEX
  8
LAYER_1
 10
101.7545
 20
178.3683
  0
VERTEX
  8
LAYER_1
 10
101.437
 20
178.0931
  0
VERTEX
  8
LAYER_1
 10
101.7545
 20
177.8603
  0
VERTEX
  8
LAYER_1
 10
101.437
 20
177.6063
  0
SEQEND
  0
POLYLINE
  8
LAYER_1
 40
0.1693
 41
0.1693
 66
1
 10
0
 20
0
 30
0
  0
VERTEX
  8
LAYER_1
 10
101.7545
 20
172.357
  0
VERTEX
  8
LAYER_1
 10
101.437
 20
172.103
  0
VERTEX
  8
LAYER_1
 10
101.7545
 20
171.849
  0
VERTEX
  8
LAYER_1
 10
101.437
 20
171.595
  0
VERTEX
  8
LAYER_1
 10
101.7545
 20
171.3621
  0
VERTEX
  8
LAYER_1
 10
101.437
 20
171.087
  0
VERTEX
  8
LAYER_1
 10
101.7545
 20
170.8541
  0
SEQEND
  0
POLYLINE
  8
LAYER_1
 40
0.1693
 41
0.1693
 66
1
 10
0
 20
0
 30
0
  0
VERTEX
  8
LAYER_1
 10
109.7344
 20
182.39
  0
VERTEX
  8
LAYER_1
 10
109.4169
 20
182.136
  0
VERTEX
  8
LAYER_1
 10
109.7344
 20
181.882
  0
VERTEX
  8
LAYER_1
 10
109.4169
 20
181.6491
  0
VERTEX
  8
LAYER_1
 10
109.7344
 20
181.374
  0
VERTEX
  8
LAYER_1
 10
109.4169
 20
181.1411
  0
VERTEX
  8
LAYER_1
 10
109.7344
 20
180.8871
  0
VERTEX
  8
LAYER_1
 10
109.4169
 20
180.6331
  0
VERTEX
  8
LAYER_1
 10
109.7344
 20
180.3791
  0
VERTEX
  8
LAYER_1
 10
109.4169
 20
180.1463
  0
SEQEND
  0
POLYLINE
  8
LAYER_1
 40
0.1693
 41
0.1693
 66
1
 10
0
 20
0
 30
0
  0
VERTEX
  8
LAYER_1
 10
109.7344
 20
172.3781
  0
VERTEX
  8
LAYER_1
 10
109.4169
 20
172.1241
  0
VERTEX
  8
LAYER_1
 10
109.7344
 20
171.8701
  0
VERTEX
  8
LAYER_1
 10
109.4169
 20
171.6373
  0
VERTEX
  8
LAYER_1
 10
109.7344
 20
171.3621
  0
VERTEX
  8
LAYER_1
 10
109.4169
 20
171.1293
  0
VERTEX
  8
LAYER_1
 10
109.7344
 20
170.8753
  0
SEQEND
  0
POLYLINE
  8
LAYER_1
 40
0.1693
 41
0.1693
 66
1
 10
0
 20
0
 30
0
  0
VERTEX
  8
LAYER_1
 10
101.437
 20
177.6063
  0
VERTEX
  8
LAYER_1
 10
101.7545
 20
177.3523
  0
SEQEND
  0
POLYLINE
  8
LAYER_1
 40
0.1693
 41
0.1693
 66
1
 10
0
 20
0
 30
0
  0
VERTEX
  8
LAYER_1
 10
101.7545
 20
170.8541
  0
VERTEX
  8
LAYER_1
 10
101.6699
 20
170.7906
  0
SEQEND
  0
POLYLINE
  8
LAYER_1
 40
0.1693
 41
0.1693
 66
1
 10
0
 20
0
 30
0
  0
VERTEX
  8
LAYER_1
 10
101.5852
 20
170.6001
  0
VERTEX
  8
LAYER_1
 10
109.565
 20
170.6001
  0
VERTEX
  8
LAYER_1
 10
109.565
 20
170.7906
  0
SEQEND
  0
POLYLINE
  8
LAYER_1
 40
0.1693
 41
0.1693
 66
1
 10
0
 20
0
 30
0
  0
VERTEX
  8
LAYER_1
 10
109.7344
 20
170.8753
  0
VERTEX
  8
LAYER_1
 10
109.6285
 20
170.7906
  0
SEQEND
  0
POLYLINE
  8
LAYER_1
 40
0.1693
 41
0.1693
 66
1
 10
0
 20
0
 30
0
  0
VERTEX
  8
LAYER_1
 10
98.389
 20
192.6346
  0
VERTEX
  8
LAYER_1
 10
98.389
 20
192.677
  0
SEQEND
  0
POLYLINE
  8
LAYER_1
 40
0.1693
 41
0.1693
 66
1
 10
0
 20
0
 30
0
  0
VERTEX
  8
LAYER_1
 10
98.389
 20
192.6558
  0
VERTEX
  8
LAYER_1
 10
98.389
 20
192.6346
  0
VERTEX
  8
LAYER_1
 10
98.4102
 20
192.6135
  0
SEQEND
  0
POLYLINE
  8
LAYER_1
 40
0.1693
 41
0.1693
 66
1
 10
0
 20
0
 30
0
  0
VERTEX
  8
LAYER_1
 10
112.7824
 20
192.6346
  0
VERTEX
  8
LAYER_1
 10
112.7824
 20
192.677
  0
SEQEND
  0
POLYLINE
  8
LAYER_1
 40
0.1693
 41
0.1693
 66
1
 10
0
 20
0
 30
0
  0
VERTEX
  8
LAYER_1
 10
112.7189
 20
192.6135
  0
VERTEX
  8
LAYER_1
 10
112.74
 20
192.5923
 42
0.3846916085
  0
VERTEX
  8
LAYER_1
 10
112.7824
 20
192.6346
  0
VERTEX
  8
LAYER_1
 10
112.7612
 20
192.6558
  0
SEQEND
  0
POLYLINE
  8
LAYER_1
 40
0.1693
 41
0.1693
 66
1
 10
0
 20
0
 30
0
  0
VERTEX
  8
LAYER_1
 10
98.4314
 20
192.5923
  0
VERTEX
  8
LAYER_1
 10
112.74
 20
192.5923
  0
SEQEND
  0
POLYLINE
  8
LAYER_1
 40
0.1693
 41
0.1693
 66
1
 10
0
 20
0
 30
0
  0
VERTEX
  8
LAYER_1
 10
98.516
 20
192.8675
 42
0.2516927182
  0
VERTEX
  8
LAYER_1
 10
98.4102
 20
192.6981
  0
SEQEND
  0
POLYLINE
  8
LAYER_1
 40
0.1693
 41
0.1693
 66
1
 10
0
 20
0
 30
0
  0
VERTEX
  8
LAYER_1
 10
112.6342
 20
192.8675
 42
0.06894786071
  0
VERTEX
  8
LAYER_1
 10
108.3052
 20
194.1772
 42
0.03951536438
  0
VERTEX
  8
LAYER_1
 10
105.5857
 20
194.3915
 42
0.1073127357
  0
VERTEX
  8
LAYER_1
 10
98.4949
 20
192.8463
  0
SEQEND
  0
POLYLINE
  8
LAYER_1
 40
0.1693
 41
0.1693
 66
1
 10
0
 20
0
 30
0
  0
VERTEX
  8
LAYER_1
 10
112.7612
 20
192.6981
 42
0.2988294871
  0
VERTEX
  8
LAYER_1
 10
112.613
 20
192.8675
  0
SEQEND
  0
POLYLINE
  8
LAYER_1
 40
0.1693
 41
0.1693
 66
1
 10
0
 20
0
 30
0
  0
VERTEX
  8
LAYER_1
 10
101.5852
 20
170.6001
  0
VERTEX
  8
LAYER_1
 10
101.5852
 20
170.7906
  0
VERTEX
  8
LAYER_1
 10
109.6285
 20
170.7906
  0
SEQEND
  0
POLYLINE
  8
LAYER_1
 40
0.1693
 41
0.1693
 66
1
 10
0
 20
0
 30
0
  0
VERTEX
  8
LAYER_1
 10
101.7545
 20
177.3523
  0
VERTEX
  8
LAYER_1
 10
101.437
 20
177.0983
  0
VERTEX
  8
LAYER_1
 10
101.7545
 20
176.8655
  0
VERTEX
  8
LAYER_1
 10
101.437
 20
176.5903
  0
SEQEND
  0
POLYLINE
  8
LAYER_1
 40
0.1693
 41
0.1693
 66
1
 10
0
 20
0
 30
0
  0
VERTEX
  8
LAYER_1
 10
109.4169
 20
177.6275
  0
VERTEX
  8
LAYER_1
 10
109.7344
 20
177.3735
  0
VERTEX
  8
LAYER_1
 10
109.4169
 20
177.1406
  0
VERTEX
  8
LAYER_1
 10
109.7344
 20
176.8655
  0
VERTEX
  8
LAYER_1
 10
109.4169
 20
176.6326
  0
SEQEND
  0
POLYLINE
  8
LAYER_1
 40
0.1693
 41
0.1693
 66
1
 10
0
 20
0
 30
0
  0
VERTEX
  8
LAYER_1
 10
109.4169
 20
180.1463
  0
VERTEX
  8
LAYER_1
 10
109.7344
 20
179.8711
  0
VERTEX
  8
LAYER_1
 10
109.4169
 20
179.6383
  0
VERTEX
  8
LAYER_1
 10
109.7344
 20
179.3843
  0
VERTEX
  8
LAYER_1
 10
109.4169
 20
179.1303
  0
VERTEX
  8
LAYER_1
 10
109.7344
 20
178.8763
  0
VERTEX
  8
LAYER_1
 10
109.4169
 20
178.6435
  0
VERTEX
  8
LAYER_1
 10
109.7344
 20
178.3683
  0
VERTEX
  8
LAYER_1
 10
109.4169
 20
178.1355
  0
VERTEX
  8
LAYER_1
 10
109.7344
 20
177.8815
  0
VERTEX
  8
LAYER_1
 10
109.4169
 20
177.6275
  0
SEQEND
  0
POLYLINE
  8
LAYER_1
 40
0.1693
 41
0.1693
 66
1
 10
0
 20
0
 30
0
  0
VERTEX
  8
LAYER_1
 10
99.1722
 20
190.7931
 42
0.3782120695
  0
VERTEX
  8
LAYER_1
 10
99.0875
 20
190.6873
 42
0.4404387411
  0
VERTEX
  8
LAYER_1
 10
99.1722
 20
190.6026
  0
SEQEND
  0
POLYLINE
  8
LAYER_1
 40
0.1693
 41
0.1693
 66
1
 10
0
 20
0
 30
0
  0
VERTEX
  8
LAYER_1
 10
99.1934
 20
190.6026
  0
VERTEX
  8
LAYER_1
 10
101.437
 20
189.9888
  0
SEQEND
  0
POLYLINE
  8
LAYER_1
 40
0.1693
 41
0.1693
 66
1
 10
0
 20
0
 30
0
  0
VERTEX
  8
LAYER_1
 10
111.978
 20
190.6026
  0
VERTEX
  8
LAYER_1
 10
109.7343
 20
189.9888
  0
SEQEND
  0
POLYLINE
  8
LAYER_1
 40
0.1693
 41
0.1693
 66
1
 10
0
 20
0
 30
0
  0
VERTEX
  8
LAYER_1
 10
99.1934
 20
190.7931
  0
VERTEX
  8
LAYER_1
 10
111.978
 20
190.7931
  0
SEQEND
  0
POLYLINE
  8
LAYER_1
 40
0.1693
 41
0.1693
 66
1
 10
0
 20
0
 30
0
  0
VERTEX
  8
LAYER_1
 10
111.9569
 20
190.6026
 42
0.4459787268
  0
VERTEX
  8
LAYER_1
 10
111.978
 20
190.5815
 42
0.2999789573
  0
VERTEX
  8
LAYER_1
 10
112.0838
 20
190.6873
 42
0.3599078685
  0
VERTEX
  8
LAYER_1
 10
111.978
 20
190.7931
  0
VERTEX
  8
LAYER_1
 10
111.9569
 20
190.7931
  0
SEQEND
  0
POLYLINE
  8
LAYER_1
 40
0.1693
 41
0.1693
 66
1
 10
0
 20
0
 30
0
  0
VERTEX
  8
LAYER_1
 10
99.1934
 20
190.6026
  0
VERTEX
  8
LAYER_1
 10
111.978
 20
190.6026
  0
SEQEND
  0
POLYLINE
  8
LAYER_1
 40
0.1693
 41
0.1693
 66
1
 10
0
 20
0
 30
0
  0
VERTEX
  8
LAYER_1
 10
101.437
 20
182.6016
  0
VERTEX
  8
LAYER_1
 10
101.7545
 20
182.3688
  0
SEQEND
  0
POLYLINE
  8
LAYER_1
 40
0.1693
 41
0.1693
 66
1
 10
0
 20
0
 30
0
  0
VERTEX
  8
LAYER_1
 10
109.4168
 20
182.644
  0
VERTEX
  8
LAYER_1
 10
109.7343
 20
182.39
  0
SEQEND
  0
POLYLINE
  8
LAYER_1
 40
0.1693
 41
0.1693
 66
1
 10
0
 20
0
 30
0
  0
VERTEX
  8
LAYER_1
 10
109.4168
 20
172.6321
  0
VERTEX
  8
LAYER_1
 10
109.7343
 20
172.3781
  0
SEQEND
  0
POLYLINE
  8
LAYER_1
 40
0.1693
 41
0.1693
 66
1
 10
0
 20
0
 30
0
  0
VERTEX
  8
LAYER_1
 10
101.437
 20
172.5898
  0
VERTEX
  8
LAYER_1
 10
101.7545
 20
172.357
  0
SEQEND
  0
POLYLINE
  8
LAYER_1
 40
0.0847
 41
0.0847
 66
1
 10
0
 20
0
 30
0
  0
VERTEX
  8
LAYER_1
 10
101.945
 20
170.6001
  0
VERTEX
  8
LAYER_1
 10
101.945
 20
178.0931
  0
SEQEND
  0
POLYLINE
  8
LAYER_1
 40
0.0847
 41
0.0847
 66
1
 10
0
 20
0
 30
0
  0
VERTEX
  8
LAYER_1
 10
101.945
 20
183.0885
  0
VERTEX
  8
LAYER_1
 10
101.945
 20
190.6026
  0
SEQEND
  0
POLYLINE
  8
LAYER_1
 40
0.0847
 41
0.0847
 66
1
 10
0
 20
0
 30
0
  0
VERTEX
  8
LAYER_1
 10
97.6059
 20
190.6026
  0
VERTEX
  8
LAYER_1
 10
99.0875
 20
190.6026
  0
SEQEND
  0
POLYLINE
  8
LAYER_1
 40
0.0847
 41
0.0847
 66
1
 10
0
 20
0
 30
0
  0
VERTEX
  8
LAYER_1
 10
112.0839
 20
190.6026
  0
VERTEX
  8
LAYER_1
 10
113.5655
 20
190.6026
  0
SEQEND
  0
POLYLINE
  8
LAYER_1
 40
0.0847
 41
0.0847
 66
1
 10
0
 20
0
 30
0
  0
VERTEX
  8
LAYER_1
 10
99.1087
 20
190.6026
  0
VERTEX
  8
LAYER_1
 10
100.1882
 20
190.6026
  0
SEQEND
  0
POLYLINE
  8
LAYER_1
 40
0.0847
 41
0.0847
 66
1
 10
0
 20
0
 30
0
  0
VERTEX
  8
LAYER_1
 10
102.3472
 20
190.6026
  0
VERTEX
  8
LAYER_1
 10
104.5062
 20
190.6026
  0
SEQEND
  0
POLYLINE
  8
LAYER_1
 40
0.0847
 41
0.0847
 66
1
 10
0
 20
0
 30
0
  0
VERTEX
  8
LAYER_1
 10
106.6652
 20
190.6026
  0
VERTEX
  8
LAYER_1
 10
108.8242
 20
190.6026
  0
SEQEND
  0
POLYLINE
  8
LAYER_1
 40
0.0847
 41
0.0847
 66
1
 10
0
 20
0
 30
0
  0
VERTEX
  8
LAYER_1
 10
110.9832
 20
190.6026
  0
VERTEX
  8
LAYER_1
 10
112.0627
 20
190.6026
  0
SEQEND
  0
POLYLINE
  8
LAYER_1
 40
0.1693
 41
0.1693
 66
1
 10
0
 20
0
 30
0
  0
VERTEX
  8
LAYER_1
 10
101.7545
 20
173.3518
  0
VERTEX
  8
LAYER_1
 10
101.437
 20
173.0978
  0
VERTEX
  8
LAYER_1
 10
101.7545
 20
172.865
  0
VERTEX
  8
LAYER_1
 10
101.437
 20
172.5898
  0
SEQEND
  0
POLYLINE
  8
LAYER_1
 40
0.1693
 41
0.1693
 66
1
 10
0
 20
0
 30
0
  0
VERTEX
  8
LAYER_1
 10
101.564
 20
173.5
  0
VERTEX
  8
LAYER_1
 10
101.7545
 20
173.3518
  0
SEQEND
  0
POLYLINE
  8
LAYER_1
 40
0.1693
 41
0.1693
 66
1
 10
0
 20
0
 30
0
  0
VERTEX
  8
LAYER_1
 10
109.7344
 20
173.373
  0
VERTEX
  8
LAYER_1
 10
109.4169
 20
173.1401
  0
VERTEX
  8
LAYER_1
 10
109.7344
 20
172.865
  0
VERTEX
  8
LAYER_1
 10
109.4169
 20
172.6321
  0
SEQEND
  0
POLYLINE
  8
LAYER_1
 40
0.1693
 41
0.1693
 66
1
 10
0
 20
0
 30
0
  0
VERTEX
  8
LAYER_1
 10
109.565
 20
173.5
  0
VERTEX
  8
LAYER_1
 10
109.7344
 20
173.373
  0
SEQEND
  0
POLYLINE
  8
LAYER_1
 40
0.1693
 41
0.1693
 66
1
 10
0
 20
0
 30
0
  0
VERTEX
  8
LAYER_1
 10
101.7545
 20
183.3636
  0
VERTEX
  8
LAYER_1
 10
101.437
 20
183.1096
  0
VERTEX
  8
LAYER_1
 10
101.7545
 20
182.8556
  0
VERTEX
  8
LAYER_1
 10
101.437
 20
182.6016
  0
SEQEND
  0
POLYLINE
  8
LAYER_1
 40
0.1693
 41
0.1693
 66
1
 10
0
 20
0
 30
0
  0
VERTEX
  8
LAYER_1
 10
101.564
 20
183.5118
  0
VERTEX
  8
LAYER_1
 10
101.7545
 20
183.3636
  0
SEQEND
  0
POLYLINE
  8
LAYER_1
 40
0.1693
 41
0.1693
 66
1
 10
0
 20
0
 30
0
  0
VERTEX
  8
LAYER_1
 10
109.7344
 20
183.3848
  0
VERTEX
  8
LAYER_1
 10
109.4169
 20
183.1308
  0
VERTEX
  8
LAYER_1
 10
109.7344
 20
182.8768
  0
VERTEX
  8
LAYER_1
 10
109.4169
 20
182.644
  0
SEQEND
  0
POLYLINE
  8
LAYER_1
 40
0.1693
 41
0.1693
 66
1
 10
0
 20
0
 30
0
  0
VERTEX
  8
LAYER_1
 10
109.5862
 20
183.5118
  0
VERTEX
  8
LAYER_1
 10
109.7344
 20
183.3848
  0
SEQEND
  0
POLYLINE
  8
LAYER_1
 40
0.1693
 41
0.1693
 66
1
 10
0
 20
0
 30
0
  0
VERTEX
  8
LAYER_1
 10
101.437
 20
176.5903
  0
VERTEX
  8
LAYER_1
 10
101.691
 20
176.3998
  0
SEQEND
  0
POLYLINE
  8
LAYER_1
 40
0.1693
 41
0.1693
 66
1
 10
0
 20
0
 30
0
  0
VERTEX
  8
LAYER_1
 10
109.4169
 20
176.6326
  0
VERTEX
  8
LAYER_1
 10
109.692
 20
176.3998
  0
SEQEND
  0
POLYLINE
  8
LAYER_1
 40
0.0847
 41
0.0847
 66
1
 10
0
 20
0
 30
0
  0
VERTEX
  8
LAYER_1
 10
109.2264
 20
188.4013
  0
VERTEX
  8
LAYER_1
 10
109.2264
 20
189.2268
  0
SEQEND
  0
POLYLINE
  8
LAYER_1
 40
0.0847
 41
0.0847
 66
1
 10
0
 20
0
 30
0
  0
VERTEX
  8
LAYER_1
 10
109.2264
 20
189.7771
  0
VERTEX
  8
LAYER_1
 10
109.2264
 20
190.6026
  0
SEQEND
  0
POLYLINE
  8
LAYER_1
 40
0.0847
 41
0.0847
 66
1
 10
0
 20
0
 30
0
  0
VERTEX
  8
LAYER_1
 10
102.3895
 20
159.2336
  0
VERTEX
  8
LAYER_1
 10
102.4107
 20
159.2548
  0
SEQEND
  0
POLYLINE
  8
LAYER_1
 40
0.0847
 41
0.0847
 66
1
 10
0
 20
0
 30
0
  0
VERTEX
  8
LAYER_1
 10
102.4954
 20
159.3183
  0
VERTEX
  8
LAYER_1
 10
102.5377
 20
159.3606
  0
VERTEX
  8
LAYER_1
 10
102.6012
 20
159.4241
  0
SEQEND
  0
POLYLINE
  8
LAYER_1
 40
0.0847
 41
0.0847
 66
1
 10
0
 20
0
 30
0
  0
VERTEX
  8
LAYER_1
 10
102.7282
 20
159.5511
  0
VERTEX
  8
LAYER_1
 10
102.8129
 20
159.6146
  0
VERTEX
  8
LAYER_1
 10
102.8764
 20
159.657
  0
SEQEND
  0
POLYLINE
  8
LAYER_1
 40
0.0847
 41
0.0847
 66
1
 10
0
 20
0
 30
0
  0
VERTEX
  8
LAYER_1
 10
103.0034
 20
159.7628
  0
VERTEX
  8
LAYER_1
 10
103.0669
 20
159.8263
  0
VERTEX
  8
LAYER_1
 10
103.1304
 20
159.8686
  0
SEQEND
  0
POLYLINE
  8
LAYER_1
 40
0.0847
 41
0.0847
 66
1
 10
0
 20
0
 30
0
  0
VERTEX
  8
LAYER_1
 10
103.2574
 20
159.9533
  0
VERTEX
  8
LAYER_1
 10
103.3209
 20
159.9956
  0
VERTEX
  8
LAYER_1
 10
103.3844
 20
160.0168
  0
SEQEND
  0
POLYLINE
  8
LAYER_1
 40
0.0847
 41
0.0847
 66
1
 10
0
 20
0
 30
0
  0
VERTEX
  8
LAYER_1
 10
103.5114
 20
160.1015
  0
VERTEX
  8
LAYER_1
 10
103.596
 20
160.1438
  0
VERTEX
  8
LAYER_1
 10
103.6595
 20
160.1438
  0
SEQEND
  0
POLYLINE
  8
LAYER_1
 40
0.0847
 41
0.0847
 66
1
 10
0
 20
0
 30
0
  0
VERTEX
  8
LAYER_1
 10
103.7865
 20
160.1861
  0
VERTEX
  8
LAYER_1
 10
103.85
 20
160.2073
  0
VERTEX
  8
LAYER_1
 10
103.8712
 20
160.2073
  0
SEQEND
  0
POLYLINE
  8
LAYER_1
 40
0.0847
 41
0.0847
 66
1
 10
0
 20
0
 30
0
  0
VERTEX
  8
LAYER_1
 10
103.9559
 20
160.2073
  0
VERTEX
  8
LAYER_1
 10
103.9982
 20
160.2285
  0
VERTEX
  8
LAYER_1
 10
104.0194
 20
160.2285
  0
SEQEND
  0
POLYLINE
  8
LAYER_1
 40
0.0847
 41
0.0847
 66
1
 10
0
 20
0
 30
0
  0
VERTEX
  8
LAYER_1
 10
104.104
 20
160.2285
  0
VERTEX
  8
LAYER_1
 10
104.1464
 20
160.2073
  0
VERTEX
  8
LAYER_1
 10
104.2099
 20
160.2073
  0
SEQEND
  0
POLYLINE
  8
LAYER_1
 40
0.0847
 41
0.0847
 66
1
 10
0
 20
0
 30
0
  0
VERTEX
  8
LAYER_1
 10
104.3369
 20
160.165
  0
VERTEX
  8
LAYER_1
 10
104.4004
 20
160.1438
  0
VERTEX
  8
LAYER_1
 10
104.4639
 20
160.1226
  0
SEQEND
  0
POLYLINE
  8
LAYER_1
 40
0.0847
 41
0.0847
 66
1
 10
0
 20
0
 30
0
  0
VERTEX
  8
LAYER_1
 10
104.5909
 20
160.038
  0
VERTEX
  8
LAYER_1
 10
104.6755
 20
159.9956
  0
VERTEX
  8
LAYER_1
 10
104.739
 20
159.9533
  0
SEQEND
  0
POLYLINE
  8
LAYER_1
 40
0.0847
 41
0.0847
 66
1
 10
0
 20
0
 30
0
  0
VERTEX
  8
LAYER_1
 10
104.866
 20
159.8686
  0
VERTEX
  8
LAYER_1
 10
104.9295
 20
159.8263
  0
VERTEX
  8
LAYER_1
 10
104.993
 20
159.784
  0
SEQEND
  0
POLYLINE
  8
LAYER_1
 40
0.0847
 41
0.0847
 66
1
 10
0
 20
0
 30
0
  0
VERTEX
  8
LAYER_1
 10
105.12
 20
159.6781
  0
VERTEX
  8
LAYER_1
 10
105.1835
 20
159.6146
  0
VERTEX
  8
LAYER_1
 10
105.247
 20
159.5511
  0
SEQEND
  0
POLYLINE
  8
LAYER_1
 40
0.0847
 41
0.0847
 66
1
 10
0
 20
0
 30
0
  0
VERTEX
  8
LAYER_1
 10
105.374
 20
159.4241
  0
VERTEX
  8
LAYER_1
 10
105.4375
 20
159.3606
  0
VERTEX
  8
LAYER_1
 10
105.501
 20
159.2971
  0
SEQEND
  0
POLYLINE
  8
LAYER_1
 40
0.0847
 41
0.0847
 66
1
 10
0
 20
0
 30
0
  0
VERTEX
  8
LAYER_1
 10
105.6492
 20
159.1701
  0
VERTEX
  8
LAYER_1
 10
105.7339
 20
159.0855
  0
VERTEX
  8
LAYER_1
 10
105.7974
 20
159.0431
  0
SEQEND
  0
POLYLINE
  8
LAYER_1
 40
0.0847
 41
0.0847
 66
1
 10
0
 20
0
 30
0
  0
VERTEX
  8
LAYER_1
 10
105.9244
 20
158.9161
  0
VERTEX
  8
LAYER_1
 10
105.9879
 20
158.8526
  0
VERTEX
  8
LAYER_1
 10
106.0514
 20
158.8103
  0
SEQEND
  0
POLYLINE
  8
LAYER_1
 40
0.0847
 41
0.0847
 66
1
 10
0
 20
0
 30
0
  0
VERTEX
  8
LAYER_1
 10
106.1784
 20
158.7045
  0
VERTEX
  8
LAYER_1
 10
106.2419
 20
158.641
  0
VERTEX
  8
LAYER_1
 10
106.3054
 20
158.5986
  0
SEQEND
  0
POLYLINE
  8
LAYER_1
 40
0.0847
 41
0.0847
 66
1
 10
0
 20
0
 30
0
  0
VERTEX
  8
LAYER_1
 10
106.4324
 20
158.514
  0
VERTEX
  8
LAYER_1
 10
106.4959
 20
158.4505
  0
VERTEX
  8
LAYER_1
 10
106.5594
 20
158.4293
  0
SEQEND
  0
POLYLINE
  8
LAYER_1
 40
0.0847
 41
0.0847
 66
1
 10
0
 20
0
 30
0
  0
VERTEX
  8
LAYER_1
 10
106.6864
 20
158.3658
  0
VERTEX
  8
LAYER_1
 10
106.771
 20
158.3235
  0
VERTEX
  8
LAYER_1
 10
106.8345
 20
158.3023
  0
SEQEND
  0
POLYLINE
  8
LAYER_1
 40
0.0847
 41
0.0847
 66
1
 10
0
 20
0
 30
0
  0
VERTEX
  8
LAYER_1
 10
106.9615
 20
158.26
  0
VERTEX
  8
LAYER_1
 10
107.025
 20
158.2388
  0
VERTEX
  8
LAYER_1
 10
107.0462
 20
158.2388
  0
SEQEND
  0
POLYLINE
  8
LAYER_1
 40
0.0847
 41
0.0847
 66
1
 10
0
 20
0
 30
0
  0
VERTEX
  8
LAYER_1
 10
107.1309
 20
158.2388
  0
VERTEX
  8
LAYER_1
 10
107.1732
 20
158.2176
  0
VERTEX
  8
LAYER_1
 10
107.1944
 20
158.2176
  0
SEQEND
  0
POLYLINE
  8
LAYER_1
 40
0.0847
 41
0.0847
 66
1
 10
0
 20
0
 30
0
  0
VERTEX
  8
LAYER_1
 10
107.279
 20
158.2176
  0
VERTEX
  8
LAYER_1
 10
107.3214
 20
158.2388
  0
VERTEX
  8
LAYER_1
 10
107.3849
 20
158.26
  0
SEQEND
  0
POLYLINE
  8
LAYER_1
 40
0.0847
 41
0.0847
 66
1
 10
0
 20
0
 30
0
  0
VERTEX
  8
LAYER_1
 10
107.5119
 20
158.3023
  0
VERTEX
  8
LAYER_1
 10
107.5754
 20
158.3235
  0
VERTEX
  8
LAYER_1
 10
107.6389
 20
158.3446
  0
SEQEND
  0
POLYLINE
  8
LAYER_1
 40
0.0847
 41
0.0847
 66
1
 10
0
 20
0
 30
0
  0
VERTEX
  8
LAYER_1
 10
107.7659
 20
158.4081
  0
VERTEX
  8
LAYER_1
 10
107.8505
 20
158.4505
  0
VERTEX
  8
LAYER_1
 10
107.914
 20
158.4928
  0
SEQEND
  0
POLYLINE
  8
LAYER_1
 40
0.0847
 41
0.0847
 66
1
 10
0
 20
0
 30
0
  0
VERTEX
  8
LAYER_1
 10
108.041
 20
158.5775
  0
VERTEX
  8
LAYER_1
 10
108.1045
 20
158.641
  0
VERTEX
  8
LAYER_1
 10
108.168
 20
158.6833
  0
SEQEND
  0
POLYLINE
  8
LAYER_1
 40
0.0847
 41
0.0847
 66
1
 10
0
 20
0
 30
0
  0
VERTEX
  8
LAYER_1
 10
108.295
 20
158.7891
  0
VERTEX
  8
LAYER_1
 10
108.3585
 20
158.8526
  0
VERTEX
  8
LAYER_1
 10
108.422
 20
158.895
  0
SEQEND
  0
POLYLINE
  8
LAYER_1
 40
0.0847
 41
0.0847
 66
1
 10
0
 20
0
 30
0
  0
VERTEX
  8
LAYER_1
 10
108.549
 20
159.022
  0
VERTEX
  8
LAYER_1
 10
108.6337
 20
159.0855
  0
VERTEX
  8
LAYER_1
 10
108.6549
 20
159.1066
  0
SEQEND
  0
POLYLINE
  8
LAYER_1
 40
0.0847
 41
0.0847
 66
1
 10
0
 20
0
 30
0
  0
VERTEX
  8
LAYER_1
 10
108.7396
 20
159.1913
  0
VERTEX
  8
LAYER_1
 10
108.7819
 20
159.2336
  0
SEQEND
  0
POLYLINE
  8
LAYER_1
 40
0.0847
 41
0.0847
 66
1
 10
0
 20
0
 30
0
  0
VERTEX
  8
LAYER_1
 10
102.3896
 20
159.2336
  0
VERTEX
  8
LAYER_1
 10
102.3896
 20
160.165
  0
SEQEND
  0
POLYLINE
  8
LAYER_1
 40
0.0847
 41
0.0847
 66
1
 10
0
 20
0
 30
0
  0
VERTEX
  8
LAYER_1
 10
102.3896
 20
162.07
  0
VERTEX
  8
LAYER_1
 10
102.3896
 20
163.9538
  0
SEQEND
  0
POLYLINE
  8
LAYER_1
 40
0.0847
 41
0.0847
 66
1
 10
0
 20
0
 30
0
  0
VERTEX
  8
LAYER_1
 10
102.3896
 20
165.8588
  0
VERTEX
  8
LAYER_1
 10
102.3896
 20
167.7426
  0
SEQEND
  0
POLYLINE
  8
LAYER_1
 40
0.0847
 41
0.0847
 66
1
 10
0
 20
0
 30
0
  0
VERTEX
  8
LAYER_1
 10
102.3896
 20
169.6476
  0
VERTEX
  8
LAYER_1
 10
102.3896
 20
170.6001
  0
SEQEND
  0
POLYLINE
  8
LAYER_1
 40
0.0847
 41
0.0847
 66
1
 10
0
 20
0
 30
0
  0
VERTEX
  8
LAYER_1
 10
108.7819
 20
159.2336
  0
VERTEX
  8
LAYER_1
 10
108.7819
 20
160.165
  0
SEQEND
  0
POLYLINE
  8
LAYER_1
 40
0.0847
 41
0.0847
 66
1
 10
0
 20
0
 30
0
  0
VERTEX
  8
LAYER_1
 10
108.7819
 20
162.07
  0
VERTEX
  8
LAYER_1
 10
108.7819
 20
163.9538
  0
SEQEND
  0
POLYLINE
  8
LAYER_1
 40
0.0847
 41
0.0847
 66
1
 10
0
 20
0
 30
0
  0
VERTEX
  8
LAYER_1
 10
108.7819
 20
165.8588
  0
VERTEX
  8
LAYER_1
 10
108.7819
 20
167.7426
  0
SEQEND
  0
POLYLINE
  8
LAYER_1
 40
0.0847
 41
0.0847
 66
1
 10
0
 20
0
 30
0
  0
VERTEX
  8
LAYER_1
 10
108.7819
 20
169.6476
  0
VERTEX
  8
LAYER_1
 10
108.7819
 20
170.6001
  0
SEQEND
  0
POLYLINE
  8
LAYER_1
 40
0.0847
 41
0.0847
 66
1
 10
0
 20
0
 30
0
  0
VERTEX
  8
LAYER_1
 10
111.2372
 20
188.232
  0
VERTEX
  8
LAYER_1
 10
150.5225
 20
163.9115
  0
SEQEND
  0
POLYLINE
  8
LAYER_1
 40
0.0847
 41
0.0847
 66
1
 10
0
 20
0
 30
0
  0
VERTEX
  8
LAYER_1
 10
97.2037
 20
176.7173
  0
VERTEX
  8
LAYER_1
 10
97.6482
 20
177.1618
  0
SEQEND
  0
POLYLINE
  8
LAYER_1
 40
0.0847
 41
0.0847
 66
1
 10
0
 20
0
 30
0
  0
VERTEX
  8
LAYER_1
 10
97.4789
 20
176.7173
  0
VERTEX
  8
LAYER_1
 10
97.881
 20
177.0983
  0
SEQEND
  0
POLYLINE
  8
LAYER_1
 40
0.0847
 41
0.0847
 66
1
 10
0
 20
0
 30
0
  0
VERTEX
  8
LAYER_1
 10
98.1562
 20
177.3735
  0
VERTEX
  8
LAYER_1
 10
98.1774
 20
177.4158
  0
SEQEND
  0
POLYLINE
  8
LAYER_1
 40
0.0847
 41
0.0847
 66
1
 10
0
 20
0
 30
0
  0
VERTEX
  8
LAYER_1
 10
99.4474
 20
176.3998
  0
VERTEX
  8
LAYER_1
 10
99.7014
 20
176.6538
  0
SEQEND
  0
POLYLINE
  8
LAYER_1
 40
0.0847
 41
0.0847
 66
1
 10
0
 20
0
 30
0
  0
VERTEX
  8
LAYER_1
 10
99.7437
 20
176.7173
  0
VERTEX
  8
LAYER_1
 10
100.4422
 20
177.4158
  0
SEQEND
  0
POLYLINE
  8
LAYER_1
 40
0.0847
 41
0.0847
 66
1
 10
0
 20
0
 30
0
  0
VERTEX
  8
LAYER_1
 10
100.0189
 20
176.7173
  0
VERTEX
  8
LAYER_1
 10
100.7174
 20
177.4158
  0
SEQEND
  0
POLYLINE
  8
LAYER_1
 40
0.0847
 41
0.0847
 66
1
 10
0
 20
0
 30
0
  0
VERTEX
  8
LAYER_1
 10
100.2941
 20
176.6961
  0
VERTEX
  8
LAYER_1
 10
100.8867
 20
177.2888
  0
SEQEND
  0
POLYLINE
  8
LAYER_1
 40
0.0847
 41
0.0847
 66
1
 10
0
 20
0
 30
0
  0
VERTEX
  8
LAYER_1
 10
100.2941
 20
176.421
  0
VERTEX
  8
LAYER_1
 10
100.8867
 20
177.0136
  0
SEQEND
  0
POLYLINE
  8
LAYER_1
 40
0.0847
 41
0.0847
 66
1
 10
0
 20
0
 30
0
  0
VERTEX
  8
LAYER_1
 10
110.7292
 20
176.3998
  0
VERTEX
  8
LAYER_1
 10
110.8774
 20
176.548
  0
SEQEND
  0
POLYLINE
  8
LAYER_1
 40
0.0847
 41
0.0847
 66
1
 10
0
 20
0
 30
0
  0
VERTEX
  8
LAYER_1
 10
111.0255
 20
176.7173
  0
VERTEX
  8
LAYER_1
 10
111.724
 20
177.4158
  0
SEQEND
  0
POLYLINE
  8
LAYER_1
 40
0.0847
 41
0.0847
 66
1
 10
0
 20
0
 30
0
  0
VERTEX
  8
LAYER_1
 10
111.3219
 20
176.7173
  0
VERTEX
  8
LAYER_1
 10
112.0204
 20
177.4158
  0
SEQEND
  0
POLYLINE
  8
LAYER_1
 40
0.0847
 41
0.0847
 66
1
 10
0
 20
0
 30
0
  0
VERTEX
  8
LAYER_1
 10
111.47
 20
176.5903
  0
VERTEX
  8
LAYER_1
 10
112.2955
 20
177.4158
  0
SEQEND
  0
POLYLINE
  8
LAYER_1
 40
0.0847
 41
0.0847
 66
1
 10
0
 20
0
 30
0
  0
VERTEX
  8
LAYER_1
 10
112.1474
 20
176.3998
  0
VERTEX
  8
LAYER_1
 10
113.0152
 20
177.2888
  0
SEQEND
  0
POLYLINE
  8
LAYER_1
 40
0.0847
 41
0.0847
 66
1
 10
0
 20
0
 30
0
  0
VERTEX
  8
LAYER_1
 10
112.4226
 20
176.3998
  0
VERTEX
  8
LAYER_1
 10
113.121
 20
177.0983
  0
SEQEND
  0
POLYLINE
  8
LAYER_1
 40
0.0847
 41
0.0847
 66
1
 10
0
 20
0
 30
0
  0
VERTEX
  8
LAYER_1
 10
112.7189
 20
176.3998
  0
VERTEX
  8
LAYER_1
 10
113.4174
 20
177.0983
  0
SEQEND
  0
POLYLINE
  8
LAYER_1
 40
0.0847
 41
0.0847
 66
1
 10
0
 20
0
 30
0
  0
VERTEX
  8
LAYER_1
 10
113.5232
 20
177.2253
  0
VERTEX
  8
LAYER_1
 10
113.7137
 20
177.4158
  0
SEQEND
  0
POLYLINE
  8
LAYER_1
 40
0.1693
 41
0.1693
 66
1
 10
0
 20
0
 30
0
  0
VERTEX
  8
LAYER_1
 10
99.4897
 20
190.391
  0
VERTEX
  8
LAYER_1
 10
111.6817
 20
190.391
  0
SEQEND
  0
POLYLINE
  8
LAYER_1
 40
0.1693
 41
0.1693
 66
1
 10
0
 20
0
 30
0
  0
VERTEX
  8
LAYER_1
 10
99.4897
 20
190.391
  0
VERTEX
  8
LAYER_1
 10
99.4897
 20
190.6026
  0
VERTEX
  8
LAYER_1
 10
111.6817
 20
190.6026
  0
SEQEND
  0
POLYLINE
  8
LAYER_1
 40
0.1693
 41
0.1693
 66
1
 10
0
 20
0
 30
0
  0
VERTEX
  8
LAYER_1
 10
111.6817
 20
190.391
  0
VERTEX
  8
LAYER_1
 10
111.6817
 20
190.6026
  0
SEQEND
  0
POLYLINE
  8
LAYER_1
 40
0.0847
 41
0.0847
 66
1
 10
0
 20
0
 30
0
  0
VERTEX
  8
LAYER_1
 10
99.7014
 20
190.6026
  0
VERTEX
  8
LAYER_1
 10
99.913
 20
190.391
  0
SEQEND
  0
POLYLINE
  8
LAYER_1
 40
0.0847
 41
0.0847
 66
1
 10
0
 20
0
 30
0
  0
VERTEX
  8
LAYER_1
 10
111.5547
 20
190.6026
  0
VERTEX
  8
LAYER_1
 10
111.6817
 20
190.4756
  0
SEQEND
  0
POLYLINE
  8
LAYER_1
 40
0.0847
 41
0.0847
 66
1
 10
0
 20
0
 30
0
  0
VERTEX
  8
LAYER_1
 10
100.548
 20
190.6026
  0
VERTEX
  8
LAYER_1
 10
100.7597
 20
190.391
  0
SEQEND
  0
POLYLINE
  8
LAYER_1
 40
0.0847
 41
0.0847
 66
1
 10
0
 20
0
 30
0
  0
VERTEX
  8
LAYER_1
 10
101.3947
 20
190.6026
  0
VERTEX
  8
LAYER_1
 10
101.6064
 20
190.391
  0
SEQEND
  0
POLYLINE
  8
LAYER_1
 40
0.0847
 41
0.0847
 66
1
 10
0
 20
0
 30
0
  0
VERTEX
  8
LAYER_1
 10
102.2414
 20
190.6026
  0
VERTEX
  8
LAYER_1
 10
102.453
 20
190.391
  0
SEQEND
  0
POLYLINE
  8
LAYER_1
 40
0.0847
 41
0.0847
 66
1
 10
0
 20
0
 30
0
  0
VERTEX
  8
LAYER_1
 10
103.1092
 20
190.6026
  0
VERTEX
  8
LAYER_1
 10
103.2997
 20
190.391
  0
SEQEND
  0
POLYLINE
  8
LAYER_1
 40
0.0847
 41
0.0847
 66
1
 10
0
 20
0
 30
0
  0
VERTEX
  8
LAYER_1
 10
103.9559
 20
190.6026
  0
VERTEX
  8
LAYER_1
 10
104.1463
 20
190.391
  0
SEQEND
  0
POLYLINE
  8
LAYER_1
 40
0.0847
 41
0.0847
 66
1
 10
0
 20
0
 30
0
  0
VERTEX
  8
LAYER_1
 10
104.8025
 20
190.6026
  0
VERTEX
  8
LAYER_1
 10
104.993
 20
190.391
  0
SEQEND
  0
POLYLINE
  8
LAYER_1
 40
0.0847
 41
0.0847
 66
1
 10
0
 20
0
 30
0
  0
VERTEX
  8
LAYER_1
 10
105.628
 20
190.6026
  0
VERTEX
  8
LAYER_1
 10
105.8185
 20
190.391
  0
SEQEND
  0
POLYLINE
  8
LAYER_1
 40
0.0847
 41
0.0847
 66
1
 10
0
 20
0
 30
0
  0
VERTEX
  8
LAYER_1
 10
106.4747
 20
190.6026
  0
VERTEX
  8
LAYER_1
 10
106.6652
 20
190.391
  0
SEQEND
  0
POLYLINE
  8
LAYER_1
 40
0.0847
 41
0.0847
 66
1
 10
0
 20
0
 30
0
  0
VERTEX
  8
LAYER_1
 10
107.3213
 20
190.6026
  0
VERTEX
  8
LAYER_1
 10
107.5118
 20
190.391
  0
SEQEND
  0
POLYLINE
  8
LAYER_1
 40
0.0847
 41
0.0847
 66
1
 10
0
 20
0
 30
0
  0
VERTEX
  8
LAYER_1
 10
108.168
 20
190.6026
  0
VERTEX
  8
LAYER_1
 10
108.3585
 20
190.391
  0
SEQEND
  0
POLYLINE
  8
LAYER_1
 40
0.0847
 41
0.0847
 66
1
 10
0
 20
0
 30
0
  0
VERTEX
  8
LAYER_1
 10
109.0147
 20
190.6026
  0
VERTEX
  8
LAYER_1
 10
109.2263
 20
190.391
  0
SEQEND
  0
POLYLINE
  8
LAYER_1
 40
0.0847
 41
0.0847
 66
1
 10
0
 20
0
 30
0
  0
VERTEX
  8
LAYER_1
 10
109.8613
 20
190.6026
  0
VERTEX
  8
LAYER_1
 10
110.073
 20
190.391
  0
SEQEND
  0
POLYLINE
  8
LAYER_1
 40
0.0847
 41
0.0847
 66
1
 10
0
 20
0
 30
0
  0
VERTEX
  8
LAYER_1
 10
110.708
 20
190.6026
  0
VERTEX
  8
LAYER_1
 10
110.9197
 20
190.391
  0
SEQEND
  0
POLYLINE
  8
LAYER_1
 40
0.0847
 41
0.0847
 66
1
 10
0
 20
0
 30
0
  0
VERTEX
  8
LAYER_1
 10
101.0983
 20
190.6026
  0
VERTEX
  8
LAYER_1
 10
102.2202
 20
190.6026
  0
SEQEND
  0
POLYLINE
  8
LAYER_1
 40
0.0847
 41
0.0847
 66
1
 10
0
 20
0
 30
0
  0
VERTEX
  8
LAYER_1
 10
104.4638
 20
190.6026
  0
VERTEX
  8
LAYER_1
 10
106.7075
 20
190.6026
  0
SEQEND
  0
POLYLINE
  8
LAYER_1
 40
0.0847
 41
0.0847
 66
1
 10
0
 20
0
 30
0
  0
VERTEX
  8
LAYER_1
 10
108.9512
 20
190.6026
  0
VERTEX
  8
LAYER_1
 10
110.073
 20
190.6026
  0
SEQEND
  0
POLYLINE
  8
LAYER_1
 40
0.0847
 41
0.0847
 66
1
 10
0
 20
0
 30
0
  0
VERTEX
  8
LAYER_1
 10
101.437
 20
190.391
  0
VERTEX
  8
LAYER_1
 10
101.437
 20
190.4545
  0
SEQEND
  0
POLYLINE
  8
LAYER_1
 40
0.0847
 41
0.0847
 66
1
 10
0
 20
0
 30
0
  0
VERTEX
  8
LAYER_1
 10
101.437
 20
190.518
  0
VERTEX
  8
LAYER_1
 10
101.437
 20
190.6026
  0
SEQEND
  0
POLYLINE
  8
LAYER_1
 40
0.0847
 41
0.0847
 66
1
 10
0
 20
0
 30
0
  0
VERTEX
  8
LAYER_1
 10
109.7343
 20
190.391
  0
VERTEX
  8
LAYER_1
 10
109.7343
 20
190.4545
  0
SEQEND
  0
POLYLINE
  8
LAYER_1
 40
0.0847
 41
0.0847
 66
1
 10
0
 20
0
 30
0
  0
VERTEX
  8
LAYER_1
 10
109.7343
 20
190.518
  0
VERTEX
  8
LAYER_1
 10
109.7343
 20
190.6026
  0
SEQEND
  0
POLYLINE
  8
LAYER_1
 40
0.1693
 41
0.1693
 66
1
 10
0
 20
0
 30
0
  0
VERTEX
  8
LAYER_1
 10
101.437
 20
186.4116
  0
VERTEX
  8
LAYER_1
 10
101.437
 20
189.9888
  0
SEQEND
  0
POLYLINE
  8
LAYER_1
 40
0.1693
 41
0.1693
 66
1
 10
0
 20
0
 30
0
  0
VERTEX
  8
LAYER_1
 10
109.7344
 20
186.4116
  0
VERTEX
  8
LAYER_1
 10
109.7344
 20
189.9888
  0
SEQEND
  0
POLYLINE
  8
LAYER_1
 40
0.1693
 41
0.1693
 66
1
 10
0
 20
0
 30
0
  0
VERTEX
  8
LAYER_1
 10
99.1087
 20
190.6026
  0
VERTEX
  8
LAYER_1
 10
101.0984
 20
188.4013
  0
SEQEND
  0
POLYLINE
  8
LAYER_1
 40
0.1693
 41
0.1693
 66
1
 10
0
 20
0
 30
0
  0
VERTEX
  8
LAYER_1
 10
112.0627
 20
190.6026
  0
VERTEX
  8
LAYER_1
 10
110.073
 20
188.4013
  0
SEQEND
  0
POLYLINE
  8
LAYER_1
 40
0.1693
 41
0.1693
 66
1
 10
0
 20
0
 30
0
  0
VERTEX
  8
LAYER_1
 10
97.6059
 20
188.4013
  0
VERTEX
  8
LAYER_1
 10
97.6059
 20
190.6026
  0
SEQEND
  0
POLYLINE
  8
LAYER_1
 40
0.1693
 41
0.1693
 66
1
 10
0
 20
0
 30
0
  0
VERTEX
  8
LAYER_1
 10
97.6059
 20
188.4013
  0
VERTEX
  8
LAYER_1
 10
101.0984
 20
188.4013
  0
SEQEND
  0
POLYLINE
  8
LAYER_1
 40
0.1693
 41
0.1693
 66
1
 10
0
 20
0
 30
0
  0
VERTEX
  8
LAYER_1
 10
113.5655
 20
190.6026
  0
VERTEX
  8
LAYER_1
 10
113.756
 20
190.645
  0
VERTEX
  8
LAYER_1
 10
114.0735
 20
190.7085
  0
SEQEND
  0
POLYLINE
  8
LAYER_1
 40
0.1693
 41
0.1693
 66
1
 10
0
 20
0
 30
0
  0
VERTEX
  8
LAYER_1
 10
113.5655
 20
188.4013
  0
VERTEX
  8
LAYER_1
 10
113.5655
 20
190.6026
  0
SEQEND
  0
POLYLINE
  8
LAYER_1
 40
0.1693
 41
0.1693
 66
1
 10
0
 20
0
 30
0
  0
VERTEX
  8
LAYER_1
 10
116.3807
 20
186.6868
 42
0.3903397183
  0
VERTEX
  8
LAYER_1
 10
115.6187
 20
187.47
  0
SEQEND
  0
POLYLINE
  8
LAYER_1
 40
0.1693
 41
0.1693
 66
1
 10
0
 20
0
 30
0
  0
VERTEX
  8
LAYER_1
 10
113.375
 20
188.4013
  0
SEQEND
  0
POLYLINE
  8
LAYER_1
 40
0.1693
 41
0.1693
 66
1
 10
0
 20
0
 30
0
  0
VERTEX
  8
LAYER_1
 10
114.0947
 20
187.597
  0
VERTEX
  8
LAYER_1
 10
115.6399
 20
187.47
  0
SEQEND
  0
POLYLINE
  8
LAYER_1
 40
0.1693
 41
0.1693
 66
1
 10
0
 20
0
 30
0
  0
VERTEX
  8
LAYER_1
 10
113.375
 20
188.4225
  0
VERTEX
  8
LAYER_1
 10
113.375
 20
188.4013
 42
0.3734897667
  0
VERTEX
  8
LAYER_1
 10
114.0947
 20
187.6181
  0
SEQEND
  0
POLYLINE
  8
LAYER_1
 40
0.1693
 41
0.1693
 66
1
 10
0
 20
0
 30
0
  0
VERTEX
  8
LAYER_1
 10
116.3807
 20
186.4116
  0
VERTEX
  8
LAYER_1
 10
116.3807
 20
186.6656
  0
SEQEND
  0
POLYLINE
  8
LAYER_1
 40
0.0847
 41
0.0847
 66
1
 10
0
 20
0
 30
0
  0
VERTEX
  8
LAYER_1
 10
110.8774
 20
188.105
  0
VERTEX
  8
LAYER_1
 10
111.0255
 20
188.105
  0
SEQEND
  0
POLYLINE
  8
LAYER_1
 40
0.0847
 41
0.0847
 66
1
 10
0
 20
0
 30
0
  0
VERTEX
  8
LAYER_1
 10
111.3219
 20
188.105
  0
VERTEX
  8
LAYER_1
 10
111.47
 20
188.105
  0
VERTEX
  8
LAYER_1
 10
111.47
 20
188.1685
  0
SEQEND
  0
POLYLINE
  8
LAYER_1
 40
0.0847
 41
0.0847
 66
1
 10
0
 20
0
 30
0
  0
VERTEX
  8
LAYER_1
 10
111.47
 20
188.3166
  0
VERTEX
  8
LAYER_1
 10
111.47
 20
188.4013
  0
SEQEND
  0
POLYLINE
  8
LAYER_1
 40
0.0847
 41
0.0847
 66
1
 10
0
 20
0
 30
0
  0
VERTEX
  8
LAYER_1
 10
110.8774
 20
188.105
  0
VERTEX
  8
LAYER_1
 10
110.8774
 20
188.1685
  0
SEQEND
  0
POLYLINE
  8
LAYER_1
 40
0.0847
 41
0.0847
 66
1
 10
0
 20
0
 30
0
  0
VERTEX
  8
LAYER_1
 10
110.8774
 20
188.3166
  0
VERTEX
  8
LAYER_1
 10
110.8774
 20
188.4013
  0
SEQEND
  0
POLYLINE
  8
LAYER_1
 40
0.1693
 41
0.1693
 66
1
 10
0
 20
0
 30
0
  0
VERTEX
  8
LAYER_1
 10
111.216
 20
186.3693
  0
VERTEX
  8
LAYER_1
 10
111.1102
 20
186.3905
  0
VERTEX
  8
LAYER_1
 10
111.089
 20
186.3905
  0
SEQEND
  0
POLYLINE
  8
LAYER_1
 40
0.0847
 41
0.0847
 66
1
 10
0
 20
0
 30
0
  0
VERTEX
  8
LAYER_1
 10
110.073
 20
186.4116
  0
VERTEX
  8
LAYER_1
 10
110.073
 20
187.1525
  0
SEQEND
  0
POLYLINE
  8
LAYER_1
 40
0.0847
 41
0.0847
 66
1
 10
0
 20
0
 30
0
  0
VERTEX
  8
LAYER_1
 10
110.073
 20
187.6393
  0
VERTEX
  8
LAYER_1
 10
110.073
 20
188.4013
  0
SEQEND
  0
POLYLINE
  8
LAYER_1
 40
0.0847
 41
0.0847
 66
1
 10
0
 20
0
 30
0
  0
VERTEX
  8
LAYER_1
 10
113.0152
 20
186.708
  0
VERTEX
  8
LAYER_1
 10
113.5232
 20
186.708
  0
SEQEND
  0
POLYLINE
  8
LAYER_1
 40
0.0847
 41
0.0847
 66
1
 10
0
 20
0
 30
0
  0
VERTEX
  8
LAYER_1
 10
113.5232
 20
186.4116
  0
VERTEX
  8
LAYER_1
 10
113.5232
 20
186.708
  0
SEQEND
  0
POLYLINE
  8
LAYER_1
 40
0.0847
 41
0.0847
 66
1
 10
0
 20
0
 30
0
  0
VERTEX
  8
LAYER_1
 10
113.0152
 20
186.4116
  0
VERTEX
  8
LAYER_1
 10
113.0152
 20
186.708
  0
SEQEND
  0
POLYLINE
  8
LAYER_1
 40
0.1693
 41
0.1693
 66
1
 10
0
 20
0
 30
0
  0
VERTEX
  8
LAYER_1
 10
110.073
 20
188.4013
  0
VERTEX
  8
LAYER_1
 10
113.5655
 20
188.4013
  0
SEQEND
  0
POLYLINE
  8
LAYER_1
 40
0.0847
 41
0.0847
 66
1
 10
0
 20
0
 30
0
  0
VERTEX
  8
LAYER_1
 10
110.6445
 20
190.4756
  0
VERTEX
  8
LAYER_1
 10
150.2897
 20
192.1901
  0
SEQEND
  0
POLYLINE
  8
LAYER_1
 40
0.0847
 41
0.0847
 66
1
 10
0
 20
0
 30
0
  0
VERTEX
  8
LAYER_1
 10
116.296
 20
186.4116
  0
VERTEX
  8
LAYER_1
 10
116.3807
 20
186.4963
  0
SEQEND
  0
POLYLINE
  8
LAYER_1
 40
0.0847
 41
0.0847
 66
1
 10
0
 20
0
 30
0
  0
VERTEX
  8
LAYER_1
 10
116.0209
 20
186.4116
  0
VERTEX
  8
LAYER_1
 10
116.3595
 20
186.7715
  0
SEQEND
  0
POLYLINE
  8
LAYER_1
 40
0.0847
 41
0.0847
 66
1
 10
0
 20
0
 30
0
  0
VERTEX
  8
LAYER_1
 10
115.7245
 20
186.4116
  0
VERTEX
  8
LAYER_1
 10
116.3172
 20
186.9831
  0
SEQEND
  0
POLYLINE
  8
LAYER_1
 40
0.0847
 41
0.0847
 66
1
 10
0
 20
0
 30
0
  0
VERTEX
  8
LAYER_1
 10
115.4494
 20
186.4116
  0
VERTEX
  8
LAYER_1
 10
116.2114
 20
187.1736
  0
SEQEND
  0
POLYLINE
  8
LAYER_1
 40
0.0847
 41
0.0847
 66
1
 10
0
 20
0
 30
0
  0
VERTEX
  8
LAYER_1
 10
115.1742
 20
186.4116
  0
VERTEX
  8
LAYER_1
 10
116.0632
 20
187.3006
  0
SEQEND
  0
POLYLINE
  8
LAYER_1
 40
0.0847
 41
0.0847
 66
1
 10
0
 20
0
 30
0
  0
VERTEX
  8
LAYER_1
 10
114.8779
 20
186.4116
  0
VERTEX
  8
LAYER_1
 10
115.8939
 20
187.4065
  0
SEQEND
  0
POLYLINE
  8
LAYER_1
 40
0.0847
 41
0.0847
 66
1
 10
0
 20
0
 30
0
  0
VERTEX
  8
LAYER_1
 10
114.6027
 20
186.4116
  0
VERTEX
  8
LAYER_1
 10
115.661
 20
187.47
  0
SEQEND
  0
POLYLINE
  8
LAYER_1
 40
0.0847
 41
0.0847
 66
1
 10
0
 20
0
 30
0
  0
VERTEX
  8
LAYER_1
 10
114.3064
 20
186.4116
  0
VERTEX
  8
LAYER_1
 10
115.407
 20
187.4911
  0
SEQEND
  0
POLYLINE
  8
LAYER_1
 40
0.0847
 41
0.0847
 66
1
 10
0
 20
0
 30
0
  0
VERTEX
  8
LAYER_1
 10
114.0312
 20
186.4116
  0
VERTEX
  8
LAYER_1
 10
115.1319
 20
187.5123
  0
SEQEND
  0
POLYLINE
  8
LAYER_1
 40
0.0847
 41
0.0847
 66
1
 10
0
 20
0
 30
0
  0
VERTEX
  8
LAYER_1
 10
113.756
 20
186.4116
  0
VERTEX
  8
LAYER_1
 10
114.8779
 20
187.5335
  0
SEQEND
  0
POLYLINE
  8
LAYER_1
 40
0.0847
 41
0.0847
 66
1
 10
0
 20
0
 30
0
  0
VERTEX
  8
LAYER_1
 10
113.4597
 20
186.4116
  0
VERTEX
  8
LAYER_1
 10
114.6239
 20
187.5546
  0
SEQEND
  0
POLYLINE
  8
LAYER_1
 40
0.0847
 41
0.0847
 66
1
 10
0
 20
0
 30
0
  0
VERTEX
  8
LAYER_1
 10
113.1845
 20
186.4116
  0
VERTEX
  8
LAYER_1
 10
114.3699
 20
187.5758
  0
SEQEND
  0
POLYLINE
  8
LAYER_1
 40
0.0847
 41
0.0847
 66
1
 10
0
 20
0
 30
0
  0
VERTEX
  8
LAYER_1
 10
112.9094
 20
186.4116
  0
VERTEX
  8
LAYER_1
 10
114.0947
 20
187.597
  0
SEQEND
  0
POLYLINE
  8
LAYER_1
 40
0.0847
 41
0.0847
 66
1
 10
0
 20
0
 30
0
  0
VERTEX
  8
LAYER_1
 10
112.613
 20
186.4116
  0
VERTEX
  8
LAYER_1
 10
113.883
 20
187.6605
  0
SEQEND
  0
POLYLINE
  8
LAYER_1
 40
0.0847
 41
0.0847
 66
1
 10
0
 20
0
 30
0
  0
VERTEX
  8
LAYER_1
 10
112.3379
 20
186.4116
  0
VERTEX
  8
LAYER_1
 10
113.6925
 20
187.7663
  0
SEQEND
  0
POLYLINE
  8
LAYER_1
 40
0.0847
 41
0.0847
 66
1
 10
0
 20
0
 30
0
  0
VERTEX
  8
LAYER_1
 10
112.0627
 20
186.4116
  0
VERTEX
  8
LAYER_1
 10
113.5444
 20
187.8933
  0
SEQEND
  0
POLYLINE
  8
LAYER_1
 40
0.0847
 41
0.0847
 66
1
 10
0
 20
0
 30
0
  0
VERTEX
  8
LAYER_1
 10
111.7664
 20
186.4116
  0
VERTEX
  8
LAYER_1
 10
113.4385
 20
188.0838
  0
SEQEND
  0
POLYLINE
  8
LAYER_1
 40
0.0847
 41
0.0847
 66
1
 10
0
 20
0
 30
0
  0
VERTEX
  8
LAYER_1
 10
111.4912
 20
186.4116
  0
VERTEX
  8
LAYER_1
 10
113.375
 20
188.2955
  0
SEQEND
  0
POLYLINE
  8
LAYER_1
 40
0.0847
 41
0.0847
 66
1
 10
0
 20
0
 30
0
  0
VERTEX
  8
LAYER_1
 10
111.1949
 20
186.4116
  0
VERTEX
  8
LAYER_1
 10
113.2057
 20
188.4013
  0
SEQEND
  0
POLYLINE
  8
LAYER_1
 40
0.0847
 41
0.0847
 66
1
 10
0
 20
0
 30
0
  0
VERTEX
  8
LAYER_1
 10
110.9197
 20
186.4116
  0
VERTEX
  8
LAYER_1
 10
112.9305
 20
188.4013
  0
SEQEND
  0
POLYLINE
  8
LAYER_1
 40
0.0847
 41
0.0847
 66
1
 10
0
 20
0
 30
0
  0
VERTEX
  8
LAYER_1
 10
110.6446
 20
186.4116
  0
VERTEX
  8
LAYER_1
 10
112.6342
 20
188.4013
  0
SEQEND
  0
POLYLINE
  8
LAYER_1
 40
0.0847
 41
0.0847
 66
1
 10
0
 20
0
 30
0
  0
VERTEX
  8
LAYER_1
 10
110.3482
 20
186.4116
  0
VERTEX
  8
LAYER_1
 10
112.359
 20
188.4013
  0
SEQEND
  0
POLYLINE
  8
LAYER_1
 40
0.0847
 41
0.0847
 66
1
 10
0
 20
0
 30
0
  0
VERTEX
  8
LAYER_1
 10
110.0731
 20
186.4116
  0
VERTEX
  8
LAYER_1
 10
112.0839
 20
188.4013
  0
SEQEND
  0
POLYLINE
  8
LAYER_1
 40
0.0847
 41
0.0847
 66
1
 10
0
 20
0
 30
0
  0
VERTEX
  8
LAYER_1
 10
110.0731
 20
186.6868
  0
VERTEX
  8
LAYER_1
 10
111.7875
 20
188.4013
  0
SEQEND
  0
POLYLINE
  8
LAYER_1
 40
0.0847
 41
0.0847
 66
1
 10
0
 20
0
 30
0
  0
VERTEX
  8
LAYER_1
 10
110.0731
 20
186.9831
  0
VERTEX
  8
LAYER_1
 10
111.5124
 20
188.4013
  0
SEQEND
  0
POLYLINE
  8
LAYER_1
 40
0.0847
 41
0.0847
 66
1
 10
0
 20
0
 30
0
  0
VERTEX
  8
LAYER_1
 10
110.0731
 20
187.2583
  0
VERTEX
  8
LAYER_1
 10
111.216
 20
188.4013
  0
SEQEND
  0
POLYLINE
  8
LAYER_1
 40
0.0847
 41
0.0847
 66
1
 10
0
 20
0
 30
0
  0
VERTEX
  8
LAYER_1
 10
110.0731
 20
187.5335
  0
VERTEX
  8
LAYER_1
 10
110.9409
 20
188.4013
  0
SEQEND
  0
POLYLINE
  8
LAYER_1
 40
0.0847
 41
0.0847
 66
1
 10
0
 20
0
 30
0
  0
VERTEX
  8
LAYER_1
 10
110.0731
 20
187.8298
  0
VERTEX
  8
LAYER_1
 10
110.6657
 20
188.4013
  0
SEQEND
  0
POLYLINE
  8
LAYER_1
 40
0.0847
 41
0.0847
 66
1
 10
0
 20
0
 30
0
  0
VERTEX
  8
LAYER_1
 10
110.0731
 20
188.105
  0
VERTEX
  8
LAYER_1
 10
110.3694
 20
188.4013
  0
SEQEND
  0
POLYLINE
  8
LAYER_1
 40
0.0847
 41
0.0847
 66
1
 10
0
 20
0
 30
0
  0
VERTEX
  8
LAYER_1
 10
110.0731
 20
188.3801
  0
VERTEX
  8
LAYER_1
 10
110.0942
 20
188.4013
  0
SEQEND
  0
TEXT
  8
LAYER_1
 10
152.7236
 20
155.2754
 11
152.7236
 21
155.2754
 40
3.0419
 41
0.5
  1
örÉàâgâëâbâv%%c32
  0
ENDBLK
  0
BLOCK
  8
LAYER_1
  2
AIGNBL01010003
 70
64
 10
0
 20
0
 30
0
  3
AIGNBL01010003
  0
POLYLINE
  8
LAYER_1
 40
0.1693
 41
0.1693
 66
1
 10
0
 20
0
 30
0
  0
VERTEX
  8
LAYER_1
 10
43.4706
 20
106.2334
  0
VERTEX
  8
LAYER_1
 10
160.5223
 20
106.2334
  0
SEQEND
  0
TEXT
  8
LAYER_1
 10
126.6554
 20
107.6938
 11
126.6554
 21
107.6938
 40
3.6606
 41
0.5
  1
üªôVö┬î·ü@10045å@æ╬ë×
  0
TEXT
  8
LAYER_1
 10
47.9574
 20
99.7351
 11
47.9574
 21
99.7351
 40
3.1022
 41
0.5
  1
üyâZâbâgôÓùeüz
  0
TEXT
  8
LAYER_1
 10
47.9577
 20
94.7187
 11
47.9577
 21
94.7187
 40
3.6606
 41
0.5
  1
üESUS304 âXâeâôâîâX â}âEâôâeâBâôâOâfâBâXâN 5/10mmâXâyü[âTü[
  0
TEXT
  8
LAYER_1
 10
47.9577
 20
89.7232
 11
47.9577
 21
89.7232
 40
3.6606
 41
0.5
  1
üEäOâèâôâOü~2üiô¹öÆüEìò èe1üj
  0
TEXT
  8
LAYER_1
 10
47.8096
 20
84.4105
 11
47.8096
 21
84.4105
 40
3.6606
 41
0.5
  1
üEJORGERÉ╗ örÉàïÓï´ âNâìü[âÇâüâbâLüi100å@üj
  0
TEXT
  8
LAYER_1
 10
47.8096
 20
79.415
 11
47.8096
 21
79.415
 40
3.1022
 41
0.5
  1
üEâXâ`âìü[âïâpâbâLâô
  0
TEXT
  8
LAYER_1
 10
47.8943
 20
74.4196
 11
47.8943
 21
74.4196
 40
3.6606
 41
0.5
  1
üEôVö┬î┼ÆÞùp Ä¸ÄëâpâbâLâôòtì└òté½âiâbâgü~2
  0
TEXT
  8
LAYER_1
 10
47.8096
 20
69.4242
 11
47.8096
 21
69.4242
 40
3.1022
 41
0.5
  1
üªâ}âEâôâeâBâôâOâfâBâXâNé═üAÉàÉ­é╠ìéé│üEôVö┬é╠î·é¦é╔ë×éÂé─ÅÒë║ô³éÛæÍéªë┬ö\é┼éÀüB
  0
ENDBLK
  0
BLOCK
  8
LAYER_1
  2
AIGNBL01010004
 70
64
 10
0
 20
0
 30
0
  3
AIGNBL01010004
  0
INSERT
  8
LAYER_1
  2
AIGNBL01020005
 10
0
 20
0
 30
0
  0
INSERT
  8
LAYER_1
  2
AIGNBL0102000E
 10
0
 20
0
 30
0
  0
ENDBLK
  0
ENDSEC
  0
SECTION
  2
ENTITIES
  0
TEXT
  8
LAYER_1
 10
40.7785
 20
237.1057
 11
40.7785
 21
237.1057
 40
5.1558
 41
0.5
  1
Majesticüiâ}âWâFâXâeâBâbâNüjVESSELüiÆué½î^üjÉ¶û╩â{âEâï ÄµéÞòté»É}
  0
TEXT
  8
LAYER_1
 10
35.5141
 20
139.4081
 11
35.5141
 21
139.4081
 40
3.6606
 41
0.5
  1
üªÅÒïLÄµéÞòté»É}é═üASLAVIA CRYSTAL Majesticâ}âEâôâeâBâôâOâfâBâXâNâZâbâgé­ùpéóé¢éÓé╠éãé╚éÞé▄éÀüB
  0
INSERT
  8
LAYER_1
  2
AIGNBL01010002
 10
0
 20
0
 30
0
  0
INSERT
  8
LAYER_1
  2
AIGNBL01010003
 10
0
 20
0
 30
0
  0
TEXT
  8
LAYER_1
 10
186.826
 20
54.0008
 11
186.826
 21
54.0008
 40
3.3848
 41
0.5
  1
ü£TEL 0120-65-1232ü£FAX 06-6532-1580
  0
TEXT
  8
LAYER_1
 10
186.826
 20
50.4861
 11
186.826
 21
50.4861
 40
3.3848
 41
0.5
  1
hits@hiratatile.co.jp
  0
INSERT
  8
LAYER_1
  2
AIGNBL01010004
 10
0
 20
0
 30
0
  0
ENDSEC
  0
EOF
