  0
SECTION
  2
HEADER
  9
$ACADVER
  1
AC1009
  9
$LUNITS
 70
2
  9
$LUPREC
 70
4
  9
$LTSCALE
 40
1.0
  9
$EXTMIN
 10
-30.3177
 20
33.3285
 30
0
  9
$EXTMAX
 10
251.6749
 20
230.337
 30
0
  0
ENDSEC
  0
SECTION
  2
TABLES
  0
TABLE
  2
LTYPE
 70
256
  0
LTYPE
  2
AIGENLINE001
 70
64
  3
generate AI->DXF Converter
 72
65
 73
4
 40
1.4111
 49
0.7056
 49
-0.7056
 49
0
 49
0
  0
ENDTAB
  0
TABLE
  2
LAYER
 70
1
  0
LAYER
  2
LAYER_1
 70
64
 62
7
  6
CONTINUOUS
  0
ENDTAB
  0
TABLE
  2
STYLE
 70
6
  0
STYLE
  2
STANDARD
 70
0
 40
0
 50
0
 71
0
 41
0
 42
0
  3
TXT
  4
BIGFONT
  0
ENDTAB
  0
ENDSEC
  0
SECTION
  2
BLOCKS
  0
BLOCK
  8
LAYER_1
  2
AIGNBL01040006
 70
64
 10
0
 20
0
 30
0
  3
AIGNBL01040006
  0
POLYLINE
  8
LAYER_1
 40
0.05
 41
0.05
 66
1
 10
0
 20
0
 30
0
 70
1
  0
VERTEX
  8
LAYER_1
 10
105.4311
 20
39.1418
  0
VERTEX
  8
LAYER_1
 10
104.9422
 20
37.9567
  0
VERTEX
  8
LAYER_1
 10
104.3142
 20
37.9567
  0
VERTEX
  8
LAYER_1
 10
105.9137
 20
41.7225
  0
VERTEX
  8
LAYER_1
 10
106.6468
 20
41.7225
  0
VERTEX
  8
LAYER_1
 10
108.2533
 20
37.9567
  0
VERTEX
  8
LAYER_1
 10
107.6032
 20
37.9567
  0
VERTEX
  8
LAYER_1
 10
107.1006
 20
39.1418
  0
SEQEND
  0
POLYLINE
  8
LAYER_1
 40
0.05
 41
0.05
 66
1
 10
0
 20
0
 30
0
 70
1
  0
VERTEX
  8
LAYER_1
 10
106.9748
 20
39.5207
  0
VERTEX
  8
LAYER_1
 10
106.5138
 20
40.6056
  0
VERTEX
  8
LAYER_1
 10
106.2692
 20
41.2926
  0
VERTEX
  8
LAYER_1
 10
106.2555
 20
41.2926
  0
VERTEX
  8
LAYER_1
 10
106.0178
 20
40.6101
  0
VERTEX
  8
LAYER_1
 10
105.5571
 20
39.5207
  0
SEQEND
  0
ENDBLK
  0
BLOCK
  8
LAYER_1
  2
AIGNBL01040007
 70
64
 10
0
 20
0
 30
0
  3
AIGNBL01040007
  0
POLYLINE
  8
LAYER_1
 40
0.05
 41
0.05
 66
1
 10
0
 20
0
 30
0
 70
1
  0
VERTEX
  8
LAYER_1
 10
112.6186
 20
37.4034
 42
-0.0155848755
  0
VERTEX
  8
LAYER_1
 10
110.8164
 20
37.8395
  0
VERTEX
  8
LAYER_1
 10
110.5298
 20
37.895
 42
-0.08356944747
  0
VERTEX
  8
LAYER_1
 10
109.6658
 20
38.0612
 42
-0.0975043791
  0
VERTEX
  8
LAYER_1
 10
109.0046
 20
38.4671
 42
-0.2129077902
  0
VERTEX
  8
LAYER_1
 10
108.4559
 20
39.7998
 42
-0.0968494152
  0
VERTEX
  8
LAYER_1
 10
108.6005
 20
40.5732
 42
-0.2046438079
  0
VERTEX
  8
LAYER_1
 10
109.648
 20
41.5974
 42
-0.09824750395
  0
VERTEX
  8
LAYER_1
 10
110.649
 20
41.7838
 42
-0.08554009695
  0
VERTEX
  8
LAYER_1
 10
111.5176
 20
41.6425
 42
-0.1004336034
  0
VERTEX
  8
LAYER_1
 10
112.1827
 20
41.2483
 42
-0.2141019095
  0
VERTEX
  8
LAYER_1
 10
112.7581
 20
39.8784
 42
-0.09540850229
  0
VERTEX
  8
LAYER_1
 10
112.6192
 20
39.1106
 42
-0.2143210227
  0
VERTEX
  8
LAYER_1
 10
111.5963
 20
38.1321
 42
-0.02338900436
  0
VERTEX
  8
LAYER_1
 10
111.4172
 20
38.0738
  0
VERTEX
  8
LAYER_1
 10
111.4172
 20
38.0514
 42
0.01711211955
  0
VERTEX
  8
LAYER_1
 10
112.7936
 20
37.8113
  0
SEQEND
  0
POLYLINE
  8
LAYER_1
 40
0.05
 41
0.05
 66
1
 10
0
 20
0
 30
0
 70
1
  0
VERTEX
  8
LAYER_1
 10
112.1159
 20
39.857
 42
0.1071543648
  0
VERTEX
  8
LAYER_1
 10
111.9646
 20
40.5618
 42
0.2976507644
  0
VERTEX
  8
LAYER_1
 10
110.6276
 20
41.3873
 42
0.1072356843
  0
VERTEX
  8
LAYER_1
 10
109.9378
 20
41.2478
 42
0.2385874916
  0
VERTEX
  8
LAYER_1
 10
109.1508
 20
40.2422
 42
0.05751786988
  0
VERTEX
  8
LAYER_1
 10
109.1052
 20
39.8122
 42
0.2180663696
  0
VERTEX
  8
LAYER_1
 10
109.6358
 20
38.6168
 42
0.1772758138
  0
VERTEX
  8
LAYER_1
 10
110.5997
 20
38.2912
 42
0.1075185771
  0
VERTEX
  8
LAYER_1
 10
111.2811
 20
38.4302
 42
0.2370926009
  0
VERTEX
  8
LAYER_1
 10
112.0682
 20
39.4298
 42
0.05601310134
  0
SEQEND
  0
ENDBLK
  0
BLOCK
  8
LAYER_1
  2
AIGNBL01040008
 70
64
 10
0
 20
0
 30
0
  3
AIGNBL01040008
  0
POLYLINE
  8
LAYER_1
 40
0.05
 41
0.05
 66
1
 10
0
 20
0
 30
0
 70
1
  0
VERTEX
  8
LAYER_1
 10
114.0855
 20
41.7225
  0
VERTEX
  8
LAYER_1
 10
114.0855
 20
39.4932
 42
0.1145199457
  0
VERTEX
  8
LAYER_1
 10
114.2194
 20
38.8274
 42
0.1464896694
  0
VERTEX
  8
LAYER_1
 10
114.5697
 20
38.4422
 42
0.1362580474
  0
VERTEX
  8
LAYER_1
 10
115.1821
 20
38.2912
 42
0.1219300979
  0
VERTEX
  8
LAYER_1
 10
115.8052
 20
38.4259
 42
0.1503016186
  0
VERTEX
  8
LAYER_1
 10
116.177
 20
38.7949
 42
0.1256239276
  0
VERTEX
  8
LAYER_1
 10
116.3276
 20
39.4932
  0
VERTEX
  8
LAYER_1
 10
116.3276
 20
41.7225
  0
VERTEX
  8
LAYER_1
 10
116.9422
 20
41.7225
  0
VERTEX
  8
LAYER_1
 10
116.9422
 20
39.5266
 42
-0.09997665689
  0
VERTEX
  8
LAYER_1
 10
116.8073
 20
38.7839
 42
-0.1215019174
  0
VERTEX
  8
LAYER_1
 10
116.434
 20
38.2772
 42
-0.1106228669
  0
VERTEX
  8
LAYER_1
 10
115.8085
 20
37.9706
 42
-0.06128517916
  0
VERTEX
  8
LAYER_1
 10
115.161
 20
37.895
 42
-0.09418763513
  0
VERTEX
  8
LAYER_1
 10
114.3419
 20
38.0331
 42
-0.2431628294
  0
VERTEX
  8
LAYER_1
 10
113.5384
 20
38.9438
 42
-0.06320488118
  0
VERTEX
  8
LAYER_1
 10
113.4709
 20
39.5045
  0
VERTEX
  8
LAYER_1
 10
113.4709
 20
41.7225
  0
SEQEND
  0
ENDBLK
  0
BLOCK
  8
LAYER_1
  2
AIGNBL01040009
 70
64
 10
0
 20
0
 30
0
  3
AIGNBL01040009
  0
POLYLINE
  8
LAYER_1
 40
0.05
 41
0.05
 66
1
 10
0
 20
0
 30
0
 70
1
  0
VERTEX
  8
LAYER_1
 10
118.6885
 20
39.1418
  0
VERTEX
  8
LAYER_1
 10
118.1993
 20
37.9567
  0
VERTEX
  8
LAYER_1
 10
117.5712
 20
37.9567
  0
VERTEX
  8
LAYER_1
 10
119.1705
 20
41.7225
  0
VERTEX
  8
LAYER_1
 10
119.9036
 20
41.7225
  0
VERTEX
  8
LAYER_1
 10
121.51
 20
37.9567
  0
VERTEX
  8
LAYER_1
 10
120.8606
 20
37.9567
  0
VERTEX
  8
LAYER_1
 10
120.358
 20
39.1418
  0
SEQEND
  0
POLYLINE
  8
LAYER_1
 40
0.05
 41
0.05
 66
1
 10
0
 20
0
 30
0
 70
1
  0
VERTEX
  8
LAYER_1
 10
120.2319
 20
39.5207
  0
VERTEX
  8
LAYER_1
 10
119.7706
 20
40.6056
  0
VERTEX
  8
LAYER_1
 10
119.526
 20
41.2926
  0
VERTEX
  8
LAYER_1
 10
119.5122
 20
41.2926
  0
VERTEX
  8
LAYER_1
 10
119.2748
 20
40.6101
  0
VERTEX
  8
LAYER_1
 10
118.8139
 20
39.5207
  0
SEQEND
  0
ENDBLK
  0
BLOCK
  8
LAYER_1
  2
AIGNBL0104000A
 70
64
 10
0
 20
0
 30
0
  3
AIGNBL0104000A
  0
POLYLINE
  8
LAYER_1
 40
0.05
 41
0.05
 66
1
 10
0
 20
0
 30
0
 70
1
  0
VERTEX
  8
LAYER_1
 10
122.5508
 20
41.6777
 42
-0.03246092253
  0
VERTEX
  8
LAYER_1
 10
123.7176
 20
41.7508
 42
-0.08084549745
  0
VERTEX
  8
LAYER_1
 10
124.6741
 20
41.619
 42
-0.07819914268
  0
VERTEX
  8
LAYER_1
 10
125.0374
 20
41.4379
 42
-0.2484709269
  0
VERTEX
  8
LAYER_1
 10
125.4491
 20
40.6497
 42
-0.226147
  0
VERTEX
  8
LAYER_1
 10
125.086
 20
39.8456
 42
-0.109727648
  0
VERTEX
  8
LAYER_1
 10
124.4577
 20
39.5323
 42
-0.06565380896
  0
VERTEX
  8
LAYER_1
 10
123.6473
 20
39.4319
 42
-0.06238309955
  0
VERTEX
  8
LAYER_1
 10
123.1588
 20
39.4653
  0
VERTEX
  8
LAYER_1
 10
123.1588
 20
37.9567
  0
VERTEX
  8
LAYER_1
 10
122.5508
 20
37.9567
  0
SEQEND
  0
POLYLINE
  8
LAYER_1
 40
0.05
 41
0.05
 66
1
 10
0
 20
0
 30
0
 70
1
  0
VERTEX
  8
LAYER_1
 10
123.1588
 20
39.8622
 42
0.04203451964
  0
VERTEX
  8
LAYER_1
 10
123.6611
 20
39.8229
 42
0.1032111168
  0
VERTEX
  8
LAYER_1
 10
124.3803
 20
39.9502
 42
0.1555938032
  0
VERTEX
  8
LAYER_1
 10
124.7451
 20
40.2546
 42
0.1352673748
  0
VERTEX
  8
LAYER_1
 10
124.8421
 20
40.6273
 42
0.1737047371
  0
VERTEX
  8
LAYER_1
 10
124.7073
 20
41.0346
 42
0.1517050813
  0
VERTEX
  8
LAYER_1
 10
124.2862
 20
41.2941
 42
0.06879756253
  0
VERTEX
  8
LAYER_1
 10
123.7317
 20
41.3649
 42
0.06336983159
  0
VERTEX
  8
LAYER_1
 10
123.1588
 20
41.3257
  0
SEQEND
  0
ENDBLK
  0
BLOCK
  8
LAYER_1
  2
AIGNBL0104000B
 70
64
 10
0
 20
0
 30
0
  3
AIGNBL0104000B
  0
POLYLINE
  8
LAYER_1
 40
0.05
 41
0.05
 66
1
 10
0
 20
0
 30
0
 70
1
  0
VERTEX
  8
LAYER_1
 10
127.0011
 20
41.4207
 42
-0.2767461975
  0
VERTEX
  8
LAYER_1
 10
126.8616
 20
41.1806
 42
-0.1265294091
  0
VERTEX
  8
LAYER_1
 10
126.6094
 20
41.1189
 42
-0.2237518698
  0
VERTEX
  8
LAYER_1
 10
126.2991
 20
41.2513
 42
-0.1708341408
  0
VERTEX
  8
LAYER_1
 10
126.2391
 20
41.4207
 42
-0.2643879937
  0
VERTEX
  8
LAYER_1
 10
126.3885
 20
41.6678
 42
-0.1290073663
  0
VERTEX
  8
LAYER_1
 10
126.6232
 20
41.7277
 42
-0.225342086
  0
VERTEX
  8
LAYER_1
 10
126.94
 20
41.597
 42
-0.1691136206
  0
SEQEND
  0
POLYLINE
  8
LAYER_1
 40
0.05
 41
0.05
 66
1
 10
0
 20
0
 30
0
 70
1
  0
VERTEX
  8
LAYER_1
 10
126.3156
 20
37.9567
  0
VERTEX
  8
LAYER_1
 10
126.3156
 20
40.6607
  0
VERTEX
  8
LAYER_1
 10
126.9302
 20
40.6607
  0
VERTEX
  8
LAYER_1
 10
126.9302
 20
37.9567
  0
SEQEND
  0
ENDBLK
  0
BLOCK
  8
LAYER_1
  2
AIGNBL0104000C
 70
64
 10
0
 20
0
 30
0
  3
AIGNBL0104000C
  0
POLYLINE
  8
LAYER_1
 40
0.05
 41
0.05
 66
1
 10
0
 20
0
 30
0
 70
1
  0
VERTEX
  8
LAYER_1
 10
128.8019
 20
39.1418
  0
VERTEX
  8
LAYER_1
 10
128.3137
 20
37.9567
  0
VERTEX
  8
LAYER_1
 10
127.6846
 20
37.9567
  0
VERTEX
  8
LAYER_1
 10
129.2842
 20
41.7225
  0
VERTEX
  8
LAYER_1
 10
130.018
 20
41.7225
  0
VERTEX
  8
LAYER_1
 10
131.6245
 20
37.9567
  0
VERTEX
  8
LAYER_1
 10
130.9747
 20
37.9567
  0
VERTEX
  8
LAYER_1
 10
130.4721
 20
39.1418
  0
SEQEND
  0
POLYLINE
  8
LAYER_1
 40
0.05
 41
0.05
 66
1
 10
0
 20
0
 30
0
 70
1
  0
VERTEX
  8
LAYER_1
 10
130.346
 20
39.5207
  0
VERTEX
  8
LAYER_1
 10
129.885
 20
40.6056
  0
VERTEX
  8
LAYER_1
 10
129.6411
 20
41.2926
  0
VERTEX
  8
LAYER_1
 10
129.6263
 20
41.2926
  0
VERTEX
  8
LAYER_1
 10
129.3893
 20
40.6101
  0
VERTEX
  8
LAYER_1
 10
128.9283
 20
39.5207
  0
SEQEND
  0
ENDBLK
  0
BLOCK
  8
LAYER_1
  2
AIGNBL01030005
 70
64
 10
0
 20
0
 30
0
  3
AIGNBL01030005
  0
INSERT
  8
LAYER_1
  2
AIGNBL01040006
 10
0
 20
0
 30
0
  0
INSERT
  8
LAYER_1
  2
AIGNBL01040007
 10
0
 20
0
 30
0
  0
INSERT
  8
LAYER_1
  2
AIGNBL01040008
 10
0
 20
0
 30
0
  0
INSERT
  8
LAYER_1
  2
AIGNBL01040009
 10
0
 20
0
 30
0
  0
INSERT
  8
LAYER_1
  2
AIGNBL0104000A
 10
0
 20
0
 30
0
  0
INSERT
  8
LAYER_1
  2
AIGNBL0104000B
 10
0
 20
0
 30
0
  0
INSERT
  8
LAYER_1
  2
AIGNBL0104000C
 10
0
 20
0
 30
0
  0
ENDBLK
  0
BLOCK
  8
LAYER_1
  2
AIGNBL0103000E
 70
64
 10
0
 20
0
 30
0
  3
AIGNBL0103000E
  0
POLYLINE
  8
LAYER_1
 40
0.05
 41
0.05
 66
1
 10
0
 20
0
 30
0
 70
1
  0
VERTEX
  8
LAYER_1
 10
104.4241
 20
36.0574
  0
VERTEX
  8
LAYER_1
 10
104.9773
 20
36.0574
  0
VERTEX
  8
LAYER_1
 10
104.9773
 20
35.9637
  0
VERTEX
  8
LAYER_1
 10
104.319
 20
35.9637
  0
VERTEX
  8
LAYER_1
 10
104.319
 20
36.9969
  0
VERTEX
  8
LAYER_1
 10
104.9598
 20
36.9969
  0
VERTEX
  8
LAYER_1
 10
104.9598
 20
36.9035
  0
VERTEX
  8
LAYER_1
 10
104.4241
 20
36.9035
  0
VERTEX
  8
LAYER_1
 10
104.4241
 20
36.549
  0
VERTEX
  8
LAYER_1
 10
104.9246
 20
36.549
  0
VERTEX
  8
LAYER_1
 10
104.9246
 20
36.4557
  0
VERTEX
  8
LAYER_1
 10
104.4241
 20
36.4557
  0
SEQEND
  0
ENDBLK
  0
BLOCK
  8
LAYER_1
  2
AIGNBL0103000F
 70
64
 10
0
 20
0
 30
0
  3
AIGNBL0103000F
  0
POLYLINE
  8
LAYER_1
 40
0.05
 41
0.05
 66
1
 10
0
 20
0
 30
0
 70
1
  0
VERTEX
  8
LAYER_1
 10
106.117
 20
36.117
  0
VERTEX
  8
LAYER_1
 10
106.1197
 20
36.117
  0
VERTEX
  8
LAYER_1
 10
106.1197
 20
36.9969
  0
VERTEX
  8
LAYER_1
 10
106.2248
 20
36.9969
  0
VERTEX
  8
LAYER_1
 10
106.2248
 20
35.9637
  0
VERTEX
  8
LAYER_1
 10
106.0939
 20
35.9637
  0
VERTEX
  8
LAYER_1
 10
105.4927
 20
36.8525
  0
VERTEX
  8
LAYER_1
 10
105.4893
 20
36.8525
  0
VERTEX
  8
LAYER_1
 10
105.4893
 20
35.9637
  0
VERTEX
  8
LAYER_1
 10
105.3845
 20
35.9637
  0
VERTEX
  8
LAYER_1
 10
105.3845
 20
36.9969
  0
VERTEX
  8
LAYER_1
 10
105.5158
 20
36.9969
  0
SEQEND
  0
ENDBLK
  0
BLOCK
  8
LAYER_1
  2
AIGNBL01030010
 70
64
 10
0
 20
0
 30
0
  3
AIGNBL01030010
  0
POLYLINE
  8
LAYER_1
 40
0.05
 41
0.05
 66
1
 10
0
 20
0
 30
0
 70
1
  0
VERTEX
  8
LAYER_1
 10
106.6978
 20
36.1756
  0
VERTEX
  8
LAYER_1
 10
106.7523
 20
36.0725
 42
0.1804993832
  0
VERTEX
  8
LAYER_1
 10
106.8656
 20
36.0309
  0
VERTEX
  8
LAYER_1
 10
106.9548
 20
36.0505
  0
VERTEX
  8
LAYER_1
 10
107.011
 20
36.1039
  0
VERTEX
  8
LAYER_1
 10
107.0399
 20
36.1804
  0
VERTEX
  8
LAYER_1
 10
107.0482
 20
36.27
  0
VERTEX
  8
LAYER_1
 10
107.0482
 20
36.9969
  0
VERTEX
  8
LAYER_1
 10
107.1533
 20
36.9969
  0
VERTEX
  8
LAYER_1
 10
107.1533
 20
36.2614
  0
VERTEX
  8
LAYER_1
 10
107.1419
 20
36.1535
  0
VERTEX
  8
LAYER_1
 10
107.1006
 20
36.0485
  0
VERTEX
  8
LAYER_1
 10
107.0158
 20
35.9689
  0
VERTEX
  8
LAYER_1
 10
106.877
 20
35.9375
 42
-0.1845892347
  0
VERTEX
  8
LAYER_1
 10
106.6923
 20
35.9974
 42
-0.176191571
  0
VERTEX
  8
LAYER_1
 10
106.6
 20
36.149
  0
SEQEND
  0
ENDBLK
  0
BLOCK
  8
LAYER_1
  2
AIGNBL01030011
 70
64
 10
0
 20
0
 30
0
  3
AIGNBL01030011
  0
POLYLINE
  8
LAYER_1
 40
0.05
 41
0.05
 66
1
 10
0
 20
0
 30
0
 70
1
  0
VERTEX
  8
LAYER_1
 10
108.6416
 20
36.4805
 42
-0.10394313
  0
VERTEX
  8
LAYER_1
 10
108.6005
 20
36.2631
 42
-0.1002538824
  0
VERTEX
  8
LAYER_1
 10
108.4879
 20
36.0915
  0
VERTEX
  8
LAYER_1
 10
108.317
 20
35.9785
 42
-0.09506675375
  0
VERTEX
  8
LAYER_1
 10
108.1031
 20
35.9375
 42
-0.1010866674
  0
VERTEX
  8
LAYER_1
 10
107.8895
 20
35.9785
 42
-0.1005668876
  0
VERTEX
  8
LAYER_1
 10
107.7186
 20
36.0915
 42
-0.09506076213
  0
VERTEX
  8
LAYER_1
 10
107.6053
 20
36.2631
 42
-0.09316585798
  0
VERTEX
  8
LAYER_1
 10
107.5646
 20
36.4805
 42
-0.1029152058
  0
VERTEX
  8
LAYER_1
 10
107.6053
 20
36.6978
 42
-0.1008913794
  0
VERTEX
  8
LAYER_1
 10
107.7186
 20
36.8694
 42
-0.09625543395
  0
VERTEX
  8
LAYER_1
 10
107.8895
 20
36.9824
 42
-0.09521573462
  0
VERTEX
  8
LAYER_1
 10
108.1031
 20
37.0234
 42
-0.101175466
  0
VERTEX
  8
LAYER_1
 10
108.317
 20
36.9824
 42
-0.09853409661
  0
VERTEX
  8
LAYER_1
 10
108.4879
 20
36.8694
 42
-0.09556553869
  0
VERTEX
  8
LAYER_1
 10
108.6005
 20
36.6978
 42
-0.09420719768
  0
SEQEND
  0
POLYLINE
  8
LAYER_1
 40
0.05
 41
0.05
 66
1
 10
0
 20
0
 30
0
 70
1
  0
VERTEX
  8
LAYER_1
 10
108.5306
 20
36.4798
  0
VERTEX
  8
LAYER_1
 10
108.5017
 20
36.6517
  0
VERTEX
  8
LAYER_1
 10
108.4169
 20
36.795
  0
VERTEX
  8
LAYER_1
 10
108.2819
 20
36.8932
  0
VERTEX
  8
LAYER_1
 10
108.1031
 20
36.93
  0
VERTEX
  8
LAYER_1
 10
107.9243
 20
36.8932
  0
VERTEX
  8
LAYER_1
 10
107.7896
 20
36.795
  0
VERTEX
  8
LAYER_1
 10
107.7048
 20
36.6517
  0
VERTEX
  8
LAYER_1
 10
107.6755
 20
36.4798
  0
VERTEX
  8
LAYER_1
 10
107.7048
 20
36.3079
  0
VERTEX
  8
LAYER_1
 10
107.7896
 20
36.1649
  0
VERTEX
  8
LAYER_1
 10
107.9243
 20
36.0674
 42
0.1008280473
  0
VERTEX
  8
LAYER_1
 10
108.1031
 20
36.0309
  0
VERTEX
  8
LAYER_1
 10
108.2819
 20
36.0674
  0
VERTEX
  8
LAYER_1
 10
108.4169
 20
36.1649
  0
VERTEX
  8
LAYER_1
 10
108.5017
 20
36.3079
  0
SEQEND
  0
ENDBLK
  0
BLOCK
  8
LAYER_1
  2
AIGNBL01030012
 70
64
 10
0
 20
0
 30
0
  3
AIGNBL01030012
  0
POLYLINE
  8
LAYER_1
 40
0.05
 41
0.05
 66
1
 10
0
 20
0
 30
0
 70
1
  0
VERTEX
  8
LAYER_1
 10
109.4163
 20
35.9637
  0
VERTEX
  8
LAYER_1
 10
109.3116
 20
35.9637
  0
VERTEX
  8
LAYER_1
 10
109.3116
 20
36.4091
  0
VERTEX
  8
LAYER_1
 10
108.9247
 20
36.9969
  0
VERTEX
  8
LAYER_1
 10
109.056
 20
36.9969
  0
VERTEX
  8
LAYER_1
 10
109.3671
 20
36.4967
  0
VERTEX
  8
LAYER_1
 10
109.6806
 20
36.9969
  0
VERTEX
  8
LAYER_1
 10
109.8029
 20
36.9969
  0
VERTEX
  8
LAYER_1
 10
109.4163
 20
36.4091
  0
SEQEND
  0
ENDBLK
  0
BLOCK
  8
LAYER_1
  2
AIGNBL01030013
 70
64
 10
0
 20
0
 30
0
  3
AIGNBL01030013
  0
POLYLINE
  8
LAYER_1
 40
0.05
 41
0.05
 66
1
 10
0
 20
0
 30
0
 70
1
  0
VERTEX
  8
LAYER_1
 10
110.7079
 20
36.9969
  0
VERTEX
  8
LAYER_1
 10
111.0155
 20
36.9969
  0
VERTEX
  8
LAYER_1
 10
111.1341
 20
36.9845
  0
VERTEX
  8
LAYER_1
 10
111.2409
 20
36.9421
  0
VERTEX
  8
LAYER_1
 10
111.3187
 20
36.8611
  0
VERTEX
  8
LAYER_1
 10
111.3483
 20
36.733
 42
-0.1790346201
  0
VERTEX
  8
LAYER_1
 10
111.2984
 20
36.5907
 42
-0.1642259289
  0
VERTEX
  8
LAYER_1
 10
111.1651
 20
36.5111
  0
VERTEX
  8
LAYER_1
 10
111.1651
 20
36.5084
 42
-0.1734673322
  0
VERTEX
  8
LAYER_1
 10
111.3318
 20
36.4302
 42
-0.1921994171
  0
VERTEX
  8
LAYER_1
 10
111.3979
 20
36.2496
  0
VERTEX
  8
LAYER_1
 10
111.3708
 20
36.1325
  0
VERTEX
  8
LAYER_1
 10
111.2946
 20
36.0419
  0
VERTEX
  8
LAYER_1
 10
111.1737
 20
35.9844
  0
VERTEX
  8
LAYER_1
 10
111.0138
 20
35.9637
  0
VERTEX
  8
LAYER_1
 10
110.7079
 20
35.9637
  0
SEQEND
  0
POLYLINE
  8
LAYER_1
 40
0.05
 41
0.05
 66
1
 10
0
 20
0
 30
0
 70
1
  0
VERTEX
  8
LAYER_1
 10
110.813
 20
36.5445
  0
VERTEX
  8
LAYER_1
 10
111.0245
 20
36.5445
  0
VERTEX
  8
LAYER_1
 10
111.1013
 20
36.5535
  0
VERTEX
  8
LAYER_1
 10
111.1716
 20
36.5831
  0
VERTEX
  8
LAYER_1
 10
111.2236
 20
36.6396
  0
VERTEX
  8
LAYER_1
 10
111.2433
 20
36.7258
  0
VERTEX
  8
LAYER_1
 10
111.2236
 20
36.8095
  0
VERTEX
  8
LAYER_1
 10
111.1706
 20
36.8656
  0
VERTEX
  8
LAYER_1
 10
111.0917
 20
36.897
  0
VERTEX
  8
LAYER_1
 10
110.9952
 20
36.9066
  0
VERTEX
  8
LAYER_1
 10
110.813
 20
36.9066
  0
SEQEND
  0
POLYLINE
  8
LAYER_1
 40
0.05
 41
0.05
 66
1
 10
0
 20
0
 30
0
 70
1
  0
VERTEX
  8
LAYER_1
 10
110.813
 20
36.0543
  0
VERTEX
  8
LAYER_1
 10
111.0087
 20
36.0543
  0
VERTEX
  8
LAYER_1
 10
111.1172
 20
36.0653
  0
VERTEX
  8
LAYER_1
 10
111.2078
 20
36.1001
  0
VERTEX
  8
LAYER_1
 10
111.2695
 20
36.1632
  0
VERTEX
  8
LAYER_1
 10
111.2929
 20
36.2559
 42
0.2557371221
  0
VERTEX
  8
LAYER_1
 10
111.2236
 20
36.4081
 42
0.1381508151
  0
VERTEX
  8
LAYER_1
 10
111.0276
 20
36.4584
  0
VERTEX
  8
LAYER_1
 10
110.813
 20
36.4584
  0
SEQEND
  0
ENDBLK
  0
BLOCK
  8
LAYER_1
  2
AIGNBL01030014
 70
64
 10
0
 20
0
 30
0
  3
AIGNBL01030014
  0
POLYLINE
  8
LAYER_1
 40
0.05
 41
0.05
 66
1
 10
0
 20
0
 30
0
 70
1
  0
VERTEX
  8
LAYER_1
 10
111.83
 20
35.9637
  0
VERTEX
  8
LAYER_1
 10
111.7146
 20
35.9637
  0
VERTEX
  8
LAYER_1
 10
112.1614
 20
36.9969
  0
VERTEX
  8
LAYER_1
 10
112.2637
 20
36.9969
  0
VERTEX
  8
LAYER_1
 10
112.7071
 20
35.9637
  0
VERTEX
  8
LAYER_1
 10
112.5903
 20
35.9637
  0
VERTEX
  8
LAYER_1
 10
112.4763
 20
36.2352
  0
VERTEX
  8
LAYER_1
 10
111.9423
 20
36.2352
  0
SEQEND
  0
POLYLINE
  8
LAYER_1
 40
0.05
 41
0.05
 66
1
 10
0
 20
0
 30
0
 70
1
  0
VERTEX
  8
LAYER_1
 10
111.9815
 20
36.3316
  0
VERTEX
  8
LAYER_1
 10
112.437
 20
36.3316
  0
VERTEX
  8
LAYER_1
 10
112.2093
 20
36.8804
  0
SEQEND
  0
ENDBLK
  0
BLOCK
  8
LAYER_1
  2
AIGNBL01030015
 70
64
 10
0
 20
0
 30
0
  3
AIGNBL01030015
  0
POLYLINE
  8
LAYER_1
 40
0.05
 41
0.05
 66
1
 10
0
 20
0
 30
0
 70
1
  0
VERTEX
  8
LAYER_1
 10
113.3916
 20
35.9637
  0
VERTEX
  8
LAYER_1
 10
113.2865
 20
35.9637
  0
VERTEX
  8
LAYER_1
 10
113.2865
 20
36.9035
  0
VERTEX
  8
LAYER_1
 10
112.9403
 20
36.9035
  0
VERTEX
  8
LAYER_1
 10
112.9403
 20
36.9969
  0
VERTEX
  8
LAYER_1
 10
113.7372
 20
36.9969
  0
VERTEX
  8
LAYER_1
 10
113.7372
 20
36.9035
  0
VERTEX
  8
LAYER_1
 10
113.3916
 20
36.9035
  0
SEQEND
  0
ENDBLK
  0
BLOCK
  8
LAYER_1
  2
AIGNBL01030016
 70
64
 10
0
 20
0
 30
0
  3
AIGNBL01030016
  0
POLYLINE
  8
LAYER_1
 40
0.05
 41
0.05
 66
1
 10
0
 20
0
 30
0
 70
1
  0
VERTEX
  8
LAYER_1
 10
114.0934
 20
36.9969
  0
VERTEX
  8
LAYER_1
 10
114.1981
 20
36.9969
  0
VERTEX
  8
LAYER_1
 10
114.1981
 20
36.549
  0
VERTEX
  8
LAYER_1
 10
114.7618
 20
36.549
  0
VERTEX
  8
LAYER_1
 10
114.7618
 20
36.9969
  0
VERTEX
  8
LAYER_1
 10
114.8668
 20
36.9969
  0
VERTEX
  8
LAYER_1
 10
114.8668
 20
35.9637
  0
VERTEX
  8
LAYER_1
 10
114.7618
 20
35.9637
  0
VERTEX
  8
LAYER_1
 10
114.7618
 20
36.4529
  0
VERTEX
  8
LAYER_1
 10
114.1981
 20
36.4529
  0
VERTEX
  8
LAYER_1
 10
114.1981
 20
35.9637
  0
VERTEX
  8
LAYER_1
 10
114.0934
 20
35.9637
  0
SEQEND
  0
ENDBLK
  0
BLOCK
  8
LAYER_1
  2
AIGNBL01030017
 70
64
 10
0
 20
0
 30
0
  3
AIGNBL01030017
  0
POLYLINE
  8
LAYER_1
 40
0.05
 41
0.05
 66
1
 10
0
 20
0
 30
0
 70
1
  0
VERTEX
  8
LAYER_1
 10
115.4473
 20
35.9637
  0
VERTEX
  8
LAYER_1
 10
115.3423
 20
35.9637
  0
VERTEX
  8
LAYER_1
 10
115.3423
 20
36.9969
  0
VERTEX
  8
LAYER_1
 10
115.6461
 20
36.9969
  0
VERTEX
  8
LAYER_1
 10
115.7867
 20
36.9824
  0
VERTEX
  8
LAYER_1
 10
115.8993
 20
36.9349
  0
VERTEX
  8
LAYER_1
 10
115.9727
 20
36.8494
  0
VERTEX
  8
LAYER_1
 10
115.9989
 20
36.7213
  0
VERTEX
  8
LAYER_1
 10
115.9789
 20
36.6176
  0
VERTEX
  8
LAYER_1
 10
115.9235
 20
36.5366
  0
VERTEX
  8
LAYER_1
 10
115.8401
 20
36.4818
  0
VERTEX
  8
LAYER_1
 10
115.735
 20
36.4557
  0
VERTEX
  8
LAYER_1
 10
116.0371
 20
35.9637
  0
VERTEX
  8
LAYER_1
 10
115.9086
 20
35.9637
  0
VERTEX
  8
LAYER_1
 10
115.6227
 20
36.4467
  0
VERTEX
  8
LAYER_1
 10
115.4473
 20
36.4467
  0
SEQEND
  0
POLYLINE
  8
LAYER_1
 40
0.05
 41
0.05
 66
1
 10
0
 20
0
 30
0
 70
1
  0
VERTEX
  8
LAYER_1
 10
115.4473
 20
36.5373
  0
VERTEX
  8
LAYER_1
 10
115.6299
 20
36.5373
 42
0.1654500383
  0
VERTEX
  8
LAYER_1
 10
115.8256
 20
36.5831
 42
0.2503949893
  0
VERTEX
  8
LAYER_1
 10
115.8942
 20
36.7213
  0
VERTEX
  8
LAYER_1
 10
115.8749
 20
36.8071
  0
VERTEX
  8
LAYER_1
 10
115.8225
 20
36.8643
  0
VERTEX
  8
LAYER_1
 10
115.7409
 20
36.8963
  0
VERTEX
  8
LAYER_1
 10
115.6344
 20
36.9066
  0
VERTEX
  8
LAYER_1
 10
115.4473
 20
36.9066
  0
SEQEND
  0
ENDBLK
  0
BLOCK
  8
LAYER_1
  2
AIGNBL01030018
 70
64
 10
0
 20
0
 30
0
  3
AIGNBL01030018
  0
POLYLINE
  8
LAYER_1
 40
0.05
 41
0.05
 66
1
 10
0
 20
0
 30
0
 70
1
  0
VERTEX
  8
LAYER_1
 10
117.4393
 20
36.4805
 42
-0.1005163161
  0
VERTEX
  8
LAYER_1
 10
117.3986
 20
36.2631
 42
-0.1003846159
  0
VERTEX
  8
LAYER_1
 10
117.2853
 20
36.0915
 42
-0.09584766738
  0
VERTEX
  8
LAYER_1
 10
117.1147
 20
35.9785
 42
-0.09506713234
  0
VERTEX
  8
LAYER_1
 10
116.9008
 20
35.9375
 42
-0.101175466
  0
VERTEX
  8
LAYER_1
 10
116.6869
 20
35.9785
 42
-0.09967088569
  0
VERTEX
  8
LAYER_1
 10
116.5163
 20
36.0915
 42
-0.09574135652
  0
VERTEX
  8
LAYER_1
 10
116.4033
 20
36.2631
 42
-0.09293305267
  0
VERTEX
  8
LAYER_1
 10
116.3627
 20
36.4805
 42
-0.1024980643
  0
VERTEX
  8
LAYER_1
 10
116.4033
 20
36.6978
 42
-0.1015030268
  0
VERTEX
  8
LAYER_1
 10
116.5163
 20
36.8694
 42
-0.09577113234
  0
VERTEX
  8
LAYER_1
 10
116.6869
 20
36.9824
 42
-0.09506675375
  0
VERTEX
  8
LAYER_1
 10
116.9008
 20
37.0234
 42
-0.1014233705
  0
VERTEX
  8
LAYER_1
 10
117.1147
 20
36.9824
 42
-0.1017041996
  0
VERTEX
  8
LAYER_1
 10
117.2853
 20
36.8694
 42
-0.09506500802
  0
VERTEX
  8
LAYER_1
 10
117.3986
 20
36.6978
 42
-0.09299771213
  0
SEQEND
  0
POLYLINE
  8
LAYER_1
 40
0.05
 41
0.05
 66
1
 10
0
 20
0
 30
0
 70
1
  0
VERTEX
  8
LAYER_1
 10
117.3284
 20
36.4798
  0
VERTEX
  8
LAYER_1
 10
117.2991
 20
36.6517
  0
VERTEX
  8
LAYER_1
 10
117.2143
 20
36.795
  0
VERTEX
  8
LAYER_1
 10
117.0796
 20
36.8932
  0
VERTEX
  8
LAYER_1
 10
116.9008
 20
36.93
  0
VERTEX
  8
LAYER_1
 10
116.722
 20
36.8932
  0
VERTEX
  8
LAYER_1
 10
116.587
 20
36.795
  0
VERTEX
  8
LAYER_1
 10
116.5022
 20
36.6517
  0
VERTEX
  8
LAYER_1
 10
116.4733
 20
36.4798
  0
VERTEX
  8
LAYER_1
 10
116.5022
 20
36.3079
  0
VERTEX
  8
LAYER_1
 10
116.587
 20
36.1649
  0
VERTEX
  8
LAYER_1
 10
116.722
 20
36.0674
  0
VERTEX
  8
LAYER_1
 10
116.9008
 20
36.0309
 42
0.1157330551
  0
VERTEX
  8
LAYER_1
 10
117.0796
 20
36.0674
  0
VERTEX
  8
LAYER_1
 10
117.2143
 20
36.1649
  0
VERTEX
  8
LAYER_1
 10
117.2991
 20
36.3079
  0
SEQEND
  0
ENDBLK
  0
BLOCK
  8
LAYER_1
  2
AIGNBL01030019
 70
64
 10
0
 20
0
 30
0
  3
AIGNBL01030019
  0
POLYLINE
  8
LAYER_1
 40
0.05
 41
0.05
 66
1
 10
0
 20
0
 30
0
 70
1
  0
VERTEX
  8
LAYER_1
 10
118.881
 20
36.4805
 42
-0.1041417444
  0
VERTEX
  8
LAYER_1
 10
118.84
 20
36.2631
 42
-0.1002538824
  0
VERTEX
  8
LAYER_1
 10
118.7274
 20
36.0915
 42
-0.09536265516
  0
VERTEX
  8
LAYER_1
 10
118.5565
 20
35.9785
 42
-0.09506675375
  0
VERTEX
  8
LAYER_1
 10
118.3426
 20
35.9375
 42
-0.101822328
  0
VERTEX
  8
LAYER_1
 10
118.129
 20
35.9785
 42
-0.102112669
  0
VERTEX
  8
LAYER_1
 10
117.9581
 20
36.0915
 42
-0.09462334812
  0
VERTEX
  8
LAYER_1
 10
117.8447
 20
36.2631
 42
-0.09290316602
  0
VERTEX
  8
LAYER_1
 10
117.8041
 20
36.4805
 42
-0.1018782207
  0
VERTEX
  8
LAYER_1
 10
117.8447
 20
36.6978
 42
-0.1006850025
  0
VERTEX
  8
LAYER_1
 10
117.9581
 20
36.8694
 42
-0.09625543395
  0
VERTEX
  8
LAYER_1
 10
118.129
 20
36.9824
 42
-0.09528409444
  0
VERTEX
  8
LAYER_1
 10
118.3426
 20
37.0234
 42
-0.101175466
  0
VERTEX
  8
LAYER_1
 10
118.5565
 20
36.9824
 42
-0.09853409661
  0
VERTEX
  8
LAYER_1
 10
118.7274
 20
36.8694
 42
-0.09556553869
  0
VERTEX
  8
LAYER_1
 10
118.84
 20
36.6978
 42
-0.09400765476
  0
SEQEND
  0
POLYLINE
  8
LAYER_1
 40
0.05
 41
0.05
 66
1
 10
0
 20
0
 30
0
 70
1
  0
VERTEX
  8
LAYER_1
 10
118.7701
 20
36.4798
  0
VERTEX
  8
LAYER_1
 10
118.7412
 20
36.6517
  0
VERTEX
  8
LAYER_1
 10
118.6564
 20
36.795
  0
VERTEX
  8
LAYER_1
 10
118.5214
 20
36.8932
  0
VERTEX
  8
LAYER_1
 10
118.3426
 20
36.93
  0
VERTEX
  8
LAYER_1
 10
118.1638
 20
36.8932
  0
VERTEX
  8
LAYER_1
 10
118.0291
 20
36.795
  0
VERTEX
  8
LAYER_1
 10
117.9443
 20
36.6517
  0
VERTEX
  8
LAYER_1
 10
117.9151
 20
36.4798
  0
VERTEX
  8
LAYER_1
 10
117.9443
 20
36.3079
  0
VERTEX
  8
LAYER_1
 10
118.0291
 20
36.1649
  0
VERTEX
  8
LAYER_1
 10
118.1638
 20
36.0674
 42
0.1008280473
  0
VERTEX
  8
LAYER_1
 10
118.3426
 20
36.0309
  0
VERTEX
  8
LAYER_1
 10
118.5214
 20
36.0674
  0
VERTEX
  8
LAYER_1
 10
118.6564
 20
36.1649
  0
VERTEX
  8
LAYER_1
 10
118.7412
 20
36.3079
  0
SEQEND
  0
ENDBLK
  0
BLOCK
  8
LAYER_1
  2
AIGNBL0103001A
 70
64
 10
0
 20
0
 30
0
  3
AIGNBL0103001A
  0
POLYLINE
  8
LAYER_1
 40
0.05
 41
0.05
 66
1
 10
0
 20
0
 30
0
 70
1
  0
VERTEX
  8
LAYER_1
 10
119.8119
 20
36.1418
  0
VERTEX
  8
LAYER_1
 10
119.8136
 20
36.1418
  0
VERTEX
  8
LAYER_1
 10
120.1592
 20
36.9969
  0
VERTEX
  8
LAYER_1
 10
120.3201
 20
36.9969
  0
VERTEX
  8
LAYER_1
 10
120.3201
 20
35.9637
  0
VERTEX
  8
LAYER_1
 10
120.2146
 20
35.9637
  0
VERTEX
  8
LAYER_1
 10
120.2146
 20
36.8611
  0
VERTEX
  8
LAYER_1
 10
120.2119
 20
36.8611
  0
VERTEX
  8
LAYER_1
 10
119.8384
 20
35.9637
  0
VERTEX
  8
LAYER_1
 10
119.783
 20
35.9637
  0
VERTEX
  8
LAYER_1
 10
119.4092
 20
36.8611
  0
VERTEX
  8
LAYER_1
 10
119.4064
 20
36.8611
  0
VERTEX
  8
LAYER_1
 10
119.4064
 20
35.9637
  0
VERTEX
  8
LAYER_1
 10
119.3014
 20
35.9637
  0
VERTEX
  8
LAYER_1
 10
119.3014
 20
36.9969
  0
VERTEX
  8
LAYER_1
 10
119.4619
 20
36.9969
  0
SEQEND
  0
ENDBLK
  0
BLOCK
  8
LAYER_1
  2
AIGNBL0103001B
 70
64
 10
0
 20
0
 30
0
  3
AIGNBL0103001B
  0
POLYLINE
  8
LAYER_1
 40
0.05
 41
0.05
 66
1
 10
0
 20
0
 30
0
 70
1
  0
VERTEX
  8
LAYER_1
 10
121.4666
 20
36.0574
  0
VERTEX
  8
LAYER_1
 10
122.0199
 20
36.0574
  0
VERTEX
  8
LAYER_1
 10
122.0199
 20
35.9637
  0
VERTEX
  8
LAYER_1
 10
121.3615
 20
35.9637
  0
VERTEX
  8
LAYER_1
 10
121.3615
 20
36.9969
  0
VERTEX
  8
LAYER_1
 10
122.0023
 20
36.9969
  0
VERTEX
  8
LAYER_1
 10
122.0023
 20
36.9035
  0
VERTEX
  8
LAYER_1
 10
121.4666
 20
36.9035
  0
VERTEX
  8
LAYER_1
 10
121.4666
 20
36.549
  0
VERTEX
  8
LAYER_1
 10
121.9672
 20
36.549
  0
VERTEX
  8
LAYER_1
 10
121.9672
 20
36.4557
  0
VERTEX
  8
LAYER_1
 10
121.4666
 20
36.4557
  0
SEQEND
  0
ENDBLK
  0
BLOCK
  8
LAYER_1
  2
AIGNBL0103001C
 70
64
 10
0
 20
0
 30
0
  3
AIGNBL0103001C
  0
POLYLINE
  8
LAYER_1
 40
0.05
 41
0.05
 66
1
 10
0
 20
0
 30
0
 70
1
  0
VERTEX
  8
LAYER_1
 10
122.765
 20
36.5797
  0
VERTEX
  8
LAYER_1
 10
123.0472
 20
36.9969
  0
VERTEX
  8
LAYER_1
 10
123.1723
 20
36.9969
  0
VERTEX
  8
LAYER_1
 10
122.8298
 20
36.5053
  0
VERTEX
  8
LAYER_1
 10
123.2091
 20
35.9637
  0
VERTEX
  8
LAYER_1
 10
123.0779
 20
35.9637
  0
VERTEX
  8
LAYER_1
 10
122.7623
 20
36.4295
  0
VERTEX
  8
LAYER_1
 10
122.4488
 20
35.9637
  0
VERTEX
  8
LAYER_1
 10
122.3172
 20
35.9637
  0
VERTEX
  8
LAYER_1
 10
122.6969
 20
36.5066
  0
VERTEX
  8
LAYER_1
 10
122.351
 20
36.9969
  0
VERTEX
  8
LAYER_1
 10
122.4825
 20
36.9969
  0
SEQEND
  0
ENDBLK
  0
BLOCK
  8
LAYER_1
  2
AIGNBL0103001D
 70
64
 10
0
 20
0
 30
0
  3
AIGNBL0103001D
  0
POLYLINE
  8
LAYER_1
 40
0.05
 41
0.05
 66
1
 10
0
 20
0
 30
0
 70
1
  0
VERTEX
  8
LAYER_1
 10
123.5753
 20
36.9969
  0
VERTEX
  8
LAYER_1
 10
123.8675
 20
36.9969
  0
VERTEX
  8
LAYER_1
 10
124.0105
 20
36.9804
  0
VERTEX
  8
LAYER_1
 10
124.1203
 20
36.929
  0
VERTEX
  8
LAYER_1
 10
124.1913
 20
36.8429
  0
VERTEX
  8
LAYER_1
 10
124.2158
 20
36.7213
  0
VERTEX
  8
LAYER_1
 10
124.1906
 20
36.5993
  0
VERTEX
  8
LAYER_1
 10
124.119
 20
36.5132
  0
VERTEX
  8
LAYER_1
 10
124.0081
 20
36.4615
  0
VERTEX
  8
LAYER_1
 10
123.8644
 20
36.444
  0
VERTEX
  8
LAYER_1
 10
123.6804
 20
36.444
  0
VERTEX
  8
LAYER_1
 10
123.6804
 20
35.9637
  0
VERTEX
  8
LAYER_1
 10
123.5753
 20
35.9637
  0
SEQEND
  0
POLYLINE
  8
LAYER_1
 40
0.05
 41
0.05
 66
1
 10
0
 20
0
 30
0
 70
1
  0
VERTEX
  8
LAYER_1
 10
123.6804
 20
36.5328
  0
VERTEX
  8
LAYER_1
 10
123.8582
 20
36.5328
 42
0.1829203509
  0
VERTEX
  8
LAYER_1
 10
124.0466
 20
36.581
 42
0.2345943979
  0
VERTEX
  8
LAYER_1
 10
124.111
 20
36.7213
 42
0.2650437466
  0
VERTEX
  8
LAYER_1
 10
124.0446
 20
36.8622
 42
0.1264027561
  0
VERTEX
  8
LAYER_1
 10
123.8582
 20
36.9066
  0
VERTEX
  8
LAYER_1
 10
123.6804
 20
36.9066
  0
SEQEND
  0
ENDBLK
  0
BLOCK
  8
LAYER_1
  2
AIGNBL0103001E
 70
64
 10
0
 20
0
 30
0
  3
AIGNBL0103001E
  0
POLYLINE
  8
LAYER_1
 40
0.05
 41
0.05
 66
1
 10
0
 20
0
 30
0
 70
1
  0
VERTEX
  8
LAYER_1
 10
124.7281
 20
36.0574
  0
VERTEX
  8
LAYER_1
 10
125.2813
 20
36.0574
  0
VERTEX
  8
LAYER_1
 10
125.2813
 20
35.9637
  0
VERTEX
  8
LAYER_1
 10
124.623
 20
35.9637
  0
VERTEX
  8
LAYER_1
 10
124.623
 20
36.9969
  0
VERTEX
  8
LAYER_1
 10
125.2638
 20
36.9969
  0
VERTEX
  8
LAYER_1
 10
125.2638
 20
36.9035
  0
VERTEX
  8
LAYER_1
 10
124.7281
 20
36.9035
  0
VERTEX
  8
LAYER_1
 10
124.7281
 20
36.549
  0
VERTEX
  8
LAYER_1
 10
125.2286
 20
36.549
  0
VERTEX
  8
LAYER_1
 10
125.2286
 20
36.4557
  0
VERTEX
  8
LAYER_1
 10
124.7281
 20
36.4557
  0
SEQEND
  0
ENDBLK
  0
BLOCK
  8
LAYER_1
  2
AIGNBL0103001F
 70
64
 10
0
 20
0
 30
0
  3
AIGNBL0103001F
  0
POLYLINE
  8
LAYER_1
 40
0.05
 41
0.05
 66
1
 10
0
 20
0
 30
0
 70
1
  0
VERTEX
  8
LAYER_1
 10
125.7933
 20
35.9637
  0
VERTEX
  8
LAYER_1
 10
125.6882
 20
35.9637
  0
VERTEX
  8
LAYER_1
 10
125.6882
 20
36.9969
  0
VERTEX
  8
LAYER_1
 10
125.9921
 20
36.9969
  0
VERTEX
  8
LAYER_1
 10
126.1326
 20
36.9824
  0
VERTEX
  8
LAYER_1
 10
126.2453
 20
36.9349
  0
VERTEX
  8
LAYER_1
 10
126.319
 20
36.8494
  0
VERTEX
  8
LAYER_1
 10
126.3449
 20
36.7213
  0
VERTEX
  8
LAYER_1
 10
126.3249
 20
36.6176
  0
VERTEX
  8
LAYER_1
 10
126.2694
 20
36.5366
  0
VERTEX
  8
LAYER_1
 10
126.186
 20
36.4818
  0
VERTEX
  8
LAYER_1
 10
126.0809
 20
36.4557
  0
VERTEX
  8
LAYER_1
 10
126.3831
 20
35.9637
  0
VERTEX
  8
LAYER_1
 10
126.2546
 20
35.9637
  0
VERTEX
  8
LAYER_1
 10
125.9687
 20
36.4467
  0
VERTEX
  8
LAYER_1
 10
125.7933
 20
36.4467
  0
SEQEND
  0
POLYLINE
  8
LAYER_1
 40
0.05
 41
0.05
 66
1
 10
0
 20
0
 30
0
 70
1
  0
VERTEX
  8
LAYER_1
 10
125.7933
 20
36.5373
  0
VERTEX
  8
LAYER_1
 10
125.9759
 20
36.5373
 42
0.1663801652
  0
VERTEX
  8
LAYER_1
 10
126.1716
 20
36.5831
 42
0.2503091692
  0
VERTEX
  8
LAYER_1
 10
126.2401
 20
36.7213
  0
VERTEX
  8
LAYER_1
 10
126.2212
 20
36.8071
  0
VERTEX
  8
LAYER_1
 10
126.1685
 20
36.8643
  0
VERTEX
  8
LAYER_1
 10
126.0868
 20
36.8963
  0
VERTEX
  8
LAYER_1
 10
125.9804
 20
36.9066
  0
VERTEX
  8
LAYER_1
 10
125.7933
 20
36.9066
  0
SEQEND
  0
ENDBLK
  0
BLOCK
  8
LAYER_1
  2
AIGNBL01030020
 70
64
 10
0
 20
0
 30
0
  3
AIGNBL01030020
  0
POLYLINE
  8
LAYER_1
 40
0.05
 41
0.05
 66
1
 10
0
 20
0
 30
0
 70
1
  0
VERTEX
  8
LAYER_1
 10
126.8688
 20
35.9637
  0
VERTEX
  8
LAYER_1
 10
126.7641
 20
35.9637
  0
VERTEX
  8
LAYER_1
 10
126.7641
 20
36.9969
  0
VERTEX
  8
LAYER_1
 10
126.8688
 20
36.9969
  0
SEQEND
  0
ENDBLK
  0
BLOCK
  8
LAYER_1
  2
AIGNBL01030021
 70
64
 10
0
 20
0
 30
0
  3
AIGNBL01030021
  0
POLYLINE
  8
LAYER_1
 40
0.05
 41
0.05
 66
1
 10
0
 20
0
 30
0
 70
1
  0
VERTEX
  8
LAYER_1
 10
127.4497
 20
36.0574
  0
VERTEX
  8
LAYER_1
 10
128.0026
 20
36.0574
  0
VERTEX
  8
LAYER_1
 10
128.0026
 20
35.9637
  0
VERTEX
  8
LAYER_1
 10
127.3446
 20
35.9637
  0
VERTEX
  8
LAYER_1
 10
127.3446
 20
36.9969
  0
VERTEX
  8
LAYER_1
 10
127.9854
 20
36.9969
  0
VERTEX
  8
LAYER_1
 10
127.9854
 20
36.9035
  0
VERTEX
  8
LAYER_1
 10
127.4497
 20
36.9035
  0
VERTEX
  8
LAYER_1
 10
127.4497
 20
36.549
  0
VERTEX
  8
LAYER_1
 10
127.9503
 20
36.549
  0
VERTEX
  8
LAYER_1
 10
127.9503
 20
36.4557
  0
VERTEX
  8
LAYER_1
 10
127.4497
 20
36.4557
  0
SEQEND
  0
ENDBLK
  0
BLOCK
  8
LAYER_1
  2
AIGNBL01030022
 70
64
 10
0
 20
0
 30
0
  3
AIGNBL01030022
  0
POLYLINE
  8
LAYER_1
 40
0.05
 41
0.05
 66
1
 10
0
 20
0
 30
0
 70
1
  0
VERTEX
  8
LAYER_1
 10
129.1426
 20
36.117
  0
VERTEX
  8
LAYER_1
 10
129.1454
 20
36.117
  0
VERTEX
  8
LAYER_1
 10
129.1454
 20
36.9969
  0
VERTEX
  8
LAYER_1
 10
129.2504
 20
36.9969
  0
VERTEX
  8
LAYER_1
 10
129.2504
 20
35.9637
  0
VERTEX
  8
LAYER_1
 10
129.1192
 20
35.9637
  0
VERTEX
  8
LAYER_1
 10
128.518
 20
36.8525
  0
VERTEX
  8
LAYER_1
 10
128.5149
 20
36.8525
  0
VERTEX
  8
LAYER_1
 10
128.5149
 20
35.9637
  0
VERTEX
  8
LAYER_1
 10
128.4098
 20
35.9637
  0
VERTEX
  8
LAYER_1
 10
128.4098
 20
36.9969
  0
VERTEX
  8
LAYER_1
 10
128.5414
 20
36.9969
  0
SEQEND
  0
ENDBLK
  0
BLOCK
  8
LAYER_1
  2
AIGNBL01030023
 70
64
 10
0
 20
0
 30
0
  3
AIGNBL01030023
  0
POLYLINE
  8
LAYER_1
 40
0.05
 41
0.05
 66
1
 10
0
 20
0
 30
0
 70
1
  0
VERTEX
  8
LAYER_1
 10
130.5961
 20
36.1315
  0
VERTEX
  8
LAYER_1
 10
130.5324
 20
36.0571
  0
VERTEX
  8
LAYER_1
 10
130.4463
 20
35.9954
  0
VERTEX
  8
LAYER_1
 10
130.3381
 20
35.953
  0
VERTEX
  8
LAYER_1
 10
130.2092
 20
35.9375
 42
-0.1009408553
  0
VERTEX
  8
LAYER_1
 10
129.9932
 20
35.9785
 42
-0.1036559164
  0
VERTEX
  8
LAYER_1
 10
129.8227
 20
36.0915
 42
-0.09812017057
  0
VERTEX
  8
LAYER_1
 10
129.7111
 20
36.2631
 42
-0.09255697562
  0
VERTEX
  8
LAYER_1
 10
129.6707
 20
36.4805
 42
-0.1035456296
  0
VERTEX
  8
LAYER_1
 10
129.7117
 20
36.6978
 42
-0.1005534539
  0
VERTEX
  8
LAYER_1
 10
129.8244
 20
36.8694
 42
-0.09536265516
  0
VERTEX
  8
LAYER_1
 10
129.9953
 20
36.9824
 42
-0.09506675375
  0
VERTEX
  8
LAYER_1
 10
130.2092
 20
37.0234
  0
VERTEX
  8
LAYER_1
 10
130.3208
 20
37.0114
  0
VERTEX
  8
LAYER_1
 10
130.4239
 20
36.9779
  0
VERTEX
  8
LAYER_1
 10
130.5113
 20
36.9263
  0
VERTEX
  8
LAYER_1
 10
130.5771
 20
36.8584
  0
VERTEX
  8
LAYER_1
 10
130.4896
 20
36.794
  0
VERTEX
  8
LAYER_1
 10
130.4463
 20
36.8439
  0
VERTEX
  8
LAYER_1
 10
130.3829
 20
36.8877
  0
VERTEX
  8
LAYER_1
 10
130.3033
 20
36.9183
  0
VERTEX
  8
LAYER_1
 10
130.2106
 20
36.93
  0
VERTEX
  8
LAYER_1
 10
130.0304
 20
36.8935
  0
VERTEX
  8
LAYER_1
 10
129.8954
 20
36.7954
  0
VERTEX
  8
LAYER_1
 10
129.8106
 20
36.652
  0
VERTEX
  8
LAYER_1
 10
129.7817
 20
36.4805
  0
VERTEX
  8
LAYER_1
 10
129.8116
 20
36.3089
  0
VERTEX
  8
LAYER_1
 10
129.8971
 20
36.1656
  0
VERTEX
  8
LAYER_1
 10
130.0321
 20
36.0674
 42
0.1009931409
  0
VERTEX
  8
LAYER_1
 10
130.2106
 20
36.0309
  0
VERTEX
  8
LAYER_1
 10
130.3798
 20
36.0674
 42
0.1319081761
  0
VERTEX
  8
LAYER_1
 10
130.5141
 20
36.1842
  0
SEQEND
  0
ENDBLK
  0
BLOCK
  8
LAYER_1
  2
AIGNBL01030024
 70
64
 10
0
 20
0
 30
0
  3
AIGNBL01030024
  0
POLYLINE
  8
LAYER_1
 40
0.05
 41
0.05
 66
1
 10
0
 20
0
 30
0
 70
1
  0
VERTEX
  8
LAYER_1
 10
131.0832
 20
36.0574
  0
VERTEX
  8
LAYER_1
 10
131.6365
 20
36.0574
  0
VERTEX
  8
LAYER_1
 10
131.6365
 20
35.9637
  0
VERTEX
  8
LAYER_1
 10
130.9782
 20
35.9637
  0
VERTEX
  8
LAYER_1
 10
130.9782
 20
36.9969
  0
VERTEX
  8
LAYER_1
 10
131.619
 20
36.9969
  0
VERTEX
  8
LAYER_1
 10
131.619
 20
36.9035
  0
VERTEX
  8
LAYER_1
 10
131.0832
 20
36.9035
  0
VERTEX
  8
LAYER_1
 10
131.0832
 20
36.549
  0
VERTEX
  8
LAYER_1
 10
131.5838
 20
36.549
  0
VERTEX
  8
LAYER_1
 10
131.5838
 20
36.4557
  0
VERTEX
  8
LAYER_1
 10
131.0832
 20
36.4557
  0
SEQEND
  0
ENDBLK
  0
BLOCK
  8
LAYER_1
  2
AIGNBL01020004
 70
64
 10
0
 20
0
 30
0
  3
AIGNBL01020004
  0
INSERT
  8
LAYER_1
  2
AIGNBL01030005
 10
0
 20
0
 30
0
  0
ENDBLK
  0
BLOCK
  8
LAYER_1
  2
AIGNBL0102000D
 70
64
 10
0
 20
0
 30
0
  3
AIGNBL0102000D
  0
INSERT
  8
LAYER_1
  2
AIGNBL0103000E
 10
0
 20
0
 30
0
  0
INSERT
  8
LAYER_1
  2
AIGNBL0103000F
 10
0
 20
0
 30
0
  0
INSERT
  8
LAYER_1
  2
AIGNBL01030010
 10
0
 20
0
 30
0
  0
INSERT
  8
LAYER_1
  2
AIGNBL01030011
 10
0
 20
0
 30
0
  0
INSERT
  8
LAYER_1
  2
AIGNBL01030012
 10
0
 20
0
 30
0
  0
INSERT
  8
LAYER_1
  2
AIGNBL01030013
 10
0
 20
0
 30
0
  0
INSERT
  8
LAYER_1
  2
AIGNBL01030014
 10
0
 20
0
 30
0
  0
INSERT
  8
LAYER_1
  2
AIGNBL01030015
 10
0
 20
0
 30
0
  0
INSERT
  8
LAYER_1
  2
AIGNBL01030016
 10
0
 20
0
 30
0
  0
INSERT
  8
LAYER_1
  2
AIGNBL01030017
 10
0
 20
0
 30
0
  0
INSERT
  8
LAYER_1
  2
AIGNBL01030018
 10
0
 20
0
 30
0
  0
INSERT
  8
LAYER_1
  2
AIGNBL01030019
 10
0
 20
0
 30
0
  0
INSERT
  8
LAYER_1
  2
AIGNBL0103001A
 10
0
 20
0
 30
0
  0
INSERT
  8
LAYER_1
  2
AIGNBL0103001B
 10
0
 20
0
 30
0
  0
INSERT
  8
LAYER_1
  2
AIGNBL0103001C
 10
0
 20
0
 30
0
  0
INSERT
  8
LAYER_1
  2
AIGNBL0103001D
 10
0
 20
0
 30
0
  0
INSERT
  8
LAYER_1
  2
AIGNBL0103001E
 10
0
 20
0
 30
0
  0
INSERT
  8
LAYER_1
  2
AIGNBL0103001F
 10
0
 20
0
 30
0
  0
INSERT
  8
LAYER_1
  2
AIGNBL01030020
 10
0
 20
0
 30
0
  0
INSERT
  8
LAYER_1
  2
AIGNBL01030021
 10
0
 20
0
 30
0
  0
INSERT
  8
LAYER_1
  2
AIGNBL01030022
 10
0
 20
0
 30
0
  0
INSERT
  8
LAYER_1
  2
AIGNBL01030023
 10
0
 20
0
 30
0
  0
INSERT
  8
LAYER_1
  2
AIGNBL01030024
 10
0
 20
0
 30
0
  0
ENDBLK
  0
BLOCK
  8
LAYER_1
  2
AIGNBL01010002
 70
64
 10
0
 20
0
 30
0
  3
AIGNBL01010002
  0
POLYLINE
  8
LAYER_1
 40
0.7056
 41
0.7056
 66
1
 10
0
 20
0
 30
0
 70
1
  0
VERTEX
  8
LAYER_1
 10
251.6749
 20
230.337
  0
VERTEX
  8
LAYER_1
 10
251.6749
 20
33.3285
  0
VERTEX
  8
LAYER_1
 10
-30.3177
 20
33.3285
  0
VERTEX
  8
LAYER_1
 10
-30.3177
 20
230.337
  0
SEQEND
  0
ENDBLK
  0
BLOCK
  8
LAYER_1
  2
AIGNBL01010003
 70
64
 10
0
 20
0
 30
0
  3
AIGNBL01010003
  0
INSERT
  8
LAYER_1
  2
AIGNBL01020004
 10
0
 20
0
 30
0
  0
INSERT
  8
LAYER_1
  2
AIGNBL0102000D
 10
0
 20
0
 30
0
  0
ENDBLK
  0
BLOCK
  8
LAYER_1
  2
AIGNBL01010025
 70
64
 10
0
 20
0
 30
0
  3
AIGNBL01010025
  0
POLYLINE
  8
LAYER_1
 40
0.1693
 41
0.1693
 66
1
 10
0
 20
0
 30
0
  0
VERTEX
  8
LAYER_1
 10
15.4413
 20
86.6986
  0
VERTEX
  8
LAYER_1
 10
15.8122
 20
86.5814
  0
VERTEX
  8
LAYER_1
 10
16.027
 20
86.5033
  0
SEQEND
  0
POLYLINE
  8
LAYER_1
 40
0.1693
 41
0.1693
 66
1
 10
0
 20
0
 30
0
  0
VERTEX
  8
LAYER_1
 10
16.027
 20
86.5229
  0
VERTEX
  8
LAYER_1
 10
30.7873
 20
86.5229
  0
SEQEND
  0
POLYLINE
  8
LAYER_1
 40
0.1693
 41
0.1693
 66
1
 10
0
 20
0
 30
0
  0
VERTEX
  8
LAYER_1
 10
31.373
 20
86.6986
  0
VERTEX
  8
LAYER_1
 10
31.002
 20
86.5814
  0
VERTEX
  8
LAYER_1
 10
30.7873
 20
86.5033
  0
SEQEND
  0
POLYLINE
  8
LAYER_1
 40
0.1693
 41
0.1693
 66
1
 10
0
 20
0
 30
0
  0
VERTEX
  8
LAYER_1
 10
-22.6309
 20
109.5614
  0
VERTEX
  8
LAYER_1
 10
-22.3576
 20
109.5809
  0
SEQEND
  0
POLYLINE
  8
LAYER_1
 40
0.1693
 41
0.1693
 66
1
 10
0
 20
0
 30
0
  0
VERTEX
  8
LAYER_1
 10
-22.8652
 20
109.5224
  0
VERTEX
  8
LAYER_1
 10
-22.6309
 20
109.5614
  0
SEQEND
  0
POLYLINE
  8
LAYER_1
 40
0.1693
 41
0.1693
 66
1
 10
0
 20
0
 30
0
  0
VERTEX
  8
LAYER_1
 10
-23.0995
 20
109.4443
  0
VERTEX
  8
LAYER_1
 10
-22.8652
 20
109.5224
  0
SEQEND
  0
POLYLINE
  8
LAYER_1
 40
0.1693
 41
0.1693
 66
1
 10
0
 20
0
 30
0
  0
VERTEX
  8
LAYER_1
 10
-23.3142
 20
109.3467
  0
VERTEX
  8
LAYER_1
 10
-23.0995
 20
109.4443
  0
SEQEND
  0
POLYLINE
  8
LAYER_1
 40
0.1693
 41
0.1693
 66
1
 10
0
 20
0
 30
0
  0
VERTEX
  8
LAYER_1
 10
-23.4899
 20
109.2295
  0
VERTEX
  8
LAYER_1
 10
-23.3142
 20
109.3467
  0
SEQEND
  0
POLYLINE
  8
LAYER_1
 40
0.1693
 41
0.1693
 66
1
 10
0
 20
0
 30
0
  0
VERTEX
  8
LAYER_1
 10
-23.6656
 20
109.0733
  0
VERTEX
  8
LAYER_1
 10
-23.4899
 20
109.2295
  0
SEQEND
  0
POLYLINE
  8
LAYER_1
 40
0.1693
 41
0.1693
 66
1
 10
0
 20
0
 30
0
  0
VERTEX
  8
LAYER_1
 10
-23.8023
 20
108.8781
  0
VERTEX
  8
LAYER_1
 10
-23.6656
 20
109.0733
  0
SEQEND
  0
POLYLINE
  8
LAYER_1
 40
0.1693
 41
0.1693
 66
1
 10
0
 20
0
 30
0
  0
VERTEX
  8
LAYER_1
 10
-23.9195
 20
108.6633
  0
VERTEX
  8
LAYER_1
 10
-23.8023
 20
108.8781
  0
SEQEND
  0
POLYLINE
  8
LAYER_1
 40
0.1693
 41
0.1693
 66
1
 10
0
 20
0
 30
0
  0
VERTEX
  8
LAYER_1
 10
-24.0171
 20
108.4291
  0
VERTEX
  8
LAYER_1
 10
-23.9195
 20
108.6633
  0
SEQEND
  0
POLYLINE
  8
LAYER_1
 40
0.1693
 41
0.1693
 66
1
 10
0
 20
0
 30
0
  0
VERTEX
  8
LAYER_1
 10
-24.1537
 20
107.8629
  0
VERTEX
  8
LAYER_1
 10
-24.0952
 20
108.1557
  0
SEQEND
  0
POLYLINE
  8
LAYER_1
 40
0.1693
 41
0.1693
 66
1
 10
0
 20
0
 30
0
  0
VERTEX
  8
LAYER_1
 10
-24.1928
 20
107.5309
  0
VERTEX
  8
LAYER_1
 10
-24.1537
 20
107.8629
  0
SEQEND
  0
POLYLINE
  8
LAYER_1
 40
0.1693
 41
0.1693
 66
1
 10
0
 20
0
 30
0
  0
VERTEX
  8
LAYER_1
 10
-24.1928
 20
107.1795
  0
VERTEX
  8
LAYER_1
 10
-24.1928
 20
107.5309
  0
SEQEND
  0
POLYLINE
  8
LAYER_1
 40
0.1693
 41
0.1693
 66
1
 10
0
 20
0
 30
0
  0
VERTEX
  8
LAYER_1
 10
-8.0072
 20
95.9336
  0
VERTEX
  8
LAYER_1
 10
-7.3825
 20
95.2893
  0
VERTEX
  8
LAYER_1
 10
-6.992
 20
94.9378
  0
VERTEX
  8
LAYER_1
 10
-6.4843
 20
94.5083
  0
VERTEX
  8
LAYER_1
 10
-5.5862
 20
93.7859
  0
VERTEX
  8
LAYER_1
 10
-4.6295
 20
93.1221
  0
VERTEX
  8
LAYER_1
 10
-3.6533
 20
92.4973
  0
VERTEX
  8
LAYER_1
 10
-2.6381
 20
91.9311
  0
VERTEX
  8
LAYER_1
 10
-1.6228
 20
91.3844
  0
VERTEX
  8
LAYER_1
 10
-1.0176
 20
91.072
  0
VERTEX
  8
LAYER_1
 10
-0.549
 20
90.8573
  0
VERTEX
  8
LAYER_1
 10
0.271
 20
90.4668
  0
VERTEX
  8
LAYER_1
 10
1.091
 20
90.1154
  0
VERTEX
  8
LAYER_1
 10
1.911
 20
89.7834
  0
VERTEX
  8
LAYER_1
 10
2.7506
 20
89.4711
  0
VERTEX
  8
LAYER_1
 10
3.5901
 20
89.1977
  0
VERTEX
  8
LAYER_1
 10
4.0782
 20
89.0415
  0
VERTEX
  8
LAYER_1
 10
4.6054
 20
88.9049
  0
VERTEX
  8
LAYER_1
 10
5.5035
 20
88.6901
  0
VERTEX
  8
LAYER_1
 10
6.4016
 20
88.5144
  0
SEQEND
  0
POLYLINE
  8
LAYER_1
 40
0.1693
 41
0.1693
 66
1
 10
0
 20
0
 30
0
  0
VERTEX
  8
LAYER_1
 10
-8.6125
 20
96.5974
  0
VERTEX
  8
LAYER_1
 10
-8.0072
 20
95.9336
  0
SEQEND
  0
POLYLINE
  8
LAYER_1
 40
0.1693
 41
0.1693
 66
1
 10
0
 20
0
 30
0
  0
VERTEX
  8
LAYER_1
 10
-9.2177
 20
97.2807
  0
VERTEX
  8
LAYER_1
 10
-8.6125
 20
96.5974
  0
SEQEND
  0
POLYLINE
  8
LAYER_1
 40
0.1693
 41
0.1693
 66
1
 10
0
 20
0
 30
0
  0
VERTEX
  8
LAYER_1
 10
-9.7839
 20
97.9836
  0
VERTEX
  8
LAYER_1
 10
-9.2177
 20
97.2807
  0
SEQEND
  0
POLYLINE
  8
LAYER_1
 40
0.1693
 41
0.1693
 66
1
 10
0
 20
0
 30
0
  0
VERTEX
  8
LAYER_1
 10
-10.3696
 20
98.6864
  0
VERTEX
  8
LAYER_1
 10
-9.7839
 20
97.9836
  0
SEQEND
  0
POLYLINE
  8
LAYER_1
 40
0.1693
 41
0.1693
 66
1
 10
0
 20
0
 30
0
  0
VERTEX
  8
LAYER_1
 10
-10.682
 20
99.0965
  0
VERTEX
  8
LAYER_1
 10
-10.3696
 20
98.6864
  0
SEQEND
  0
POLYLINE
  8
LAYER_1
 40
0.1693
 41
0.1693
 66
1
 10
0
 20
0
 30
0
  0
VERTEX
  8
LAYER_1
 10
-11.5997
 20
100.1508
  0
VERTEX
  8
LAYER_1
 10
-10.682
 20
99.0965
  0
SEQEND
  0
POLYLINE
  8
LAYER_1
 40
0.1693
 41
0.1693
 66
1
 10
0
 20
0
 30
0
  0
VERTEX
  8
LAYER_1
 10
-12.4392
 20
101.3027
  0
VERTEX
  8
LAYER_1
 10
-11.5997
 20
100.1508
  0
SEQEND
  0
POLYLINE
  8
LAYER_1
 40
0.1693
 41
0.1693
 66
1
 10
0
 20
0
 30
0
  0
VERTEX
  8
LAYER_1
 10
-13.2397
 20
102.4936
  0
VERTEX
  8
LAYER_1
 10
-12.4392
 20
101.3027
  0
SEQEND
  0
POLYLINE
  8
LAYER_1
 40
0.1693
 41
0.1693
 66
1
 10
0
 20
0
 30
0
  0
VERTEX
  8
LAYER_1
 10
-14.7626
 20
105.3832
  0
VERTEX
  8
LAYER_1
 10
-13.2397
 20
102.4936
  0
SEQEND
  0
POLYLINE
  8
LAYER_1
 40
0.1693
 41
0.1693
 66
1
 10
0
 20
0
 30
0
  0
VERTEX
  8
LAYER_1
 10
-14.7626
 20
105.3832
  0
VERTEX
  8
LAYER_1
 10
-14.7821
 20
105.4223
  0
VERTEX
  8
LAYER_1
 10
-14.7821
 20
105.4418
  0
VERTEX
  8
LAYER_1
 10
-14.8017
 20
105.4808
  0
VERTEX
  8
LAYER_1
 10
-14.8212
 20
105.5199
  0
VERTEX
  8
LAYER_1
 10
-14.8407
 20
105.5394
  0
VERTEX
  8
LAYER_1
 10
-14.8602
 20
105.5785
  0
VERTEX
  8
LAYER_1
 10
-14.8797
 20
105.6175
  0
VERTEX
  8
LAYER_1
 10
-14.9188
 20
105.6566
  0
VERTEX
  8
LAYER_1
 10
-14.9383
 20
105.6956
  0
VERTEX
  8
LAYER_1
 10
-14.9578
 20
105.7151
  0
VERTEX
  8
LAYER_1
 10
-14.9774
 20
105.7542
  0
VERTEX
  8
LAYER_1
 10
-14.9969
 20
105.7932
  0
VERTEX
  8
LAYER_1
 10
-15.036
 20
105.8323
  0
VERTEX
  8
LAYER_1
 10
-15.0555
 20
105.8518
  0
VERTEX
  8
LAYER_1
 10
-15.0945
 20
105.8909
  0
VERTEX
  8
LAYER_1
 10
-15.114
 20
105.9299
  0
VERTEX
  8
LAYER_1
 10
-15.1336
 20
105.9689
  0
VERTEX
  8
LAYER_1
 10
-15.1726
 20
105.9885
  0
VERTEX
  8
LAYER_1
 10
-15.1921
 20
106.0275
  0
VERTEX
  8
LAYER_1
 10
-15.2312
 20
106.0666
  0
VERTEX
  8
LAYER_1
 10
-15.2507
 20
106.1056
  0
VERTEX
  8
LAYER_1
 10
-15.2898
 20
106.1252
  0
VERTEX
  8
LAYER_1
 10
-15.3288
 20
106.1642
  0
VERTEX
  8
LAYER_1
 10
-15.3483
 20
106.2032
  0
VERTEX
  8
LAYER_1
 10
-15.3874
 20
106.2228
  0
VERTEX
  8
LAYER_1
 10
-15.4264
 20
106.2618
  0
VERTEX
  8
LAYER_1
 10
-15.4459
 20
106.3009
  0
VERTEX
  8
LAYER_1
 10
-15.485
 20
106.3204
  0
VERTEX
  8
LAYER_1
 10
-15.5241
 20
106.3594
  0
VERTEX
  8
LAYER_1
 10
-15.5436
 20
106.3985
  0
VERTEX
  8
LAYER_1
 10
-15.5826
 20
106.418
  0
VERTEX
  8
LAYER_1
 10
-15.6217
 20
106.4571
  0
VERTEX
  8
LAYER_1
 10
-15.6607
 20
106.4766
  0
VERTEX
  8
LAYER_1
 10
-15.6998
 20
106.5156
  0
VERTEX
  8
LAYER_1
 10
-15.7193
 20
106.5351
  0
VERTEX
  8
LAYER_1
 10
-15.7583
 20
106.5742
  0
VERTEX
  8
LAYER_1
 10
-15.7974
 20
106.5937
  0
VERTEX
  8
LAYER_1
 10
-15.8364
 20
106.6133
  0
VERTEX
  8
LAYER_1
 10
-15.8755
 20
106.6523
  0
VERTEX
  8
LAYER_1
 10
-15.9145
 20
106.6718
  0
VERTEX
  8
LAYER_1
 10
-15.9536
 20
106.6914
  0
VERTEX
  8
LAYER_1
 10
-15.9731
 20
106.7304
  0
VERTEX
  8
LAYER_1
 10
-16.0122
 20
106.7499
  0
VERTEX
  8
LAYER_1
 10
-16.0512
 20
106.7694
  0
VERTEX
  8
LAYER_1
 10
-16.0903
 20
106.789
  0
VERTEX
  8
LAYER_1
 10
-16.1293
 20
106.828
  0
VERTEX
  8
LAYER_1
 10
-16.1683
 20
106.8475
  0
VERTEX
  8
LAYER_1
 10
-16.2074
 20
106.8671
  0
VERTEX
  8
LAYER_1
 10
-16.2464
 20
106.8866
  0
VERTEX
  8
LAYER_1
 10
-16.266
 20
106.9061
  0
VERTEX
  8
LAYER_1
 10
-16.305
 20
106.9256
  0
VERTEX
  8
LAYER_1
 10
-16.3441
 20
106.9452
  0
VERTEX
  8
LAYER_1
 10
-16.3831
 20
106.9647
  0
VERTEX
  8
LAYER_1
 10
-16.4222
 20
106.9647
  0
VERTEX
  8
LAYER_1
 10
-16.4612
 20
106.9842
  0
VERTEX
  8
LAYER_1
 10
-16.5003
 20
107.0037
  0
VERTEX
  8
LAYER_1
 10
-16.5198
 20
107.0232
  0
VERTEX
  8
LAYER_1
 10
-16.5588
 20
107.0232
  0
VERTEX
  8
LAYER_1
 10
-16.5979
 20
107.0428
  0
VERTEX
  8
LAYER_1
 10
-16.6369
 20
107.0623
  0
VERTEX
  8
LAYER_1
 10
-16.6565
 20
107.0623
  0
VERTEX
  8
LAYER_1
 10
-17.0079
 20
107.1795
  0
SEQEND
  0
POLYLINE
  8
LAYER_1
 40
0.1693
 41
0.1693
 66
1
 10
0
 20
0
 30
0
  0
VERTEX
  8
LAYER_1
 10
6.4016
 20
88.5143
  0
VERTEX
  8
LAYER_1
 10
6.8507
 20
88.4167
  0
VERTEX
  8
LAYER_1
 10
7.6316
 20
88.2605
  0
VERTEX
  8
LAYER_1
 10
8.4126
 20
88.1043
  0
VERTEX
  8
LAYER_1
 10
9.1936
 20
87.9481
  0
VERTEX
  8
LAYER_1
 10
9.9745
 20
87.8115
  0
VERTEX
  8
LAYER_1
 10
10.7555
 20
87.6748
  0
VERTEX
  8
LAYER_1
 10
11.2241
 20
87.5967
  0
VERTEX
  8
LAYER_1
 10
11.4584
 20
87.5576
  0
VERTEX
  8
LAYER_1
 10
11.8879
 20
87.4991
  0
VERTEX
  8
LAYER_1
 10
12.3174
 20
87.4405
  0
VERTEX
  8
LAYER_1
 10
12.747
 20
87.3819
  0
VERTEX
  8
LAYER_1
 10
13.1765
 20
87.3038
  0
VERTEX
  8
LAYER_1
 10
13.606
 20
87.2257
  0
VERTEX
  8
LAYER_1
 10
13.8403
 20
87.1671
  0
VERTEX
  8
LAYER_1
 10
13.9965
 20
87.1281
  0
VERTEX
  8
LAYER_1
 10
14.2503
 20
87.05
  0
VERTEX
  8
LAYER_1
 10
14.5042
 20
86.9914
  0
VERTEX
  8
LAYER_1
 10
14.7775
 20
86.9133
  0
VERTEX
  8
LAYER_1
 10
15.0313
 20
86.8157
  0
VERTEX
  8
LAYER_1
 10
15.2851
 20
86.7376
  0
VERTEX
  8
LAYER_1
 10
15.4413
 20
86.6986
  0
SEQEND
  0
POLYLINE
  8
LAYER_1
 40
0.1693
 41
0.1693
 66
1
 10
0
 20
0
 30
0
  0
VERTEX
  8
LAYER_1
 10
69.4257
 20
109.5614
  0
VERTEX
  8
LAYER_1
 10
69.1524
 20
109.5809
  0
SEQEND
  0
POLYLINE
  8
LAYER_1
 40
0.1693
 41
0.1693
 66
1
 10
0
 20
0
 30
0
  0
VERTEX
  8
LAYER_1
 10
69.6795
 20
109.5223
  0
VERTEX
  8
LAYER_1
 10
69.4257
 20
109.5614
  0
SEQEND
  0
POLYLINE
  8
LAYER_1
 40
0.1693
 41
0.1693
 66
1
 10
0
 20
0
 30
0
  0
VERTEX
  8
LAYER_1
 10
69.9138
 20
109.4442
  0
VERTEX
  8
LAYER_1
 10
69.6795
 20
109.5223
  0
SEQEND
  0
POLYLINE
  8
LAYER_1
 40
0.1693
 41
0.1693
 66
1
 10
0
 20
0
 30
0
  0
VERTEX
  8
LAYER_1
 10
70.109
 20
109.3466
  0
VERTEX
  8
LAYER_1
 10
69.9138
 20
109.4442
  0
SEQEND
  0
POLYLINE
  8
LAYER_1
 40
0.1693
 41
0.1693
 66
1
 10
0
 20
0
 30
0
  0
VERTEX
  8
LAYER_1
 10
70.3043
 20
109.2295
  0
VERTEX
  8
LAYER_1
 10
70.109
 20
109.3466
  0
SEQEND
  0
POLYLINE
  8
LAYER_1
 40
0.1693
 41
0.1693
 66
1
 10
0
 20
0
 30
0
  0
VERTEX
  8
LAYER_1
 10
70.4604
 20
109.0733
  0
VERTEX
  8
LAYER_1
 10
70.3043
 20
109.2295
  0
SEQEND
  0
POLYLINE
  8
LAYER_1
 40
0.1693
 41
0.1693
 66
1
 10
0
 20
0
 30
0
  0
VERTEX
  8
LAYER_1
 10
70.7338
 20
108.6113
  0
VERTEX
  8
LAYER_1
 10
70.4604
 20
109.0733
  0
SEQEND
  0
POLYLINE
  8
LAYER_1
 40
0.1693
 41
0.1693
 66
1
 10
0
 20
0
 30
0
  0
VERTEX
  8
LAYER_1
 10
70.7338
 20
108.6113
  0
SEQEND
  0
POLYLINE
  8
LAYER_1
 40
0.1693
 41
0.1693
 66
1
 10
0
 20
0
 30
0
  0
VERTEX
  8
LAYER_1
 10
70.7338
 20
108.6113
  0
SEQEND
  0
POLYLINE
  8
LAYER_1
 40
0.1693
 41
0.1693
 66
1
 10
0
 20
0
 30
0
  0
VERTEX
  8
LAYER_1
 10
70.9486
 20
107.8628
  0
VERTEX
  8
LAYER_1
 10
70.7338
 20
108.6113
  0
SEQEND
  0
POLYLINE
  8
LAYER_1
 40
0.1693
 41
0.1693
 66
1
 10
0
 20
0
 30
0
  0
VERTEX
  8
LAYER_1
 10
70.9876
 20
107.5309
  0
VERTEX
  8
LAYER_1
 10
70.9486
 20
107.8628
  0
SEQEND
  0
POLYLINE
  8
LAYER_1
 40
0.1693
 41
0.1693
 66
1
 10
0
 20
0
 30
0
  0
VERTEX
  8
LAYER_1
 10
71.0072
 20
107.1795
  0
VERTEX
  8
LAYER_1
 10
70.9876
 20
107.5309
  0
SEQEND
  0
POLYLINE
  8
LAYER_1
 40
0.1693
 41
0.1693
 66
1
 10
0
 20
0
 30
0
  0
VERTEX
  8
LAYER_1
 10
54.8216
 20
95.9335
  0
VERTEX
  8
LAYER_1
 10
54.1773
 20
95.2893
  0
VERTEX
  8
LAYER_1
 10
53.8064
 20
94.9378
  0
VERTEX
  8
LAYER_1
 10
53.2987
 20
94.5083
  0
VERTEX
  8
LAYER_1
 10
52.3811
 20
93.7859
  0
VERTEX
  8
LAYER_1
 10
51.4439
 20
93.1221
  0
VERTEX
  8
LAYER_1
 10
50.4677
 20
92.4973
  0
VERTEX
  8
LAYER_1
 10
49.4525
 20
91.9311
  0
VERTEX
  8
LAYER_1
 10
48.4177
 20
91.3844
  0
VERTEX
  8
LAYER_1
 10
47.8125
 20
91.072
  0
VERTEX
  8
LAYER_1
 10
47.3439
 20
90.8573
  0
VERTEX
  8
LAYER_1
 10
46.5434
 20
90.4668
  0
VERTEX
  8
LAYER_1
 10
45.7234
 20
90.1153
  0
VERTEX
  8
LAYER_1
 10
44.8838
 20
89.7834
  0
VERTEX
  8
LAYER_1
 10
44.0638
 20
89.471
  0
VERTEX
  8
LAYER_1
 10
43.2047
 20
89.1977
  0
VERTEX
  8
LAYER_1
 10
42.7166
 20
89.0415
  0
VERTEX
  8
LAYER_1
 10
42.209
 20
88.9048
  0
VERTEX
  8
LAYER_1
 10
41.3109
 20
88.6901
  0
VERTEX
  8
LAYER_1
 10
40.3932
 20
88.5144
  0
SEQEND
  0
POLYLINE
  8
LAYER_1
 40
0.1693
 41
0.1693
 66
1
 10
0
 20
0
 30
0
  0
VERTEX
  8
LAYER_1
 10
55.4269
 20
96.5974
  0
VERTEX
  8
LAYER_1
 10
54.8216
 20
95.9335
  0
SEQEND
  0
POLYLINE
  8
LAYER_1
 40
0.1693
 41
0.1693
 66
1
 10
0
 20
0
 30
0
  0
VERTEX
  8
LAYER_1
 10
56.0126
 20
97.2807
  0
VERTEX
  8
LAYER_1
 10
55.4269
 20
96.5974
  0
SEQEND
  0
POLYLINE
  8
LAYER_1
 40
0.1693
 41
0.1693
 66
1
 10
0
 20
0
 30
0
  0
VERTEX
  8
LAYER_1
 10
56.5984
 20
97.9836
  0
VERTEX
  8
LAYER_1
 10
56.0126
 20
97.2807
  0
SEQEND
  0
POLYLINE
  8
LAYER_1
 40
0.1693
 41
0.1693
 66
1
 10
0
 20
0
 30
0
  0
VERTEX
  8
LAYER_1
 10
57.1646
 20
98.6864
  0
VERTEX
  8
LAYER_1
 10
56.5984
 20
97.9836
  0
SEQEND
  0
POLYLINE
  8
LAYER_1
 40
0.1693
 41
0.1693
 66
1
 10
0
 20
0
 30
0
  0
VERTEX
  8
LAYER_1
 10
57.4965
 20
99.0964
  0
VERTEX
  8
LAYER_1
 10
57.1646
 20
98.6864
  0
SEQEND
  0
POLYLINE
  8
LAYER_1
 40
0.1693
 41
0.1693
 66
1
 10
0
 20
0
 30
0
  0
VERTEX
  8
LAYER_1
 10
58.3946
 20
100.1507
  0
VERTEX
  8
LAYER_1
 10
57.4965
 20
99.0964
  0
SEQEND
  0
POLYLINE
  8
LAYER_1
 40
0.1693
 41
0.1693
 66
1
 10
0
 20
0
 30
0
  0
VERTEX
  8
LAYER_1
 10
59.2537
 20
101.3027
  0
VERTEX
  8
LAYER_1
 10
58.3946
 20
100.1507
  0
SEQEND
  0
POLYLINE
  8
LAYER_1
 40
0.1693
 41
0.1693
 66
1
 10
0
 20
0
 30
0
  0
VERTEX
  8
LAYER_1
 10
60.0346
 20
102.4936
  0
VERTEX
  8
LAYER_1
 10
59.2537
 20
101.3027
  0
SEQEND
  0
POLYLINE
  8
LAYER_1
 40
0.1693
 41
0.1693
 66
1
 10
0
 20
0
 30
0
  0
VERTEX
  8
LAYER_1
 10
61.5575
 20
105.3832
  0
VERTEX
  8
LAYER_1
 10
60.0346
 20
102.4936
  0
SEQEND
  0
POLYLINE
  8
LAYER_1
 40
0.1693
 41
0.1693
 66
1
 10
0
 20
0
 30
0
  0
VERTEX
  8
LAYER_1
 10
63.4514
 20
107.0623
  0
VERTEX
  8
LAYER_1
 10
63.4123
 20
107.0428
  0
VERTEX
  8
LAYER_1
 10
63.3928
 20
107.0428
  0
VERTEX
  8
LAYER_1
 10
63.3537
 20
107.0232
  0
VERTEX
  8
LAYER_1
 10
63.3147
 20
107.0037
  0
VERTEX
  8
LAYER_1
 10
63.2756
 20
107.0037
  0
VERTEX
  8
LAYER_1
 10
63.2366
 20
106.9842
  0
VERTEX
  8
LAYER_1
 10
63.2171
 20
106.9647
  0
VERTEX
  8
LAYER_1
 10
63.178
 20
106.9451
  0
VERTEX
  8
LAYER_1
 10
63.139
 20
106.9256
  0
VERTEX
  8
LAYER_1
 10
63.0999
 20
106.9061
  0
VERTEX
  8
LAYER_1
 10
63.0609
 20
106.8866
  0
VERTEX
  8
LAYER_1
 10
63.0219
 20
106.867
  0
VERTEX
  8
LAYER_1
 10
62.9828
 20
106.8475
  0
VERTEX
  8
LAYER_1
 10
62.9633
 20
106.828
  0
VERTEX
  8
LAYER_1
 10
62.9242
 20
106.8085
  0
VERTEX
  8
LAYER_1
 10
62.8852
 20
106.7889
  0
VERTEX
  8
LAYER_1
 10
62.8461
 20
106.7694
  0
VERTEX
  8
LAYER_1
 10
62.8071
 20
106.7304
  0
VERTEX
  8
LAYER_1
 10
62.768
 20
106.7108
  0
VERTEX
  8
LAYER_1
 10
62.729
 20
106.6913
  0
VERTEX
  8
LAYER_1
 10
62.6899
 20
106.6718
  0
VERTEX
  8
LAYER_1
 10
62.6704
 20
106.6327
  0
VERTEX
  8
LAYER_1
 10
62.6313
 20
106.6132
  0
VERTEX
  8
LAYER_1
 10
62.5923
 20
106.5742
  0
VERTEX
  8
LAYER_1
 10
62.5533
 20
106.5546
  0
VERTEX
  8
LAYER_1
 10
62.5142
 20
106.5351
  0
VERTEX
  8
LAYER_1
 10
62.4752
 20
106.4961
  0
VERTEX
  8
LAYER_1
 10
62.4361
 20
106.4766
  0
VERTEX
  8
LAYER_1
 10
62.4166
 20
106.4375
  0
VERTEX
  8
LAYER_1
 10
62.3775
 20
106.3985
  0
VERTEX
  8
LAYER_1
 10
62.3385
 20
106.3789
  0
SEQEND
  0
POLYLINE
  8
LAYER_1
 40
0.1693
 41
0.1693
 66
1
 10
0
 20
0
 30
0
  0
VERTEX
  8
LAYER_1
 10
62.3384
 20
106.379
  0
VERTEX
  8
LAYER_1
 10
62.2993
 20
106.3399
  0
VERTEX
  8
LAYER_1
 10
62.2798
 20
106.3204
  0
VERTEX
  8
LAYER_1
 10
62.2407
 20
106.2813
  0
VERTEX
  8
LAYER_1
 10
62.2017
 20
106.2423
  0
VERTEX
  8
LAYER_1
 10
62.1822
 20
106.2228
  0
VERTEX
  8
LAYER_1
 10
62.1431
 20
106.1837
  0
VERTEX
  8
LAYER_1
 10
62.1041
 20
106.1447
  0
VERTEX
  8
LAYER_1
 10
62.0845
 20
106.1251
  0
VERTEX
  8
LAYER_1
 10
62.0455
 20
106.0861
  0
VERTEX
  8
LAYER_1
 10
62.026
 20
106.047
  0
VERTEX
  8
LAYER_1
 10
61.9869
 20
106.008
  0
VERTEX
  8
LAYER_1
 10
61.9674
 20
105.9885
  0
VERTEX
  8
LAYER_1
 10
61.9283
 20
105.9494
  0
VERTEX
  8
LAYER_1
 10
61.9088
 20
105.9104
  0
VERTEX
  8
LAYER_1
 10
61.8698
 20
105.8713
  0
VERTEX
  8
LAYER_1
 10
61.8503
 20
105.8518
  0
VERTEX
  8
LAYER_1
 10
61.8307
 20
105.8128
  0
VERTEX
  8
LAYER_1
 10
61.7917
 20
105.7737
  0
VERTEX
  8
LAYER_1
 10
61.7722
 20
105.7347
  0
VERTEX
  8
LAYER_1
 10
61.7526
 20
105.7151
  0
VERTEX
  8
LAYER_1
 10
61.7331
 20
105.6761
  0
VERTEX
  8
LAYER_1
 10
61.7136
 20
105.637
  0
VERTEX
  8
LAYER_1
 10
61.6941
 20
105.598
  0
VERTEX
  8
LAYER_1
 10
61.655
 20
105.5785
  0
VERTEX
  8
LAYER_1
 10
61.6355
 20
105.5394
  0
VERTEX
  8
LAYER_1
 10
61.616
 20
105.5004
  0
VERTEX
  8
LAYER_1
 10
61.5964
 20
105.4613
  0
VERTEX
  8
LAYER_1
 10
61.5964
 20
105.4418
  0
VERTEX
  8
LAYER_1
 10
61.5769
 20
105.4027
  0
VERTEX
  8
LAYER_1
 10
61.5574
 20
105.3832
  0
SEQEND
  0
POLYLINE
  8
LAYER_1
 40
0.1693
 41
0.1693
 66
1
 10
0
 20
0
 30
0
  0
VERTEX
  8
LAYER_1
 10
63.4512
 20
107.0623
  0
VERTEX
  8
LAYER_1
 10
63.8027
 20
107.1794
  0
SEQEND
  0
POLYLINE
  8
LAYER_1
 40
0.1693
 41
0.1693
 66
1
 10
0
 20
0
 30
0
  0
VERTEX
  8
LAYER_1
 10
40.3932
 20
88.5143
  0
VERTEX
  8
LAYER_1
 10
39.9441
 20
88.4167
  0
VERTEX
  8
LAYER_1
 10
39.1632
 20
88.2605
  0
VERTEX
  8
LAYER_1
 10
38.3822
 20
88.1043
  0
VERTEX
  8
LAYER_1
 10
37.6012
 20
87.9481
  0
VERTEX
  8
LAYER_1
 10
36.8203
 20
87.8115
  0
VERTEX
  8
LAYER_1
 10
36.0393
 20
87.6748
  0
VERTEX
  8
LAYER_1
 10
35.5902
 20
87.5967
  0
VERTEX
  8
LAYER_1
 10
35.3364
 20
87.5576
  0
VERTEX
  8
LAYER_1
 10
34.9069
 20
87.4991
  0
VERTEX
  8
LAYER_1
 10
34.4774
 20
87.4405
  0
VERTEX
  8
LAYER_1
 10
34.0478
 20
87.3819
  0
VERTEX
  8
LAYER_1
 10
33.6378
 20
87.3038
  0
VERTEX
  8
LAYER_1
 10
33.2083
 20
87.2257
  0
VERTEX
  8
LAYER_1
 10
32.9545
 20
87.1671
  0
VERTEX
  8
LAYER_1
 10
32.8178
 20
87.1281
  0
VERTEX
  8
LAYER_1
 10
32.5445
 20
87.05
  0
VERTEX
  8
LAYER_1
 10
32.2906
 20
86.9914
  0
VERTEX
  8
LAYER_1
 10
32.0368
 20
86.9133
  0
VERTEX
  8
LAYER_1
 10
31.783
 20
86.8157
  0
VERTEX
  8
LAYER_1
 10
31.5292
 20
86.7376
  0
VERTEX
  8
LAYER_1
 10
31.373
 20
86.6986
  0
SEQEND
  0
POLYLINE
  8
LAYER_1
 40
0.1693
 41
0.1693
 66
1
 10
0
 20
0
 30
0
  0
VERTEX
  8
LAYER_1
 10
-22.3575
 20
109.5809
  0
VERTEX
  8
LAYER_1
 10
69.1523
 20
109.5809
  0
SEQEND
  0
POLYLINE
  8
LAYER_1
 40
0.1693
 41
0.1693
 66
1
 10
0
 20
0
 30
0
  0
VERTEX
  8
LAYER_1
 10
-24.1928
 20
107.1794
  0
VERTEX
  8
LAYER_1
 10
71.0071
 20
107.1794
  0
SEQEND
  0
POLYLINE
  8
LAYER_1
 40
0.1693
 41
0.1693
 66
1
 10
0
 20
0
 30
0
  0
VERTEX
  8
LAYER_1
 10
-24.0171
 20
108.429
  0
VERTEX
  8
LAYER_1
 10
-24.0952
 20
108.1556
  0
SEQEND
  0
POLYLINE
  8
LAYER_1
 40
0.1693
 41
0.1693
 66
1
 10
0
 20
0
 30
0
  0
VERTEX
  8
LAYER_1
 10
16.027
 20
84.6681
  0
VERTEX
  8
LAYER_1
 10
16.027
 20
86.5033
  0
SEQEND
  0
POLYLINE
  8
LAYER_1
 40
0.1693
 41
0.1693
 66
1
 10
0
 20
0
 30
0
  0
VERTEX
  8
LAYER_1
 10
30.7873
 20
84.6681
  0
VERTEX
  8
LAYER_1
 10
30.7873
 20
86.5033
  0
SEQEND
  0
POLYLINE
  8
LAYER_1
 40
0.1693
 41
0.1693
 66
1
 10
0
 20
0
 30
0
  0
VERTEX
  8
LAYER_1
 10
16.027
 20
84.6681
  0
VERTEX
  8
LAYER_1
 10
30.7873
 20
84.6681
  0
SEQEND
  0
POLYLINE
  8
LAYER_1
 40
0.1693
 41
0.1693
 66
1
 10
0
 20
0
 30
0
  0
VERTEX
  8
LAYER_1
 10
19.2485
 20
84.6681
  0
VERTEX
  8
LAYER_1
 10
18.7994
 20
85.1171
  0
SEQEND
  0
POLYLINE
  8
LAYER_1
 40
0.1693
 41
0.1693
 66
1
 10
0
 20
0
 30
0
  0
VERTEX
  8
LAYER_1
 10
17.8818
 20
86.0543
  0
VERTEX
  8
LAYER_1
 10
17.4132
 20
86.5229
  0
SEQEND
  0
POLYLINE
  8
LAYER_1
 40
0.1693
 41
0.1693
 66
1
 10
0
 20
0
 30
0
  0
VERTEX
  8
LAYER_1
 10
27.5463
 20
84.6681
  0
VERTEX
  8
LAYER_1
 10
27.9953
 20
85.1171
  0
SEQEND
  0
POLYLINE
  8
LAYER_1
 40
0.1693
 41
0.1693
 66
1
 10
0
 20
0
 30
0
  0
VERTEX
  8
LAYER_1
 10
28.9325
 20
86.0543
  0
VERTEX
  8
LAYER_1
 10
29.4011
 20
86.5229
  0
SEQEND
  0
POLYLINE
  8
LAYER_1
 40
0.1693
 41
0.1693
 66
1
 10
0
 20
0
 30
0
  0
VERTEX
  8
LAYER_1
 10
23.4071
 20
75.2769
  0
VERTEX
  8
LAYER_1
 10
23.4071
 20
77.4832
  0
SEQEND
  0
POLYLINE
  8
LAYER_1
 40
0.1693
 41
0.1693
 66
1
 10
0
 20
0
 30
0
  0
VERTEX
  8
LAYER_1
 10
23.4071
 20
78.3618
  0
VERTEX
  8
LAYER_1
 10
23.4071
 20
79.2403
  0
SEQEND
  0
POLYLINE
  8
LAYER_1
 40
0.1693
 41
0.1693
 66
1
 10
0
 20
0
 30
0
  0
VERTEX
  8
LAYER_1
 10
23.4071
 20
80.1385
  0
VERTEX
  8
LAYER_1
 10
23.4071
 20
84.5509
  0
SEQEND
  0
POLYLINE
  8
LAYER_1
 40
0.1693
 41
0.1693
 66
1
 10
0
 20
0
 30
0
  0
VERTEX
  8
LAYER_1
 10
23.4071
 20
85.449
  0
VERTEX
  8
LAYER_1
 10
23.4071
 20
86.3276
  0
SEQEND
  0
POLYLINE
  8
LAYER_1
 40
0.1693
 41
0.1693
 66
1
 10
0
 20
0
 30
0
  0
VERTEX
  8
LAYER_1
 10
23.4071
 20
87.2062
  0
VERTEX
  8
LAYER_1
 10
23.4071
 20
91.6382
  0
SEQEND
  0
POLYLINE
  8
LAYER_1
 40
0.1693
 41
0.1693
 66
1
 10
0
 20
0
 30
0
  0
VERTEX
  8
LAYER_1
 10
23.4071
 20
92.5168
  0
VERTEX
  8
LAYER_1
 10
23.4071
 20
93.3954
  0
SEQEND
  0
POLYLINE
  8
LAYER_1
 40
0.1693
 41
0.1693
 66
1
 10
0
 20
0
 30
0
  0
VERTEX
  8
LAYER_1
 10
23.4071
 20
94.2935
  0
VERTEX
  8
LAYER_1
 10
23.4071
 20
98.706
  0
SEQEND
  0
POLYLINE
  8
LAYER_1
 40
0.1693
 41
0.1693
 66
1
 10
0
 20
0
 30
0
  0
VERTEX
  8
LAYER_1
 10
23.4071
 20
99.6041
  0
VERTEX
  8
LAYER_1
 10
23.4071
 20
100.4827
  0
SEQEND
  0
POLYLINE
  8
LAYER_1
 40
0.1693
 41
0.1693
 66
1
 10
0
 20
0
 30
0
  0
VERTEX
  8
LAYER_1
 10
23.4071
 20
101.3613
  0
VERTEX
  8
LAYER_1
 10
23.4071
 20
105.7933
  0
SEQEND
  0
POLYLINE
  8
LAYER_1
 40
0.1693
 41
0.1693
 66
1
 10
0
 20
0
 30
0
  0
VERTEX
  8
LAYER_1
 10
23.4071
 20
106.6719
  0
VERTEX
  8
LAYER_1
 10
23.4071
 20
107.5505
  0
SEQEND
  0
POLYLINE
  8
LAYER_1
 40
0.1693
 41
0.1693
 66
1
 10
0
 20
0
 30
0
  0
VERTEX
  8
LAYER_1
 10
23.4071
 20
108.4486
  0
VERTEX
  8
LAYER_1
 10
23.4071
 20
112.861
  0
SEQEND
  0
POLYLINE
  8
LAYER_1
 40
0.1693
 41
0.1693
 66
1
 10
0
 20
0
 30
0
  0
VERTEX
  8
LAYER_1
 10
23.4071
 20
113.7592
  0
VERTEX
  8
LAYER_1
 10
23.4071
 20
114.6378
  0
SEQEND
  0
POLYLINE
  8
LAYER_1
 40
0.1693
 41
0.1693
 66
1
 10
0
 20
0
 30
0
  0
VERTEX
  8
LAYER_1
 10
23.4071
 20
115.5163
  0
VERTEX
  8
LAYER_1
 10
23.4071
 20
117.7421
  0
SEQEND
  0
ENDBLK
  0
ENDSEC
  0
SECTION
  2
ENTITIES
  0
TEXT
  8
LAYER_1
 10
-26.2556
 20
43.1712
 11
-26.2556
 21
43.1712
 40
3.2991
 41
0.5
  1
仕様
  0
POLYLINE
  8
LAYER_1
 40
0.3528
 41
0.3528
 66
1
 10
0
 20
0
 30
0
  0
VERTEX
  8
LAYER_1
 10
250.6748
 20
51.9507
  0
VERTEX
  8
LAYER_1
 10
-29.3346
 20
51.9507
  0
SEQEND
  0
INSERT
  8
LAYER_1
  2
AIGNBL01010002
 10
0
 20
0
 30
0
  0
POLYLINE
  8
LAYER_1
 40
0.3528
 41
0.3528
 66
1
 10
0
 20
0
 30
0
  0
VERTEX
  8
LAYER_1
 10
-29.3178
 20
229.3369
  0
VERTEX
  8
LAYER_1
 10
-29.3178
 20
34.3283
  0
VERTEX
  8
LAYER_1
 10
250.6748
 20
34.3283
  0
VERTEX
  8
LAYER_1
 10
250.6748
 20
229.3369
  0
VERTEX
  8
LAYER_1
 10
-29.3178
 20
229.3369
  0
SEQEND
  0
POLYLINE
  8
LAYER_1
 40
0.3528
 41
0.3528
 66
1
 10
0
 20
0
 30
0
  0
VERTEX
  8
LAYER_1
 10
250.6748
 20
60.4597
  0
VERTEX
  8
LAYER_1
 10
-29.3346
 20
60.4597
  0
SEQEND
  0
POLYLINE
  8
LAYER_1
 40
0.3528
 41
0.3528
 66
1
 10
0
 20
0
 30
0
  0
VERTEX
  8
LAYER_1
 10
250.6748
 20
43.4416
  0
VERTEX
  8
LAYER_1
 10
100.3837
 20
43.4416
  0
SEQEND
  0
TEXT
  8
LAYER_1
 10
188.1725
 20
45.7175
 11
188.1725
 21
45.7175
 40
3.7609
 41
0.5
  1
-
  0
TEXT
  8
LAYER_1
 10
182.8808
 20
49.4743
 11
182.8808
 21
49.4743
 40
2.1994
 41
0.5
  1
縮尺
  0
POLYLINE
  8
LAYER_1
 40
0.3528
 41
0.3528
 66
1
 10
0
 20
0
 30
0
  0
VERTEX
  8
LAYER_1
 10
181.3526
 20
43.4416
  0
VERTEX
  8
LAYER_1
 10
181.3526
 20
51.9507
  0
SEQEND
  0
TEXT
  8
LAYER_1
 10
101.641
 20
57.9834
 11
101.641
 21
57.9834
 40
2.1994
 41
0.5
  1
品番
  0
TEXT
  8
LAYER_1
 10
-28.1609
 20
57.9834
 11
-28.1609
 21
57.9834
 40
2.1994
 41
0.5
  1
品名
  0
TEXT
  8
LAYER_1
 10
101.641
 20
49.4743
 11
101.641
 21
49.4743
 40
2.1994
 41
0.5
  1
重量
  0
TEXT
  8
LAYER_1
 10
105.0013
 20
54.1714
 11
105.0013
 21
54.1714
 40
4.6883
 41
0.5
  1
SC-WB0XX
  0
TEXT
  8
LAYER_1
 10
107.1887
 20
45.7175
 11
107.1887
 21
45.7175
 40
3.7609
 41
0.5
  1
9.6kg
  0
POLYLINE
  8
LAYER_1
 40
0.3528
 41
0.3528
 66
1
 10
0
 20
0
 30
0
  0
VERTEX
  8
LAYER_1
 10
100.3837
 20
34.9539
  0
VERTEX
  8
LAYER_1
 10
100.3837
 20
60.4597
  0
SEQEND
  0
TEXT
  8
LAYER_1
 10
-15.2256
 20
54.786
 11
-15.2256
 21
54.786
 40
4.1459
 41
0.5
  1
Majestic668 クリスタルガラス手洗器
  0
TEXT
  8
LAYER_1
 10
-15.6835
 20
43.9625
 11
-15.6835
 21
43.9625
 40
3.5536
 41
0.5
  1
●サイズ  W668(%%p}5)×D476(%%p}5)×H135(%%p}10)mm●水栓取付穴：なし
  0
TEXT
  8
LAYER_1
 10
-15.6835
 20
39.2124
 11
-15.6835
 21
39.2124
 40
3.1172
 41
0.5
  1
●オーバーフローなし●排水金具別途●設置方法：カウンター置き／オーバーカウンター
  0
TEXT
  8
LAYER_1
 10
237.263
 20
63.2582
 11
237.263
 21
63.2582
 40
2.9614
 41
0.5
  1
単位：mm
  0
TEXT
  8
LAYER_1
 10
-21.3096
 20
205.1359
 11
-21.3096
 21
205.1359
 40
2.5977
 41
0.5
  1
※本製品は吹きガラスによる一品生産品ですので、
  0
TEXT
  8
LAYER_1
 10
-21.327
 20
200.3859
 11
-21.327
 21
200.3859
 40
2.9614
 41
0.5
  1
サイズ、彫刻(エングレビング)は同じ品番であっても
  0
TEXT
  8
LAYER_1
 10
-21.3096
 20
195.6359
 11
-21.3096
 21
195.6359
 40
2.5977
 41
0.5
  1
多少の違いが生じます。また、製品の特性上、小さな気泡が
  0
TEXT
  8
LAYER_1
 10
-21.3096
 20
190.8859
 11
-21.3096
 21
190.8859
 40
2.9614
 41
0.5
  1
入る場合もございます。予めご了承ください。 
  0
TEXT
  8
LAYER_1
 10
-21.3096
 20
186.1358
 11
-21.3096
 21
186.1358
 40
2.9614
 41
0.5
  1
※混合栓のご使用は可能ですが、45℃までの温度設定で
  0
TEXT
  8
LAYER_1
 10
-21.4497
 20
181.3859
 11
-21.4497
 21
181.3859
 40
2.5977
 41
0.5
  1
ご使用ください。熱湯の吐水はしないでください。
  0
TEXT
  8
LAYER_1
 10
134.702
 20
39.5359
 11
134.702
 21
39.5359
 40
3.3848
 41
0.5
  1
●TEL 0120-65-1232●FAX 06-6532-1580
  0
TEXT
  8
LAYER_1
 10
134.702
 20
36.0212
 11
134.702
 21
36.0212
 40
3.3848
 41
0.5
  1
hits@hiratatile.co.jp
  0
TEXT
  8
LAYER_1
 10
240.3591
 20
225.8432
 11
240.3591
 21
225.8432
 40
2.073
 41
0.5
  1
230907RT
  0
INSERT
  8
LAYER_1
  2
AIGNBL01010003
 10
0
 20
0
 30
0
  0
POLYLINE
  8
LAYER_1
 40
0.1693
 41
0.1693
 66
1
 10
0
 20
0
 30
0
  0
VERTEX
  8
LAYER_1
 10
154.9522
 20
85.4201
  0
VERTEX
  8
LAYER_1
 10
154.6135
 20
85.3354
  0
SEQEND
  0
POLYLINE
  8
LAYER_1
 40
0.0847
 41
0.0847
 66
1
 10
0
 20
0
 30
0
  0
VERTEX
  8
LAYER_1
 10
205.5828
 20
177.7568
  0
VERTEX
  8
LAYER_1
 10
205.5828
 20
178.2648
  0
VERTEX
  8
LAYER_1
 10
205.5616
 20
178.7517
  0
VERTEX
  8
LAYER_1
 10
205.5405
 20
179.2597
  0
VERTEX
  8
LAYER_1
 10
205.4981
 20
179.7465
  0
VERTEX
  8
LAYER_1
 10
205.477
 20
180.2545
  0
VERTEX
  8
LAYER_1
 10
205.4135
 20
180.7413
  0
VERTEX
  8
LAYER_1
 10
205.35
 20
181.2493
  0
VERTEX
  8
LAYER_1
 10
205.2865
 20
181.7362
  0
VERTEX
  8
LAYER_1
 10
205.2018
 20
182.2442
  0
VERTEX
  8
LAYER_1
 10
205.1171
 20
182.731
  0
VERTEX
  8
LAYER_1
 10
205.0325
 20
183.2178
  0
VERTEX
  8
LAYER_1
 10
204.9267
 20
183.7047
  0
VERTEX
  8
LAYER_1
 10
204.7997
 20
184.2127
  0
VERTEX
  8
LAYER_1
 10
204.6726
 20
184.6995
  0
VERTEX
  8
LAYER_1
 10
204.5456
 20
185.1863
  0
VERTEX
  8
LAYER_1
 10
204.3975
 20
185.6732
  0
VERTEX
  8
LAYER_1
 10
204.2493
 20
186.16
  0
VERTEX
  8
LAYER_1
 10
204.1011
 20
186.6468
  0
VERTEX
  8
LAYER_1
 10
203.9318
 20
187.1337
  0
VERTEX
  8
LAYER_1
 10
203.7413
 20
187.6205
  0
VERTEX
  8
LAYER_1
 10
203.5508
 20
188.0862
  0
VERTEX
  8
LAYER_1
 10
203.3603
 20
188.573
  0
VERTEX
  8
LAYER_1
 10
203.1698
 20
189.0598
  0
VERTEX
  8
LAYER_1
 10
202.937
 20
189.5255
  0
VERTEX
  8
LAYER_1
 10
202.7253
 20
190.0123
  0
VERTEX
  8
LAYER_1
 10
202.4925
 20
190.478
  0
VERTEX
  8
LAYER_1
 10
202.2597
 20
190.9437
  0
VERTEX
  8
LAYER_1
 10
202.0056
 20
191.4093
  0
VERTEX
  8
LAYER_1
 10
201.7517
 20
191.875
  0
VERTEX
  8
LAYER_1
 10
201.4765
 20
192.3407
  0
VERTEX
  8
LAYER_1
 10
201.2013
 20
192.8063
  0
VERTEX
  8
LAYER_1
 10
200.9261
 20
193.272
  0
VERTEX
  8
LAYER_1
 10
200.6298
 20
193.7165
  0
VERTEX
  8
LAYER_1
 10
200.3335
 20
194.1822
  0
VERTEX
  8
LAYER_1
 10
200.016
 20
194.6267
  0
VERTEX
  8
LAYER_1
 10
199.6985
 20
195.0712
  0
VERTEX
  8
LAYER_1
 10
199.381
 20
195.5157
  0
VERTEX
  8
LAYER_1
 10
199.0423
 20
195.9602
  0
VERTEX
  8
LAYER_1
 10
198.7036
 20
196.4047
  0
VERTEX
  8
LAYER_1
 10
198.365
 20
196.8492
  0
VERTEX
  8
LAYER_1
 10
198.0052
 20
197.2725
  0
VERTEX
  8
LAYER_1
 10
197.6453
 20
197.717
  0
VERTEX
  8
LAYER_1
 10
197.2643
 20
198.1403
  0
VERTEX
  8
LAYER_1
 10
196.8833
 20
198.5637
  0
VERTEX
  8
LAYER_1
 10
196.4811
 20
198.987
  0
VERTEX
  8
LAYER_1
 10
196.1001
 20
199.4103
  0
VERTEX
  8
LAYER_1
 10
195.698
 20
199.8337
  0
VERTEX
  8
LAYER_1
 10
195.2747
 20
200.2358
  0
VERTEX
  8
LAYER_1
 10
194.8513
 20
200.638
  0
VERTEX
  8
LAYER_1
 10
194.428
 20
201.0613
  0
VERTEX
  8
LAYER_1
 10
193.9835
 20
201.4635
  0
VERTEX
  8
LAYER_1
 10
193.5601
 20
201.8445
  0
VERTEX
  8
LAYER_1
 10
193.0945
 20
202.2467
  0
VERTEX
  8
LAYER_1
 10
192.65
 20
202.6277
  0
VERTEX
  8
LAYER_1
 10
192.1843
 20
203.0298
  0
VERTEX
  8
LAYER_1
 10
191.6975
 20
203.4108
  0
VERTEX
  8
LAYER_1
 10
191.2318
 20
203.7918
  0
VERTEX
  8
LAYER_1
 10
190.745
 20
204.1517
  0
VERTEX
  8
LAYER_1
 10
190.2581
 20
204.5327
  0
VERTEX
  8
LAYER_1
 10
189.7501
 20
204.8925
  0
VERTEX
  8
LAYER_1
 10
189.2421
 20
205.2523
  0
VERTEX
  8
LAYER_1
 10
188.7341
 20
205.6122
  0
VERTEX
  8
LAYER_1
 10
188.205
 20
205.972
  0
VERTEX
  8
LAYER_1
 10
187.697
 20
206.3107
  0
VERTEX
  8
LAYER_1
 10
187.1466
 20
206.6705
  0
VERTEX
  8
LAYER_1
 10
186.6175
 20
207.0092
  0
VERTEX
  8
LAYER_1
 10
186.0671
 20
207.3267
  0
VERTEX
  8
LAYER_1
 10
185.5168
 20
207.6653
  0
VERTEX
  8
LAYER_1
 10
184.9665
 20
208.004
  0
VERTEX
  8
LAYER_1
 10
184.395
 20
208.3215
  0
VERTEX
  8
LAYER_1
 10
183.8235
 20
208.639
  0
VERTEX
  8
LAYER_1
 10
183.252
 20
208.9353
  0
VERTEX
  8
LAYER_1
 10
182.6805
 20
209.2528
  0
VERTEX
  8
LAYER_1
 10
182.0878
 20
209.5492
  0
VERTEX
  8
LAYER_1
 10
181.4951
 20
209.8455
  0
VERTEX
  8
LAYER_1
 10
180.9025
 20
210.1418
  0
VERTEX
  8
LAYER_1
 10
180.2886
 20
210.417
  0
VERTEX
  8
LAYER_1
 10
179.696
 20
210.7133
  0
VERTEX
  8
LAYER_1
 10
179.0821
 20
210.9885
  0
VERTEX
  8
LAYER_1
 10
178.4683
 20
211.2637
  0
VERTEX
  8
LAYER_1
 10
177.8333
 20
211.5177
  0
VERTEX
  8
LAYER_1
 10
177.1983
 20
211.7928
  0
VERTEX
  8
LAYER_1
 10
176.5845
 20
212.0468
  0
VERTEX
  8
LAYER_1
 10
175.9283
 20
212.2797
  0
VERTEX
  8
LAYER_1
 10
175.2933
 20
212.5337
  0
VERTEX
  8
LAYER_1
 10
174.6583
 20
212.7665
  0
VERTEX
  8
LAYER_1
 10
174.0021
 20
212.9993
  0
VERTEX
  8
LAYER_1
 10
173.346
 20
213.2322
  0
VERTEX
  8
LAYER_1
 10
172.6898
 20
213.465
  0
VERTEX
  8
LAYER_1
 10
172.0125
 20
213.6767
  0
VERTEX
  8
LAYER_1
 10
171.3563
 20
213.8883
  0
VERTEX
  8
LAYER_1
 10
170.679
 20
214.1
  0
VERTEX
  8
LAYER_1
 10
170.0017
 20
214.2905
  0
VERTEX
  8
LAYER_1
 10
169.3243
 20
214.481
  0
VERTEX
  8
LAYER_1
 10
168.647
 20
214.6715
  0
VERTEX
  8
LAYER_1
 10
167.9696
 20
214.862
  0
VERTEX
  8
LAYER_1
 10
167.2712
 20
215.0313
  0
VERTEX
  8
LAYER_1
 10
166.5726
 20
215.2007
  0
VERTEX
  8
LAYER_1
 10
165.8741
 20
215.37
  0
VERTEX
  8
LAYER_1
 10
165.1757
 20
215.5393
  0
VERTEX
  8
LAYER_1
 10
164.4771
 20
215.6875
  0
VERTEX
  8
LAYER_1
 10
163.7786
 20
215.8357
  0
VERTEX
  8
LAYER_1
 10
163.0802
 20
215.9838
  0
VERTEX
  8
LAYER_1
 10
162.3605
 20
216.1108
  0
VERTEX
  8
LAYER_1
 10
161.662
 20
216.2378
  0
VERTEX
  8
LAYER_1
 10
160.9423
 20
216.3648
  0
VERTEX
  8
LAYER_1
 10
160.2226
 20
216.4918
  0
VERTEX
  8
LAYER_1
 10
159.503
 20
216.5977
  0
VERTEX
  8
LAYER_1
 10
158.7833
 20
216.7035
  0
VERTEX
  8
LAYER_1
 10
158.0636
 20
216.8093
  0
VERTEX
  8
LAYER_1
 10
157.344
 20
216.894
  0
VERTEX
  8
LAYER_1
 10
156.6032
 20
216.9787
  0
VERTEX
  8
LAYER_1
 10
155.8835
 20
217.0633
  0
VERTEX
  8
LAYER_1
 10
155.1427
 20
217.148
  0
VERTEX
  8
LAYER_1
 10
154.423
 20
217.2115
  0
VERTEX
  8
LAYER_1
 10
153.6821
 20
217.275
  0
VERTEX
  8
LAYER_1
 10
152.9625
 20
217.3385
  0
VERTEX
  8
LAYER_1
 10
152.2216
 20
217.3808
  0
VERTEX
  8
LAYER_1
 10
151.4808
 20
217.4232
  0
VERTEX
  8
LAYER_1
 10
150.7611
 20
217.4655
  0
VERTEX
  8
LAYER_1
 10
150.0203
 20
217.5078
  0
VERTEX
  8
LAYER_1
 10
149.2795
 20
217.529
  0
VERTEX
  8
LAYER_1
 10
148.5386
 20
217.5502
  0
VERTEX
  8
LAYER_1
 10
147.7978
 20
217.5502
  0
VERTEX
  8
LAYER_1
 10
147.0782
 20
217.5713
  0
VERTEX
  8
LAYER_1
 10
146.3585
 20
217.5713
  0
VERTEX
  8
LAYER_1
 10
145.6177
 20
217.5713
  0
VERTEX
  8
LAYER_1
 10
144.8768
 20
217.5502
  0
VERTEX
  8
LAYER_1
 10
144.136
 20
217.529
  0
VERTEX
  8
LAYER_1
 10
143.3951
 20
217.5078
  0
VERTEX
  8
LAYER_1
 10
142.6755
 20
217.4867
  0
VERTEX
  8
LAYER_1
 10
141.9347
 20
217.4443
  0
VERTEX
  8
LAYER_1
 10
141.1938
 20
217.402
  0
VERTEX
  8
LAYER_1
 10
140.4741
 20
217.3597
  0
VERTEX
  8
LAYER_1
 10
139.7333
 20
217.2962
  0
VERTEX
  8
LAYER_1
 10
138.9925
 20
217.2327
  0
VERTEX
  8
LAYER_1
 10
138.2728
 20
217.1692
  0
VERTEX
  8
LAYER_1
 10
137.532
 20
217.0845
  0
VERTEX
  8
LAYER_1
 10
136.8123
 20
217.021
  0
VERTEX
  8
LAYER_1
 10
136.0927
 20
216.9363
  0
VERTEX
  8
LAYER_1
 10
135.3518
 20
216.8305
  0
VERTEX
  8
LAYER_1
 10
134.6321
 20
216.7458
  0
VERTEX
  8
LAYER_1
 10
133.9125
 20
216.64
  0
VERTEX
  8
LAYER_1
 10
133.1928
 20
216.5342
  0
VERTEX
  8
LAYER_1
 10
132.4731
 20
216.4072
  0
VERTEX
  8
LAYER_1
 10
131.7747
 20
216.2802
  0
VERTEX
  8
LAYER_1
 10
131.055
 20
216.1532
  0
VERTEX
  8
LAYER_1
 10
130.3353
 20
216.0262
  0
VERTEX
  8
LAYER_1
 10
129.6368
 20
215.878
  0
VERTEX
  8
LAYER_1
 10
128.9383
 20
215.7298
  0
VERTEX
  8
LAYER_1
 10
128.2186
 20
215.5817
  0
VERTEX
  8
LAYER_1
 10
127.5201
 20
215.4335
  0
VERTEX
  8
LAYER_1
 10
126.8216
 20
215.2642
  0
VERTEX
  8
LAYER_1
 10
126.1443
 20
215.0948
  0
VERTEX
  8
LAYER_1
 10
125.4458
 20
214.9255
  0
VERTEX
  8
LAYER_1
 10
124.7685
 20
214.735
  0
VERTEX
  8
LAYER_1
 10
124.07
 20
214.5445
  0
VERTEX
  8
LAYER_1
 10
123.3927
 20
214.354
  0
VERTEX
  8
LAYER_1
 10
122.7153
 20
214.1635
  0
VERTEX
  8
LAYER_1
 10
122.0591
 20
213.9518
  0
VERTEX
  8
LAYER_1
 10
121.3818
 20
213.7402
  0
VERTEX
  8
LAYER_1
 10
120.7257
 20
213.5285
  0
VERTEX
  8
LAYER_1
 10
120.0483
 20
213.3168
  0
VERTEX
  8
LAYER_1
 10
119.3921
 20
213.084
  0
VERTEX
  8
LAYER_1
 10
118.736
 20
212.8512
  0
VERTEX
  8
LAYER_1
 10
118.101
 20
212.6183
  0
VERTEX
  8
LAYER_1
 10
117.4448
 20
212.3643
  0
VERTEX
  8
LAYER_1
 10
116.8098
 20
212.1315
  0
VERTEX
  8
LAYER_1
 10
116.1748
 20
211.8775
  0
VERTEX
  8
LAYER_1
 10
115.561
 20
211.6023
  0
VERTEX
  8
LAYER_1
 10
114.926
 20
211.3483
  0
VERTEX
  8
LAYER_1
 10
114.3121
 20
211.0732
  0
VERTEX
  8
LAYER_1
 10
113.6983
 20
210.798
  0
VERTEX
  8
LAYER_1
 10
113.0845
 20
210.5228
  0
VERTEX
  8
LAYER_1
 10
112.4706
 20
210.2265
  0
VERTEX
  8
LAYER_1
 10
111.878
 20
209.9513
  0
VERTEX
  8
LAYER_1
 10
111.2853
 20
209.655
  0
VERTEX
  8
LAYER_1
 10
110.6926
 20
209.3587
  0
VERTEX
  8
LAYER_1
 10
110.1211
 20
209.0412
  0
VERTEX
  8
LAYER_1
 10
109.5285
 20
208.7237
  0
VERTEX
  8
LAYER_1
 10
108.9781
 20
208.4273
  0
VERTEX
  8
LAYER_1
 10
108.4066
 20
208.1098
  0
VERTEX
  8
LAYER_1
 10
107.8351
 20
207.7712
  0
VERTEX
  8
LAYER_1
 10
107.2848
 20
207.4537
  0
VERTEX
  8
LAYER_1
 10
106.7345
 20
207.115
  0
VERTEX
  8
LAYER_1
 10
106.2053
 20
206.7763
  0
VERTEX
  8
LAYER_1
 10
105.6761
 20
206.4377
  0
VERTEX
  8
LAYER_1
 10
105.147
 20
206.0778
  0
VERTEX
  8
LAYER_1
 10
104.6178
 20
205.7392
  0
VERTEX
  8
LAYER_1
 10
104.1098
 20
205.3793
  0
VERTEX
  8
LAYER_1
 10
103.6018
 20
205.0195
  0
VERTEX
  8
LAYER_1
 10
103.0938
 20
204.6597
  0
VERTEX
  8
LAYER_1
 10
102.607
 20
204.2787
  0
VERTEX
  8
LAYER_1
 10
102.1201
 20
203.8977
  0
VERTEX
  8
LAYER_1
 10
101.6333
 20
203.5378
  0
VERTEX
  8
LAYER_1
 10
101.1676
 20
203.1568
  0
VERTEX
  8
LAYER_1
 10
100.6808
 20
202.7547
  0
VERTEX
  8
LAYER_1
 10
100.2363
 20
202.3737
  0
VERTEX
  8
LAYER_1
 10
99.7706
 20
201.9927
  0
VERTEX
  8
LAYER_1
 10
99.3261
 20
201.5905
  0
SEQEND
  0
POLYLINE
  8
LAYER_1
 40
0.0847
 41
0.0847
 66
1
 10
0
 20
0
 30
0
  0
VERTEX
  8
LAYER_1
 10
99.3262
 20
201.5905
  0
VERTEX
  8
LAYER_1
 10
98.9028
 20
201.1883
  0
VERTEX
  8
LAYER_1
 10
98.4583
 20
200.7862
  0
VERTEX
  8
LAYER_1
 10
98.035
 20
200.384
  0
VERTEX
  8
LAYER_1
 10
97.6328
 20
199.9607
  0
VERTEX
  8
LAYER_1
 10
97.2307
 20
199.5373
  0
VERTEX
  8
LAYER_1
 10
96.8285
 20
199.1352
  0
VERTEX
  8
LAYER_1
 10
96.4263
 20
198.7118
  0
VERTEX
  8
LAYER_1
 10
96.0453
 20
198.2885
  0
VERTEX
  8
LAYER_1
 10
95.6643
 20
197.8652
  0
VERTEX
  8
LAYER_1
 10
95.3045
 20
197.4207
  0
VERTEX
  8
LAYER_1
 10
94.9446
 20
196.9973
  0
VERTEX
  8
LAYER_1
 10
94.5848
 20
196.5528
  0
VERTEX
  8
LAYER_1
 10
94.2462
 20
196.1083
  0
VERTEX
  8
LAYER_1
 10
93.9075
 20
195.6638
  0
VERTEX
  8
LAYER_1
 10
93.59
 20
195.2193
  0
VERTEX
  8
LAYER_1
 10
93.2513
 20
194.7748
  0
VERTEX
  8
LAYER_1
 10
92.955
 20
194.3303
  0
VERTEX
  8
LAYER_1
 10
92.6375
 20
193.8647
  0
VERTEX
  8
LAYER_1
 10
92.3623
 20
193.4202
  0
VERTEX
  8
LAYER_1
 10
92.066
 20
192.9545
  0
VERTEX
  8
LAYER_1
 10
91.7908
 20
192.4888
  0
VERTEX
  8
LAYER_1
 10
91.5157
 20
192.0232
  0
VERTEX
  8
LAYER_1
 10
91.2616
 20
191.5575
  0
VERTEX
  8
LAYER_1
 10
91.0077
 20
191.0918
  0
VERTEX
  8
LAYER_1
 10
90.7748
 20
190.6262
  0
VERTEX
  8
LAYER_1
 10
90.542
 20
190.1605
  0
VERTEX
  8
LAYER_1
 10
90.3092
 20
189.6737
  0
VERTEX
  8
LAYER_1
 10
90.0975
 20
189.208
  0
VERTEX
  8
LAYER_1
 10
89.8858
 20
188.7212
  0
VERTEX
  8
LAYER_1
 10
89.6953
 20
188.2555
  0
VERTEX
  8
LAYER_1
 10
89.5048
 20
187.7687
  0
VERTEX
  8
LAYER_1
 10
89.3143
 20
187.2818
  0
VERTEX
  8
LAYER_1
 10
89.145
 20
186.795
  0
VERTEX
  8
LAYER_1
 10
88.9757
 20
186.3293
  0
VERTEX
  8
LAYER_1
 10
88.8275
 20
185.8425
  0
VERTEX
  8
LAYER_1
 10
88.6793
 20
185.3345
  0
VERTEX
  8
LAYER_1
 10
88.5523
 20
184.8477
  0
VERTEX
  8
LAYER_1
 10
88.4253
 20
184.3608
  0
VERTEX
  8
LAYER_1
 10
88.2983
 20
183.874
  0
VERTEX
  8
LAYER_1
 10
88.1925
 20
183.3872
  0
VERTEX
  8
LAYER_1
 10
88.0866
 20
182.8792
  0
VERTEX
  8
LAYER_1
 10
88.002
 20
182.3923
  0
VERTEX
  8
LAYER_1
 10
87.9173
 20
181.9055
  0
VERTEX
  8
LAYER_1
 10
87.8538
 20
181.3975
  0
VERTEX
  8
LAYER_1
 10
87.7903
 20
180.9107
  0
VERTEX
  8
LAYER_1
 10
87.7268
 20
180.4238
  0
VERTEX
  8
LAYER_1
 10
87.6845
 20
179.9158
  0
VERTEX
  8
LAYER_1
 10
87.6422
 20
179.429
  0
VERTEX
  8
LAYER_1
 10
87.621
 20
178.921
  0
VERTEX
  8
LAYER_1
 10
87.5998
 20
178.4342
  0
VERTEX
  8
LAYER_1
 10
87.5998
 20
177.9262
  0
VERTEX
  8
LAYER_1
 10
87.5998
 20
177.4393
  0
VERTEX
  8
LAYER_1
 10
87.621
 20
176.9313
  0
VERTEX
  8
LAYER_1
 10
87.6422
 20
176.4445
  0
VERTEX
  8
LAYER_1
 10
87.6633
 20
175.9365
  0
VERTEX
  8
LAYER_1
 10
87.7057
 20
175.4497
  0
VERTEX
  8
LAYER_1
 10
87.748
 20
174.9417
  0
VERTEX
  8
LAYER_1
 10
87.8115
 20
174.4548
  0
VERTEX
  8
LAYER_1
 10
87.875
 20
173.9468
  0
VERTEX
  8
LAYER_1
 10
87.9385
 20
173.46
  0
VERTEX
  8
LAYER_1
 10
88.0231
 20
172.9732
  0
VERTEX
  8
LAYER_1
 10
88.129
 20
172.4652
  0
VERTEX
  8
LAYER_1
 10
88.2348
 20
171.9783
  0
VERTEX
  8
LAYER_1
 10
88.3407
 20
171.4915
  0
VERTEX
  8
LAYER_1
 10
88.4677
 20
171.0047
  0
VERTEX
  8
LAYER_1
 10
88.5946
 20
170.4967
  0
VERTEX
  8
LAYER_1
 10
88.7217
 20
170.0098
  0
VERTEX
  8
LAYER_1
 10
88.8698
 20
169.523
  0
VERTEX
  8
LAYER_1
 10
89.0392
 20
169.0362
  0
VERTEX
  8
LAYER_1
 10
89.2085
 20
168.5705
  0
VERTEX
  8
LAYER_1
 10
89.3778
 20
168.0837
  0
VERTEX
  8
LAYER_1
 10
89.5683
 20
167.5968
  0
VERTEX
  8
LAYER_1
 10
89.7588
 20
167.11
  0
VERTEX
  8
LAYER_1
 10
89.9493
 20
166.6443
  0
VERTEX
  8
LAYER_1
 10
90.161
 20
166.1575
  0
VERTEX
  8
LAYER_1
 10
90.3938
 20
165.6918
  0
VERTEX
  8
LAYER_1
 10
90.6055
 20
165.205
  0
VERTEX
  8
LAYER_1
 10
90.8595
 20
164.7393
  0
VERTEX
  8
LAYER_1
 10
91.0923
 20
164.2737
  0
VERTEX
  8
LAYER_1
 10
91.3463
 20
163.808
  0
VERTEX
  8
LAYER_1
 10
91.6215
 20
163.3423
  0
VERTEX
  8
LAYER_1
 10
91.8755
 20
162.8767
  0
VERTEX
  8
LAYER_1
 10
92.1718
 20
162.411
  0
VERTEX
  8
LAYER_1
 10
92.447
 20
161.9665
  0
VERTEX
  8
LAYER_1
 10
92.7433
 20
161.5008
  0
VERTEX
  8
LAYER_1
 10
93.0608
 20
161.0563
  0
VERTEX
  8
LAYER_1
 10
93.3783
 20
160.5907
  0
VERTEX
  8
LAYER_1
 10
93.6958
 20
160.1462
  0
VERTEX
  8
LAYER_1
 10
94.0133
 20
159.7017
  0
VERTEX
  8
LAYER_1
 10
94.352
 20
159.2572
  0
VERTEX
  8
LAYER_1
 10
94.7118
 20
158.8338
  0
VERTEX
  8
LAYER_1
 10
95.0717
 20
158.3893
  0
VERTEX
  8
LAYER_1
 10
95.4315
 20
157.966
  0
VERTEX
  8
LAYER_1
 10
95.7913
 20
157.5215
  0
VERTEX
  8
LAYER_1
 10
96.1723
 20
157.0982
  0
VERTEX
  8
LAYER_1
 10
96.5533
 20
156.6748
  0
VERTEX
  8
LAYER_1
 10
96.9555
 20
156.2515
  0
VERTEX
  8
LAYER_1
 10
97.3577
 20
155.8493
  0
VERTEX
  8
LAYER_1
 10
97.7598
 20
155.426
  0
VERTEX
  8
LAYER_1
 10
98.1832
 20
155.0238
  0
VERTEX
  8
LAYER_1
 10
98.6065
 20
154.6005
  0
VERTEX
  8
LAYER_1
 10
99.051
 20
154.1983
  0
VERTEX
  8
LAYER_1
 10
99.4955
 20
153.8173
  0
VERTEX
  8
LAYER_1
 10
99.94
 20
153.4152
  0
VERTEX
  8
LAYER_1
 10
100.3845
 20
153.013
  0
VERTEX
  8
LAYER_1
 10
100.8502
 20
152.632
  0
VERTEX
  8
LAYER_1
 10
101.3158
 20
152.251
  0
VERTEX
  8
LAYER_1
 10
101.8026
 20
151.87
  0
VERTEX
  8
LAYER_1
 10
102.2895
 20
151.489
  0
VERTEX
  8
LAYER_1
 10
102.7763
 20
151.1292
  0
VERTEX
  8
LAYER_1
 10
103.2632
 20
150.7482
  0
VERTEX
  8
LAYER_1
 10
103.7712
 20
150.3883
  0
VERTEX
  8
LAYER_1
 10
104.2792
 20
150.0285
  0
VERTEX
  8
LAYER_1
 10
104.8083
 20
149.6687
  0
VERTEX
  8
LAYER_1
 10
105.3163
 20
149.33
  0
VERTEX
  8
LAYER_1
 10
105.8455
 20
148.9913
  0
VERTEX
  8
LAYER_1
 10
106.3958
 20
148.6315
  0
VERTEX
  8
LAYER_1
 10
106.925
 20
148.314
  0
VERTEX
  8
LAYER_1
 10
107.4753
 20
147.9753
  0
VERTEX
  8
LAYER_1
 10
108.0257
 20
147.6367
  0
VERTEX
  8
LAYER_1
 10
108.5972
 20
147.3192
  0
VERTEX
  8
LAYER_1
 10
109.1686
 20
147.0017
  0
VERTEX
  8
LAYER_1
 10
109.7401
 20
146.6842
  0
VERTEX
  8
LAYER_1
 10
110.3116
 20
146.3878
  0
VERTEX
  8
LAYER_1
 10
110.9043
 20
146.0703
  0
VERTEX
  8
LAYER_1
 10
111.497
 20
145.774
  0
VERTEX
  8
LAYER_1
 10
112.0896
 20
145.4777
  0
VERTEX
  8
LAYER_1
 10
112.6823
 20
145.2025
  0
VERTEX
  8
LAYER_1
 10
113.2962
 20
144.9062
  0
VERTEX
  8
LAYER_1
 10
113.91
 20
144.631
  0
VERTEX
  8
LAYER_1
 10
114.5238
 20
144.3558
  0
VERTEX
  8
LAYER_1
 10
115.1377
 20
144.1018
  0
VERTEX
  8
LAYER_1
 10
115.7726
 20
143.8267
  0
VERTEX
  8
LAYER_1
 10
116.4077
 20
143.5727
  0
VERTEX
  8
LAYER_1
 10
117.0427
 20
143.3187
  0
VERTEX
  8
LAYER_1
 10
117.6776
 20
143.0858
  0
VERTEX
  8
LAYER_1
 10
118.3126
 20
142.8318
  0
VERTEX
  8
LAYER_1
 10
118.9688
 20
142.599
  0
VERTEX
  8
LAYER_1
 10
119.625
 20
142.3662
  0
VERTEX
  8
LAYER_1
 10
120.2811
 20
142.1545
  0
VERTEX
  8
LAYER_1
 10
120.9373
 20
141.9217
  0
VERTEX
  8
LAYER_1
 10
121.6147
 20
141.71
  0
VERTEX
  8
LAYER_1
 10
122.2708
 20
141.4983
  0
VERTEX
  8
LAYER_1
 10
122.9481
 20
141.3078
  0
VERTEX
  8
LAYER_1
 10
123.6255
 20
141.0962
  0
VERTEX
  8
LAYER_1
 10
124.3028
 20
140.9057
  0
VERTEX
  8
LAYER_1
 10
125.0013
 20
140.7363
  0
VERTEX
  8
LAYER_1
 10
125.6786
 20
140.5459
  0
VERTEX
  8
LAYER_1
 10
126.3772
 20
140.3765
  0
VERTEX
  8
LAYER_1
 10
127.0757
 20
140.2072
  0
VERTEX
  8
LAYER_1
 10
127.7741
 20
140.0378
  0
VERTEX
  8
LAYER_1
 10
128.4727
 20
139.8897
  0
VERTEX
  8
LAYER_1
 10
129.1712
 20
139.7415
  0
VERTEX
  8
LAYER_1
 10
129.8696
 20
139.5933
  0
VERTEX
  8
LAYER_1
 10
130.5893
 20
139.4663
  0
VERTEX
  8
LAYER_1
 10
131.2878
 20
139.3182
  0
VERTEX
  8
LAYER_1
 10
132.0075
 20
139.1912
  0
VERTEX
  8
LAYER_1
 10
132.7272
 20
139.0853
  0
VERTEX
  8
LAYER_1
 10
133.4468
 20
138.9584
  0
VERTEX
  8
LAYER_1
 10
134.1665
 20
138.8525
  0
VERTEX
  8
LAYER_1
 10
134.8862
 20
138.7678
  0
VERTEX
  8
LAYER_1
 10
135.6058
 20
138.662
  0
VERTEX
  8
LAYER_1
 10
136.3255
 20
138.5773
  0
VERTEX
  8
LAYER_1
 10
137.0663
 20
138.4927
  0
VERTEX
  8
LAYER_1
 10
137.786
 20
138.408
  0
VERTEX
  8
LAYER_1
 10
138.5268
 20
138.3445
  0
VERTEX
  8
LAYER_1
 10
139.2465
 20
138.281
  0
VERTEX
  8
LAYER_1
 10
139.9873
 20
138.2175
  0
VERTEX
  8
LAYER_1
 10
140.7282
 20
138.154
  0
VERTEX
  8
LAYER_1
 10
141.4478
 20
138.1117
  0
VERTEX
  8
LAYER_1
 10
142.1887
 20
138.0693
  0
VERTEX
  8
LAYER_1
 10
142.9295
 20
138.0482
  0
VERTEX
  8
LAYER_1
 10
143.6491
 20
138.0058
  0
VERTEX
  8
LAYER_1
 10
144.39
 20
137.9847
  0
VERTEX
  8
LAYER_1
 10
145.1308
 20
137.9847
  0
VERTEX
  8
LAYER_1
 10
145.8716
 20
137.9635
  0
VERTEX
  8
LAYER_1
 10
146.5913
 20
137.9635
  0
VERTEX
  8
LAYER_1
 10
147.3321
 20
137.9635
  0
VERTEX
  8
LAYER_1
 10
148.0518
 20
137.9847
  0
VERTEX
  8
LAYER_1
 10
148.7927
 20
137.9847
  0
VERTEX
  8
LAYER_1
 10
149.5335
 20
138.0058
  0
VERTEX
  8
LAYER_1
 10
150.2743
 20
138.0482
  0
VERTEX
  8
LAYER_1
 10
151.0151
 20
138.0693
  0
VERTEX
  8
LAYER_1
 10
151.7348
 20
138.1117
  0
VERTEX
  8
LAYER_1
 10
152.4757
 20
138.154
  0
VERTEX
  8
LAYER_1
 10
153.2165
 20
138.2175
  0
VERTEX
  8
LAYER_1
 10
153.9362
 20
138.281
  0
VERTEX
  8
LAYER_1
 10
154.677
 20
138.3445
  0
VERTEX
  8
LAYER_1
 10
155.3966
 20
138.408
  0
VERTEX
  8
LAYER_1
 10
156.1375
 20
138.4927
  0
VERTEX
  8
LAYER_1
 10
156.8571
 20
138.5773
  0
VERTEX
  8
LAYER_1
 10
157.5768
 20
138.662
  0
VERTEX
  8
LAYER_1
 10
158.3177
 20
138.7678
  0
VERTEX
  8
LAYER_1
 10
159.0373
 20
138.8525
  0
VERTEX
  8
LAYER_1
 10
159.757
 20
138.9795
  0
VERTEX
  8
LAYER_1
 10
160.4767
 20
139.0853
  0
VERTEX
  8
LAYER_1
 10
161.1751
 20
139.2123
  0
VERTEX
  8
LAYER_1
 10
161.8948
 20
139.3393
  0
VERTEX
  8
LAYER_1
 10
162.6145
 20
139.4663
  0
VERTEX
  8
LAYER_1
 10
163.313
 20
139.5933
  0
SEQEND
  0
POLYLINE
  8
LAYER_1
 40
0.0847
 41
0.0847
 66
1
 10
0
 20
0
 30
0
  0
VERTEX
  8
LAYER_1
 10
163.313
 20
139.5933
  0
VERTEX
  8
LAYER_1
 10
164.0326
 20
139.7415
  0
VERTEX
  8
LAYER_1
 10
164.7311
 20
139.8897
  0
VERTEX
  8
LAYER_1
 10
165.4296
 20
140.059
  0
VERTEX
  8
LAYER_1
 10
166.1281
 20
140.2072
  0
VERTEX
  8
LAYER_1
 10
166.8267
 20
140.3765
  0
VERTEX
  8
LAYER_1
 10
167.504
 20
140.5459
  0
VERTEX
  8
LAYER_1
 10
168.2025
 20
140.7363
  0
VERTEX
  8
LAYER_1
 10
168.8798
 20
140.9268
  0
VERTEX
  8
LAYER_1
 10
169.5571
 20
141.1173
  0
VERTEX
  8
LAYER_1
 10
170.2345
 20
141.3078
  0
VERTEX
  8
LAYER_1
 10
170.9118
 20
141.4983
  0
VERTEX
  8
LAYER_1
 10
171.5892
 20
141.71
  0
VERTEX
  8
LAYER_1
 10
172.2453
 20
141.9217
  0
VERTEX
  8
LAYER_1
 10
172.9226
 20
142.1545
  0
VERTEX
  8
LAYER_1
 10
173.5788
 20
142.3662
  0
VERTEX
  8
LAYER_1
 10
174.2138
 20
142.599
  0
VERTEX
  8
LAYER_1
 10
174.87
 20
142.8318
  0
VERTEX
  8
LAYER_1
 10
175.5261
 20
143.0858
  0
VERTEX
  8
LAYER_1
 10
176.1611
 20
143.3187
  0
VERTEX
  8
LAYER_1
 10
176.7962
 20
143.5727
  0
VERTEX
  8
LAYER_1
 10
177.4311
 20
143.8267
  0
VERTEX
  8
LAYER_1
 10
178.045
 20
144.1018
  0
VERTEX
  8
LAYER_1
 10
178.68
 20
144.377
  0
VERTEX
  8
LAYER_1
 10
179.2938
 20
144.631
  0
VERTEX
  8
LAYER_1
 10
179.9076
 20
144.9273
  0
VERTEX
  8
LAYER_1
 10
180.5003
 20
145.2025
  0
VERTEX
  8
LAYER_1
 10
181.1142
 20
145.4988
  0
VERTEX
  8
LAYER_1
 10
181.7068
 20
145.7952
  0
VERTEX
  8
LAYER_1
 10
182.2995
 20
146.0915
  0
VERTEX
  8
LAYER_1
 10
182.871
 20
146.3878
  0
VERTEX
  8
LAYER_1
 10
183.4636
 20
146.7053
  0
VERTEX
  8
LAYER_1
 10
184.0351
 20
147.0017
  0
VERTEX
  8
LAYER_1
 10
184.5855
 20
147.3192
  0
VERTEX
  8
LAYER_1
 10
185.157
 20
147.6578
  0
VERTEX
  8
LAYER_1
 10
185.7073
 20
147.9753
  0
VERTEX
  8
LAYER_1
 10
186.2576
 20
148.314
  0
VERTEX
  8
LAYER_1
 10
186.808
 20
148.6527
  0
VERTEX
  8
LAYER_1
 10
187.3371
 20
148.9914
  0
VERTEX
  8
LAYER_1
 10
187.8663
 20
149.33
  0
VERTEX
  8
LAYER_1
 10
188.3955
 20
149.6898
  0
VERTEX
  8
LAYER_1
 10
188.9035
 20
150.0497
  0
VERTEX
  8
LAYER_1
 10
189.4115
 20
150.3883
  0
VERTEX
  8
LAYER_1
 10
189.9195
 20
150.7693
  0
VERTEX
  8
LAYER_1
 10
190.4275
 20
151.1292
  0
VERTEX
  8
LAYER_1
 10
190.9143
 20
151.5102
  0
VERTEX
  8
LAYER_1
 10
191.4011
 20
151.87
  0
VERTEX
  8
LAYER_1
 10
191.8668
 20
152.251
  0
VERTEX
  8
LAYER_1
 10
192.3325
 20
152.632
  0
VERTEX
  8
LAYER_1
 10
192.7981
 20
153.0342
  0
VERTEX
  8
LAYER_1
 10
193.2638
 20
153.4152
  0
VERTEX
  8
LAYER_1
 10
193.7083
 20
153.8173
  0
VERTEX
  8
LAYER_1
 10
194.1528
 20
154.2195
  0
VERTEX
  8
LAYER_1
 10
194.5761
 20
154.6217
  0
VERTEX
  8
LAYER_1
 10
194.9995
 20
155.0238
  0
VERTEX
  8
LAYER_1
 10
195.4228
 20
155.426
  0
VERTEX
  8
LAYER_1
 10
195.825
 20
155.8494
  0
VERTEX
  8
LAYER_1
 10
196.2271
 20
156.2727
  0
VERTEX
  8
LAYER_1
 10
196.6293
 20
156.696
  0
VERTEX
  8
LAYER_1
 10
197.0103
 20
157.1193
  0
VERTEX
  8
LAYER_1
 10
197.3913
 20
157.5427
  0
VERTEX
  8
LAYER_1
 10
197.7723
 20
157.966
  0
VERTEX
  8
LAYER_1
 10
198.1321
 20
158.3893
  0
VERTEX
  8
LAYER_1
 10
198.4708
 20
158.8338
  0
VERTEX
  8
LAYER_1
 10
198.8306
 20
159.2783
  0
VERTEX
  8
LAYER_1
 10
199.1693
 20
159.7228
  0
VERTEX
  8
LAYER_1
 10
199.4868
 20
160.1673
  0
VERTEX
  8
LAYER_1
 10
199.8255
 20
160.6119
  0
VERTEX
  8
LAYER_1
 10
200.1218
 20
161.0563
  0
VERTEX
  8
LAYER_1
 10
200.4393
 20
161.522
  0
VERTEX
  8
LAYER_1
 10
200.7356
 20
161.9665
  0
VERTEX
  8
LAYER_1
 10
201.032
 20
162.4322
  0
VERTEX
  8
LAYER_1
 10
201.3071
 20
162.8767
  0
VERTEX
  8
LAYER_1
 10
201.5823
 20
163.3423
  0
VERTEX
  8
LAYER_1
 10
201.8363
 20
163.808
  0
VERTEX
  8
LAYER_1
 10
202.0903
 20
164.2737
  0
VERTEX
  8
LAYER_1
 10
202.3443
 20
164.7393
  0
VERTEX
  8
LAYER_1
 10
202.5771
 20
165.2262
  0
VERTEX
  8
LAYER_1
 10
202.81
 20
165.6919
  0
VERTEX
  8
LAYER_1
 10
203.0216
 20
166.1787
  0
VERTEX
  8
LAYER_1
 10
203.2333
 20
166.6443
  0
VERTEX
  8
LAYER_1
 10
203.4238
 20
167.1312
  0
VERTEX
  8
LAYER_1
 10
203.6355
 20
167.5968
  0
VERTEX
  8
LAYER_1
 10
203.8048
 20
168.0837
  0
VERTEX
  8
LAYER_1
 10
203.9953
 20
168.5705
  0
VERTEX
  8
LAYER_1
 10
204.1435
 20
169.0573
  0
VERTEX
  8
LAYER_1
 10
204.3128
 20
169.5442
  0
VERTEX
  8
LAYER_1
 10
204.461
 20
170.031
  0
VERTEX
  8
LAYER_1
 10
204.588
 20
170.5178
  0
VERTEX
  8
LAYER_1
 10
204.715
 20
171.0047
  0
VERTEX
  8
LAYER_1
 10
204.842
 20
171.4915
  0
VERTEX
  8
LAYER_1
 10
204.9478
 20
171.9783
  0
VERTEX
  8
LAYER_1
 10
205.0536
 20
172.4863
  0
VERTEX
  8
LAYER_1
 10
205.1595
 20
172.9732
  0
VERTEX
  8
LAYER_1
 10
205.2441
 20
173.46
  0
VERTEX
  8
LAYER_1
 10
205.3076
 20
173.968
  0
VERTEX
  8
LAYER_1
 10
205.3712
 20
174.4548
  0
VERTEX
  8
LAYER_1
 10
205.4347
 20
174.9628
  0
VERTEX
  8
LAYER_1
 10
205.477
 20
175.4497
  0
VERTEX
  8
LAYER_1
 10
205.5193
 20
175.9577
  0
VERTEX
  8
LAYER_1
 10
205.5405
 20
176.4445
  0
VERTEX
  8
LAYER_1
 10
205.5616
 20
176.9525
  0
VERTEX
  8
LAYER_1
 10
205.5828
 20
177.4393
  0
VERTEX
  8
LAYER_1
 10
205.5828
 20
177.7568
  0
SEQEND
  0
POLYLINE
  8
LAYER_1
 40
0.1693
 41
0.1693
 66
1
 10
0
 20
0
 30
0
  0
VERTEX
  8
LAYER_1
 10
213.3722
 20
177.7568
  0
VERTEX
  8
LAYER_1
 10
213.3722
 20
178.3707
  0
VERTEX
  8
LAYER_1
 10
213.351
 20
178.9633
  0
VERTEX
  8
LAYER_1
 10
213.3298
 20
179.556
  0
VERTEX
  8
LAYER_1
 10
213.3087
 20
180.1487
  0
VERTEX
  8
LAYER_1
 10
213.2452
 20
180.7413
  0
VERTEX
  8
LAYER_1
 10
213.2028
 20
181.334
  0
VERTEX
  8
LAYER_1
 10
213.1182
 20
181.9267
  0
VERTEX
  8
LAYER_1
 10
213.0546
 20
182.5193
  0
VERTEX
  8
LAYER_1
 10
212.97
 20
183.112
  0
VERTEX
  8
LAYER_1
 10
212.8642
 20
183.7047
  0
VERTEX
  8
LAYER_1
 10
212.7583
 20
184.2973
  0
VERTEX
  8
LAYER_1
 10
212.6313
 20
184.8688
  0
VERTEX
  8
LAYER_1
 10
212.5043
 20
185.4615
  0
VERTEX
  8
LAYER_1
 10
212.3561
 20
186.0542
  0
VERTEX
  8
LAYER_1
 10
212.208
 20
186.6468
  0
VERTEX
  8
LAYER_1
 10
212.0598
 20
187.2183
  0
VERTEX
  8
LAYER_1
 10
211.8693
 20
187.811
  0
VERTEX
  8
LAYER_1
 10
211.7
 20
188.3825
  0
VERTEX
  8
LAYER_1
 10
211.5095
 20
188.9752
  0
VERTEX
  8
LAYER_1
 10
211.2978
 20
189.5467
  0
VERTEX
  8
LAYER_1
 10
211.0862
 20
190.1182
  0
VERTEX
  8
LAYER_1
 10
210.8745
 20
190.6897
  0
VERTEX
  8
LAYER_1
 10
210.6417
 20
191.2612
  0
VERTEX
  8
LAYER_1
 10
210.4088
 20
191.8327
  0
VERTEX
  8
LAYER_1
 10
210.1548
 20
192.4042
  0
VERTEX
  8
LAYER_1
 10
209.8796
 20
192.9757
  0
VERTEX
  8
LAYER_1
 10
209.6045
 20
193.526
  0
VERTEX
  8
LAYER_1
 10
209.3293
 20
194.0975
  0
VERTEX
  8
LAYER_1
 10
209.033
 20
194.6478
  0
VERTEX
  8
LAYER_1
 10
208.7366
 20
195.1982
  0
VERTEX
  8
LAYER_1
 10
208.4192
 20
195.7485
  0
VERTEX
  8
LAYER_1
 10
208.1017
 20
196.2988
  0
VERTEX
  8
LAYER_1
 10
207.7841
 20
196.8492
  0
VERTEX
  8
LAYER_1
 10
207.4455
 20
197.3995
  0
VERTEX
  8
LAYER_1
 10
207.0856
 20
197.9287
  0
VERTEX
  8
LAYER_1
 10
206.7258
 20
198.479
  0
VERTEX
  8
LAYER_1
 10
206.366
 20
199.0082
  0
VERTEX
  8
LAYER_1
 10
205.985
 20
199.5373
  0
VERTEX
  8
LAYER_1
 10
205.604
 20
200.0665
  0
VERTEX
  8
LAYER_1
 10
205.2018
 20
200.5957
  0
VERTEX
  8
LAYER_1
 10
204.7997
 20
201.1037
  0
VERTEX
  8
LAYER_1
 10
204.3763
 20
201.6328
  0
VERTEX
  8
LAYER_1
 10
203.953
 20
202.1408
  0
VERTEX
  8
LAYER_1
 10
203.5296
 20
202.6488
  0
VERTEX
  8
LAYER_1
 10
203.0852
 20
203.1568
  0
VERTEX
  8
LAYER_1
 10
202.6407
 20
203.6437
  0
VERTEX
  8
LAYER_1
 10
202.175
 20
204.1517
  0
VERTEX
  8
LAYER_1
 10
201.7093
 20
204.6385
  0
VERTEX
  8
LAYER_1
 10
201.2436
 20
205.1253
  0
VERTEX
  8
LAYER_1
 10
200.7568
 20
205.6122
  0
VERTEX
  8
LAYER_1
 10
200.27
 20
206.099
  0
VERTEX
  8
LAYER_1
 10
199.762
 20
206.5647
  0
VERTEX
  8
LAYER_1
 10
199.254
 20
207.0515
  0
VERTEX
  8
LAYER_1
 10
198.7248
 20
207.5172
  0
VERTEX
  8
LAYER_1
 10
198.2168
 20
207.9828
  0
VERTEX
  8
LAYER_1
 10
197.6665
 20
208.4273
  0
VERTEX
  8
LAYER_1
 10
197.1373
 20
208.893
  0
VERTEX
  8
LAYER_1
 10
196.587
 20
209.3375
  0
VERTEX
  8
LAYER_1
 10
196.0155
 20
209.782
  0
VERTEX
  8
LAYER_1
 10
195.4651
 20
210.2053
  0
VERTEX
  8
LAYER_1
 10
194.8936
 20
210.6498
  0
VERTEX
  8
LAYER_1
 10
194.301
 20
211.0732
  0
VERTEX
  8
LAYER_1
 10
193.7083
 20
211.4965
  0
VERTEX
  8
LAYER_1
 10
193.1157
 20
211.9198
  0
VERTEX
  8
LAYER_1
 10
192.523
 20
212.322
  0
VERTEX
  8
LAYER_1
 10
191.9091
 20
212.7242
  0
VERTEX
  8
LAYER_1
 10
191.2953
 20
213.1263
  0
VERTEX
  8
LAYER_1
 10
190.6603
 20
213.5285
  0
VERTEX
  8
LAYER_1
 10
190.0465
 20
213.9095
  0
VERTEX
  8
LAYER_1
 10
189.3903
 20
214.3117
  0
VERTEX
  8
LAYER_1
 10
188.7553
 20
214.6715
  0
VERTEX
  8
LAYER_1
 10
188.0991
 20
215.0525
  0
VERTEX
  8
LAYER_1
 10
187.443
 20
215.4123
  0
VERTEX
  8
LAYER_1
 10
186.7868
 20
215.7722
  0
VERTEX
  8
LAYER_1
 10
186.1095
 20
216.132
  0
VERTEX
  8
LAYER_1
 10
185.4321
 20
216.4918
  0
VERTEX
  8
LAYER_1
 10
184.7548
 20
216.8305
  0
VERTEX
  8
LAYER_1
 10
184.0775
 20
217.1692
  0
VERTEX
  8
LAYER_1
 10
183.379
 20
217.4867
  0
VERTEX
  8
LAYER_1
 10
182.6805
 20
217.8253
  0
VERTEX
  8
LAYER_1
 10
181.9608
 20
218.1428
  0
VERTEX
  8
LAYER_1
 10
181.2623
 20
218.4603
  0
VERTEX
  8
LAYER_1
 10
180.5427
 20
218.7567
  0
VERTEX
  8
LAYER_1
 10
179.823
 20
219.053
  0
VERTEX
  8
LAYER_1
 10
179.0821
 20
219.3493
  0
VERTEX
  8
LAYER_1
 10
178.3625
 20
219.6457
  0
VERTEX
  8
LAYER_1
 10
177.6216
 20
219.9208
  0
VERTEX
  8
LAYER_1
 10
176.8808
 20
220.196
  0
VERTEX
  8
LAYER_1
 10
176.14
 20
220.45
  0
VERTEX
  8
LAYER_1
 10
175.378
 20
220.7252
  0
VERTEX
  8
LAYER_1
 10
174.6372
 20
220.958
  0
VERTEX
  8
LAYER_1
 10
173.8751
 20
221.212
  0
VERTEX
  8
LAYER_1
 10
173.1132
 20
221.4448
  0
VERTEX
  8
LAYER_1
 10
172.33
 20
221.6777
  0
VERTEX
  8
LAYER_1
 10
171.568
 20
221.9105
  0
VERTEX
  8
LAYER_1
 10
170.7848
 20
222.1222
  0
VERTEX
  8
LAYER_1
 10
170.0017
 20
222.3338
  0
VERTEX
  8
LAYER_1
 10
169.2185
 20
222.5455
  0
VERTEX
  8
LAYER_1
 10
168.4353
 20
222.7572
  0
VERTEX
  8
LAYER_1
 10
167.6521
 20
222.9477
  0
VERTEX
  8
LAYER_1
 10
166.8478
 20
223.117
  0
VERTEX
  8
LAYER_1
 10
166.0435
 20
223.3075
  0
VERTEX
  8
LAYER_1
 10
165.2603
 20
223.4768
  0
VERTEX
  8
LAYER_1
 10
164.456
 20
223.625
  0
VERTEX
  8
LAYER_1
 10
163.6517
 20
223.7943
  0
VERTEX
  8
LAYER_1
 10
162.8262
 20
223.9425
  0
VERTEX
  8
LAYER_1
 10
162.0218
 20
224.0695
  0
VERTEX
  8
LAYER_1
 10
161.2175
 20
224.2177
  0
VERTEX
  8
LAYER_1
 10
160.392
 20
224.3447
  0
VERTEX
  8
LAYER_1
 10
159.5665
 20
224.4505
  0
VERTEX
  8
LAYER_1
 10
158.7622
 20
224.5775
  0
VERTEX
  8
LAYER_1
 10
157.9366
 20
224.6833
  0
VERTEX
  8
LAYER_1
 10
157.1112
 20
224.768
  0
VERTEX
  8
LAYER_1
 10
156.2856
 20
224.8527
  0
VERTEX
  8
LAYER_1
 10
155.4602
 20
224.9373
  0
VERTEX
  8
LAYER_1
 10
154.6347
 20
225.022
  0
VERTEX
  8
LAYER_1
 10
153.8091
 20
225.0855
  0
VERTEX
  8
LAYER_1
 10
152.9625
 20
225.149
  0
VERTEX
  8
LAYER_1
 10
152.137
 20
225.2125
  0
VERTEX
  8
LAYER_1
 10
151.3115
 20
225.2548
  0
VERTEX
  8
LAYER_1
 10
150.4648
 20
225.276
  0
VERTEX
  8
LAYER_1
 10
149.6393
 20
225.3183
  0
VERTEX
  8
LAYER_1
 10
148.8138
 20
225.3395
  0
VERTEX
  8
LAYER_1
 10
147.9672
 20
225.3607
  0
VERTEX
  8
LAYER_1
 10
147.1417
 20
225.3607
  0
VERTEX
  8
LAYER_1
 10
146.3161
 20
225.3607
  0
VERTEX
  8
LAYER_1
 10
145.4907
 20
225.3607
  0
VERTEX
  8
LAYER_1
 10
144.644
 20
225.3395
  0
VERTEX
  8
LAYER_1
 10
143.8185
 20
225.3183
  0
VERTEX
  8
LAYER_1
 10
142.993
 20
225.2972
  0
VERTEX
  8
LAYER_1
 10
142.1463
 20
225.2548
  0
VERTEX
  8
LAYER_1
 10
141.3208
 20
225.2125
  0
VERTEX
  8
LAYER_1
 10
140.4741
 20
225.1702
  0
VERTEX
  8
LAYER_1
 10
139.6487
 20
225.1067
  0
VERTEX
  8
LAYER_1
 10
138.8231
 20
225.0432
  0
VERTEX
  8
LAYER_1
 10
137.9977
 20
224.9797
  0
VERTEX
  8
LAYER_1
 10
137.1722
 20
224.895
  0
VERTEX
  8
LAYER_1
 10
136.3466
 20
224.8103
  0
VERTEX
  8
LAYER_1
 10
135.5212
 20
224.7045
  0
VERTEX
  8
LAYER_1
 10
134.6956
 20
224.5987
  0
VERTEX
  8
LAYER_1
 10
133.8702
 20
224.4928
  0
VERTEX
  8
LAYER_1
 10
133.0658
 20
224.387
  0
VERTEX
  8
LAYER_1
 10
132.2403
 20
224.26
  0
VERTEX
  8
LAYER_1
 10
131.4148
 20
224.1118
  0
VERTEX
  8
LAYER_1
 10
130.6105
 20
223.9848
  0
VERTEX
  8
LAYER_1
 10
129.8061
 20
223.8367
  0
VERTEX
  8
LAYER_1
 10
129.0018
 20
223.6885
  0
VERTEX
  8
LAYER_1
 10
128.1975
 20
223.5192
  0
VERTEX
  8
LAYER_1
 10
127.3931
 20
223.3498
  0
VERTEX
  8
LAYER_1
 10
126.5888
 20
223.1805
  0
VERTEX
  8
LAYER_1
 10
125.8056
 20
222.99
  0
VERTEX
  8
LAYER_1
 10
125.0013
 20
222.8207
  0
VERTEX
  8
LAYER_1
 10
124.2181
 20
222.609
  0
VERTEX
  8
LAYER_1
 10
123.435
 20
222.4185
  0
VERTEX
  8
LAYER_1
 10
122.6518
 20
222.2068
  0
VERTEX
  8
LAYER_1
 10
121.8686
 20
221.9952
  0
VERTEX
  8
LAYER_1
 10
121.1067
 20
221.7623
  0
VERTEX
  8
LAYER_1
 10
120.3235
 20
221.5295
  0
VERTEX
  8
LAYER_1
 10
119.5615
 20
221.2967
  0
VERTEX
  8
LAYER_1
 10
118.7995
 20
221.0427
  0
VERTEX
  8
LAYER_1
 10
118.0375
 20
220.7887
  0
VERTEX
  8
LAYER_1
 10
117.2966
 20
220.5347
  0
VERTEX
  8
LAYER_1
 10
116.5347
 20
220.2807
  0
VERTEX
  8
LAYER_1
 10
115.7938
 20
220.0055
  0
VERTEX
  8
LAYER_1
 10
115.053
 20
219.7303
  0
VERTEX
  8
LAYER_1
 10
114.3333
 20
219.434
  0
VERTEX
  8
LAYER_1
 10
113.5925
 20
219.1588
  0
VERTEX
  8
LAYER_1
 10
112.8728
 20
218.8625
  0
VERTEX
  8
LAYER_1
 10
112.1531
 20
218.545
  0
VERTEX
  8
LAYER_1
 10
111.4547
 20
218.2487
  0
VERTEX
  8
LAYER_1
 10
110.735
 20
217.9312
  0
VERTEX
  8
LAYER_1
 10
110.0365
 20
217.6137
  0
VERTEX
  8
LAYER_1
 10
109.338
 20
217.275
  0
VERTEX
  8
LAYER_1
 10
108.6606
 20
216.9363
  0
VERTEX
  8
LAYER_1
 10
107.9622
 20
216.5977
  0
VERTEX
  8
LAYER_1
 10
107.2848
 20
216.259
  0
VERTEX
  8
LAYER_1
 10
106.6075
 20
215.8992
  0
VERTEX
  8
LAYER_1
 10
105.9513
 20
215.5393
  0
VERTEX
  8
LAYER_1
 10
105.2952
 20
215.1795
  0
VERTEX
  8
LAYER_1
 10
104.639
 20
214.7985
  0
VERTEX
  8
LAYER_1
 10
103.9828
 20
214.4175
  0
VERTEX
  8
LAYER_1
 10
103.3478
 20
214.0365
  0
VERTEX
  8
LAYER_1
 10
102.7128
 20
213.6555
  0
VERTEX
  8
LAYER_1
 10
102.099
 20
213.2533
  0
VERTEX
  8
LAYER_1
 10
101.464
 20
212.8723
  0
VERTEX
  8
LAYER_1
 10
100.8713
 20
212.449
  0
VERTEX
  8
LAYER_1
 10
100.2575
 20
212.0468
  0
VERTEX
  8
LAYER_1
 10
99.6648
 20
211.6235
  0
VERTEX
  8
LAYER_1
 10
99.0722
 20
211.2213
  0
VERTEX
  8
LAYER_1
 10
98.4795
 20
210.7768
  0
VERTEX
  8
LAYER_1
 10
97.908
 20
210.3535
  0
VERTEX
  8
LAYER_1
 10
97.3365
 20
209.909
  0
VERTEX
  8
LAYER_1
 10
96.7861
 20
209.4857
  0
VERTEX
  8
LAYER_1
 10
96.2358
 20
209.0412
  0
VERTEX
  8
LAYER_1
 10
95.6855
 20
208.5755
  0
VERTEX
  8
LAYER_1
 10
95.1563
 20
208.131
  0
VERTEX
  8
LAYER_1
 10
94.6271
 20
207.6653
  0
VERTEX
  8
LAYER_1
 10
94.098
 20
207.1997
  0
VERTEX
  8
LAYER_1
 10
93.59
 20
206.734
  0
VERTEX
  8
LAYER_1
 10
93.082
 20
206.2472
  0
SEQEND
  0
POLYLINE
  8
LAYER_1
 40
0.1693
 41
0.1693
 66
1
 10
0
 20
0
 30
0
  0
VERTEX
  8
LAYER_1
 10
93.082
 20
206.2472
  0
VERTEX
  8
LAYER_1
 10
92.5952
 20
205.7815
  0
VERTEX
  8
LAYER_1
 10
92.1083
 20
205.2947
  0
VERTEX
  8
LAYER_1
 10
91.6215
 20
204.8078
  0
VERTEX
  8
LAYER_1
 10
91.1558
 20
204.321
  0
VERTEX
  8
LAYER_1
 10
90.6902
 20
203.813
  0
VERTEX
  8
LAYER_1
 10
90.2457
 20
203.3262
  0
VERTEX
  8
LAYER_1
 10
89.8012
 20
202.8182
  0
VERTEX
  8
LAYER_1
 10
89.3567
 20
202.3102
  0
VERTEX
  8
LAYER_1
 10
88.9333
 20
201.8022
  0
VERTEX
  8
LAYER_1
 10
88.51
 20
201.273
  0
VERTEX
  8
LAYER_1
 10
88.1078
 20
200.765
  0
VERTEX
  8
LAYER_1
 10
87.7057
 20
200.2358
  0
VERTEX
  8
LAYER_1
 10
87.3247
 20
199.7067
  0
VERTEX
  8
LAYER_1
 10
86.9437
 20
199.1775
  0
VERTEX
  8
LAYER_1
 10
86.5627
 20
198.6483
  0
VERTEX
  8
LAYER_1
 10
86.2028
 20
198.1192
  0
VERTEX
  8
LAYER_1
 10
85.8642
 20
197.5688
  0
VERTEX
  8
LAYER_1
 10
85.5043
 20
197.0185
  0
VERTEX
  8
LAYER_1
 10
85.1868
 20
196.4893
  0
VERTEX
  8
LAYER_1
 10
84.8482
 20
195.939
  0
VERTEX
  8
LAYER_1
 10
84.5518
 20
195.3887
  0
VERTEX
  8
LAYER_1
 10
84.2343
 20
194.8383
  0
VERTEX
  8
LAYER_1
 10
83.938
 20
194.2668
  0
VERTEX
  8
LAYER_1
 10
83.6628
 20
193.7165
  0
VERTEX
  8
LAYER_1
 10
83.3877
 20
193.145
  0
VERTEX
  8
LAYER_1
 10
83.1125
 20
192.5947
  0
VERTEX
  8
LAYER_1
 10
82.8585
 20
192.0232
  0
VERTEX
  8
LAYER_1
 10
82.6257
 20
191.4517
  0
VERTEX
  8
LAYER_1
 10
82.3928
 20
190.8802
  0
VERTEX
  8
LAYER_1
 10
82.16
 20
190.3087
  0
VERTEX
  8
LAYER_1
 10
81.9483
 20
189.7372
  0
VERTEX
  8
LAYER_1
 10
81.7367
 20
189.1445
  0
VERTEX
  8
LAYER_1
 10
81.5462
 20
188.573
  0
VERTEX
  8
LAYER_1
 10
81.3557
 20
188.0015
  0
VERTEX
  8
LAYER_1
 10
81.1863
 20
187.4088
  0
VERTEX
  8
LAYER_1
 10
81.017
 20
186.8373
  0
VERTEX
  8
LAYER_1
 10
80.8688
 20
186.2447
  0
VERTEX
  8
LAYER_1
 10
80.7207
 20
185.652
  0
VERTEX
  8
LAYER_1
 10
80.5937
 20
185.0805
  0
VERTEX
  8
LAYER_1
 10
80.4667
 20
184.4878
  0
VERTEX
  8
LAYER_1
 10
80.3608
 20
183.8952
  0
VERTEX
  8
LAYER_1
 10
80.255
 20
183.3025
  0
VERTEX
  8
LAYER_1
 10
80.1703
 20
182.7098
  0
VERTEX
  8
LAYER_1
 10
80.0857
 20
182.1172
  0
VERTEX
  8
LAYER_1
 10
80.001
 20
181.5245
  0
VERTEX
  8
LAYER_1
 10
79.9587
 20
180.9318
  0
VERTEX
  8
LAYER_1
 10
79.8952
 20
180.3392
  0
VERTEX
  8
LAYER_1
 10
79.8528
 20
179.7465
  0
VERTEX
  8
LAYER_1
 10
79.8317
 20
179.1538
  0
VERTEX
  8
LAYER_1
 10
79.8105
 20
178.5612
  0
VERTEX
  8
LAYER_1
 10
79.8105
 20
177.9685
  0
VERTEX
  8
LAYER_1
 10
79.8105
 20
177.3758
  0
VERTEX
  8
LAYER_1
 10
79.8105
 20
176.762
  0
VERTEX
  8
LAYER_1
 10
79.8317
 20
176.1693
  0
VERTEX
  8
LAYER_1
 10
79.874
 20
175.5767
  0
VERTEX
  8
LAYER_1
 10
79.9163
 20
174.984
  0
VERTEX
  8
LAYER_1
 10
79.9587
 20
174.3913
  0
VERTEX
  8
LAYER_1
 10
80.0222
 20
173.7987
  0
VERTEX
  8
LAYER_1
 10
80.1068
 20
173.206
  0
VERTEX
  8
LAYER_1
 10
80.1915
 20
172.6133
  0
VERTEX
  8
LAYER_1
 10
80.2973
 20
172.0207
  0
VERTEX
  8
LAYER_1
 10
80.4032
 20
171.428
  0
VERTEX
  8
LAYER_1
 10
80.509
 20
170.8353
  0
VERTEX
  8
LAYER_1
 10
80.636
 20
170.2638
  0
VERTEX
  8
LAYER_1
 10
80.763
 20
169.6712
  0
VERTEX
  8
LAYER_1
 10
80.9112
 20
169.0785
  0
VERTEX
  8
LAYER_1
 10
81.0805
 20
168.507
  0
VERTEX
  8
LAYER_1
 10
81.2498
 20
167.9143
  0
VERTEX
  8
LAYER_1
 10
81.4192
 20
167.3428
  0
VERTEX
  8
LAYER_1
 10
81.6097
 20
166.7502
  0
VERTEX
  8
LAYER_1
 10
81.8002
 20
166.1787
  0
VERTEX
  8
LAYER_1
 10
82.0118
 20
165.6072
  0
VERTEX
  8
LAYER_1
 10
82.2447
 20
165.0357
  0
VERTEX
  8
LAYER_1
 10
82.4563
 20
164.4642
  0
VERTEX
  8
LAYER_1
 10
82.7103
 20
163.8927
  0
VERTEX
  8
LAYER_1
 10
82.9432
 20
163.3212
  0
VERTEX
  8
LAYER_1
 10
83.2183
 20
162.7497
  0
VERTEX
  8
LAYER_1
 10
83.4723
 20
162.1782
  0
VERTEX
  8
LAYER_1
 10
83.7475
 20
161.6278
  0
VERTEX
  8
LAYER_1
 10
84.0438
 20
161.0775
  0
VERTEX
  8
LAYER_1
 10
84.3402
 20
160.506
  0
VERTEX
  8
LAYER_1
 10
84.6577
 20
159.9557
  0
VERTEX
  8
LAYER_1
 10
84.9752
 20
159.4053
  0
VERTEX
  8
LAYER_1
 10
85.2927
 20
158.855
  0
VERTEX
  8
LAYER_1
 10
85.6313
 20
158.3258
  0
VERTEX
  8
LAYER_1
 10
85.97
 20
157.7755
  0
VERTEX
  8
LAYER_1
 10
86.3298
 20
157.2463
  0
VERTEX
  8
LAYER_1
 10
86.6897
 20
156.696
  0
VERTEX
  8
LAYER_1
 10
87.0707
 20
156.1668
  0
VERTEX
  8
LAYER_1
 10
87.4517
 20
155.6377
  0
VERTEX
  8
LAYER_1
 10
87.8538
 20
155.1085
  0
VERTEX
  8
LAYER_1
 10
88.256
 20
154.6005
  0
VERTEX
  8
LAYER_1
 10
88.6582
 20
154.0713
  0
VERTEX
  8
LAYER_1
 10
89.0815
 20
153.5633
  0
VERTEX
  8
LAYER_1
 10
89.5048
 20
153.0553
  0
VERTEX
  8
LAYER_1
 10
89.9493
 20
152.5473
  0
VERTEX
  8
LAYER_1
 10
90.3938
 20
152.0393
  0
VERTEX
  8
LAYER_1
 10
90.8595
 20
151.5525
  0
VERTEX
  8
LAYER_1
 10
91.304
 20
151.0445
  0
VERTEX
  8
LAYER_1
 10
91.7908
 20
150.5577
  0
VERTEX
  8
LAYER_1
 10
92.2777
 20
150.0708
  0
VERTEX
  8
LAYER_1
 10
92.7645
 20
149.584
  0
VERTEX
  8
LAYER_1
 10
93.2513
 20
149.1183
  0
VERTEX
  8
LAYER_1
 10
93.7593
 20
148.6315
  0
VERTEX
  8
LAYER_1
 10
94.2885
 20
148.1658
  0
VERTEX
  8
LAYER_1
 10
94.7965
 20
147.7002
  0
VERTEX
  8
LAYER_1
 10
95.3257
 20
147.2557
  0
VERTEX
  8
LAYER_1
 10
95.876
 20
146.79
  0
VERTEX
  8
LAYER_1
 10
96.4263
 20
146.3455
  0
VERTEX
  8
LAYER_1
 10
96.9767
 20
145.901
  0
VERTEX
  8
LAYER_1
 10
97.5482
 20
145.4565
  0
VERTEX
  8
LAYER_1
 10
98.0985
 20
145.0332
  0
VERTEX
  8
LAYER_1
 10
98.6912
 20
144.5887
  0
VERTEX
  8
LAYER_1
 10
99.2627
 20
144.1653
  0
VERTEX
  8
LAYER_1
 10
99.8553
 20
143.7632
  0
VERTEX
  8
LAYER_1
 10
100.4692
 20
143.3398
  0
VERTEX
  8
LAYER_1
 10
101.083
 20
142.9377
  0
VERTEX
  8
LAYER_1
 10
101.6968
 20
142.5355
  0
VERTEX
  8
LAYER_1
 10
102.3107
 20
142.1333
  0
VERTEX
  8
LAYER_1
 10
102.9457
 20
141.7312
  0
VERTEX
  8
LAYER_1
 10
103.5807
 20
141.3502
  0
VERTEX
  8
LAYER_1
 10
104.2157
 20
140.9692
  0
VERTEX
  8
LAYER_1
 10
104.8718
 20
140.6093
  0
VERTEX
  8
LAYER_1
 10
105.528
 20
140.2283
  0
VERTEX
  8
LAYER_1
 10
106.1842
 20
139.8685
  0
VERTEX
  8
LAYER_1
 10
106.8403
 20
139.5087
  0
VERTEX
  8
LAYER_1
 10
107.5177
 20
139.17
  0
VERTEX
  8
LAYER_1
 10
108.195
 20
138.8102
  0
VERTEX
  8
LAYER_1
 10
108.8935
 20
138.4715
  0
VERTEX
  8
LAYER_1
 10
109.5708
 20
138.1328
  0
VERTEX
  8
LAYER_1
 10
110.2693
 20
137.8153
  0
VERTEX
  8
LAYER_1
 10
110.989
 20
137.4978
  0
VERTEX
  8
LAYER_1
 10
111.6875
 20
137.1803
  0
VERTEX
  8
LAYER_1
 10
112.4072
 20
136.884
  0
VERTEX
  8
LAYER_1
 10
113.1268
 20
136.5665
  0
VERTEX
  8
LAYER_1
 10
113.8465
 20
136.2702
  0
VERTEX
  8
LAYER_1
 10
114.5873
 20
135.995
  0
VERTEX
  8
LAYER_1
 10
115.307
 20
135.6987
  0
VERTEX
  8
LAYER_1
 10
116.0478
 20
135.4235
  0
VERTEX
  8
LAYER_1
 10
116.8098
 20
135.1695
  0
VERTEX
  8
LAYER_1
 10
117.5507
 20
134.8943
  0
VERTEX
  8
LAYER_1
 10
118.3127
 20
134.6403
  0
VERTEX
  8
LAYER_1
 10
119.0747
 20
134.4075
  0
VERTEX
  8
LAYER_1
 10
119.8367
 20
134.1535
  0
VERTEX
  8
LAYER_1
 10
120.5987
 20
133.9207
  0
VERTEX
  8
LAYER_1
 10
121.3606
 20
133.6878
  0
VERTEX
  8
LAYER_1
 10
122.1438
 20
133.4762
  0
VERTEX
  8
LAYER_1
 10
122.927
 20
133.2645
  0
VERTEX
  8
LAYER_1
 10
123.7102
 20
133.0528
  0
VERTEX
  8
LAYER_1
 10
124.4933
 20
132.8412
  0
VERTEX
  8
LAYER_1
 10
125.2765
 20
132.6507
  0
VERTEX
  8
LAYER_1
 10
126.0808
 20
132.4602
  0
VERTEX
  8
LAYER_1
 10
126.864
 20
132.2908
  0
VERTEX
  8
LAYER_1
 10
127.6683
 20
132.1215
  0
VERTEX
  8
LAYER_1
 10
128.4727
 20
131.9522
  0
VERTEX
  8
LAYER_1
 10
129.277
 20
131.804
  0
VERTEX
  8
LAYER_1
 10
130.0813
 20
131.6347
  0
VERTEX
  8
LAYER_1
 10
130.8856
 20
131.5077
  0
VERTEX
  8
LAYER_1
 10
131.7112
 20
131.3595
  0
VERTEX
  8
LAYER_1
 10
132.5155
 20
131.2325
  0
VERTEX
  8
LAYER_1
 10
133.341
 20
131.1055
  0
VERTEX
  8
LAYER_1
 10
134.1665
 20
130.9997
  0
VERTEX
  8
LAYER_1
 10
134.9708
 20
130.8938
  0
VERTEX
  8
LAYER_1
 10
135.7963
 20
130.788
  0
VERTEX
  8
LAYER_1
 10
136.6218
 20
130.7033
  0
VERTEX
  8
LAYER_1
 10
137.4473
 20
130.6187
  0
VERTEX
  8
LAYER_1
 10
138.2728
 20
130.534
  0
VERTEX
  8
LAYER_1
 10
139.1195
 20
130.4705
  0
VERTEX
  8
LAYER_1
 10
139.945
 20
130.407
  0
VERTEX
  8
LAYER_1
 10
140.7705
 20
130.3435
  0
VERTEX
  8
LAYER_1
 10
141.596
 20
130.3012
  0
VERTEX
  8
LAYER_1
 10
142.4427
 20
130.2588
  0
VERTEX
  8
LAYER_1
 10
143.2682
 20
130.2165
  0
VERTEX
  8
LAYER_1
 10
144.1148
 20
130.1953
  0
VERTEX
  8
LAYER_1
 10
144.9403
 20
130.1742
  0
VERTEX
  8
LAYER_1
 10
145.7658
 20
130.1742
  0
VERTEX
  8
LAYER_1
 10
146.5913
 20
130.1742
  0
VERTEX
  8
LAYER_1
 10
147.4168
 20
130.1742
  0
VERTEX
  8
LAYER_1
 10
148.2635
 20
130.1742
  0
VERTEX
  8
LAYER_1
 10
149.089
 20
130.1953
  0
VERTEX
  8
LAYER_1
 10
149.9356
 20
130.2165
  0
VERTEX
  8
LAYER_1
 10
150.7612
 20
130.2588
  0
VERTEX
  8
LAYER_1
 10
151.5867
 20
130.3012
  0
VERTEX
  8
LAYER_1
 10
152.4333
 20
130.3435
  0
VERTEX
  8
LAYER_1
 10
153.2588
 20
130.407
  0
VERTEX
  8
LAYER_1
 10
154.0843
 20
130.4705
  0
VERTEX
  8
LAYER_1
 10
154.9098
 20
130.534
  0
VERTEX
  8
LAYER_1
 10
155.7353
 20
130.6187
  0
VERTEX
  8
LAYER_1
 10
156.5608
 20
130.7033
  0
VERTEX
  8
LAYER_1
 10
157.3863
 20
130.788
  0
VERTEX
  8
LAYER_1
 10
158.2118
 20
130.8938
  0
VERTEX
  8
LAYER_1
 10
159.0373
 20
130.9997
  0
VERTEX
  8
LAYER_1
 10
159.8628
 20
131.1055
  0
VERTEX
  8
LAYER_1
 10
160.6672
 20
131.2325
  0
VERTEX
  8
LAYER_1
 10
161.4927
 20
131.3595
  0
VERTEX
  8
LAYER_1
 10
162.297
 20
131.5077
  0
VERTEX
  8
LAYER_1
 10
163.1225
 20
131.6558
  0
VERTEX
  8
LAYER_1
 10
163.9268
 20
131.804
  0
VERTEX
  8
LAYER_1
 10
164.7312
 20
131.9522
  0
VERTEX
  8
LAYER_1
 10
165.5355
 20
132.1215
  0
SEQEND
  0
POLYLINE
  8
LAYER_1
 40
0.1693
 41
0.1693
 66
1
 10
0
 20
0
 30
0
  0
VERTEX
  8
LAYER_1
 10
165.5355
 20
132.1215
  0
VERTEX
  8
LAYER_1
 10
166.3186
 20
132.2909
  0
VERTEX
  8
LAYER_1
 10
167.123
 20
132.4813
  0
VERTEX
  8
LAYER_1
 10
167.9273
 20
132.6507
  0
VERTEX
  8
LAYER_1
 10
168.7105
 20
132.8624
  0
VERTEX
  8
LAYER_1
 10
169.4936
 20
133.0529
  0
VERTEX
  8
LAYER_1
 10
170.2768
 20
133.2645
  0
VERTEX
  8
LAYER_1
 10
171.06
 20
133.4762
  0
VERTEX
  8
LAYER_1
 10
171.822
 20
133.6878
  0
VERTEX
  8
LAYER_1
 10
172.6052
 20
133.9207
  0
VERTEX
  8
LAYER_1
 10
173.3672
 20
134.1535
  0
VERTEX
  8
LAYER_1
 10
174.1292
 20
134.4075
  0
VERTEX
  8
LAYER_1
 10
174.8912
 20
134.6404
  0
VERTEX
  8
LAYER_1
 10
175.6532
 20
134.9155
  0
VERTEX
  8
LAYER_1
 10
176.394
 20
135.1695
  0
VERTEX
  8
LAYER_1
 10
177.1348
 20
135.4447
  0
VERTEX
  8
LAYER_1
 10
177.8757
 20
135.7199
  0
VERTEX
  8
LAYER_1
 10
178.6165
 20
135.995
  0
VERTEX
  8
LAYER_1
 10
179.3362
 20
136.2914
  0
VERTEX
  8
LAYER_1
 10
180.077
 20
136.5877
  0
VERTEX
  8
LAYER_1
 10
180.7967
 20
136.884
  0
VERTEX
  8
LAYER_1
 10
181.4952
 20
137.1803
  0
VERTEX
  8
LAYER_1
 10
182.2148
 20
137.4978
  0
VERTEX
  8
LAYER_1
 10
182.9133
 20
137.8154
  0
VERTEX
  8
LAYER_1
 10
183.6118
 20
138.154
  0
VERTEX
  8
LAYER_1
 10
184.3103
 20
138.4715
  0
VERTEX
  8
LAYER_1
 10
184.9877
 20
138.8313
  0
VERTEX
  8
LAYER_1
 10
185.665
 20
139.17
  0
VERTEX
  8
LAYER_1
 10
186.3423
 20
139.5087
  0
VERTEX
  8
LAYER_1
 10
187.0197
 20
139.8685
  0
VERTEX
  8
LAYER_1
 10
187.6758
 20
140.2284
  0
VERTEX
  8
LAYER_1
 10
188.332
 20
140.6093
  0
VERTEX
  8
LAYER_1
 10
188.9882
 20
140.9904
  0
VERTEX
  8
LAYER_1
 10
189.6231
 20
141.3713
  0
VERTEX
  8
LAYER_1
 10
190.2582
 20
141.7523
  0
VERTEX
  8
LAYER_1
 10
190.8932
 20
142.1334
  0
VERTEX
  8
LAYER_1
 10
191.507
 20
142.5355
  0
VERTEX
  8
LAYER_1
 10
192.1208
 20
142.9377
  0
VERTEX
  8
LAYER_1
 10
192.7347
 20
143.3398
  0
VERTEX
  8
LAYER_1
 10
193.3273
 20
143.7632
  0
VERTEX
  8
LAYER_1
 10
193.92
 20
144.1865
  0
VERTEX
  8
LAYER_1
 10
194.5127
 20
144.6098
  0
VERTEX
  8
LAYER_1
 10
195.0842
 20
145.0332
  0
VERTEX
  8
LAYER_1
 10
195.6557
 20
145.4777
  0
VERTEX
  8
LAYER_1
 10
196.2272
 20
145.901
  0
VERTEX
  8
LAYER_1
 10
196.7775
 20
146.3455
  0
VERTEX
  8
LAYER_1
 10
197.3278
 20
146.8112
  0
VERTEX
  8
LAYER_1
 10
197.857
 20
147.2557
  0
VERTEX
  8
LAYER_1
 10
198.3862
 20
147.7213
  0
VERTEX
  8
LAYER_1
 10
198.9153
 20
148.187
  0
VERTEX
  8
LAYER_1
 10
199.4233
 20
148.6527
  0
VERTEX
  8
LAYER_1
 10
199.9313
 20
149.1183
  0
VERTEX
  8
LAYER_1
 10
200.4393
 20
149.6052
  0
VERTEX
  8
LAYER_1
 10
200.9262
 20
150.092
  0
VERTEX
  8
LAYER_1
 10
201.413
 20
150.5577
  0
VERTEX
  8
LAYER_1
 10
201.8787
 20
151.0657
  0
VERTEX
  8
LAYER_1
 10
202.3443
 20
151.5525
  0
VERTEX
  8
LAYER_1
 10
202.7888
 20
152.0605
  0
VERTEX
  8
LAYER_1
 10
203.2333
 20
152.5473
  0
VERTEX
  8
LAYER_1
 10
203.6778
 20
153.0553
  0
VERTEX
  8
LAYER_1
 10
204.1012
 20
153.5633
  0
VERTEX
  8
LAYER_1
 10
204.5245
 20
154.0925
  0
VERTEX
  8
LAYER_1
 10
204.9478
 20
154.6005
  0
VERTEX
  8
LAYER_1
 10
205.35
 20
155.1297
  0
VERTEX
  8
LAYER_1
 10
205.731
 20
155.6588
  0
VERTEX
  8
LAYER_1
 10
206.112
 20
156.188
  0
VERTEX
  8
LAYER_1
 10
206.493
 20
156.7172
  0
VERTEX
  8
LAYER_1
 10
206.8528
 20
157.2463
  0
VERTEX
  8
LAYER_1
 10
207.2127
 20
157.7755
  0
VERTEX
  8
LAYER_1
 10
207.5513
 20
158.3258
  0
VERTEX
  8
LAYER_1
 10
207.89
 20
158.8762
  0
VERTEX
  8
LAYER_1
 10
208.2287
 20
159.4265
  0
VERTEX
  8
LAYER_1
 10
208.5462
 20
159.9768
  0
VERTEX
  8
LAYER_1
 10
208.8425
 20
160.5272
  0
VERTEX
  8
LAYER_1
 10
209.1388
 20
161.0775
  0
VERTEX
  8
LAYER_1
 10
209.4352
 20
161.6278
  0
VERTEX
  8
LAYER_1
 10
209.7103
 20
162.1994
  0
VERTEX
  8
LAYER_1
 10
209.9855
 20
162.7709
  0
VERTEX
  8
LAYER_1
 10
210.2395
 20
163.3212
  0
VERTEX
  8
LAYER_1
 10
210.4935
 20
163.8927
  0
VERTEX
  8
LAYER_1
 10
210.7263
 20
164.4642
  0
VERTEX
  8
LAYER_1
 10
210.9592
 20
165.0357
  0
VERTEX
  8
LAYER_1
 10
211.1708
 20
165.6072
  0
VERTEX
  8
LAYER_1
 10
211.3825
 20
166.1787
  0
VERTEX
  8
LAYER_1
 10
211.573
 20
166.7713
  0
VERTEX
  8
LAYER_1
 10
211.7635
 20
167.3428
  0
VERTEX
  8
LAYER_1
 10
211.9328
 20
167.9355
  0
VERTEX
  8
LAYER_1
 10
212.1022
 20
168.507
  0
VERTEX
  8
LAYER_1
 10
212.2715
 20
169.0997
  0
VERTEX
  8
LAYER_1
 10
212.4196
 20
169.6712
  0
VERTEX
  8
LAYER_1
 10
212.5467
 20
170.2638
  0
VERTEX
  8
LAYER_1
 10
212.6737
 20
170.8565
  0
VERTEX
  8
LAYER_1
 10
212.8007
 20
171.4492
  0
VERTEX
  8
LAYER_1
 10
212.9065
 20
172.0419
  0
VERTEX
  8
LAYER_1
 10
212.9912
 20
172.6345
  0
VERTEX
  8
LAYER_1
 10
213.0758
 20
173.2272
  0
VERTEX
  8
LAYER_1
 10
213.1605
 20
173.8198
  0
VERTEX
  8
LAYER_1
 10
213.224
 20
174.4125
  0
VERTEX
  8
LAYER_1
 10
213.2663
 20
175.0052
  0
VERTEX
  8
LAYER_1
 10
213.3087
 20
175.5978
  0
VERTEX
  8
LAYER_1
 10
213.351
 20
176.1905
  0
VERTEX
  8
LAYER_1
 10
213.3722
 20
176.7832
  0
VERTEX
  8
LAYER_1
 10
213.3722
 20
177.3758
  0
VERTEX
  8
LAYER_1
 10
213.3722
 20
177.7568
  0
SEQEND
  0
POLYLINE
  8
LAYER_1
 40
0.1693
 41
0.1693
 66
1
 10
0
 20
0
 30
0
  0
VERTEX
  8
LAYER_1
 10
151.0787
 20
177.778
 42
0.4129375429
  0
VERTEX
  8
LAYER_1
 10
146.5702
 20
182.2653
 42
0.4139182813
  0
VERTEX
  8
LAYER_1
 10
142.0828
 20
177.778
 42
0.4129405169
  0
VERTEX
  8
LAYER_1
 10
146.5702
 20
173.2695
 42
0.4119682966
  0
VERTEX
  8
LAYER_1
 10
151.0787
 20
177.778
  0
SEQEND
  0
POLYLINE
  8
LAYER_1
 40
0.0847
 41
0.0847
 66
1
 10
0
 20
0
 30
0
  0
VERTEX
  8
LAYER_1
 10
153.5763
 20
177.778
 42
0.3937375198
  0
VERTEX
  8
LAYER_1
 10
146.5702
 20
184.763
 42
0.4136394872
  0
VERTEX
  8
LAYER_1
 10
139.5852
 20
177.778
 42
0.4152813504
  0
VERTEX
  8
LAYER_1
 10
146.5702
 20
170.7718
 42
0.4146500332
  0
VERTEX
  8
LAYER_1
 10
153.5763
 20
177.778
  0
SEQEND
  0
POLYLINE
  8
LAYER_1
 40
0.0847
 41
0.0847
 66
1
 10
0
 20
0
 30
0
  0
VERTEX
  8
LAYER_1
 10
166.5303
 20
173.2695
  0
VERTEX
  8
LAYER_1
 10
166.5303
 20
182.2653
  0
SEQEND
  0
POLYLINE
  8
LAYER_1
 40
0.1693
 41
0.1693
 66
1
 10
0
 20
0
 30
0
  0
VERTEX
  8
LAYER_1
 10
166.5303
 20
182.2653
  0
VERTEX
  8
LAYER_1
 10
166.9325
 20
180.826
  0
SEQEND
  0
POLYLINE
  8
LAYER_1
 40
0.1693
 41
0.1693
 66
1
 10
0
 20
0
 30
0
  0
VERTEX
  8
LAYER_1
 10
166.5303
 20
182.2653
  0
VERTEX
  8
LAYER_1
 10
166.1493
 20
180.826
  0
SEQEND
  0
POLYLINE
  8
LAYER_1
 40
0.1693
 41
0.1693
 66
1
 10
0
 20
0
 30
0
  0
VERTEX
  8
LAYER_1
 10
166.5303
 20
173.2695
  0
VERTEX
  8
LAYER_1
 10
166.1493
 20
174.7088
  0
SEQEND
  0
POLYLINE
  8
LAYER_1
 40
0.1693
 41
0.1693
 66
1
 10
0
 20
0
 30
0
  0
VERTEX
  8
LAYER_1
 10
166.5303
 20
173.2695
  0
VERTEX
  8
LAYER_1
 10
166.9325
 20
174.7088
  0
SEQEND
  0
POLYLINE
  8
LAYER_1
 40
0.0847
 41
0.0847
 66
1
 10
0
 20
0
 30
0
  0
VERTEX
  8
LAYER_1
 10
124.7685
 20
170.7718
  0
VERTEX
  8
LAYER_1
 10
124.7685
 20
184.763
  0
SEQEND
  0
POLYLINE
  8
LAYER_1
 40
0.1693
 41
0.1693
 66
1
 10
0
 20
0
 30
0
  0
VERTEX
  8
LAYER_1
 10
124.7685
 20
184.763
  0
VERTEX
  8
LAYER_1
 10
125.1707
 20
183.3237
  0
SEQEND
  0
POLYLINE
  8
LAYER_1
 40
0.1693
 41
0.1693
 66
1
 10
0
 20
0
 30
0
  0
VERTEX
  8
LAYER_1
 10
124.7685
 20
184.763
  0
VERTEX
  8
LAYER_1
 10
124.3875
 20
183.3237
  0
SEQEND
  0
POLYLINE
  8
LAYER_1
 40
0.1693
 41
0.1693
 66
1
 10
0
 20
0
 30
0
  0
VERTEX
  8
LAYER_1
 10
124.7685
 20
170.7718
  0
VERTEX
  8
LAYER_1
 10
124.3875
 20
172.2112
  0
SEQEND
  0
POLYLINE
  8
LAYER_1
 40
0.1693
 41
0.1693
 66
1
 10
0
 20
0
 30
0
  0
VERTEX
  8
LAYER_1
 10
124.7685
 20
170.7718
  0
VERTEX
  8
LAYER_1
 10
125.1707
 20
172.2112
  0
SEQEND
  0
POLYLINE
  8
LAYER_1
 40
0.0847
 41
0.0847
 66
1
 10
0
 20
0
 30
0
  0
VERTEX
  8
LAYER_1
 10
232.3772
 20
130.1742
  0
VERTEX
  8
LAYER_1
 10
232.3772
 20
225.3607
  0
SEQEND
  0
POLYLINE
  8
LAYER_1
 40
0.1693
 41
0.1693
 66
1
 10
0
 20
0
 30
0
  0
VERTEX
  8
LAYER_1
 10
232.3772
 20
130.1742
  0
VERTEX
  8
LAYER_1
 10
231.975
 20
131.6135
  0
SEQEND
  0
POLYLINE
  8
LAYER_1
 40
0.1693
 41
0.1693
 66
1
 10
0
 20
0
 30
0
  0
VERTEX
  8
LAYER_1
 10
232.3772
 20
130.1742
  0
VERTEX
  8
LAYER_1
 10
232.7582
 20
131.6135
  0
SEQEND
  0
POLYLINE
  8
LAYER_1
 40
0.1693
 41
0.1693
 66
1
 10
0
 20
0
 30
0
  0
VERTEX
  8
LAYER_1
 10
232.3772
 20
225.3607
  0
VERTEX
  8
LAYER_1
 10
232.7582
 20
223.9213
  0
SEQEND
  0
POLYLINE
  8
LAYER_1
 40
0.1693
 41
0.1693
 66
1
 10
0
 20
0
 30
0
  0
VERTEX
  8
LAYER_1
 10
232.3772
 20
225.3607
  0
VERTEX
  8
LAYER_1
 10
231.975
 20
223.9213
  0
SEQEND
  0
POLYLINE
  8
LAYER_1
 40
0.0847
 41
0.0847
 66
1
 10
0
 20
0
 30
0
  0
VERTEX
  8
LAYER_1
 10
166.382
 20
225.3609
  0
VERTEX
  8
LAYER_1
 10
232.3774
 20
225.3609
  0
SEQEND
  0
POLYLINE
  8
LAYER_1
 40
0.0847
 41
0.0847
 66
1
 10
0
 20
0
 30
0
  0
VERTEX
  8
LAYER_1
 10
166.382
 20
130.1739
  0
VERTEX
  8
LAYER_1
 10
232.3774
 20
130.1739
  0
SEQEND
  0
POLYLINE
  8
LAYER_1
 40
0.0847
 41
0.0847
 66
1
 10
0
 20
0
 30
0
  0
VERTEX
  8
LAYER_1
 10
222.4809
 20
137.9635
  0
VERTEX
  8
LAYER_1
 10
222.4809
 20
217.5713
  0
SEQEND
  0
POLYLINE
  8
LAYER_1
 40
0.1693
 41
0.1693
 66
1
 10
0
 20
0
 30
0
  0
VERTEX
  8
LAYER_1
 10
222.4809
 20
137.9635
  0
VERTEX
  8
LAYER_1
 10
222.0999
 20
139.424
  0
SEQEND
  0
POLYLINE
  8
LAYER_1
 40
0.1693
 41
0.1693
 66
1
 10
0
 20
0
 30
0
  0
VERTEX
  8
LAYER_1
 10
222.4809
 20
137.9635
  0
VERTEX
  8
LAYER_1
 10
222.8831
 20
139.424
  0
SEQEND
  0
POLYLINE
  8
LAYER_1
 40
0.1693
 41
0.1693
 66
1
 10
0
 20
0
 30
0
  0
VERTEX
  8
LAYER_1
 10
222.4809
 20
217.5713
  0
VERTEX
  8
LAYER_1
 10
222.8831
 20
216.1108
  0
SEQEND
  0
POLYLINE
  8
LAYER_1
 40
0.1693
 41
0.1693
 66
1
 10
0
 20
0
 30
0
  0
VERTEX
  8
LAYER_1
 10
222.4809
 20
217.5713
  0
VERTEX
  8
LAYER_1
 10
222.0999
 20
216.1108
  0
SEQEND
  0
POLYLINE
  8
LAYER_1
 40
0.0847
 41
0.0847
 66
1
 10
0
 20
0
 30
0
  0
VERTEX
  8
LAYER_1
 10
166.3821
 20
217.5713
  0
VERTEX
  8
LAYER_1
 10
222.4809
 20
217.5713
  0
SEQEND
  0
POLYLINE
  8
LAYER_1
 40
0.0847
 41
0.0847
 66
1
 10
0
 20
0
 30
0
  0
VERTEX
  8
LAYER_1
 10
166.3821
 20
137.9635
  0
VERTEX
  8
LAYER_1
 10
222.4809
 20
137.9635
  0
SEQEND
  0
TEXT
  8
LAYER_1
 10
171.6804
 20
174.1945
 11
171.6804
 21
174.1945
 40
3.6606
 41
0.5
 50
89.99999999
  1
%%c45
  0
TEXT
  8
LAYER_1
 10
124.176
 20
174.3916
 11
124.176
 21
174.3916
 40
3.6606
 41
0.5
 50
89.99999999
  1
%%c70
  0
TEXT
  8
LAYER_1
 10
231.763
 20
173.5238
 11
231.763
 21
173.5238
 40
3.6606
 41
0.5
 50
89.99999999
  1
%%c476
  0
TEXT
  8
LAYER_1
 10
221.8879
 20
173.5238
 11
221.8879
 21
173.5238
 40
3.6606
 41
0.5
 50
89.99999999
  1
%%c398
  0
POLYLINE
  8
LAYER_1
 40
0.0847
 41
0.0847
 66
1
 10
0
 20
0
 30
0
  0
VERTEX
  8
LAYER_1
 10
124.7685
 20
184.763
  0
VERTEX
  8
LAYER_1
 10
143.3952
 20
184.763
  0
SEQEND
  0
POLYLINE
  8
LAYER_1
 40
0.0847
 41
0.0847
 66
1
 10
0
 20
0
 30
0
  0
VERTEX
  8
LAYER_1
 10
124.7685
 20
170.7718
  0
VERTEX
  8
LAYER_1
 10
143.3952
 20
170.7718
  0
SEQEND
  0
POLYLINE
  8
LAYER_1
 40
0.0847
 41
0.0847
 66
1
 10
0
 20
0
 30
0
  0
VERTEX
  8
LAYER_1
 10
150.2743
 20
182.2653
  0
VERTEX
  8
LAYER_1
 10
166.5303
 20
182.2653
  0
SEQEND
  0
POLYLINE
  8
LAYER_1
 40
0.0847
 41
0.0847
 66
1
 10
0
 20
0
 30
0
  0
VERTEX
  8
LAYER_1
 10
150.2743
 20
173.2695
  0
VERTEX
  8
LAYER_1
 10
166.5303
 20
173.2695
  0
SEQEND
  0
POLYLINE
  8
LAYER_1
 40
0.0847
 41
0.0847
 66
1
 10
0
 20
0
 30
0
  0
VERTEX
  8
LAYER_1
 10
87.5998
 20
125.8041
  0
VERTEX
  8
LAYER_1
 10
205.5828
 20
125.8041
  0
SEQEND
  0
POLYLINE
  8
LAYER_1
 40
0.1693
 41
0.1693
 66
1
 10
0
 20
0
 30
0
  0
VERTEX
  8
LAYER_1
 10
87.5998
 20
125.8041
  0
VERTEX
  8
LAYER_1
 10
89.0392
 20
126.1851
  0
SEQEND
  0
POLYLINE
  8
LAYER_1
 40
0.1693
 41
0.1693
 66
1
 10
0
 20
0
 30
0
  0
VERTEX
  8
LAYER_1
 10
87.5998
 20
125.8041
  0
VERTEX
  8
LAYER_1
 10
89.0392
 20
125.4019
  0
SEQEND
  0
POLYLINE
  8
LAYER_1
 40
0.1693
 41
0.1693
 66
1
 10
0
 20
0
 30
0
  0
VERTEX
  8
LAYER_1
 10
205.5828
 20
125.8041
  0
VERTEX
  8
LAYER_1
 10
204.1435
 20
125.4019
  0
SEQEND
  0
POLYLINE
  8
LAYER_1
 40
0.1693
 41
0.1693
 66
1
 10
0
 20
0
 30
0
  0
VERTEX
  8
LAYER_1
 10
205.5828
 20
125.8041
  0
VERTEX
  8
LAYER_1
 10
204.1435
 20
126.1851
  0
SEQEND
  0
POLYLINE
  8
LAYER_1
 40
0.0847
 41
0.0847
 66
1
 10
0
 20
0
 30
0
  0
VERTEX
  8
LAYER_1
 10
79.8105
 20
118.0012
  0
VERTEX
  8
LAYER_1
 10
213.3722
 20
118.0012
  0
SEQEND
  0
POLYLINE
  8
LAYER_1
 40
0.1693
 41
0.1693
 66
1
 10
0
 20
0
 30
0
  0
VERTEX
  8
LAYER_1
 10
213.3722
 20
118.0012
  0
VERTEX
  8
LAYER_1
 10
211.9328
 20
117.6202
  0
SEQEND
  0
POLYLINE
  8
LAYER_1
 40
0.1693
 41
0.1693
 66
1
 10
0
 20
0
 30
0
  0
VERTEX
  8
LAYER_1
 10
213.3722
 20
118.0012
  0
VERTEX
  8
LAYER_1
 10
211.9328
 20
118.4034
  0
SEQEND
  0
POLYLINE
  8
LAYER_1
 40
0.1693
 41
0.1693
 66
1
 10
0
 20
0
 30
0
  0
VERTEX
  8
LAYER_1
 10
79.8105
 20
118.0012
  0
VERTEX
  8
LAYER_1
 10
81.2498
 20
118.4034
  0
SEQEND
  0
POLYLINE
  8
LAYER_1
 40
0.1693
 41
0.1693
 66
1
 10
0
 20
0
 30
0
  0
VERTEX
  8
LAYER_1
 10
79.8105
 20
118.0012
  0
VERTEX
  8
LAYER_1
 10
81.2498
 20
117.6202
  0
SEQEND
  0
POLYLINE
  8
LAYER_1
 40
0.0847
 41
0.0847
 66
1
 10
0
 20
0
 30
0
  0
VERTEX
  8
LAYER_1
 10
87.5998
 20
125.8041
  0
VERTEX
  8
LAYER_1
 10
87.5998
 20
166.983
  0
SEQEND
  0
POLYLINE
  8
LAYER_1
 40
0.0847
 41
0.0847
 66
1
 10
0
 20
0
 30
0
  0
VERTEX
  8
LAYER_1
 10
205.5828
 20
125.8041
  0
VERTEX
  8
LAYER_1
 10
205.5828
 20
166.983
  0
SEQEND
  0
POLYLINE
  8
LAYER_1
 40
0.0847
 41
0.0847
 66
1
 10
0
 20
0
 30
0
  0
VERTEX
  8
LAYER_1
 10
79.8103
 20
118.0012
  0
VERTEX
  8
LAYER_1
 10
79.8103
 20
166.983
  0
SEQEND
  0
POLYLINE
  8
LAYER_1
 40
0.0847
 41
0.0847
 66
1
 10
0
 20
0
 30
0
  0
VERTEX
  8
LAYER_1
 10
213.372
 20
118.0012
  0
VERTEX
  8
LAYER_1
 10
213.372
 20
166.983
  0
SEQEND
  0
TEXT
  8
LAYER_1
 10
142.3578
 20
126.4603
 11
142.3578
 21
126.4603
 40
3.6606
 41
0.5
  1
%%c590
  0
TEXT
  8
LAYER_1
 10
142.3578
 20
118.6785
 11
142.3578
 21
118.6785
 40
3.6606
 41
0.5
  1
%%c668
  0
POLYLINE
  8
LAYER_1
 40
0.1693
 41
0.1693
 66
1
 10
0
 20
0
 30
0
  0
VERTEX
  8
LAYER_1
 10
138.6115
 20
85.1873
  0
VERTEX
  8
LAYER_1
 10
154.5712
 20
85.1873
  0
SEQEND
  0
POLYLINE
  8
LAYER_1
 40
0.1693
 41
0.1693
 66
1
 10
0
 20
0
 30
0
  0
VERTEX
  8
LAYER_1
 10
79.8105
 20
107.1794
  0
VERTEX
  8
LAYER_1
 10
213.3722
 20
107.1794
  0
SEQEND
  0
POLYLINE
  8
LAYER_1
 40
0.1693
 41
0.1693
 66
1
 10
0
 20
0
 30
0
  0
VERTEX
  8
LAYER_1
 10
79.8105
 20
107.1794
  0
VERTEX
  8
LAYER_1
 10
79.8105
 20
107.5816
  0
VERTEX
  8
LAYER_1
 10
79.8528
 20
107.9203
  0
VERTEX
  8
LAYER_1
 10
79.9163
 20
108.2589
  0
SEQEND
  0
POLYLINE
  8
LAYER_1
 40
0.1693
 41
0.1693
 66
1
 10
0
 20
0
 30
0
  0
VERTEX
  8
LAYER_1
 10
79.9798
 20
108.5341
  0
VERTEX
  8
LAYER_1
 10
80.0857
 20
108.8093
  0
VERTEX
  8
LAYER_1
 10
80.2338
 20
109.0421
  0
VERTEX
  8
LAYER_1
 10
80.382
 20
109.2326
  0
VERTEX
  8
LAYER_1
 10
80.5513
 20
109.402
  0
VERTEX
  8
LAYER_1
 10
80.763
 20
109.5501
  0
VERTEX
  8
LAYER_1
 10
80.9747
 20
109.6559
  0
VERTEX
  8
LAYER_1
 10
81.2287
 20
109.7194
  0
VERTEX
  8
LAYER_1
 10
81.5038
 20
109.7618
  0
VERTEX
  8
LAYER_1
 10
81.8002
 20
109.7829
  0
SEQEND
  0
POLYLINE
  8
LAYER_1
 40
0.1693
 41
0.1693
 66
1
 10
0
 20
0
 30
0
  0
VERTEX
  8
LAYER_1
 10
213.3722
 20
107.1794
  0
VERTEX
  8
LAYER_1
 10
213.3722
 20
107.5816
  0
VERTEX
  8
LAYER_1
 10
213.3298
 20
107.9203
  0
VERTEX
  8
LAYER_1
 10
213.2663
 20
108.2589
  0
VERTEX
  8
LAYER_1
 10
213.2028
 20
108.5341
  0
VERTEX
  8
LAYER_1
 10
213.097
 20
108.8093
  0
VERTEX
  8
LAYER_1
 10
212.9488
 20
109.0421
  0
VERTEX
  8
LAYER_1
 10
212.8007
 20
109.2326
  0
VERTEX
  8
LAYER_1
 10
212.6313
 20
109.4019
  0
VERTEX
  8
LAYER_1
 10
212.4197
 20
109.5501
  0
VERTEX
  8
LAYER_1
 10
212.208
 20
109.6559
  0
VERTEX
  8
LAYER_1
 10
211.954
 20
109.7194
  0
VERTEX
  8
LAYER_1
 10
211.6788
 20
109.7618
  0
VERTEX
  8
LAYER_1
 10
211.3825
 20
109.7829
  0
SEQEND
  0
POLYLINE
  8
LAYER_1
 40
0.1693
 41
0.1693
 66
1
 10
0
 20
0
 30
0
  0
VERTEX
  8
LAYER_1
 10
81.8002
 20
109.7829
  0
VERTEX
  8
LAYER_1
 10
211.6788
 20
109.7829
  0
SEQEND
  0
POLYLINE
  8
LAYER_1
 40
0.0847
 41
0.0847
 66
1
 10
0
 20
0
 30
0
  0
VERTEX
  8
LAYER_1
 10
142.104
 20
74.4874
  0
VERTEX
  8
LAYER_1
 10
151.0786
 20
74.4874
  0
SEQEND
  0
POLYLINE
  8
LAYER_1
 40
0.1693
 41
0.1693
 66
1
 10
0
 20
0
 30
0
  0
VERTEX
  8
LAYER_1
 10
142.104
 20
74.4874
  0
VERTEX
  8
LAYER_1
 10
143.5433
 20
74.8684
  0
SEQEND
  0
POLYLINE
  8
LAYER_1
 40
0.1693
 41
0.1693
 66
1
 10
0
 20
0
 30
0
  0
VERTEX
  8
LAYER_1
 10
142.104
 20
74.4874
  0
VERTEX
  8
LAYER_1
 10
143.5433
 20
74.1064
  0
SEQEND
  0
POLYLINE
  8
LAYER_1
 40
0.1693
 41
0.1693
 66
1
 10
0
 20
0
 30
0
  0
VERTEX
  8
LAYER_1
 10
151.0786
 20
74.4874
  0
VERTEX
  8
LAYER_1
 10
149.6393
 20
74.1064
  0
SEQEND
  0
POLYLINE
  8
LAYER_1
 40
0.1693
 41
0.1693
 66
1
 10
0
 20
0
 30
0
  0
VERTEX
  8
LAYER_1
 10
151.0786
 20
74.4874
  0
VERTEX
  8
LAYER_1
 10
149.6393
 20
74.8684
  0
SEQEND
  0
POLYLINE
  8
LAYER_1
 40
0.0847
 41
0.0847
 66
1
 10
0
 20
0
 30
0
  0
VERTEX
  8
LAYER_1
 10
142.104
 20
74.4874
  0
VERTEX
  8
LAYER_1
 10
142.104
 20
79.3453
  0
SEQEND
  0
POLYLINE
  8
LAYER_1
 40
0.0847
 41
0.0847
 66
1
 10
0
 20
0
 30
0
  0
VERTEX
  8
LAYER_1
 10
151.0786
 20
74.4874
  0
VERTEX
  8
LAYER_1
 10
151.0786
 20
79.3453
  0
SEQEND
  0
POLYLINE
  8
LAYER_1
 40
0.0847
 41
0.0847
 66
1
 10
0
 20
0
 30
0
  0
VERTEX
  8
LAYER_1
 10
139.0983
 20
68.1398
  0
VERTEX
  8
LAYER_1
 10
154.0843
 20
68.1398
  0
SEQEND
  0
POLYLINE
  8
LAYER_1
 40
0.1693
 41
0.1693
 66
1
 10
0
 20
0
 30
0
  0
VERTEX
  8
LAYER_1
 10
139.0983
 20
68.1398
  0
VERTEX
  8
LAYER_1
 10
140.5588
 20
68.5208
  0
SEQEND
  0
POLYLINE
  8
LAYER_1
 40
0.1693
 41
0.1693
 66
1
 10
0
 20
0
 30
0
  0
VERTEX
  8
LAYER_1
 10
139.0983
 20
68.1398
  0
VERTEX
  8
LAYER_1
 10
140.5588
 20
67.7588
  0
SEQEND
  0
POLYLINE
  8
LAYER_1
 40
0.1693
 41
0.1693
 66
1
 10
0
 20
0
 30
0
  0
VERTEX
  8
LAYER_1
 10
154.0843
 20
68.1398
  0
VERTEX
  8
LAYER_1
 10
152.6238
 20
67.7588
  0
SEQEND
  0
POLYLINE
  8
LAYER_1
 40
0.1693
 41
0.1693
 66
1
 10
0
 20
0
 30
0
  0
VERTEX
  8
LAYER_1
 10
154.0843
 20
68.1398
  0
VERTEX
  8
LAYER_1
 10
152.6238
 20
68.5208
  0
SEQEND
  0
POLYLINE
  8
LAYER_1
 40
0.0847
 41
0.0847
 66
1
 10
0
 20
0
 30
0
  0
VERTEX
  8
LAYER_1
 10
154.0843
 20
68.1398
  0
VERTEX
  8
LAYER_1
 10
154.0843
 20
79.3453
  0
SEQEND
  0
POLYLINE
  8
LAYER_1
 40
0.0847
 41
0.0847
 66
1
 10
0
 20
0
 30
0
  0
VERTEX
  8
LAYER_1
 10
139.0983
 20
68.1398
  0
VERTEX
  8
LAYER_1
 10
139.0983
 20
79.3453
  0
SEQEND
  0
POLYLINE
  8
LAYER_1
 40
0.0847
 41
0.0847
 66
1
 10
0
 20
0
 30
0
  0
VERTEX
  8
LAYER_1
 10
240.948
 20
82.7954
  0
VERTEX
  8
LAYER_1
 10
240.948
 20
109.7829
  0
SEQEND
  0
POLYLINE
  8
LAYER_1
 40
0.1693
 41
0.1693
 66
1
 10
0
 20
0
 30
0
  0
VERTEX
  8
LAYER_1
 10
240.948
 20
82.7954
  0
VERTEX
  8
LAYER_1
 10
240.5459
 20
84.2348
  0
SEQEND
  0
POLYLINE
  8
LAYER_1
 40
0.1693
 41
0.1693
 66
1
 10
0
 20
0
 30
0
  0
VERTEX
  8
LAYER_1
 10
240.948
 20
82.7954
  0
VERTEX
  8
LAYER_1
 10
241.329
 20
84.2348
  0
SEQEND
  0
POLYLINE
  8
LAYER_1
 40
0.1693
 41
0.1693
 66
1
 10
0
 20
0
 30
0
  0
VERTEX
  8
LAYER_1
 10
240.948
 20
109.7829
  0
VERTEX
  8
LAYER_1
 10
241.329
 20
108.3436
  0
SEQEND
  0
POLYLINE
  8
LAYER_1
 40
0.1693
 41
0.1693
 66
1
 10
0
 20
0
 30
0
  0
VERTEX
  8
LAYER_1
 10
240.948
 20
109.7829
  0
VERTEX
  8
LAYER_1
 10
240.5459
 20
108.3436
  0
SEQEND
  0
POLYLINE
  8
LAYER_1
 40
0.0847
 41
0.0847
 66
1
 10
0
 20
0
 30
0
  0
VERTEX
  8
LAYER_1
 10
158.741
 20
82.7954
  0
VERTEX
  8
LAYER_1
 10
240.948
 20
82.7954
  0
SEQEND
  0
POLYLINE
  8
LAYER_1
 40
0.0847
 41
0.0847
 66
1
 10
0
 20
0
 30
0
  0
VERTEX
  8
LAYER_1
 10
230.2632
 20
102.1841
  0
VERTEX
  8
LAYER_1
 10
230.2632
 20
114.7783
  0
SEQEND
  0
POLYLINE
  8
LAYER_1
 40
0.1693
 41
0.1693
 66
1
 10
0
 20
0
 30
0
  0
VERTEX
  8
LAYER_1
 10
230.2632
 20
107.1794
  0
VERTEX
  8
LAYER_1
 10
230.6442
 20
105.7401
  0
SEQEND
  0
POLYLINE
  8
LAYER_1
 40
0.1693
 41
0.1693
 66
1
 10
0
 20
0
 30
0
  0
VERTEX
  8
LAYER_1
 10
230.2632
 20
107.1794
  0
VERTEX
  8
LAYER_1
 10
229.861
 20
105.7401
  0
SEQEND
  0
POLYLINE
  8
LAYER_1
 40
0.1693
 41
0.1693
 66
1
 10
0
 20
0
 30
0
  0
VERTEX
  8
LAYER_1
 10
230.2632
 20
109.7829
  0
VERTEX
  8
LAYER_1
 10
229.861
 20
111.2434
  0
SEQEND
  0
POLYLINE
  8
LAYER_1
 40
0.1693
 41
0.1693
 66
1
 10
0
 20
0
 30
0
  0
VERTEX
  8
LAYER_1
 10
230.2632
 20
109.7829
  0
VERTEX
  8
LAYER_1
 10
230.6442
 20
111.2434
  0
SEQEND
  0
POLYLINE
  8
LAYER_1
 40
0.0847
 41
0.0847
 66
1
 10
0
 20
0
 30
0
  0
VERTEX
  8
LAYER_1
 10
221.0133
 20
109.7829
  0
VERTEX
  8
LAYER_1
 10
240.948
 20
109.7829
  0
SEQEND
  0
POLYLINE
  8
LAYER_1
 40
0.0847
 41
0.0847
 66
1
 10
0
 20
0
 30
0
  0
VERTEX
  8
LAYER_1
 10
221.0133
 20
107.1794
  0
VERTEX
  8
LAYER_1
 10
230.2632
 20
107.1794
  0
SEQEND
  0
TEXT
  8
LAYER_1
 10
240.4541
 20
93.7809
 11
240.4541
 21
93.7809
 40
3.6606
 41
0.5
 50
89.99999999
  1
135
  0
TEXT
  8
LAYER_1
 10
234.1355
 20
89.4927
 11
234.1355
 21
89.4927
 40
3.6606
 41
0.5
 50
89.99999999
  1
13
  0
POLYLINE
  8
LAYER_1
 40
0.0847
 41
0.0847
 66
1
 10
0
 20
0
 30
0
  0
VERTEX
  8
LAYER_1
 10
79.8105
 20
77.7789
  0
VERTEX
  8
LAYER_1
 10
79.8105
 20
90.1826
  0
SEQEND
  0
POLYLINE
  8
LAYER_1
 40
0.1693
 41
0.1693
 66
1
 10
0
 20
0
 30
0
  0
VERTEX
  8
LAYER_1
 10
79.8105
 20
82.7954
  0
VERTEX
  8
LAYER_1
 10
80.1915
 20
81.3349
  0
SEQEND
  0
POLYLINE
  8
LAYER_1
 40
0.1693
 41
0.1693
 66
1
 10
0
 20
0
 30
0
  0
VERTEX
  8
LAYER_1
 10
79.8105
 20
82.7954
  0
VERTEX
  8
LAYER_1
 10
79.4083
 20
81.3349
  0
SEQEND
  0
POLYLINE
  8
LAYER_1
 40
0.1693
 41
0.1693
 66
1
 10
0
 20
0
 30
0
  0
VERTEX
  8
LAYER_1
 10
79.8105
 20
85.1873
  0
VERTEX
  8
LAYER_1
 10
79.4083
 20
86.6266
  0
SEQEND
  0
POLYLINE
  8
LAYER_1
 40
0.1693
 41
0.1693
 66
1
 10
0
 20
0
 30
0
  0
VERTEX
  8
LAYER_1
 10
79.8105
 20
85.1873
  0
VERTEX
  8
LAYER_1
 10
80.1915
 20
86.6266
  0
SEQEND
  0
POLYLINE
  8
LAYER_1
 40
0.0847
 41
0.0847
 66
1
 10
0
 20
0
 30
0
  0
VERTEX
  8
LAYER_1
 10
79.8105
 20
82.7954
  0
VERTEX
  8
LAYER_1
 10
135.0978
 20
82.7954
  0
SEQEND
  0
POLYLINE
  8
LAYER_1
 40
0.0847
 41
0.0847
 66
1
 10
0
 20
0
 30
0
  0
VERTEX
  8
LAYER_1
 10
79.8105
 20
85.1873
  0
VERTEX
  8
LAYER_1
 10
111.0313
 20
85.1873
  0
SEQEND
  0
TEXT
  8
LAYER_1
 10
79.3171
 20
82.3722
 11
79.3171
 21
82.3722
 40
3.6606
 41
0.5
 50
89.99999999
  1
12
  0
TEXT
  8
LAYER_1
 10
142.2138
 20
76.2507
 11
142.2138
 21
76.2507
 40
3.6606
 41
0.5
  1
%%c45
  0
TEXT
  8
LAYER_1
 10
143.226
 20
68.8177
 11
143.226
 21
68.8177
 40
3.6606
 41
0.5
  1
%%c75
  0
TEXT
  8
LAYER_1
 10
137.7861
 20
63.7072
 11
137.7861
 21
63.7072
 40
3.6606
 41
0.5
  1
（%%p}3mm）
  0
TEXT
  8
LAYER_1
 10
221.4434
 20
183.2393
 11
221.4434
 21
183.2393
 40
3.6606
 41
0.5
 50
89.99999999
  1
（%%p}5mm）
  0
TEXT
  8
LAYER_1
 10
230.8955
 20
183.5566
 11
230.8955
 21
183.5566
 40
3.6606
 41
0.5
 50
89.99999999
  1
（%%p}5mm）
  0
TEXT
  8
LAYER_1
 10
151.6293
 20
126.7773
 11
151.6293
 21
126.7773
 40
3.6606
 41
0.5
  1
（%%p}5mm）
  0
TEXT
  8
LAYER_1
 10
151.7354
 20
119.0175
 11
151.7354
 21
119.0175
 40
3.6606
 41
0.5
  1
（%%p}5mm）
  0
TEXT
  8
LAYER_1
 10
245.0543
 20
86.5628
 11
245.0543
 21
86.5628
 40
3.6606
 41
0.5
 50
89.99999999
  1
（%%p}10mm）
  0
TEXT
  8
LAYER_1
 10
233.9029
 20
91.6769
 11
233.9029
 21
91.6769
 40
3.6606
 41
0.5
 50
89.99999999
  1
（%%p}5mm）
  0
POLYLINE
  8
LAYER_1
 40
0.1693
 41
0.1693
 66
1
 10
0
 20
0
 30
0
  0
VERTEX
  8
LAYER_1
 10
129.0653
 20
86.0763
  0
VERTEX
  8
LAYER_1
 10
129.658
 20
86.0763
  0
VERTEX
  8
LAYER_1
 10
130.2507
 20
86.0763
  0
VERTEX
  8
LAYER_1
 10
130.8433
 20
86.0763
  0
VERTEX
  8
LAYER_1
 10
131.436
 20
86.0763
  0
VERTEX
  8
LAYER_1
 10
132.0075
 20
86.0551
  0
VERTEX
  8
LAYER_1
 10
132.579
 20
86.0551
  0
VERTEX
  8
LAYER_1
 10
133.1293
 20
86.0339
  0
VERTEX
  8
LAYER_1
 10
133.6797
 20
86.0128
  0
VERTEX
  8
LAYER_1
 10
134.2088
 20
85.9704
  0
VERTEX
  8
LAYER_1
 10
134.738
 20
85.9281
  0
VERTEX
  8
LAYER_1
 10
135.246
 20
85.8858
  0
VERTEX
  8
LAYER_1
 10
135.7328
 20
85.8434
  0
VERTEX
  8
LAYER_1
 10
136.1985
 20
85.7799
  0
VERTEX
  8
LAYER_1
 10
136.6642
 20
85.7376
  0
VERTEX
  8
LAYER_1
 10
137.0875
 20
85.6529
  0
VERTEX
  8
LAYER_1
 10
137.4897
 20
85.5894
  0
VERTEX
  8
LAYER_1
 10
137.8707
 20
85.5048
  0
VERTEX
  8
LAYER_1
 10
138.2305
 20
85.4201
  0
VERTEX
  8
LAYER_1
 10
138.5692
 20
85.3354
  0
VERTEX
  8
LAYER_1
 10
138.8655
 20
85.2508
  0
VERTEX
  8
LAYER_1
 10
139.0983
 20
85.1873
  0
SEQEND
  0
POLYLINE
  8
LAYER_1
 40
0.1693
 41
0.1693
 66
1
 10
0
 20
0
 30
0
  0
VERTEX
  8
LAYER_1
 10
122.7788
 20
85.9704
  0
VERTEX
  8
LAYER_1
 10
123.435
 20
85.9704
  0
VERTEX
  8
LAYER_1
 10
124.0911
 20
85.9704
  0
VERTEX
  8
LAYER_1
 10
124.7262
 20
85.9916
  0
VERTEX
  8
LAYER_1
 10
125.3612
 20
86.0128
  0
VERTEX
  8
LAYER_1
 10
125.975
 20
86.0128
  0
VERTEX
  8
LAYER_1
 10
126.61
 20
86.0339
  0
VERTEX
  8
LAYER_1
 10
127.2238
 20
86.0339
  0
VERTEX
  8
LAYER_1
 10
127.8377
 20
86.0551
  0
VERTEX
  8
LAYER_1
 10
128.4515
 20
86.0551
  0
VERTEX
  8
LAYER_1
 10
129.0653
 20
86.0763
  0
SEQEND
  0
POLYLINE
  8
LAYER_1
 40
0.1693
 41
0.1693
 66
1
 10
0
 20
0
 30
0
  0
VERTEX
  8
LAYER_1
 10
94.4367
 20
98.4164
  0
VERTEX
  8
LAYER_1
 10
94.7965
 20
97.9719
  0
VERTEX
  8
LAYER_1
 10
95.4103
 20
97.2099
  0
VERTEX
  8
LAYER_1
 10
96.0453
 20
96.4479
  0
VERTEX
  8
LAYER_1
 10
96.6803
 20
95.7071
  0
VERTEX
  8
LAYER_1
 10
97.3577
 20
94.9874
  0
VERTEX
  8
LAYER_1
 10
98.035
 20
94.3101
  0
VERTEX
  8
LAYER_1
 10
98.4583
 20
93.9291
  0
VERTEX
  8
LAYER_1
 10
98.9875
 20
93.4423
  0
VERTEX
  8
LAYER_1
 10
99.9823
 20
92.6803
  0
VERTEX
  8
LAYER_1
 10
100.9983
 20
91.9606
  0
VERTEX
  8
LAYER_1
 10
102.0778
 20
91.2833
  0
VERTEX
  8
LAYER_1
 10
103.1573
 20
90.6483
  0
VERTEX
  8
LAYER_1
 10
104.2792
 20
90.0556
  0
VERTEX
  8
LAYER_1
 10
104.9353
 20
89.7381
  0
VERTEX
  8
LAYER_1
 10
105.4433
 20
89.4841
  0
VERTEX
  8
LAYER_1
 10
106.3323
 20
89.0819
  0
VERTEX
  8
LAYER_1
 10
107.2002
 20
88.6798
  0
VERTEX
  8
LAYER_1
 10
108.1103
 20
88.3199
  0
VERTEX
  8
LAYER_1
 10
108.9993
 20
88.0024
  0
VERTEX
  8
LAYER_1
 10
109.9307
 20
87.6849
  0
VERTEX
  8
LAYER_1
 10
110.4598
 20
87.5368
  0
VERTEX
  8
LAYER_1
 10
111.0102
 20
87.3886
  0
VERTEX
  8
LAYER_1
 10
112.005
 20
87.1558
  0
VERTEX
  8
LAYER_1
 10
112.9787
 20
86.9441
  0
SEQEND
  0
POLYLINE
  8
LAYER_1
 40
0.1693
 41
0.1693
 66
1
 10
0
 20
0
 30
0
  0
VERTEX
  8
LAYER_1
 10
116.5982
 20
86.4149
  0
VERTEX
  8
LAYER_1
 10
118.2068
 20
86.2456
  0
VERTEX
  8
LAYER_1
 10
119.8367
 20
86.0762
  0
VERTEX
  8
LAYER_1
 10
121.4453
 20
85.9493
  0
VERTEX
  8
LAYER_1
 10
122.1227
 20
85.9493
  0
VERTEX
  8
LAYER_1
 10
122.7788
 20
85.9704
  0
SEQEND
  0
POLYLINE
  8
LAYER_1
 40
0.1693
 41
0.1693
 66
1
 10
0
 20
0
 30
0
  0
VERTEX
  8
LAYER_1
 10
90.1398
 20
104.9993
  0
VERTEX
  8
LAYER_1
 10
90.8807
 20
103.5176
  0
VERTEX
  8
LAYER_1
 10
91.685
 20
102.1206
  0
VERTEX
  8
LAYER_1
 10
92.5317
 20
100.8082
  0
VERTEX
  8
LAYER_1
 10
93.463
 20
99.5806
  0
VERTEX
  8
LAYER_1
 10
94.4367
 20
98.4164
  0
SEQEND
  0
POLYLINE
  8
LAYER_1
 40
0.1693
 41
0.1693
 66
1
 10
0
 20
0
 30
0
  0
VERTEX
  8
LAYER_1
 10
87.9808
 20
107.0736
  0
VERTEX
  8
LAYER_1
 10
87.5998
 20
107.1794
  0
SEQEND
  0
POLYLINE
  8
LAYER_1
 40
0.1693
 41
0.1693
 66
1
 10
0
 20
0
 30
0
  0
VERTEX
  8
LAYER_1
 10
90.0763
 20
105.1474
  0
VERTEX
  8
LAYER_1
 10
90.1398
 20
104.9993
  0
SEQEND
  0
POLYLINE
  8
LAYER_1
 40
0.1693
 41
0.1693
 66
1
 10
0
 20
0
 30
0
  0
VERTEX
  8
LAYER_1
 10
90.0763
 20
105.1474
  0
VERTEX
  8
LAYER_1
 10
90.0552
 20
105.1897
  0
VERTEX
  8
LAYER_1
 10
90.034
 20
105.2321
  0
VERTEX
  8
LAYER_1
 10
90.0128
 20
105.2744
  0
VERTEX
  8
LAYER_1
 10
89.9917
 20
105.2956
  0
VERTEX
  8
LAYER_1
 10
89.9705
 20
105.3379
  0
VERTEX
  8
LAYER_1
 10
89.9705
 20
105.3802
  0
VERTEX
  8
LAYER_1
 10
89.9493
 20
105.4226
  0
VERTEX
  8
LAYER_1
 10
89.907
 20
105.4438
  0
VERTEX
  8
LAYER_1
 10
89.8858
 20
105.4861
  0
VERTEX
  8
LAYER_1
 10
89.8647
 20
105.5284
  0
VERTEX
  8
LAYER_1
 10
89.8435
 20
105.5707
  0
VERTEX
  8
LAYER_1
 10
89.8223
 20
105.5919
  0
VERTEX
  8
LAYER_1
 10
89.8012
 20
105.6342
  0
VERTEX
  8
LAYER_1
 10
89.7588
 20
105.6766
  0
VERTEX
  8
LAYER_1
 10
89.7377
 20
105.7189
  0
VERTEX
  8
LAYER_1
 10
89.7165
 20
105.7401
  0
VERTEX
  8
LAYER_1
 10
89.6742
 20
105.7824
  0
VERTEX
  8
LAYER_1
 10
89.653
 20
105.8247
  0
VERTEX
  8
LAYER_1
 10
89.6318
 20
105.8671
  0
VERTEX
  8
LAYER_1
 10
89.5895
 20
105.9094
  0
VERTEX
  8
LAYER_1
 10
89.5683
 20
105.9306
  0
VERTEX
  8
LAYER_1
 10
89.526
 20
105.9729
  0
VERTEX
  8
LAYER_1
 10
89.5048
 20
106.0153
  0
VERTEX
  8
LAYER_1
 10
89.4625
 20
106.0364
  0
VERTEX
  8
LAYER_1
 10
89.4202
 20
106.0788
  0
VERTEX
  8
LAYER_1
 10
89.399
 20
106.1211
  0
VERTEX
  8
LAYER_1
 10
89.3567
 20
106.1634
  0
VERTEX
  8
LAYER_1
 10
89.3355
 20
106.1846
  0
VERTEX
  8
LAYER_1
 10
89.2932
 20
106.2269
  0
VERTEX
  8
LAYER_1
 10
89.2508
 20
106.2481
  0
VERTEX
  8
LAYER_1
 10
89.2085
 20
106.2904
  0
VERTEX
  8
LAYER_1
 10
89.1873
 20
106.3327
  0
VERTEX
  8
LAYER_1
 10
89.145
 20
106.3539
  0
VERTEX
  8
LAYER_1
 10
89.1027
 20
106.3962
  0
VERTEX
  8
LAYER_1
 10
89.0603
 20
106.4174
  0
VERTEX
  8
LAYER_1
 10
89.0392
 20
106.4597
  0
VERTEX
  8
LAYER_1
 10
88.9968
 20
106.4809
  0
VERTEX
  8
LAYER_1
 10
88.9545
 20
106.5233
  0
VERTEX
  8
LAYER_1
 10
88.9122
 20
106.5444
  0
VERTEX
  8
LAYER_1
 10
88.8698
 20
106.5868
  0
VERTEX
  8
LAYER_1
 10
88.8275
 20
106.6079
  0
VERTEX
  8
LAYER_1
 10
88.7852
 20
106.6291
  0
VERTEX
  8
LAYER_1
 10
88.764
 20
106.6714
  0
VERTEX
  8
LAYER_1
 10
88.7217
 20
106.6926
  0
VERTEX
  8
LAYER_1
 10
88.6793
 20
106.7137
  0
VERTEX
  8
LAYER_1
 10
88.637
 20
106.7349
  0
VERTEX
  8
LAYER_1
 10
88.5947
 20
106.7772
  0
VERTEX
  8
LAYER_1
 10
88.5523
 20
106.7984
  0
VERTEX
  8
LAYER_1
 10
88.51
 20
106.8196
  0
VERTEX
  8
LAYER_1
 10
88.4677
 20
106.8407
  0
VERTEX
  8
LAYER_1
 10
88.4253
 20
106.8619
  0
VERTEX
  8
LAYER_1
 10
88.4042
 20
106.8831
  0
VERTEX
  8
LAYER_1
 10
88.3618
 20
106.9042
  0
VERTEX
  8
LAYER_1
 10
88.3195
 20
106.9254
  0
VERTEX
  8
LAYER_1
 10
88.2772
 20
106.9466
  0
VERTEX
  8
LAYER_1
 10
88.2348
 20
106.9677
  0
VERTEX
  8
LAYER_1
 10
88.1925
 20
106.9889
  0
VERTEX
  8
LAYER_1
 10
88.1713
 20
106.9889
  0
VERTEX
  8
LAYER_1
 10
88.129
 20
107.0101
  0
VERTEX
  8
LAYER_1
 10
88.0867
 20
107.0313
  0
VERTEX
  8
LAYER_1
 10
88.0443
 20
107.0313
  0
VERTEX
  8
LAYER_1
 10
88.002
 20
107.0524
  0
VERTEX
  8
LAYER_1
 10
87.9808
 20
107.0736
  0
SEQEND
  0
POLYLINE
  8
LAYER_1
 40
0.1693
 41
0.1693
 66
1
 10
0
 20
0
 30
0
  0
VERTEX
  8
LAYER_1
 10
112.9787
 20
86.9441
  0
VERTEX
  8
LAYER_1
 10
116.5982
 20
86.4149
  0
SEQEND
  0
POLYLINE
  8
LAYER_1
 40
0.1693
 41
0.1693
 66
1
 10
0
 20
0
 30
0
  0
VERTEX
  8
LAYER_1
 10
164.1173
 20
86.0762
  0
VERTEX
  8
LAYER_1
 10
163.5247
 20
86.0762
  0
VERTEX
  8
LAYER_1
 10
162.932
 20
86.0762
  0
VERTEX
  8
LAYER_1
 10
162.3393
 20
86.0762
  0
VERTEX
  8
LAYER_1
 10
161.7467
 20
86.0762
  0
VERTEX
  8
LAYER_1
 10
161.1752
 20
86.0551
  0
VERTEX
  8
LAYER_1
 10
160.6037
 20
86.0551
  0
VERTEX
  8
LAYER_1
 10
160.0533
 20
86.0339
  0
VERTEX
  8
LAYER_1
 10
159.503
 20
86.0127
  0
VERTEX
  8
LAYER_1
 10
158.9738
 20
85.9704
  0
VERTEX
  8
LAYER_1
 10
158.4447
 20
85.9281
  0
VERTEX
  8
LAYER_1
 10
157.9367
 20
85.8858
  0
VERTEX
  8
LAYER_1
 10
157.4498
 20
85.8434
  0
VERTEX
  8
LAYER_1
 10
156.9842
 20
85.7799
  0
VERTEX
  8
LAYER_1
 10
156.5185
 20
85.7376
  0
VERTEX
  8
LAYER_1
 10
156.0952
 20
85.6529
  0
VERTEX
  8
LAYER_1
 10
155.693
 20
85.5894
  0
VERTEX
  8
LAYER_1
 10
155.312
 20
85.5047
  0
VERTEX
  8
LAYER_1
 10
154.9522
 20
85.4201
  0
SEQEND
  0
POLYLINE
  8
LAYER_1
 40
0.1693
 41
0.1693
 66
1
 10
0
 20
0
 30
0
  0
VERTEX
  8
LAYER_1
 10
154.6135
 20
85.3354
  0
VERTEX
  8
LAYER_1
 10
154.3172
 20
85.2508
  0
VERTEX
  8
LAYER_1
 10
154.0843
 20
85.1873
  0
SEQEND
  0
POLYLINE
  8
LAYER_1
 40
0.1693
 41
0.1693
 66
1
 10
0
 20
0
 30
0
  0
VERTEX
  8
LAYER_1
 10
170.4038
 20
85.9704
  0
VERTEX
  8
LAYER_1
 10
169.7477
 20
85.9704
  0
VERTEX
  8
LAYER_1
 10
169.0915
 20
85.9704
  0
VERTEX
  8
LAYER_1
 10
168.4565
 20
85.9916
  0
VERTEX
  8
LAYER_1
 10
167.8215
 20
86.0127
  0
VERTEX
  8
LAYER_1
 10
167.2077
 20
86.0127
  0
VERTEX
  8
LAYER_1
 10
166.5727
 20
86.0339
  0
VERTEX
  8
LAYER_1
 10
165.9589
 20
86.0339
  0
VERTEX
  8
LAYER_1
 10
165.345
 20
86.0551
  0
VERTEX
  8
LAYER_1
 10
164.7312
 20
86.0551
  0
VERTEX
  8
LAYER_1
 10
164.1173
 20
86.0762
  0
SEQEND
  0
POLYLINE
  8
LAYER_1
 40
0.1693
 41
0.1693
 66
1
 10
0
 20
0
 30
0
  0
VERTEX
  8
LAYER_1
 10
198.746
 20
98.4164
  0
VERTEX
  8
LAYER_1
 10
198.3862
 20
97.9719
  0
VERTEX
  8
LAYER_1
 10
197.7723
 20
97.2099
  0
VERTEX
  8
LAYER_1
 10
197.1374
 20
96.4479
  0
VERTEX
  8
LAYER_1
 10
196.5024
 20
95.7071
  0
VERTEX
  8
LAYER_1
 10
195.825
 20
94.9874
  0
VERTEX
  8
LAYER_1
 10
195.1477
 20
94.3101
  0
VERTEX
  8
LAYER_1
 10
194.7243
 20
93.9291
  0
VERTEX
  8
LAYER_1
 10
194.1952
 20
93.4423
  0
VERTEX
  8
LAYER_1
 10
193.2004
 20
92.6803
  0
VERTEX
  8
LAYER_1
 10
192.1844
 20
91.9606
  0
VERTEX
  8
LAYER_1
 10
191.1049
 20
91.2833
  0
VERTEX
  8
LAYER_1
 10
190.0254
 20
90.6483
  0
VERTEX
  8
LAYER_1
 10
188.9035
 20
90.0556
  0
VERTEX
  8
LAYER_1
 10
188.2473
 20
89.7381
  0
VERTEX
  8
LAYER_1
 10
187.7393
 20
89.4841
  0
VERTEX
  8
LAYER_1
 10
186.8504
 20
89.0819
  0
VERTEX
  8
LAYER_1
 10
185.9825
 20
88.6798
  0
VERTEX
  8
LAYER_1
 10
185.0723
 20
88.3199
  0
VERTEX
  8
LAYER_1
 10
184.1833
 20
88.0024
  0
VERTEX
  8
LAYER_1
 10
183.252
 20
87.6849
  0
VERTEX
  8
LAYER_1
 10
182.7229
 20
87.5368
  0
VERTEX
  8
LAYER_1
 10
182.1725
 20
87.3886
  0
VERTEX
  8
LAYER_1
 10
181.1777
 20
87.1558
  0
VERTEX
  8
LAYER_1
 10
180.204
 20
86.9441
  0
SEQEND
  0
POLYLINE
  8
LAYER_1
 40
0.1693
 41
0.1693
 66
1
 10
0
 20
0
 30
0
  0
VERTEX
  8
LAYER_1
 10
176.5845
 20
86.4149
  0
VERTEX
  8
LAYER_1
 10
174.9759
 20
86.2456
  0
VERTEX
  8
LAYER_1
 10
173.346
 20
86.0762
  0
VERTEX
  8
LAYER_1
 10
171.7374
 20
85.9493
  0
VERTEX
  8
LAYER_1
 10
171.06
 20
85.9493
  0
VERTEX
  8
LAYER_1
 10
170.4038
 20
85.9704
  0
SEQEND
  0
POLYLINE
  8
LAYER_1
 40
0.1693
 41
0.1693
 66
1
 10
0
 20
0
 30
0
  0
VERTEX
  8
LAYER_1
 10
203.0429
 20
104.9993
  0
VERTEX
  8
LAYER_1
 10
202.302
 20
103.5176
  0
VERTEX
  8
LAYER_1
 10
201.4977
 20
102.1206
  0
VERTEX
  8
LAYER_1
 10
200.651
 20
100.8082
  0
VERTEX
  8
LAYER_1
 10
199.7197
 20
99.5806
  0
VERTEX
  8
LAYER_1
 10
198.746
 20
98.4164
  0
SEQEND
  0
POLYLINE
  8
LAYER_1
 40
0.1693
 41
0.1693
 66
1
 10
0
 20
0
 30
0
  0
VERTEX
  8
LAYER_1
 10
205.2018
 20
107.0736
  0
VERTEX
  8
LAYER_1
 10
205.5829
 20
107.1794
  0
SEQEND
  0
POLYLINE
  8
LAYER_1
 40
0.1693
 41
0.1693
 66
1
 10
0
 20
0
 30
0
  0
VERTEX
  8
LAYER_1
 10
203.1063
 20
105.1474
  0
VERTEX
  8
LAYER_1
 10
203.0429
 20
104.9993
  0
SEQEND
  0
POLYLINE
  8
LAYER_1
 40
0.1693
 41
0.1693
 66
1
 10
0
 20
0
 30
0
  0
VERTEX
  8
LAYER_1
 10
205.2018
 20
107.0736
  0
VERTEX
  8
LAYER_1
 10
205.1595
 20
107.0524
  0
VERTEX
  8
LAYER_1
 10
205.1384
 20
107.0313
  0
VERTEX
  8
LAYER_1
 10
205.096
 20
107.0313
  0
VERTEX
  8
LAYER_1
 10
205.0537
 20
107.0101
  0
VERTEX
  8
LAYER_1
 10
205.0114
 20
106.9889
  0
VERTEX
  8
LAYER_1
 10
204.969
 20
106.9678
  0
VERTEX
  8
LAYER_1
 10
204.9479
 20
106.9678
  0
VERTEX
  8
LAYER_1
 10
204.9055
 20
106.9466
  0
VERTEX
  8
LAYER_1
 10
204.8632
 20
106.9254
  0
VERTEX
  8
LAYER_1
 10
204.8208
 20
106.9043
  0
VERTEX
  8
LAYER_1
 10
204.7785
 20
106.8831
  0
VERTEX
  8
LAYER_1
 10
204.7362
 20
106.8619
  0
VERTEX
  8
LAYER_1
 10
204.6938
 20
106.8408
  0
VERTEX
  8
LAYER_1
 10
204.6515
 20
106.8196
  0
VERTEX
  8
LAYER_1
 10
204.6304
 20
106.7984
  0
VERTEX
  8
LAYER_1
 10
204.588
 20
106.7561
  0
VERTEX
  8
LAYER_1
 10
204.5457
 20
106.7349
  0
VERTEX
  8
LAYER_1
 10
204.5034
 20
106.7137
  0
VERTEX
  8
LAYER_1
 10
204.461
 20
106.6926
  0
VERTEX
  8
LAYER_1
 10
204.4187
 20
106.6502
  0
VERTEX
  8
LAYER_1
 10
204.3763
 20
106.6291
  0
VERTEX
  8
LAYER_1
 10
204.334
 20
106.6079
  0
VERTEX
  8
LAYER_1
 10
204.3128
 20
106.5656
  0
SEQEND
  0
POLYLINE
  8
LAYER_1
 40
0.1693
 41
0.1693
 66
1
 10
0
 20
0
 30
0
  0
VERTEX
  8
LAYER_1
 10
204.3128
 20
106.5656
  0
VERTEX
  8
LAYER_1
 10
204.2705
 20
106.5444
  0
VERTEX
  8
LAYER_1
 10
204.2282
 20
106.5021
  0
VERTEX
  8
LAYER_1
 10
204.1858
 20
106.4809
  0
VERTEX
  8
LAYER_1
 10
204.1435
 20
106.4598
  0
VERTEX
  8
LAYER_1
 10
204.1012
 20
106.4174
  0
VERTEX
  8
LAYER_1
 10
204.08
 20
106.3963
  0
VERTEX
  8
LAYER_1
 10
204.0376
 20
106.3539
  0
VERTEX
  8
LAYER_1
 10
203.9953
 20
106.3116
  0
VERTEX
  8
LAYER_1
 10
203.953
 20
106.2904
  0
VERTEX
  8
LAYER_1
 10
203.9318
 20
106.2481
  0
VERTEX
  8
LAYER_1
 10
203.8895
 20
106.2269
  0
VERTEX
  8
LAYER_1
 10
203.8472
 20
106.1846
  0
VERTEX
  8
LAYER_1
 10
203.826
 20
106.1423
  0
VERTEX
  8
LAYER_1
 10
203.7837
 20
106.1211
  0
VERTEX
  8
LAYER_1
 10
203.7413
 20
106.0788
  0
VERTEX
  8
LAYER_1
 10
203.7202
 20
106.0364
  0
VERTEX
  8
LAYER_1
 10
203.6778
 20
105.9941
  0
VERTEX
  8
LAYER_1
 10
203.6567
 20
105.9729
  0
VERTEX
  8
LAYER_1
 10
203.6143
 20
105.9306
  0
VERTEX
  8
LAYER_1
 10
203.5932
 20
105.8883
  0
VERTEX
  8
LAYER_1
 10
203.5508
 20
105.8459
  0
VERTEX
  8
LAYER_1
 10
203.5297
 20
105.8248
  0
VERTEX
  8
LAYER_1
 10
203.4873
 20
105.7825
  0
VERTEX
  8
LAYER_1
 10
203.4661
 20
105.7401
  0
VERTEX
  8
LAYER_1
 10
203.445
 20
105.6978
  0
VERTEX
  8
LAYER_1
 10
203.4026
 20
105.6766
  0
VERTEX
  8
LAYER_1
 10
203.3815
 20
105.6343
  0
VERTEX
  8
LAYER_1
 10
203.3603
 20
105.5919
  0
VERTEX
  8
LAYER_1
 10
203.3392
 20
105.5496
  0
VERTEX
  8
LAYER_1
 10
203.318
 20
105.5284
  0
VERTEX
  8
LAYER_1
 10
203.2757
 20
105.4861
  0
VERTEX
  8
LAYER_1
 10
203.2545
 20
105.4438
  0
VERTEX
  8
LAYER_1
 10
203.2333
 20
105.4014
  0
VERTEX
  8
LAYER_1
 10
203.2122
 20
105.3591
  0
VERTEX
  8
LAYER_1
 10
203.191
 20
105.3379
  0
VERTEX
  8
LAYER_1
 10
203.1698
 20
105.2956
  0
VERTEX
  8
LAYER_1
 10
203.1698
 20
105.2533
  0
VERTEX
  8
LAYER_1
 10
203.1487
 20
105.2321
  0
VERTEX
  8
LAYER_1
 10
203.1275
 20
105.1898
  0
VERTEX
  8
LAYER_1
 10
203.1063
 20
105.1474
  0
SEQEND
  0
POLYLINE
  8
LAYER_1
 40
0.1693
 41
0.1693
 66
1
 10
0
 20
0
 30
0
  0
VERTEX
  8
LAYER_1
 10
180.204
 20
86.9441
  0
VERTEX
  8
LAYER_1
 10
176.5845
 20
86.4149
  0
SEQEND
  0
POLYLINE
  8
LAYER_1
 40
0.0847
 41
0.0847
 66
1
 10
0
 20
0
 30
0
  0
VERTEX
  8
LAYER_1
 10
142.104
 20
83.1764
  0
VERTEX
  8
LAYER_1
 10
141.6171
 20
83.6633
  0
SEQEND
  0
POLYLINE
  8
LAYER_1
 40
0.0847
 41
0.0847
 66
1
 10
0
 20
0
 30
0
  0
VERTEX
  8
LAYER_1
 10
140.6011
 20
84.6793
  0
VERTEX
  8
LAYER_1
 10
140.0931
 20
85.1873
  0
SEQEND
  0
POLYLINE
  8
LAYER_1
 40
0.0847
 41
0.0847
 66
1
 10
0
 20
0
 30
0
  0
VERTEX
  8
LAYER_1
 10
151.0786
 20
83.1764
  0
VERTEX
  8
LAYER_1
 10
151.5655
 20
83.6633
  0
SEQEND
  0
POLYLINE
  8
LAYER_1
 40
0.0847
 41
0.0847
 66
1
 10
0
 20
0
 30
0
  0
VERTEX
  8
LAYER_1
 10
152.5815
 20
84.6793
  0
VERTEX
  8
LAYER_1
 10
153.0895
 20
85.1873
  0
SEQEND
  0
POLYLINE
  8
LAYER_1
 40
0.1693
 41
0.1693
 66
1
 10
0
 20
0
 30
0
  0
VERTEX
  8
LAYER_1
 10
138.6115
 20
83.1764
  0
VERTEX
  8
LAYER_1
 10
138.6115
 20
85.1661
  0
SEQEND
  0
POLYLINE
  8
LAYER_1
 40
0.1693
 41
0.1693
 66
1
 10
0
 20
0
 30
0
  0
VERTEX
  8
LAYER_1
 10
138.6115
 20
83.1764
  0
VERTEX
  8
LAYER_1
 10
154.5712
 20
83.1764
  0
VERTEX
  8
LAYER_1
 10
154.5712
 20
85.1661
  0
SEQEND
  0
INSERT
  8
LAYER_1
  2
AIGNBL01010025
 10
0
 20
0
 30
0
  0
CIRCLE
  8
LAYER_1
  6
AIGENLINE001
 62
1
 10
146.5702
 20
177.778
 40
6.5
  0
TEXT
  8
LAYER_1
 10
129.2013
 20
187.3081
 11
129.2013
 21
187.3081
 40
3.6606
 41
0.5
  1
カウンター開口65-67mm
  0
ENDSEC
  0
EOF
