  0
SECTION
  2
HEADER
  9
$ACADVER
  1
AC1009
  9
$LUNITS
 70
2
  9
$LUPREC
 70
4
  9
$LTSCALE
 40
1.0
  9
$EXTMIN
 10
-33.2277
 20
49.7179
 30
0
  9
$EXTMAX
 10
245.4165
 20
241.0004
 30
0
  0
ENDSEC
  0
SECTION
  2
TABLES
  0
TABLE
  2
LTYPE
 70
256
  0
ENDTAB
  0
TABLE
  2
LAYER
 70
1
  0
LAYER
  2
LAYER_1
 70
64
 62
7
  6
CONTINUOUS
  0
ENDTAB
  0
TABLE
  2
STYLE
 70
6
  0
STYLE
  2
STANDARD
 70
0
 40
0
 50
0
 71
0
 41
0
 42
0
  3
TXT
  4
BIGFONT
  0
ENDTAB
  0
ENDSEC
  0
SECTION
  2
BLOCKS
  0
BLOCK
  8
LAYER_1
  2
AIGNBL01040007
 70
64
 10
0
 20
0
 30
0
  3
AIGNBL01040007
  0
POLYLINE
  8
LAYER_1
 40
0.05
 41
0.05
 66
1
 10
0
 20
0
 30
0
 70
1
  0
VERTEX
  8
LAYER_1
 10
157.5551
 20
53.6067
  0
VERTEX
  8
LAYER_1
 10
157.0662
 20
52.4216
  0
VERTEX
  8
LAYER_1
 10
156.4382
 20
52.4216
  0
VERTEX
  8
LAYER_1
 10
158.0377
 20
56.1874
  0
VERTEX
  8
LAYER_1
 10
158.7709
 20
56.1874
  0
VERTEX
  8
LAYER_1
 10
160.3773
 20
52.4216
  0
VERTEX
  8
LAYER_1
 10
159.7272
 20
52.4216
  0
VERTEX
  8
LAYER_1
 10
159.2246
 20
53.6067
  0
SEQEND
  0
POLYLINE
  8
LAYER_1
 40
0.05
 41
0.05
 66
1
 10
0
 20
0
 30
0
 70
1
  0
VERTEX
  8
LAYER_1
 10
159.0988
 20
53.9856
  0
VERTEX
  8
LAYER_1
 10
158.6379
 20
55.0705
  0
VERTEX
  8
LAYER_1
 10
158.3933
 20
55.7575
  0
VERTEX
  8
LAYER_1
 10
158.3795
 20
55.7575
  0
VERTEX
  8
LAYER_1
 10
158.1418
 20
55.075
  0
VERTEX
  8
LAYER_1
 10
157.6812
 20
53.9856
  0
SEQEND
  0
ENDBLK
  0
BLOCK
  8
LAYER_1
  2
AIGNBL01040008
 70
64
 10
0
 20
0
 30
0
  3
AIGNBL01040008
  0
POLYLINE
  8
LAYER_1
 40
0.05
 41
0.05
 66
1
 10
0
 20
0
 30
0
 70
1
  0
VERTEX
  8
LAYER_1
 10
164.7426
 20
51.8683
 42
-0.01559967508
  0
VERTEX
  8
LAYER_1
 10
162.9405
 20
52.3044
  0
VERTEX
  8
LAYER_1
 10
162.6538
 20
52.3599
 42
-0.08356944747
  0
VERTEX
  8
LAYER_1
 10
161.7898
 20
52.5261
 42
-0.0975043791
  0
VERTEX
  8
LAYER_1
 10
161.1286
 20
52.932
 42
-0.2129077902
  0
VERTEX
  8
LAYER_1
 10
160.5799
 20
54.2647
 42
-0.09684612991
  0
VERTEX
  8
LAYER_1
 10
160.7245
 20
55.0381
 42
-0.2046351071
  0
VERTEX
  8
LAYER_1
 10
161.772
 20
56.0624
 42
-0.09825619238
  0
VERTEX
  8
LAYER_1
 10
162.773
 20
56.2488
 42
-0.08554836282
  0
VERTEX
  8
LAYER_1
 10
163.6416
 20
56.1075
 42
-0.1004347897
  0
VERTEX
  8
LAYER_1
 10
164.3067
 20
55.7132
 42
-0.2140895568
  0
VERTEX
  8
LAYER_1
 10
164.8821
 20
54.3433
 42
-0.09539620281
  0
VERTEX
  8
LAYER_1
 10
164.7432
 20
53.5755
 42
-0.2143310008
  0
VERTEX
  8
LAYER_1
 10
163.7204
 20
52.597
 42
-0.02339132607
  0
VERTEX
  8
LAYER_1
 10
163.5413
 20
52.5387
  0
VERTEX
  8
LAYER_1
 10
163.5413
 20
52.5163
 42
0.01711831943
  0
VERTEX
  8
LAYER_1
 10
164.9176
 20
52.2762
  0
SEQEND
  0
POLYLINE
  8
LAYER_1
 40
0.05
 41
0.05
 66
1
 10
0
 20
0
 30
0
 70
1
  0
VERTEX
  8
LAYER_1
 10
164.2399
 20
54.3219
 42
0.1071511414
  0
VERTEX
  8
LAYER_1
 10
164.0886
 20
55.0267
 42
0.2976450246
  0
VERTEX
  8
LAYER_1
 10
162.7517
 20
55.8522
 42
0.1072291499
  0
VERTEX
  8
LAYER_1
 10
162.0618
 20
55.7127
 42
0.2386106109
  0
VERTEX
  8
LAYER_1
 10
161.2749
 20
54.7071
 42
0.05752849981
  0
VERTEX
  8
LAYER_1
 10
161.2293
 20
54.2771
 42
0.218096749
  0
VERTEX
  8
LAYER_1
 10
161.7599
 20
53.0817
 42
0.1772796408
  0
VERTEX
  8
LAYER_1
 10
162.7237
 20
52.7561
 42
0.1075185771
  0
VERTEX
  8
LAYER_1
 10
163.4051
 20
52.8951
 42
0.2370926009
  0
VERTEX
  8
LAYER_1
 10
164.1922
 20
53.8947
 42
0.05601310134
  0
SEQEND
  0
ENDBLK
  0
BLOCK
  8
LAYER_1
  2
AIGNBL01040009
 70
64
 10
0
 20
0
 30
0
  3
AIGNBL01040009
  0
POLYLINE
  8
LAYER_1
 40
0.05
 41
0.05
 66
1
 10
0
 20
0
 30
0
 70
1
  0
VERTEX
  8
LAYER_1
 10
166.2095
 20
56.1874
  0
VERTEX
  8
LAYER_1
 10
166.2095
 20
53.9581
 42
0.114533087
  0
VERTEX
  8
LAYER_1
 10
166.3434
 20
53.2923
 42
0.1464774934
  0
VERTEX
  8
LAYER_1
 10
166.6938
 20
52.9071
 42
0.1362552487
  0
VERTEX
  8
LAYER_1
 10
167.3061
 20
52.7561
 42
0.1219300979
  0
VERTEX
  8
LAYER_1
 10
167.9292
 20
52.8908
 42
0.1503016186
  0
VERTEX
  8
LAYER_1
 10
168.301
 20
53.2598
 42
0.1256239276
  0
VERTEX
  8
LAYER_1
 10
168.4516
 20
53.9581
  0
VERTEX
  8
LAYER_1
 10
168.4516
 20
56.1874
  0
VERTEX
  8
LAYER_1
 10
169.0662
 20
56.1874
  0
VERTEX
  8
LAYER_1
 10
169.0662
 20
53.9915
 42
-0.09997505101
  0
VERTEX
  8
LAYER_1
 10
168.9313
 20
53.2488
 42
-0.1214984503
  0
VERTEX
  8
LAYER_1
 10
168.558
 20
52.7421
 42
-0.1106235892
  0
VERTEX
  8
LAYER_1
 10
167.9326
 20
52.4355
 42
-0.06128954947
  0
VERTEX
  8
LAYER_1
 10
167.2851
 20
52.3599
 42
-0.09418508724
  0
VERTEX
  8
LAYER_1
 10
166.4659
 20
52.498
 42
-0.2431728796
  0
VERTEX
  8
LAYER_1
 10
165.6624
 20
53.4087
 42
-0.06320085329
  0
VERTEX
  8
LAYER_1
 10
165.5949
 20
53.9695
  0
VERTEX
  8
LAYER_1
 10
165.5949
 20
56.1874
  0
SEQEND
  0
ENDBLK
  0
BLOCK
  8
LAYER_1
  2
AIGNBL0104000A
 70
64
 10
0
 20
0
 30
0
  3
AIGNBL0104000A
  0
POLYLINE
  8
LAYER_1
 40
0.05
 41
0.05
 66
1
 10
0
 20
0
 30
0
 70
1
  0
VERTEX
  8
LAYER_1
 10
170.8125
 20
53.6067
  0
VERTEX
  8
LAYER_1
 10
170.3233
 20
52.4216
  0
VERTEX
  8
LAYER_1
 10
169.6953
 20
52.4216
  0
VERTEX
  8
LAYER_1
 10
171.2945
 20
56.1874
  0
VERTEX
  8
LAYER_1
 10
172.0276
 20
56.1874
  0
VERTEX
  8
LAYER_1
 10
173.634
 20
52.4216
  0
VERTEX
  8
LAYER_1
 10
172.9846
 20
52.4216
  0
VERTEX
  8
LAYER_1
 10
172.482
 20
53.6067
  0
SEQEND
  0
POLYLINE
  8
LAYER_1
 40
0.05
 41
0.05
 66
1
 10
0
 20
0
 30
0
 70
1
  0
VERTEX
  8
LAYER_1
 10
172.3559
 20
53.9856
  0
VERTEX
  8
LAYER_1
 10
171.8946
 20
55.0705
  0
VERTEX
  8
LAYER_1
 10
171.65
 20
55.7575
  0
VERTEX
  8
LAYER_1
 10
171.6362
 20
55.7575
  0
VERTEX
  8
LAYER_1
 10
171.3989
 20
55.075
  0
VERTEX
  8
LAYER_1
 10
170.9379
 20
53.9856
  0
SEQEND
  0
ENDBLK
  0
BLOCK
  8
LAYER_1
  2
AIGNBL0104000B
 70
64
 10
0
 20
0
 30
0
  3
AIGNBL0104000B
  0
POLYLINE
  8
LAYER_1
 40
0.05
 41
0.05
 66
1
 10
0
 20
0
 30
0
 70
1
  0
VERTEX
  8
LAYER_1
 10
174.6748
 20
56.1426
 42
-0.03245981043
  0
VERTEX
  8
LAYER_1
 10
175.8416
 20
56.2157
 42
-0.08081710393
  0
VERTEX
  8
LAYER_1
 10
176.7981
 20
56.0839
 42
-0.07812211839
  0
VERTEX
  8
LAYER_1
 10
177.1615
 20
55.9029
 42
-0.2483368586
  0
VERTEX
  8
LAYER_1
 10
177.5731
 20
55.1146
 42
-0.226147
  0
VERTEX
  8
LAYER_1
 10
177.21
 20
54.3105
 42
-0.1097236176
  0
VERTEX
  8
LAYER_1
 10
176.5818
 20
53.9972
 42
-0.06566039781
  0
VERTEX
  8
LAYER_1
 10
175.7714
 20
53.8968
 42
-0.06232747682
  0
VERTEX
  8
LAYER_1
 10
175.2828
 20
53.9302
  0
VERTEX
  8
LAYER_1
 10
175.2828
 20
52.4216
  0
VERTEX
  8
LAYER_1
 10
174.6748
 20
52.4216
  0
SEQEND
  0
POLYLINE
  8
LAYER_1
 40
0.05
 41
0.05
 66
1
 10
0
 20
0
 30
0
 70
1
  0
VERTEX
  8
LAYER_1
 10
175.2828
 20
54.3271
 42
0.04202445636
  0
VERTEX
  8
LAYER_1
 10
175.7852
 20
54.2878
 42
0.1032333559
  0
VERTEX
  8
LAYER_1
 10
176.5043
 20
54.4151
 42
0.1555698608
  0
VERTEX
  8
LAYER_1
 10
176.8691
 20
54.7196
 42
0.1352698132
  0
VERTEX
  8
LAYER_1
 10
176.9661
 20
55.0922
 42
0.1736824711
  0
VERTEX
  8
LAYER_1
 10
176.8313
 20
55.4995
 42
0.151721714
  0
VERTEX
  8
LAYER_1
 10
176.4102
 20
55.759
 42
0.06880216409
  0
VERTEX
  8
LAYER_1
 10
175.8558
 20
55.8298
 42
0.06336772289
  0
VERTEX
  8
LAYER_1
 10
175.2828
 20
55.7906
  0
SEQEND
  0
ENDBLK
  0
BLOCK
  8
LAYER_1
  2
AIGNBL0104000C
 70
64
 10
0
 20
0
 30
0
  3
AIGNBL0104000C
  0
POLYLINE
  8
LAYER_1
 40
0.05
 41
0.05
 66
1
 10
0
 20
0
 30
0
 70
1
  0
VERTEX
  8
LAYER_1
 10
179.1252
 20
55.8856
 42
-0.276560599
  0
VERTEX
  8
LAYER_1
 10
178.9856
 20
55.6455
 42
-0.1265502936
  0
VERTEX
  8
LAYER_1
 10
178.7335
 20
55.5838
 42
-0.22367962
  0
VERTEX
  8
LAYER_1
 10
178.4232
 20
55.7162
 42
-0.1709078449
  0
VERTEX
  8
LAYER_1
 10
178.3631
 20
55.8856
 42
-0.2643879937
  0
VERTEX
  8
LAYER_1
 10
178.5125
 20
56.1327
 42
-0.1290073663
  0
VERTEX
  8
LAYER_1
 10
178.7472
 20
56.1926
 42
-0.2253241111
  0
VERTEX
  8
LAYER_1
 10
179.0641
 20
56.0619
 42
-0.1691304651
  0
SEQEND
  0
POLYLINE
  8
LAYER_1
 40
0.05
 41
0.05
 66
1
 10
0
 20
0
 30
0
 70
1
  0
VERTEX
  8
LAYER_1
 10
178.4396
 20
52.4216
  0
VERTEX
  8
LAYER_1
 10
178.4396
 20
55.1256
  0
VERTEX
  8
LAYER_1
 10
179.0542
 20
55.1256
  0
VERTEX
  8
LAYER_1
 10
179.0542
 20
52.4216
  0
SEQEND
  0
ENDBLK
  0
BLOCK
  8
LAYER_1
  2
AIGNBL0104000D
 70
64
 10
0
 20
0
 30
0
  3
AIGNBL0104000D
  0
POLYLINE
  8
LAYER_1
 40
0.05
 41
0.05
 66
1
 10
0
 20
0
 30
0
 70
1
  0
VERTEX
  8
LAYER_1
 10
180.9259
 20
53.6067
  0
VERTEX
  8
LAYER_1
 10
180.4377
 20
52.4216
  0
VERTEX
  8
LAYER_1
 10
179.8087
 20
52.4216
  0
VERTEX
  8
LAYER_1
 10
181.4082
 20
56.1874
  0
VERTEX
  8
LAYER_1
 10
182.142
 20
56.1874
  0
VERTEX
  8
LAYER_1
 10
183.7485
 20
52.4216
  0
VERTEX
  8
LAYER_1
 10
183.0987
 20
52.4216
  0
VERTEX
  8
LAYER_1
 10
182.5961
 20
53.6067
  0
SEQEND
  0
POLYLINE
  8
LAYER_1
 40
0.05
 41
0.05
 66
1
 10
0
 20
0
 30
0
 70
1
  0
VERTEX
  8
LAYER_1
 10
182.47
 20
53.9856
  0
VERTEX
  8
LAYER_1
 10
182.009
 20
55.0705
  0
VERTEX
  8
LAYER_1
 10
181.7651
 20
55.7575
  0
VERTEX
  8
LAYER_1
 10
181.7503
 20
55.7575
  0
VERTEX
  8
LAYER_1
 10
181.5133
 20
55.075
  0
VERTEX
  8
LAYER_1
 10
181.0523
 20
53.9856
  0
SEQEND
  0
ENDBLK
  0
BLOCK
  8
LAYER_1
  2
AIGNBL01030006
 70
64
 10
0
 20
0
 30
0
  3
AIGNBL01030006
  0
INSERT
  8
LAYER_1
  2
AIGNBL01040007
 10
0
 20
0
 30
0
  0
INSERT
  8
LAYER_1
  2
AIGNBL01040008
 10
0
 20
0
 30
0
  0
INSERT
  8
LAYER_1
  2
AIGNBL01040009
 10
0
 20
0
 30
0
  0
INSERT
  8
LAYER_1
  2
AIGNBL0104000A
 10
0
 20
0
 30
0
  0
INSERT
  8
LAYER_1
  2
AIGNBL0104000B
 10
0
 20
0
 30
0
  0
INSERT
  8
LAYER_1
  2
AIGNBL0104000C
 10
0
 20
0
 30
0
  0
INSERT
  8
LAYER_1
  2
AIGNBL0104000D
 10
0
 20
0
 30
0
  0
ENDBLK
  0
BLOCK
  8
LAYER_1
  2
AIGNBL0103000F
 70
64
 10
0
 20
0
 30
0
  3
AIGNBL0103000F
  0
POLYLINE
  8
LAYER_1
 40
0.05
 41
0.05
 66
1
 10
0
 20
0
 30
0
 70
1
  0
VERTEX
  8
LAYER_1
 10
156.5481
 20
50.5223
  0
VERTEX
  8
LAYER_1
 10
157.1013
 20
50.5223
  0
VERTEX
  8
LAYER_1
 10
157.1013
 20
50.4286
  0
VERTEX
  8
LAYER_1
 10
156.443
 20
50.4286
  0
VERTEX
  8
LAYER_1
 10
156.443
 20
51.4618
  0
VERTEX
  8
LAYER_1
 10
157.0838
 20
51.4618
  0
VERTEX
  8
LAYER_1
 10
157.0838
 20
51.3684
  0
VERTEX
  8
LAYER_1
 10
156.5481
 20
51.3684
  0
VERTEX
  8
LAYER_1
 10
156.5481
 20
51.0139
  0
VERTEX
  8
LAYER_1
 10
157.0486
 20
51.0139
  0
VERTEX
  8
LAYER_1
 10
157.0486
 20
50.9206
  0
VERTEX
  8
LAYER_1
 10
156.5481
 20
50.9206
  0
SEQEND
  0
ENDBLK
  0
BLOCK
  8
LAYER_1
  2
AIGNBL01030010
 70
64
 10
0
 20
0
 30
0
  3
AIGNBL01030010
  0
POLYLINE
  8
LAYER_1
 40
0.05
 41
0.05
 66
1
 10
0
 20
0
 30
0
 70
1
  0
VERTEX
  8
LAYER_1
 10
158.241
 20
50.5819
  0
VERTEX
  8
LAYER_1
 10
158.2438
 20
50.5819
  0
VERTEX
  8
LAYER_1
 10
158.2438
 20
51.4618
  0
VERTEX
  8
LAYER_1
 10
158.3488
 20
51.4618
  0
VERTEX
  8
LAYER_1
 10
158.3488
 20
50.4286
  0
VERTEX
  8
LAYER_1
 10
158.2179
 20
50.4286
  0
VERTEX
  8
LAYER_1
 10
157.6168
 20
51.3174
  0
VERTEX
  8
LAYER_1
 10
157.6133
 20
51.3174
  0
VERTEX
  8
LAYER_1
 10
157.6133
 20
50.4286
  0
VERTEX
  8
LAYER_1
 10
157.5086
 20
50.4286
  0
VERTEX
  8
LAYER_1
 10
157.5086
 20
51.4618
  0
VERTEX
  8
LAYER_1
 10
157.6398
 20
51.4618
  0
SEQEND
  0
ENDBLK
  0
BLOCK
  8
LAYER_1
  2
AIGNBL01030011
 70
64
 10
0
 20
0
 30
0
  3
AIGNBL01030011
  0
POLYLINE
  8
LAYER_1
 40
0.05
 41
0.05
 66
1
 10
0
 20
0
 30
0
 70
1
  0
VERTEX
  8
LAYER_1
 10
158.8218
 20
50.6405
  0
VERTEX
  8
LAYER_1
 10
158.8763
 20
50.5375
 42
0.1809219053
  0
VERTEX
  8
LAYER_1
 10
158.9896
 20
50.4958
  0
VERTEX
  8
LAYER_1
 10
159.0788
 20
50.5154
  0
VERTEX
  8
LAYER_1
 10
159.135
 20
50.5688
  0
VERTEX
  8
LAYER_1
 10
159.1639
 20
50.6453
  0
VERTEX
  8
LAYER_1
 10
159.1722
 20
50.7349
  0
VERTEX
  8
LAYER_1
 10
159.1722
 20
51.4618
  0
VERTEX
  8
LAYER_1
 10
159.2773
 20
51.4618
  0
VERTEX
  8
LAYER_1
 10
159.2773
 20
50.7263
  0
VERTEX
  8
LAYER_1
 10
159.2659
 20
50.6184
  0
VERTEX
  8
LAYER_1
 10
159.2246
 20
50.5134
  0
VERTEX
  8
LAYER_1
 10
159.1398
 20
50.4338
  0
VERTEX
  8
LAYER_1
 10
159.001
 20
50.4024
 42
-0.1846674817
  0
VERTEX
  8
LAYER_1
 10
158.8163
 20
50.4624
 42
-0.1764563828
  0
VERTEX
  8
LAYER_1
 10
158.724
 20
50.6139
  0
SEQEND
  0
ENDBLK
  0
BLOCK
  8
LAYER_1
  2
AIGNBL01030012
 70
64
 10
0
 20
0
 30
0
  3
AIGNBL01030012
  0
POLYLINE
  8
LAYER_1
 40
0.05
 41
0.05
 66
1
 10
0
 20
0
 30
0
 70
1
  0
VERTEX
  8
LAYER_1
 10
160.7656
 20
50.9454
 42
-0.103587114
  0
VERTEX
  8
LAYER_1
 10
160.7246
 20
50.728
 42
-0.1000549391
  0
VERTEX
  8
LAYER_1
 10
160.6119
 20
50.5564
  0
VERTEX
  8
LAYER_1
 10
160.441
 20
50.4434
 42
-0.09506675375
  0
VERTEX
  8
LAYER_1
 10
160.2271
 20
50.4024
 42
-0.1010765979
  0
VERTEX
  8
LAYER_1
 10
160.0135
 20
50.4434
 42
-0.1005668876
  0
VERTEX
  8
LAYER_1
 10
159.8426
 20
50.5564
 42
-0.09506076213
  0
VERTEX
  8
LAYER_1
 10
159.7293
 20
50.728
 42
-0.0931359716
  0
VERTEX
  8
LAYER_1
 10
159.6886
 20
50.9454
 42
-0.1020962526
  0
VERTEX
  8
LAYER_1
 10
159.7293
 20
51.1628
 42
-0.1007559602
  0
VERTEX
  8
LAYER_1
 10
159.8426
 20
51.3343
 42
-0.09625543395
  0
VERTEX
  8
LAYER_1
 10
160.0135
 20
51.4473
 42
-0.0952064105
  0
VERTEX
  8
LAYER_1
 10
160.2271
 20
51.4883
 42
-0.101175466
  0
VERTEX
  8
LAYER_1
 10
160.441
 20
51.4473
 42
-0.09853409661
  0
VERTEX
  8
LAYER_1
 10
160.6119
 20
51.3343
 42
-0.09562840933
  0
VERTEX
  8
LAYER_1
 10
160.7246
 20
51.1628
 42
-0.09393796777
  0
SEQEND
  0
POLYLINE
  8
LAYER_1
 40
0.05
 41
0.05
 66
1
 10
0
 20
0
 30
0
 70
1
  0
VERTEX
  8
LAYER_1
 10
160.6546
 20
50.9447
  0
VERTEX
  8
LAYER_1
 10
160.6257
 20
51.1166
  0
VERTEX
  8
LAYER_1
 10
160.5409
 20
51.2599
  0
VERTEX
  8
LAYER_1
 10
160.4059
 20
51.3581
  0
VERTEX
  8
LAYER_1
 10
160.2271
 20
51.395
  0
VERTEX
  8
LAYER_1
 10
160.0483
 20
51.3581
  0
VERTEX
  8
LAYER_1
 10
159.9136
 20
51.2599
  0
VERTEX
  8
LAYER_1
 10
159.8289
 20
51.1166
  0
VERTEX
  8
LAYER_1
 10
159.7996
 20
50.9447
  0
VERTEX
  8
LAYER_1
 10
159.8289
 20
50.7728
  0
VERTEX
  8
LAYER_1
 10
159.9136
 20
50.6298
  0
VERTEX
  8
LAYER_1
 10
160.0483
 20
50.5323
 42
0.1008257054
  0
VERTEX
  8
LAYER_1
 10
160.2271
 20
50.4958
  0
VERTEX
  8
LAYER_1
 10
160.4059
 20
50.5323
  0
VERTEX
  8
LAYER_1
 10
160.5409
 20
50.6298
  0
VERTEX
  8
LAYER_1
 10
160.6257
 20
50.7728
  0
SEQEND
  0
ENDBLK
  0
BLOCK
  8
LAYER_1
  2
AIGNBL01030013
 70
64
 10
0
 20
0
 30
0
  3
AIGNBL01030013
  0
POLYLINE
  8
LAYER_1
 40
0.05
 41
0.05
 66
1
 10
0
 20
0
 30
0
 70
1
  0
VERTEX
  8
LAYER_1
 10
161.5404
 20
50.4286
  0
VERTEX
  8
LAYER_1
 10
161.4356
 20
50.4286
  0
VERTEX
  8
LAYER_1
 10
161.4356
 20
50.874
  0
VERTEX
  8
LAYER_1
 10
161.0488
 20
51.4618
  0
VERTEX
  8
LAYER_1
 10
161.18
 20
51.4618
  0
VERTEX
  8
LAYER_1
 10
161.4911
 20
50.9616
  0
VERTEX
  8
LAYER_1
 10
161.8046
 20
51.4618
  0
VERTEX
  8
LAYER_1
 10
161.9269
 20
51.4618
  0
VERTEX
  8
LAYER_1
 10
161.5404
 20
50.874
  0
SEQEND
  0
ENDBLK
  0
BLOCK
  8
LAYER_1
  2
AIGNBL01030014
 70
64
 10
0
 20
0
 30
0
  3
AIGNBL01030014
  0
POLYLINE
  8
LAYER_1
 40
0.05
 41
0.05
 66
1
 10
0
 20
0
 30
0
 70
1
  0
VERTEX
  8
LAYER_1
 10
162.8319
 20
51.4618
  0
VERTEX
  8
LAYER_1
 10
163.1396
 20
51.4618
  0
VERTEX
  8
LAYER_1
 10
163.2581
 20
51.4494
  0
VERTEX
  8
LAYER_1
 10
163.3649
 20
51.407
  0
VERTEX
  8
LAYER_1
 10
163.4427
 20
51.3261
  0
VERTEX
  8
LAYER_1
 10
163.4724
 20
51.1979
 42
-0.1787887146
  0
VERTEX
  8
LAYER_1
 10
163.4224
 20
51.0556
 42
-0.1642670326
  0
VERTEX
  8
LAYER_1
 10
163.2891
 20
50.976
  0
VERTEX
  8
LAYER_1
 10
163.2891
 20
50.9733
 42
-0.1734673322
  0
VERTEX
  8
LAYER_1
 10
163.4558
 20
50.8951
 42
-0.1923137572
  0
VERTEX
  8
LAYER_1
 10
163.522
 20
50.7146
  0
VERTEX
  8
LAYER_1
 10
163.4948
 20
50.5974
  0
VERTEX
  8
LAYER_1
 10
163.4186
 20
50.5068
  0
VERTEX
  8
LAYER_1
 10
163.2977
 20
50.4493
  0
VERTEX
  8
LAYER_1
 10
163.1379
 20
50.4286
  0
VERTEX
  8
LAYER_1
 10
162.8319
 20
50.4286
  0
SEQEND
  0
POLYLINE
  8
LAYER_1
 40
0.05
 41
0.05
 66
1
 10
0
 20
0
 30
0
 70
1
  0
VERTEX
  8
LAYER_1
 10
162.937
 20
51.0094
  0
VERTEX
  8
LAYER_1
 10
163.1485
 20
51.0094
  0
VERTEX
  8
LAYER_1
 10
163.2254
 20
51.0184
  0
VERTEX
  8
LAYER_1
 10
163.2956
 20
51.048
  0
VERTEX
  8
LAYER_1
 10
163.3477
 20
51.1045
  0
VERTEX
  8
LAYER_1
 10
163.3673
 20
51.1907
  0
VERTEX
  8
LAYER_1
 10
163.3477
 20
51.2744
  0
VERTEX
  8
LAYER_1
 10
163.2946
 20
51.3305
  0
VERTEX
  8
LAYER_1
 10
163.2157
 20
51.3619
  0
VERTEX
  8
LAYER_1
 10
163.1192
 20
51.3715
  0
VERTEX
  8
LAYER_1
 10
162.937
 20
51.3715
  0
SEQEND
  0
POLYLINE
  8
LAYER_1
 40
0.05
 41
0.05
 66
1
 10
0
 20
0
 30
0
 70
1
  0
VERTEX
  8
LAYER_1
 10
162.937
 20
50.5192
  0
VERTEX
  8
LAYER_1
 10
163.1327
 20
50.5192
  0
VERTEX
  8
LAYER_1
 10
163.2412
 20
50.5302
  0
VERTEX
  8
LAYER_1
 10
163.3318
 20
50.565
  0
VERTEX
  8
LAYER_1
 10
163.3935
 20
50.6281
  0
VERTEX
  8
LAYER_1
 10
163.4169
 20
50.7208
 42
0.2554060681
  0
VERTEX
  8
LAYER_1
 10
163.3477
 20
50.873
 42
0.1380642909
  0
VERTEX
  8
LAYER_1
 10
163.1516
 20
50.9233
  0
VERTEX
  8
LAYER_1
 10
162.937
 20
50.9233
  0
SEQEND
  0
ENDBLK
  0
BLOCK
  8
LAYER_1
  2
AIGNBL01030015
 70
64
 10
0
 20
0
 30
0
  3
AIGNBL01030015
  0
POLYLINE
  8
LAYER_1
 40
0.05
 41
0.05
 66
1
 10
0
 20
0
 30
0
 70
1
  0
VERTEX
  8
LAYER_1
 10
163.954
 20
50.4286
  0
VERTEX
  8
LAYER_1
 10
163.8386
 20
50.4286
  0
VERTEX
  8
LAYER_1
 10
164.2854
 20
51.4618
  0
VERTEX
  8
LAYER_1
 10
164.3877
 20
51.4618
  0
VERTEX
  8
LAYER_1
 10
164.8311
 20
50.4286
  0
VERTEX
  8
LAYER_1
 10
164.7143
 20
50.4286
  0
VERTEX
  8
LAYER_1
 10
164.6003
 20
50.7001
  0
VERTEX
  8
LAYER_1
 10
164.0663
 20
50.7001
  0
SEQEND
  0
POLYLINE
  8
LAYER_1
 40
0.05
 41
0.05
 66
1
 10
0
 20
0
 30
0
 70
1
  0
VERTEX
  8
LAYER_1
 10
164.1056
 20
50.7965
  0
VERTEX
  8
LAYER_1
 10
164.561
 20
50.7965
  0
VERTEX
  8
LAYER_1
 10
164.3333
 20
51.3454
  0
SEQEND
  0
ENDBLK
  0
BLOCK
  8
LAYER_1
  2
AIGNBL01030016
 70
64
 10
0
 20
0
 30
0
  3
AIGNBL01030016
  0
POLYLINE
  8
LAYER_1
 40
0.05
 41
0.05
 66
1
 10
0
 20
0
 30
0
 70
1
  0
VERTEX
  8
LAYER_1
 10
165.5157
 20
50.4286
  0
VERTEX
  8
LAYER_1
 10
165.4106
 20
50.4286
  0
VERTEX
  8
LAYER_1
 10
165.4106
 20
51.3684
  0
VERTEX
  8
LAYER_1
 10
165.0644
 20
51.3684
  0
VERTEX
  8
LAYER_1
 10
165.0644
 20
51.4618
  0
VERTEX
  8
LAYER_1
 10
165.8612
 20
51.4618
  0
VERTEX
  8
LAYER_1
 10
165.8612
 20
51.3684
  0
VERTEX
  8
LAYER_1
 10
165.5157
 20
51.3684
  0
SEQEND
  0
ENDBLK
  0
BLOCK
  8
LAYER_1
  2
AIGNBL01030017
 70
64
 10
0
 20
0
 30
0
  3
AIGNBL01030017
  0
POLYLINE
  8
LAYER_1
 40
0.05
 41
0.05
 66
1
 10
0
 20
0
 30
0
 70
1
  0
VERTEX
  8
LAYER_1
 10
166.2174
 20
51.4618
  0
VERTEX
  8
LAYER_1
 10
166.3221
 20
51.4618
  0
VERTEX
  8
LAYER_1
 10
166.3221
 20
51.0139
  0
VERTEX
  8
LAYER_1
 10
166.8858
 20
51.0139
  0
VERTEX
  8
LAYER_1
 10
166.8858
 20
51.4618
  0
VERTEX
  8
LAYER_1
 10
166.9908
 20
51.4618
  0
VERTEX
  8
LAYER_1
 10
166.9908
 20
50.4286
  0
VERTEX
  8
LAYER_1
 10
166.8858
 20
50.4286
  0
VERTEX
  8
LAYER_1
 10
166.8858
 20
50.9178
  0
VERTEX
  8
LAYER_1
 10
166.3221
 20
50.9178
  0
VERTEX
  8
LAYER_1
 10
166.3221
 20
50.4286
  0
VERTEX
  8
LAYER_1
 10
166.2174
 20
50.4286
  0
SEQEND
  0
ENDBLK
  0
BLOCK
  8
LAYER_1
  2
AIGNBL01030018
 70
64
 10
0
 20
0
 30
0
  3
AIGNBL01030018
  0
POLYLINE
  8
LAYER_1
 40
0.05
 41
0.05
 66
1
 10
0
 20
0
 30
0
 70
1
  0
VERTEX
  8
LAYER_1
 10
167.5713
 20
50.4286
  0
VERTEX
  8
LAYER_1
 10
167.4663
 20
50.4286
  0
VERTEX
  8
LAYER_1
 10
167.4663
 20
51.4618
  0
VERTEX
  8
LAYER_1
 10
167.7701
 20
51.4618
  0
VERTEX
  8
LAYER_1
 10
167.9107
 20
51.4473
  0
VERTEX
  8
LAYER_1
 10
168.0233
 20
51.3998
  0
VERTEX
  8
LAYER_1
 10
168.0967
 20
51.3143
  0
VERTEX
  8
LAYER_1
 10
168.1229
 20
51.1862
  0
VERTEX
  8
LAYER_1
 10
168.1029
 20
51.0825
  0
VERTEX
  8
LAYER_1
 10
168.0475
 20
51.0015
  0
VERTEX
  8
LAYER_1
 10
167.9641
 20
50.9467
  0
VERTEX
  8
LAYER_1
 10
167.859
 20
50.9206
  0
VERTEX
  8
LAYER_1
 10
168.1611
 20
50.4286
  0
VERTEX
  8
LAYER_1
 10
168.0327
 20
50.4286
  0
VERTEX
  8
LAYER_1
 10
167.7467
 20
50.9116
  0
VERTEX
  8
LAYER_1
 10
167.5713
 20
50.9116
  0
SEQEND
  0
POLYLINE
  8
LAYER_1
 40
0.05
 41
0.05
 66
1
 10
0
 20
0
 30
0
 70
1
  0
VERTEX
  8
LAYER_1
 10
167.5713
 20
51.0022
  0
VERTEX
  8
LAYER_1
 10
167.7539
 20
51.0022
 42
0.1657798624
  0
VERTEX
  8
LAYER_1
 10
167.9496
 20
51.048
 42
0.2503949893
  0
VERTEX
  8
LAYER_1
 10
168.0182
 20
51.1862
  0
VERTEX
  8
LAYER_1
 10
167.9989
 20
51.272
  0
VERTEX
  8
LAYER_1
 10
167.9465
 20
51.3292
  0
VERTEX
  8
LAYER_1
 10
167.8649
 20
51.3612
  0
VERTEX
  8
LAYER_1
 10
167.7584
 20
51.3715
  0
VERTEX
  8
LAYER_1
 10
167.5713
 20
51.3715
  0
SEQEND
  0
ENDBLK
  0
BLOCK
  8
LAYER_1
  2
AIGNBL01030019
 70
64
 10
0
 20
0
 30
0
  3
AIGNBL01030019
  0
POLYLINE
  8
LAYER_1
 40
0.05
 41
0.05
 66
1
 10
0
 20
0
 30
0
 70
1
  0
VERTEX
  8
LAYER_1
 10
169.5633
 20
50.9454
 42
-0.1000954639
  0
VERTEX
  8
LAYER_1
 10
169.5227
 20
50.728
 42
-0.1001905425
  0
VERTEX
  8
LAYER_1
 10
169.4093
 20
50.5564
 42
-0.09598116796
  0
VERTEX
  8
LAYER_1
 10
169.2388
 20
50.4434
 42
-0.09506675375
  0
VERTEX
  8
LAYER_1
 10
169.0249
 20
50.4024
 42
-0.1012184087
  0
VERTEX
  8
LAYER_1
 10
168.8109
 20
50.4434
 42
-0.1000476754
  0
VERTEX
  8
LAYER_1
 10
168.6404
 20
50.5564
 42
-0.09638651026
  0
VERTEX
  8
LAYER_1
 10
168.5274
 20
50.728
 42
-0.0931359716
  0
VERTEX
  8
LAYER_1
 10
168.4867
 20
50.9454
 42
-0.1020962526
  0
VERTEX
  8
LAYER_1
 10
168.5274
 20
51.1628
 42
-0.101889112
  0
VERTEX
  8
LAYER_1
 10
168.6404
 20
51.3343
 42
-0.09563682649
  0
VERTEX
  8
LAYER_1
 10
168.8109
 20
51.4473
 42
-0.0950295922
  0
VERTEX
  8
LAYER_1
 10
169.0249
 20
51.4883
 42
-0.101175466
  0
VERTEX
  8
LAYER_1
 10
169.2388
 20
51.4473
 42
-0.101575919
  0
VERTEX
  8
LAYER_1
 10
169.4093
 20
51.3343
 42
-0.09449174073
  0
VERTEX
  8
LAYER_1
 10
169.5227
 20
51.1628
 42
-0.09273041258
  0
SEQEND
  0
POLYLINE
  8
LAYER_1
 40
0.05
 41
0.05
 66
1
 10
0
 20
0
 30
0
 70
1
  0
VERTEX
  8
LAYER_1
 10
169.4524
 20
50.9447
  0
VERTEX
  8
LAYER_1
 10
169.4231
 20
51.1166
  0
VERTEX
  8
LAYER_1
 10
169.3383
 20
51.2599
  0
VERTEX
  8
LAYER_1
 10
169.2036
 20
51.3581
  0
VERTEX
  8
LAYER_1
 10
169.0249
 20
51.395
  0
VERTEX
  8
LAYER_1
 10
168.846
 20
51.3581
  0
VERTEX
  8
LAYER_1
 10
168.711
 20
51.2599
  0
VERTEX
  8
LAYER_1
 10
168.6262
 20
51.1166
  0
VERTEX
  8
LAYER_1
 10
168.5973
 20
50.9447
  0
VERTEX
  8
LAYER_1
 10
168.6262
 20
50.7728
  0
VERTEX
  8
LAYER_1
 10
168.711
 20
50.6298
  0
VERTEX
  8
LAYER_1
 10
168.846
 20
50.5323
  0
VERTEX
  8
LAYER_1
 10
169.0249
 20
50.4958
  0
VERTEX
  8
LAYER_1
 10
169.2036
 20
50.5323
  0
VERTEX
  8
LAYER_1
 10
169.3383
 20
50.6298
  0
VERTEX
  8
LAYER_1
 10
169.4231
 20
50.7728
  0
SEQEND
  0
ENDBLK
  0
BLOCK
  8
LAYER_1
  2
AIGNBL0103001A
 70
64
 10
0
 20
0
 30
0
  3
AIGNBL0103001A
  0
POLYLINE
  8
LAYER_1
 40
0.05
 41
0.05
 66
1
 10
0
 20
0
 30
0
 70
1
  0
VERTEX
  8
LAYER_1
 10
171.0051
 20
50.9454
 42
-0.1041417444
  0
VERTEX
  8
LAYER_1
 10
170.9641
 20
50.728
 42
-0.1000549391
  0
VERTEX
  8
LAYER_1
 10
170.8514
 20
50.5564
 42
-0.09536478376
  0
VERTEX
  8
LAYER_1
 10
170.6805
 20
50.4434
 42
-0.09507606236
  0
VERTEX
  8
LAYER_1
 10
170.4666
 20
50.4024
 42
-0.101822328
  0
VERTEX
  8
LAYER_1
 10
170.253
 20
50.4434
 42
-0.102112669
  0
VERTEX
  8
LAYER_1
 10
170.0821
 20
50.5564
 42
-0.09442769366
  0
VERTEX
  8
LAYER_1
 10
169.9688
 20
50.728
 42
-0.0931359716
  0
VERTEX
  8
LAYER_1
 10
169.9281
 20
50.9454
 42
-0.1020962526
  0
VERTEX
  8
LAYER_1
 10
169.9688
 20
51.1628
 42
-0.1007688052
  0
VERTEX
  8
LAYER_1
 10
170.0821
 20
51.3343
 42
-0.09625543395
  0
VERTEX
  8
LAYER_1
 10
170.253
 20
51.4473
 42
-0.09528409444
  0
VERTEX
  8
LAYER_1
 10
170.4666
 20
51.4883
 42
-0.101185532
  0
VERTEX
  8
LAYER_1
 10
170.6805
 20
51.4473
 42
-0.09904343471
  0
VERTEX
  8
LAYER_1
 10
170.8514
 20
51.3343
 42
-0.09562840933
  0
VERTEX
  8
LAYER_1
 10
170.9641
 20
51.1628
 42
-0.09397287008
  0
SEQEND
  0
POLYLINE
  8
LAYER_1
 40
0.05
 41
0.05
 66
1
 10
0
 20
0
 30
0
 70
1
  0
VERTEX
  8
LAYER_1
 10
170.8941
 20
50.9447
  0
VERTEX
  8
LAYER_1
 10
170.8652
 20
51.1166
  0
VERTEX
  8
LAYER_1
 10
170.7804
 20
51.2599
  0
VERTEX
  8
LAYER_1
 10
170.6454
 20
51.3581
  0
VERTEX
  8
LAYER_1
 10
170.4666
 20
51.395
  0
VERTEX
  8
LAYER_1
 10
170.2878
 20
51.3581
  0
VERTEX
  8
LAYER_1
 10
170.1531
 20
51.2599
  0
VERTEX
  8
LAYER_1
 10
170.0684
 20
51.1166
  0
VERTEX
  8
LAYER_1
 10
170.0391
 20
50.9447
  0
VERTEX
  8
LAYER_1
 10
170.0684
 20
50.7728
  0
VERTEX
  8
LAYER_1
 10
170.1531
 20
50.6298
  0
VERTEX
  8
LAYER_1
 10
170.2878
 20
50.5323
  0
VERTEX
  8
LAYER_1
 10
170.4666
 20
50.4958
  0
VERTEX
  8
LAYER_1
 10
170.6454
 20
50.5323
  0
VERTEX
  8
LAYER_1
 10
170.7804
 20
50.6298
  0
VERTEX
  8
LAYER_1
 10
170.8652
 20
50.7728
  0
SEQEND
  0
ENDBLK
  0
BLOCK
  8
LAYER_1
  2
AIGNBL0103001B
 70
64
 10
0
 20
0
 30
0
  3
AIGNBL0103001B
  0
POLYLINE
  8
LAYER_1
 40
0.05
 41
0.05
 66
1
 10
0
 20
0
 30
0
 70
1
  0
VERTEX
  8
LAYER_1
 10
171.9359
 20
50.6067
  0
VERTEX
  8
LAYER_1
 10
171.9377
 20
50.6067
  0
VERTEX
  8
LAYER_1
 10
172.2832
 20
51.4618
  0
VERTEX
  8
LAYER_1
 10
172.4441
 20
51.4618
  0
VERTEX
  8
LAYER_1
 10
172.4441
 20
50.4286
  0
VERTEX
  8
LAYER_1
 10
172.3387
 20
50.4286
  0
VERTEX
  8
LAYER_1
 10
172.3387
 20
51.3261
  0
VERTEX
  8
LAYER_1
 10
172.3359
 20
51.3261
  0
VERTEX
  8
LAYER_1
 10
171.9625
 20
50.4286
  0
VERTEX
  8
LAYER_1
 10
171.907
 20
50.4286
  0
VERTEX
  8
LAYER_1
 10
171.5332
 20
51.3261
  0
VERTEX
  8
LAYER_1
 10
171.5305
 20
51.3261
  0
VERTEX
  8
LAYER_1
 10
171.5305
 20
50.4286
  0
VERTEX
  8
LAYER_1
 10
171.4254
 20
50.4286
  0
VERTEX
  8
LAYER_1
 10
171.4254
 20
51.4618
  0
VERTEX
  8
LAYER_1
 10
171.5859
 20
51.4618
  0
SEQEND
  0
ENDBLK
  0
BLOCK
  8
LAYER_1
  2
AIGNBL0103001C
 70
64
 10
0
 20
0
 30
0
  3
AIGNBL0103001C
  0
POLYLINE
  8
LAYER_1
 40
0.05
 41
0.05
 66
1
 10
0
 20
0
 30
0
 70
1
  0
VERTEX
  8
LAYER_1
 10
173.5906
 20
50.5223
  0
VERTEX
  8
LAYER_1
 10
174.1439
 20
50.5223
  0
VERTEX
  8
LAYER_1
 10
174.1439
 20
50.4286
  0
VERTEX
  8
LAYER_1
 10
173.4855
 20
50.4286
  0
VERTEX
  8
LAYER_1
 10
173.4855
 20
51.4618
  0
VERTEX
  8
LAYER_1
 10
174.1263
 20
51.4618
  0
VERTEX
  8
LAYER_1
 10
174.1263
 20
51.3684
  0
VERTEX
  8
LAYER_1
 10
173.5906
 20
51.3684
  0
VERTEX
  8
LAYER_1
 10
173.5906
 20
51.0139
  0
VERTEX
  8
LAYER_1
 10
174.0912
 20
51.0139
  0
VERTEX
  8
LAYER_1
 10
174.0912
 20
50.9206
  0
VERTEX
  8
LAYER_1
 10
173.5906
 20
50.9206
  0
SEQEND
  0
ENDBLK
  0
BLOCK
  8
LAYER_1
  2
AIGNBL0103001D
 70
64
 10
0
 20
0
 30
0
  3
AIGNBL0103001D
  0
POLYLINE
  8
LAYER_1
 40
0.05
 41
0.05
 66
1
 10
0
 20
0
 30
0
 70
1
  0
VERTEX
  8
LAYER_1
 10
174.8891
 20
51.0446
  0
VERTEX
  8
LAYER_1
 10
175.1712
 20
51.4618
  0
VERTEX
  8
LAYER_1
 10
175.2963
 20
51.4618
  0
VERTEX
  8
LAYER_1
 10
174.9538
 20
50.9702
  0
VERTEX
  8
LAYER_1
 10
175.3332
 20
50.4286
  0
VERTEX
  8
LAYER_1
 10
175.2019
 20
50.4286
  0
VERTEX
  8
LAYER_1
 10
174.8863
 20
50.8944
  0
VERTEX
  8
LAYER_1
 10
174.5728
 20
50.4286
  0
VERTEX
  8
LAYER_1
 10
174.4412
 20
50.4286
  0
VERTEX
  8
LAYER_1
 10
174.8209
 20
50.9715
  0
VERTEX
  8
LAYER_1
 10
174.475
 20
51.4618
  0
VERTEX
  8
LAYER_1
 10
174.6066
 20
51.4618
  0
SEQEND
  0
ENDBLK
  0
BLOCK
  8
LAYER_1
  2
AIGNBL0103001E
 70
64
 10
0
 20
0
 30
0
  3
AIGNBL0103001E
  0
POLYLINE
  8
LAYER_1
 40
0.05
 41
0.05
 66
1
 10
0
 20
0
 30
0
 70
1
  0
VERTEX
  8
LAYER_1
 10
175.6994
 20
51.4618
  0
VERTEX
  8
LAYER_1
 10
175.9915
 20
51.4618
  0
VERTEX
  8
LAYER_1
 10
176.1345
 20
51.4453
  0
VERTEX
  8
LAYER_1
 10
176.2444
 20
51.3939
  0
VERTEX
  8
LAYER_1
 10
176.3154
 20
51.3078
  0
VERTEX
  8
LAYER_1
 10
176.3398
 20
51.1862
  0
VERTEX
  8
LAYER_1
 10
176.3147
 20
51.0642
  0
VERTEX
  8
LAYER_1
 10
176.243
 20
50.9781
  0
VERTEX
  8
LAYER_1
 10
176.1321
 20
50.9264
  0
VERTEX
  8
LAYER_1
 10
175.9884
 20
50.9089
  0
VERTEX
  8
LAYER_1
 10
175.8044
 20
50.9089
  0
VERTEX
  8
LAYER_1
 10
175.8044
 20
50.4286
  0
VERTEX
  8
LAYER_1
 10
175.6994
 20
50.4286
  0
SEQEND
  0
POLYLINE
  8
LAYER_1
 40
0.05
 41
0.05
 66
1
 10
0
 20
0
 30
0
 70
1
  0
VERTEX
  8
LAYER_1
 10
175.8044
 20
50.9977
  0
VERTEX
  8
LAYER_1
 10
175.9822
 20
50.9977
 42
0.1829203509
  0
VERTEX
  8
LAYER_1
 10
176.1706
 20
51.0459
 42
0.2347011275
  0
VERTEX
  8
LAYER_1
 10
176.2351
 20
51.1862
 42
0.26486771
  0
VERTEX
  8
LAYER_1
 10
176.1686
 20
51.3271
 42
0.126412566
  0
VERTEX
  8
LAYER_1
 10
175.9822
 20
51.3715
  0
VERTEX
  8
LAYER_1
 10
175.8044
 20
51.3715
  0
SEQEND
  0
ENDBLK
  0
BLOCK
  8
LAYER_1
  2
AIGNBL0103001F
 70
64
 10
0
 20
0
 30
0
  3
AIGNBL0103001F
  0
POLYLINE
  8
LAYER_1
 40
0.05
 41
0.05
 66
1
 10
0
 20
0
 30
0
 70
1
  0
VERTEX
  8
LAYER_1
 10
176.8521
 20
50.5223
  0
VERTEX
  8
LAYER_1
 10
177.4054
 20
50.5223
  0
VERTEX
  8
LAYER_1
 10
177.4054
 20
50.4286
  0
VERTEX
  8
LAYER_1
 10
176.747
 20
50.4286
  0
VERTEX
  8
LAYER_1
 10
176.747
 20
51.4618
  0
VERTEX
  8
LAYER_1
 10
177.3878
 20
51.4618
  0
VERTEX
  8
LAYER_1
 10
177.3878
 20
51.3684
  0
VERTEX
  8
LAYER_1
 10
176.8521
 20
51.3684
  0
VERTEX
  8
LAYER_1
 10
176.8521
 20
51.0139
  0
VERTEX
  8
LAYER_1
 10
177.3527
 20
51.0139
  0
VERTEX
  8
LAYER_1
 10
177.3527
 20
50.9206
  0
VERTEX
  8
LAYER_1
 10
176.8521
 20
50.9206
  0
SEQEND
  0
ENDBLK
  0
BLOCK
  8
LAYER_1
  2
AIGNBL01030020
 70
64
 10
0
 20
0
 30
0
  3
AIGNBL01030020
  0
POLYLINE
  8
LAYER_1
 40
0.05
 41
0.05
 66
1
 10
0
 20
0
 30
0
 70
1
  0
VERTEX
  8
LAYER_1
 10
177.9173
 20
50.4286
  0
VERTEX
  8
LAYER_1
 10
177.8122
 20
50.4286
  0
VERTEX
  8
LAYER_1
 10
177.8122
 20
51.4618
  0
VERTEX
  8
LAYER_1
 10
178.1161
 20
51.4618
  0
VERTEX
  8
LAYER_1
 10
178.2567
 20
51.4473
  0
VERTEX
  8
LAYER_1
 10
178.3693
 20
51.3998
  0
VERTEX
  8
LAYER_1
 10
178.443
 20
51.3143
  0
VERTEX
  8
LAYER_1
 10
178.4689
 20
51.1862
  0
VERTEX
  8
LAYER_1
 10
178.4489
 20
51.0825
  0
VERTEX
  8
LAYER_1
 10
178.3934
 20
51.0015
  0
VERTEX
  8
LAYER_1
 10
178.3101
 20
50.9467
  0
VERTEX
  8
LAYER_1
 10
178.205
 20
50.9206
  0
VERTEX
  8
LAYER_1
 10
178.5071
 20
50.4286
  0
VERTEX
  8
LAYER_1
 10
178.3786
 20
50.4286
  0
VERTEX
  8
LAYER_1
 10
178.0927
 20
50.9116
  0
VERTEX
  8
LAYER_1
 10
177.9173
 20
50.9116
  0
SEQEND
  0
POLYLINE
  8
LAYER_1
 40
0.05
 41
0.05
 66
1
 10
0
 20
0
 30
0
 70
1
  0
VERTEX
  8
LAYER_1
 10
177.9173
 20
51.0022
  0
VERTEX
  8
LAYER_1
 10
178.0999
 20
51.0022
 42
0.1667734107
  0
VERTEX
  8
LAYER_1
 10
178.2956
 20
51.048
 42
0.2503091692
  0
VERTEX
  8
LAYER_1
 10
178.3641
 20
51.1862
  0
VERTEX
  8
LAYER_1
 10
178.3452
 20
51.272
  0
VERTEX
  8
LAYER_1
 10
178.2925
 20
51.3292
  0
VERTEX
  8
LAYER_1
 10
178.2108
 20
51.3612
  0
VERTEX
  8
LAYER_1
 10
178.1044
 20
51.3715
  0
VERTEX
  8
LAYER_1
 10
177.9173
 20
51.3715
  0
SEQEND
  0
ENDBLK
  0
BLOCK
  8
LAYER_1
  2
AIGNBL01030021
 70
64
 10
0
 20
0
 30
0
  3
AIGNBL01030021
  0
POLYLINE
  8
LAYER_1
 40
0.05
 41
0.05
 66
1
 10
0
 20
0
 30
0
 70
1
  0
VERTEX
  8
LAYER_1
 10
178.9929
 20
50.4286
  0
VERTEX
  8
LAYER_1
 10
178.8882
 20
50.4286
  0
VERTEX
  8
LAYER_1
 10
178.8882
 20
51.4618
  0
VERTEX
  8
LAYER_1
 10
178.9929
 20
51.4618
  0
SEQEND
  0
ENDBLK
  0
BLOCK
  8
LAYER_1
  2
AIGNBL01030022
 70
64
 10
0
 20
0
 30
0
  3
AIGNBL01030022
  0
POLYLINE
  8
LAYER_1
 40
0.05
 41
0.05
 66
1
 10
0
 20
0
 30
0
 70
1
  0
VERTEX
  8
LAYER_1
 10
179.5737
 20
50.5223
  0
VERTEX
  8
LAYER_1
 10
180.1267
 20
50.5223
  0
VERTEX
  8
LAYER_1
 10
180.1267
 20
50.4286
  0
VERTEX
  8
LAYER_1
 10
179.4687
 20
50.4286
  0
VERTEX
  8
LAYER_1
 10
179.4687
 20
51.4618
  0
VERTEX
  8
LAYER_1
 10
180.1094
 20
51.4618
  0
VERTEX
  8
LAYER_1
 10
180.1094
 20
51.3684
  0
VERTEX
  8
LAYER_1
 10
179.5737
 20
51.3684
  0
VERTEX
  8
LAYER_1
 10
179.5737
 20
51.0139
  0
VERTEX
  8
LAYER_1
 10
180.0743
 20
51.0139
  0
VERTEX
  8
LAYER_1
 10
180.0743
 20
50.9206
  0
VERTEX
  8
LAYER_1
 10
179.5737
 20
50.9206
  0
SEQEND
  0
ENDBLK
  0
BLOCK
  8
LAYER_1
  2
AIGNBL01030023
 70
64
 10
0
 20
0
 30
0
  3
AIGNBL01030023
  0
POLYLINE
  8
LAYER_1
 40
0.05
 41
0.05
 66
1
 10
0
 20
0
 30
0
 70
1
  0
VERTEX
  8
LAYER_1
 10
181.2666
 20
50.5819
  0
VERTEX
  8
LAYER_1
 10
181.2694
 20
50.5819
  0
VERTEX
  8
LAYER_1
 10
181.2694
 20
51.4618
  0
VERTEX
  8
LAYER_1
 10
181.3745
 20
51.4618
  0
VERTEX
  8
LAYER_1
 10
181.3745
 20
50.4286
  0
VERTEX
  8
LAYER_1
 10
181.2432
 20
50.4286
  0
VERTEX
  8
LAYER_1
 10
180.642
 20
51.3174
  0
VERTEX
  8
LAYER_1
 10
180.6389
 20
51.3174
  0
VERTEX
  8
LAYER_1
 10
180.6389
 20
50.4286
  0
VERTEX
  8
LAYER_1
 10
180.5339
 20
50.4286
  0
VERTEX
  8
LAYER_1
 10
180.5339
 20
51.4618
  0
VERTEX
  8
LAYER_1
 10
180.6655
 20
51.4618
  0
SEQEND
  0
ENDBLK
  0
BLOCK
  8
LAYER_1
  2
AIGNBL01030024
 70
64
 10
0
 20
0
 30
0
  3
AIGNBL01030024
  0
POLYLINE
  8
LAYER_1
 40
0.05
 41
0.05
 66
1
 10
0
 20
0
 30
0
 70
1
  0
VERTEX
  8
LAYER_1
 10
182.7201
 20
50.5964
  0
VERTEX
  8
LAYER_1
 10
182.6564
 20
50.522
  0
VERTEX
  8
LAYER_1
 10
182.5703
 20
50.4603
  0
VERTEX
  8
LAYER_1
 10
182.4621
 20
50.4179
  0
VERTEX
  8
LAYER_1
 10
182.3333
 20
50.4024
 42
-0.100982896
  0
VERTEX
  8
LAYER_1
 10
182.1172
 20
50.4434
 42
-0.1036559164
  0
VERTEX
  8
LAYER_1
 10
181.9467
 20
50.5564
 42
-0.09812017057
  0
VERTEX
  8
LAYER_1
 10
181.8351
 20
50.728
 42
-0.09232404316
  0
VERTEX
  8
LAYER_1
 10
181.7948
 20
50.9454
 42
-0.1039024847
  0
VERTEX
  8
LAYER_1
 10
181.8358
 20
51.1628
 42
-0.1006255151
  0
VERTEX
  8
LAYER_1
 10
181.9484
 20
51.3343
 42
-0.09509197705
  0
VERTEX
  8
LAYER_1
 10
182.1193
 20
51.4473
 42
-0.0950295922
  0
VERTEX
  8
LAYER_1
 10
182.3333
 20
51.4883
  0
VERTEX
  8
LAYER_1
 10
182.4449
 20
51.4763
  0
VERTEX
  8
LAYER_1
 10
182.5479
 20
51.4428
  0
VERTEX
  8
LAYER_1
 10
182.6354
 20
51.3912
  0
VERTEX
  8
LAYER_1
 10
182.7012
 20
51.3233
  0
VERTEX
  8
LAYER_1
 10
182.6137
 20
51.2589
  0
VERTEX
  8
LAYER_1
 10
182.5703
 20
51.3088
  0
VERTEX
  8
LAYER_1
 10
182.5069
 20
51.3526
  0
VERTEX
  8
LAYER_1
 10
182.4273
 20
51.3832
  0
VERTEX
  8
LAYER_1
 10
182.3346
 20
51.395
  0
VERTEX
  8
LAYER_1
 10
182.1544
 20
51.3584
  0
VERTEX
  8
LAYER_1
 10
182.0194
 20
51.2603
  0
VERTEX
  8
LAYER_1
 10
181.9346
 20
51.1169
  0
VERTEX
  8
LAYER_1
 10
181.9057
 20
50.9454
  0
VERTEX
  8
LAYER_1
 10
181.9357
 20
50.7738
  0
VERTEX
  8
LAYER_1
 10
182.0211
 20
50.6305
  0
VERTEX
  8
LAYER_1
 10
182.1562
 20
50.5323
 42
0.1010490553
  0
VERTEX
  8
LAYER_1
 10
182.3346
 20
50.4958
  0
VERTEX
  8
LAYER_1
 10
182.5038
 20
50.5323
 42
0.1324826472
  0
VERTEX
  8
LAYER_1
 10
182.6381
 20
50.6491
  0
SEQEND
  0
ENDBLK
  0
BLOCK
  8
LAYER_1
  2
AIGNBL01030025
 70
64
 10
0
 20
0
 30
0
  3
AIGNBL01030025
  0
POLYLINE
  8
LAYER_1
 40
0.05
 41
0.05
 66
1
 10
0
 20
0
 30
0
 70
1
  0
VERTEX
  8
LAYER_1
 10
183.2073
 20
50.5223
  0
VERTEX
  8
LAYER_1
 10
183.7606
 20
50.5223
  0
VERTEX
  8
LAYER_1
 10
183.7606
 20
50.4286
  0
VERTEX
  8
LAYER_1
 10
183.1022
 20
50.4286
  0
VERTEX
  8
LAYER_1
 10
183.1022
 20
51.4618
  0
VERTEX
  8
LAYER_1
 10
183.743
 20
51.4618
  0
VERTEX
  8
LAYER_1
 10
183.743
 20
51.3684
  0
VERTEX
  8
LAYER_1
 10
183.2073
 20
51.3684
  0
VERTEX
  8
LAYER_1
 10
183.2073
 20
51.0139
  0
VERTEX
  8
LAYER_1
 10
183.7078
 20
51.0139
  0
VERTEX
  8
LAYER_1
 10
183.7078
 20
50.9206
  0
VERTEX
  8
LAYER_1
 10
183.2073
 20
50.9206
  0
SEQEND
  0
ENDBLK
  0
BLOCK
  8
LAYER_1
  2
AIGNBL01020005
 70
64
 10
0
 20
0
 30
0
  3
AIGNBL01020005
  0
INSERT
  8
LAYER_1
  2
AIGNBL01030006
 10
0
 20
0
 30
0
  0
ENDBLK
  0
BLOCK
  8
LAYER_1
  2
AIGNBL0102000E
 70
64
 10
0
 20
0
 30
0
  3
AIGNBL0102000E
  0
INSERT
  8
LAYER_1
  2
AIGNBL0103000F
 10
0
 20
0
 30
0
  0
INSERT
  8
LAYER_1
  2
AIGNBL01030010
 10
0
 20
0
 30
0
  0
INSERT
  8
LAYER_1
  2
AIGNBL01030011
 10
0
 20
0
 30
0
  0
INSERT
  8
LAYER_1
  2
AIGNBL01030012
 10
0
 20
0
 30
0
  0
INSERT
  8
LAYER_1
  2
AIGNBL01030013
 10
0
 20
0
 30
0
  0
INSERT
  8
LAYER_1
  2
AIGNBL01030014
 10
0
 20
0
 30
0
  0
INSERT
  8
LAYER_1
  2
AIGNBL01030015
 10
0
 20
0
 30
0
  0
INSERT
  8
LAYER_1
  2
AIGNBL01030016
 10
0
 20
0
 30
0
  0
INSERT
  8
LAYER_1
  2
AIGNBL01030017
 10
0
 20
0
 30
0
  0
INSERT
  8
LAYER_1
  2
AIGNBL01030018
 10
0
 20
0
 30
0
  0
INSERT
  8
LAYER_1
  2
AIGNBL01030019
 10
0
 20
0
 30
0
  0
INSERT
  8
LAYER_1
  2
AIGNBL0103001A
 10
0
 20
0
 30
0
  0
INSERT
  8
LAYER_1
  2
AIGNBL0103001B
 10
0
 20
0
 30
0
  0
INSERT
  8
LAYER_1
  2
AIGNBL0103001C
 10
0
 20
0
 30
0
  0
INSERT
  8
LAYER_1
  2
AIGNBL0103001D
 10
0
 20
0
 30
0
  0
INSERT
  8
LAYER_1
  2
AIGNBL0103001E
 10
0
 20
0
 30
0
  0
INSERT
  8
LAYER_1
  2
AIGNBL0103001F
 10
0
 20
0
 30
0
  0
INSERT
  8
LAYER_1
  2
AIGNBL01030020
 10
0
 20
0
 30
0
  0
INSERT
  8
LAYER_1
  2
AIGNBL01030021
 10
0
 20
0
 30
0
  0
INSERT
  8
LAYER_1
  2
AIGNBL01030022
 10
0
 20
0
 30
0
  0
INSERT
  8
LAYER_1
  2
AIGNBL01030023
 10
0
 20
0
 30
0
  0
INSERT
  8
LAYER_1
  2
AIGNBL01030024
 10
0
 20
0
 30
0
  0
INSERT
  8
LAYER_1
  2
AIGNBL01030025
 10
0
 20
0
 30
0
  0
ENDBLK
  0
BLOCK
  8
LAYER_1
  2
AIGNBL01010002
 70
64
 10
0
 20
0
 30
0
  3
AIGNBL01010002
  0
POLYLINE
  8
LAYER_1
 40
0.05
 41
0.05
 66
1
 10
0
 20
0
 30
0
 70
1
  0
VERTEX
  8
LAYER_1
 10
99.7679
 20
188.8409
  0
VERTEX
  8
LAYER_1
 10
99.7679
 20
188.5446
  0
VERTEX
  8
LAYER_1
 10
100.3606
 20
188.5446
  0
VERTEX
  8
LAYER_1
 10
100.3606
 20
188.8409
  0
SEQEND
  0
POLYLINE
  8
LAYER_1
 40
0.0847
 41
0.0847
 66
1
 10
0
 20
0
 30
0
 70
1
  0
VERTEX
  8
LAYER_1
 10
99.7679
 20
188.8409
  0
VERTEX
  8
LAYER_1
 10
99.7679
 20
188.5446
  0
VERTEX
  8
LAYER_1
 10
100.3606
 20
188.5446
  0
VERTEX
  8
LAYER_1
 10
100.3606
 20
188.8409
  0
SEQEND
  0
POLYLINE
  8
LAYER_1
 40
0.05
 41
0.05
 66
1
 10
0
 20
0
 30
0
 70
1
  0
VERTEX
  8
LAYER_1
 10
97.7148
 20
186.8513
  0
VERTEX
  8
LAYER_1
 10
97.7148
 20
187.1476
  0
VERTEX
  8
LAYER_1
 10
98.2228
 20
187.1476
  0
VERTEX
  8
LAYER_1
 10
98.2228
 20
186.8513
  0
SEQEND
  0
POLYLINE
  8
LAYER_1
 40
0.0847
 41
0.0847
 66
1
 10
0
 20
0
 30
0
 70
1
  0
VERTEX
  8
LAYER_1
 10
97.7148
 20
186.8513
  0
VERTEX
  8
LAYER_1
 10
97.7148
 20
187.1476
  0
VERTEX
  8
LAYER_1
 10
98.2228
 20
187.1476
  0
VERTEX
  8
LAYER_1
 10
98.2228
 20
186.8513
  0
SEQEND
  0
POLYLINE
  8
LAYER_1
 40
0.05
 41
0.05
 66
1
 10
0
 20
0
 30
0
 70
1
  0
VERTEX
  8
LAYER_1
 10
111.5366
 20
188.8409
  0
VERTEX
  8
LAYER_1
 10
111.5366
 20
188.5446
  0
VERTEX
  8
LAYER_1
 10
110.9439
 20
188.5446
  0
VERTEX
  8
LAYER_1
 10
110.9439
 20
188.8409
  0
SEQEND
  0
POLYLINE
  8
LAYER_1
 40
0.0847
 41
0.0847
 66
1
 10
0
 20
0
 30
0
 70
1
  0
VERTEX
  8
LAYER_1
 10
111.5366
 20
188.8409
  0
VERTEX
  8
LAYER_1
 10
111.5366
 20
188.5446
  0
VERTEX
  8
LAYER_1
 10
110.9439
 20
188.5446
  0
VERTEX
  8
LAYER_1
 10
110.9439
 20
188.8409
  0
SEQEND
  0
POLYLINE
  8
LAYER_1
 40
0.05
 41
0.05
 66
1
 10
0
 20
0
 30
0
 70
1
  0
VERTEX
  8
LAYER_1
 10
113.5898
 20
186.8513
  0
VERTEX
  8
LAYER_1
 10
113.5898
 20
187.1476
  0
VERTEX
  8
LAYER_1
 10
113.0818
 20
187.1476
  0
VERTEX
  8
LAYER_1
 10
113.0818
 20
186.8513
  0
SEQEND
  0
POLYLINE
  8
LAYER_1
 40
0.0847
 41
0.0847
 66
1
 10
0
 20
0
 30
0
 70
1
  0
VERTEX
  8
LAYER_1
 10
113.5898
 20
186.8513
  0
VERTEX
  8
LAYER_1
 10
113.5898
 20
187.1476
  0
VERTEX
  8
LAYER_1
 10
113.0818
 20
187.1476
  0
VERTEX
  8
LAYER_1
 10
113.0818
 20
186.8513
  0
SEQEND
  0
POLYLINE
  8
LAYER_1
 40
0.0847
 41
0.0847
 66
1
 10
0
 20
0
 30
0
  0
VERTEX
  8
LAYER_1
 10
99.7679
 20
180.8399
  0
VERTEX
  8
LAYER_1
 10
99.7679
 20
180.9034
  0
SEQEND
  0
POLYLINE
  8
LAYER_1
 40
0.0847
 41
0.0847
 66
1
 10
0
 20
0
 30
0
  0
VERTEX
  8
LAYER_1
 10
99.7679
 20
181.0728
  0
VERTEX
  8
LAYER_1
 10
99.7679
 20
181.1574
  0
SEQEND
  0
POLYLINE
  8
LAYER_1
 40
0.0847
 41
0.0847
 66
1
 10
0
 20
0
 30
0
  0
VERTEX
  8
LAYER_1
 10
115.2831
 20
181.4326
  0
VERTEX
  8
LAYER_1
 10
149.8059
 20
188.9044
  0
SEQEND
  0
POLYLINE
  8
LAYER_1
 40
0.0847
 41
0.0847
 66
1
 10
0
 20
0
 30
0
  0
VERTEX
  8
LAYER_1
 10
105.6523
 20
155.2706
  0
VERTEX
  8
LAYER_1
 10
105.6523
 20
156.1808
  0
SEQEND
  0
POLYLINE
  8
LAYER_1
 40
0.0847
 41
0.0847
 66
1
 10
0
 20
0
 30
0
  0
VERTEX
  8
LAYER_1
 10
105.6523
 20
157.0909
  0
VERTEX
  8
LAYER_1
 10
105.6523
 20
161.6418
  0
SEQEND
  0
POLYLINE
  8
LAYER_1
 40
0.0847
 41
0.0847
 66
1
 10
0
 20
0
 30
0
  0
VERTEX
  8
LAYER_1
 10
105.6523
 20
162.5519
  0
VERTEX
  8
LAYER_1
 10
105.6523
 20
163.4621
  0
SEQEND
  0
POLYLINE
  8
LAYER_1
 40
0.0847
 41
0.0847
 66
1
 10
0
 20
0
 30
0
  0
VERTEX
  8
LAYER_1
 10
105.6523
 20
164.3723
  0
VERTEX
  8
LAYER_1
 10
105.6523
 20
168.9231
  0
SEQEND
  0
POLYLINE
  8
LAYER_1
 40
0.0847
 41
0.0847
 66
1
 10
0
 20
0
 30
0
  0
VERTEX
  8
LAYER_1
 10
105.6523
 20
169.8333
  0
VERTEX
  8
LAYER_1
 10
105.6523
 20
170.7434
  0
SEQEND
  0
POLYLINE
  8
LAYER_1
 40
0.0847
 41
0.0847
 66
1
 10
0
 20
0
 30
0
  0
VERTEX
  8
LAYER_1
 10
105.6523
 20
171.6536
  0
VERTEX
  8
LAYER_1
 10
105.6523
 20
176.2045
  0
SEQEND
  0
POLYLINE
  8
LAYER_1
 40
0.0847
 41
0.0847
 66
1
 10
0
 20
0
 30
0
  0
VERTEX
  8
LAYER_1
 10
105.6523
 20
177.1146
  0
VERTEX
  8
LAYER_1
 10
105.6523
 20
178.0248
  0
SEQEND
  0
POLYLINE
  8
LAYER_1
 40
0.0847
 41
0.0847
 66
1
 10
0
 20
0
 30
0
  0
VERTEX
  8
LAYER_1
 10
105.6523
 20
178.9349
  0
VERTEX
  8
LAYER_1
 10
105.6523
 20
183.4858
  0
SEQEND
  0
POLYLINE
  8
LAYER_1
 40
0.0847
 41
0.0847
 66
1
 10
0
 20
0
 30
0
  0
VERTEX
  8
LAYER_1
 10
105.6523
 20
184.3959
  0
VERTEX
  8
LAYER_1
 10
105.6523
 20
185.3061
  0
SEQEND
  0
POLYLINE
  8
LAYER_1
 40
0.0847
 41
0.0847
 66
1
 10
0
 20
0
 30
0
  0
VERTEX
  8
LAYER_1
 10
105.6523
 20
186.2163
  0
VERTEX
  8
LAYER_1
 10
105.6523
 20
190.7671
  0
SEQEND
  0
POLYLINE
  8
LAYER_1
 40
0.0847
 41
0.0847
 66
1
 10
0
 20
0
 30
0
  0
VERTEX
  8
LAYER_1
 10
105.6523
 20
191.6773
  0
VERTEX
  8
LAYER_1
 10
105.6523
 20
192.5663
  0
SEQEND
  0
POLYLINE
  8
LAYER_1
 40
0.0847
 41
0.0847
 66
1
 10
0
 20
0
 30
0
  0
VERTEX
  8
LAYER_1
 10
105.6523
 20
193.4764
  0
VERTEX
  8
LAYER_1
 10
105.6523
 20
198.0273
  0
SEQEND
  0
POLYLINE
  8
LAYER_1
 40
0.0847
 41
0.0847
 66
1
 10
0
 20
0
 30
0
  0
VERTEX
  8
LAYER_1
 10
105.6523
 20
198.9374
  0
VERTEX
  8
LAYER_1
 10
105.6523
 20
199.8476
  0
SEQEND
  0
POLYLINE
  8
LAYER_1
 40
0.0847
 41
0.0847
 66
1
 10
0
 20
0
 30
0
  0
VERTEX
  8
LAYER_1
 10
105.6523
 20
200.7578
  0
VERTEX
  8
LAYER_1
 10
105.6523
 20
205.3086
  0
SEQEND
  0
POLYLINE
  8
LAYER_1
 40
0.0847
 41
0.0847
 66
1
 10
0
 20
0
 30
0
  0
VERTEX
  8
LAYER_1
 10
105.6523
 20
206.2188
  0
VERTEX
  8
LAYER_1
 10
105.6523
 20
207.1289
  0
SEQEND
  0
POLYLINE
  8
LAYER_1
 40
0.0847
 41
0.0847
 66
1
 10
0
 20
0
 30
0
  0
VERTEX
  8
LAYER_1
 10
105.6523
 20
208.0391
  0
VERTEX
  8
LAYER_1
 10
105.6523
 20
212.5899
  0
SEQEND
  0
POLYLINE
  8
LAYER_1
 40
0.0847
 41
0.0847
 66
1
 10
0
 20
0
 30
0
  0
VERTEX
  8
LAYER_1
 10
105.6523
 20
213.5001
  0
VERTEX
  8
LAYER_1
 10
105.6523
 20
214.4103
  0
SEQEND
  0
POLYLINE
  8
LAYER_1
 40
0.0847
 41
0.0847
 66
1
 10
0
 20
0
 30
0
  0
VERTEX
  8
LAYER_1
 10
105.6523
 20
215.3204
  0
VERTEX
  8
LAYER_1
 10
105.6523
 20
219.8713
  0
SEQEND
  0
POLYLINE
  8
LAYER_1
 40
0.0847
 41
0.0847
 66
1
 10
0
 20
0
 30
0
  0
VERTEX
  8
LAYER_1
 10
105.6523
 20
220.7814
  0
VERTEX
  8
LAYER_1
 10
105.6523
 20
221.6916
  0
SEQEND
  0
POLYLINE
  8
LAYER_1
 40
0.0847
 41
0.0847
 66
1
 10
0
 20
0
 30
0
  0
VERTEX
  8
LAYER_1
 10
105.6523
 20
222.6018
  0
VERTEX
  8
LAYER_1
 10
105.6523
 20
227.1526
  0
SEQEND
  0
POLYLINE
  8
LAYER_1
 40
0.0847
 41
0.0847
 66
1
 10
0
 20
0
 30
0
  0
VERTEX
  8
LAYER_1
 10
105.6523
 20
228.0628
  0
VERTEX
  8
LAYER_1
 10
105.6523
 20
228.9729
  0
SEQEND
  0
POLYLINE
  8
LAYER_1
 40
0.0847
 41
0.0847
 66
1
 10
0
 20
0
 30
0
  0
VERTEX
  8
LAYER_1
 10
105.6523
 20
229.8831
  0
VERTEX
  8
LAYER_1
 10
105.6523
 20
232.1691
  0
SEQEND
  0
POLYLINE
  8
LAYER_1
 40
0.1693
 41
0.1693
 66
1
 10
0
 20
0
 30
0
  0
VERTEX
  8
LAYER_1
 10
95.5769
 20
187.9096
 42
0.3805090784
  0
VERTEX
  8
LAYER_1
 10
94.8573
 20
187.1264
  0
SEQEND
  0
POLYLINE
  8
LAYER_1
 40
0.1693
 41
0.1693
 66
1
 10
0
 20
0
 30
0
  0
VERTEX
  8
LAYER_1
 10
97.8629
 20
188.8409
  0
SEQEND
  0
POLYLINE
  8
LAYER_1
 40
0.1693
 41
0.1693
 66
1
 10
0
 20
0
 30
0
  0
VERTEX
  8
LAYER_1
 10
97.1433
 20
188.0366
  0
VERTEX
  8
LAYER_1
 10
95.5981
 20
187.9096
  0
SEQEND
  0
POLYLINE
  8
LAYER_1
 40
0.1693
 41
0.1693
 66
1
 10
0
 20
0
 30
0
  0
VERTEX
  8
LAYER_1
 10
97.1009
 20
188.0578
 42
0.4007553708
  0
VERTEX
  8
LAYER_1
 10
97.8629
 20
188.8409
  0
VERTEX
  8
LAYER_1
 10
97.8629
 20
188.8621
  0
SEQEND
  0
POLYLINE
  8
LAYER_1
 40
0.1693
 41
0.1693
 66
1
 10
0
 20
0
 30
0
  0
VERTEX
  8
LAYER_1
 10
94.8573
 20
186.8513
  0
VERTEX
  8
LAYER_1
 10
94.8573
 20
187.1053
  0
SEQEND
  0
POLYLINE
  8
LAYER_1
 40
0.1693
 41
0.1693
 66
1
 10
0
 20
0
 30
0
  0
VERTEX
  8
LAYER_1
 10
94.8573
 20
186.8513
  0
VERTEX
  8
LAYER_1
 10
101.1649
 20
186.8513
  0
SEQEND
  0
POLYLINE
  8
LAYER_1
 40
0.0847
 41
0.0847
 66
1
 10
0
 20
0
 30
0
  0
VERTEX
  8
LAYER_1
 10
101.0168
 20
186.8513
  0
VERTEX
  8
LAYER_1
 10
101.1649
 20
186.9783
  0
SEQEND
  0
POLYLINE
  8
LAYER_1
 40
0.0847
 41
0.0847
 66
1
 10
0
 20
0
 30
0
  0
VERTEX
  8
LAYER_1
 10
100.7416
 20
186.8513
  0
VERTEX
  8
LAYER_1
 10
101.1649
 20
187.2746
  0
SEQEND
  0
POLYLINE
  8
LAYER_1
 40
0.0847
 41
0.0847
 66
1
 10
0
 20
0
 30
0
  0
VERTEX
  8
LAYER_1
 10
100.4664
 20
186.8513
  0
VERTEX
  8
LAYER_1
 10
101.1649
 20
187.5498
  0
SEQEND
  0
POLYLINE
  8
LAYER_1
 40
0.0847
 41
0.0847
 66
1
 10
0
 20
0
 30
0
  0
VERTEX
  8
LAYER_1
 10
100.1701
 20
186.8513
  0
VERTEX
  8
LAYER_1
 10
101.1649
 20
187.8461
  0
SEQEND
  0
POLYLINE
  8
LAYER_1
 40
0.0847
 41
0.0847
 66
1
 10
0
 20
0
 30
0
  0
VERTEX
  8
LAYER_1
 10
99.8949
 20
186.8513
  0
VERTEX
  8
LAYER_1
 10
101.1649
 20
188.1213
  0
SEQEND
  0
POLYLINE
  8
LAYER_1
 40
0.0847
 41
0.0847
 66
1
 10
0
 20
0
 30
0
  0
VERTEX
  8
LAYER_1
 10
99.5986
 20
186.8513
  0
VERTEX
  8
LAYER_1
 10
101.1649
 20
188.3964
  0
SEQEND
  0
POLYLINE
  8
LAYER_1
 40
0.0847
 41
0.0847
 66
1
 10
0
 20
0
 30
0
  0
VERTEX
  8
LAYER_1
 10
99.3234
 20
186.8513
  0
VERTEX
  8
LAYER_1
 10
101.1649
 20
188.6928
  0
SEQEND
  0
POLYLINE
  8
LAYER_1
 40
0.0847
 41
0.0847
 66
1
 10
0
 20
0
 30
0
  0
VERTEX
  8
LAYER_1
 10
99.0483
 20
186.8513
  0
VERTEX
  8
LAYER_1
 10
101.0379
 20
188.8409
  0
SEQEND
  0
POLYLINE
  8
LAYER_1
 40
0.0847
 41
0.0847
 66
1
 10
0
 20
0
 30
0
  0
VERTEX
  8
LAYER_1
 10
98.7519
 20
186.8513
  0
VERTEX
  8
LAYER_1
 10
100.7628
 20
188.8409
  0
SEQEND
  0
POLYLINE
  8
LAYER_1
 40
0.0847
 41
0.0847
 66
1
 10
0
 20
0
 30
0
  0
VERTEX
  8
LAYER_1
 10
98.4768
 20
186.8513
  0
VERTEX
  8
LAYER_1
 10
100.4664
 20
188.8409
  0
SEQEND
  0
POLYLINE
  8
LAYER_1
 40
0.0847
 41
0.0847
 66
1
 10
0
 20
0
 30
0
  0
VERTEX
  8
LAYER_1
 10
98.2016
 20
186.8513
  0
VERTEX
  8
LAYER_1
 10
100.1913
 20
188.8409
  0
SEQEND
  0
POLYLINE
  8
LAYER_1
 40
0.0847
 41
0.0847
 66
1
 10
0
 20
0
 30
0
  0
VERTEX
  8
LAYER_1
 10
97.9053
 20
186.8513
  0
VERTEX
  8
LAYER_1
 10
99.9161
 20
188.8409
  0
SEQEND
  0
POLYLINE
  8
LAYER_1
 40
0.0847
 41
0.0847
 66
1
 10
0
 20
0
 30
0
  0
VERTEX
  8
LAYER_1
 10
97.6301
 20
186.8513
  0
VERTEX
  8
LAYER_1
 10
99.6198
 20
188.8409
  0
SEQEND
  0
POLYLINE
  8
LAYER_1
 40
0.0847
 41
0.0847
 66
1
 10
0
 20
0
 30
0
  0
VERTEX
  8
LAYER_1
 10
97.3549
 20
186.8513
  0
VERTEX
  8
LAYER_1
 10
99.3446
 20
188.8409
  0
SEQEND
  0
POLYLINE
  8
LAYER_1
 40
0.0847
 41
0.0847
 66
1
 10
0
 20
0
 30
0
  0
VERTEX
  8
LAYER_1
 10
97.0586
 20
186.8513
  0
VERTEX
  8
LAYER_1
 10
99.0694
 20
188.8409
  0
SEQEND
  0
POLYLINE
  8
LAYER_1
 40
0.0847
 41
0.0847
 66
1
 10
0
 20
0
 30
0
  0
VERTEX
  8
LAYER_1
 10
96.7834
 20
186.8513
  0
VERTEX
  8
LAYER_1
 10
98.7731
 20
188.8409
  0
SEQEND
  0
POLYLINE
  8
LAYER_1
 40
0.0847
 41
0.0847
 66
1
 10
0
 20
0
 30
0
  0
VERTEX
  8
LAYER_1
 10
96.4871
 20
186.8513
  0
VERTEX
  8
LAYER_1
 10
98.4979
 20
188.8409
  0
SEQEND
  0
POLYLINE
  8
LAYER_1
 40
0.0847
 41
0.0847
 66
1
 10
0
 20
0
 30
0
  0
VERTEX
  8
LAYER_1
 10
96.2119
 20
186.8513
  0
VERTEX
  8
LAYER_1
 10
98.2228
 20
188.8409
  0
SEQEND
  0
POLYLINE
  8
LAYER_1
 40
0.0847
 41
0.0847
 66
1
 10
0
 20
0
 30
0
  0
VERTEX
  8
LAYER_1
 10
95.9368
 20
186.8513
  0
VERTEX
  8
LAYER_1
 10
97.1221
 20
188.0366
  0
SEQEND
  0
POLYLINE
  8
LAYER_1
 40
0.0847
 41
0.0847
 66
1
 10
0
 20
0
 30
0
  0
VERTEX
  8
LAYER_1
 10
97.8629
 20
188.7774
  0
VERTEX
  8
LAYER_1
 10
97.9264
 20
188.8409
  0
SEQEND
  0
POLYLINE
  8
LAYER_1
 40
0.0847
 41
0.0847
 66
1
 10
0
 20
0
 30
0
  0
VERTEX
  8
LAYER_1
 10
95.6405
 20
186.8513
  0
VERTEX
  8
LAYER_1
 10
96.8258
 20
188.0154
  0
SEQEND
  0
POLYLINE
  8
LAYER_1
 40
0.0847
 41
0.0847
 66
1
 10
0
 20
0
 30
0
  0
VERTEX
  8
LAYER_1
 10
95.3653
 20
186.8513
  0
VERTEX
  8
LAYER_1
 10
96.5083
 20
187.9943
  0
SEQEND
  0
POLYLINE
  8
LAYER_1
 40
0.0847
 41
0.0847
 66
1
 10
0
 20
0
 30
0
  0
VERTEX
  8
LAYER_1
 10
95.0901
 20
186.8513
  0
VERTEX
  8
LAYER_1
 10
96.1908
 20
187.9731
  0
SEQEND
  0
POLYLINE
  8
LAYER_1
 40
0.0847
 41
0.0847
 66
1
 10
0
 20
0
 30
0
  0
VERTEX
  8
LAYER_1
 10
94.8573
 20
186.9148
  0
VERTEX
  8
LAYER_1
 10
95.8944
 20
187.9308
  0
SEQEND
  0
POLYLINE
  8
LAYER_1
 40
0.0847
 41
0.0847
 66
1
 10
0
 20
0
 30
0
  0
VERTEX
  8
LAYER_1
 10
94.8573
 20
187.1899
  0
VERTEX
  8
LAYER_1
 10
95.5769
 20
187.9096
  0
SEQEND
  0
POLYLINE
  8
LAYER_1
 40
0.254
 41
0.254
 66
1
 10
0
 20
0
 30
0
  0
VERTEX
  8
LAYER_1
 10
34.5111
 20
186.8513
  0
VERTEX
  8
LAYER_1
 10
99.1541
 20
186.8513
  0
SEQEND
  0
POLYLINE
  8
LAYER_1
 40
0.254
 41
0.254
 66
1
 10
0
 20
0
 30
0
  0
VERTEX
  8
LAYER_1
 10
112.1504
 20
186.8513
  0
VERTEX
  8
LAYER_1
 10
176.7934
 20
186.8513
  0
SEQEND
  0
POLYLINE
  8
LAYER_1
 40
0.0847
 41
0.0847
 66
1
 10
0
 20
0
 30
0
  0
VERTEX
  8
LAYER_1
 10
112.1504
 20
184.1208
  0
VERTEX
  8
LAYER_1
 10
114.8598
 20
186.8513
  0
SEQEND
  0
POLYLINE
  8
LAYER_1
 40
0.0847
 41
0.0847
 66
1
 10
0
 20
0
 30
0
  0
VERTEX
  8
LAYER_1
 10
35.2731
 20
183.6128
  0
VERTEX
  8
LAYER_1
 10
38.5116
 20
186.8513
  0
SEQEND
  0
POLYLINE
  8
LAYER_1
 40
0.0847
 41
0.0847
 66
1
 10
0
 20
0
 30
0
  0
VERTEX
  8
LAYER_1
 10
113.6321
 20
187.8249
  0
VERTEX
  8
LAYER_1
 10
149.8059
 20
188.9044
  0
SEQEND
  0
POLYLINE
  8
LAYER_1
 40
0.0847
 41
0.0847
 66
1
 10
0
 20
0
 30
0
  0
VERTEX
  8
LAYER_1
 10
99.7679
 20
188.5446
  0
VERTEX
  8
LAYER_1
 10
99.9161
 20
188.5446
  0
SEQEND
  0
POLYLINE
  8
LAYER_1
 40
0.0847
 41
0.0847
 66
1
 10
0
 20
0
 30
0
  0
VERTEX
  8
LAYER_1
 10
100.2124
 20
188.5446
  0
VERTEX
  8
LAYER_1
 10
100.3606
 20
188.5446
  0
SEQEND
  0
POLYLINE
  8
LAYER_1
 40
0.0847
 41
0.0847
 66
1
 10
0
 20
0
 30
0
  0
VERTEX
  8
LAYER_1
 10
99.7679
 20
188.5446
  0
VERTEX
  8
LAYER_1
 10
99.7679
 20
188.6081
  0
SEQEND
  0
POLYLINE
  8
LAYER_1
 40
0.0847
 41
0.0847
 66
1
 10
0
 20
0
 30
0
  0
VERTEX
  8
LAYER_1
 10
99.7679
 20
188.7563
  0
VERTEX
  8
LAYER_1
 10
99.7679
 20
188.8409
  0
SEQEND
  0
POLYLINE
  8
LAYER_1
 40
0.0847
 41
0.0847
 66
1
 10
0
 20
0
 30
0
  0
VERTEX
  8
LAYER_1
 10
100.3606
 20
188.5446
  0
VERTEX
  8
LAYER_1
 10
100.3606
 20
188.6081
  0
SEQEND
  0
POLYLINE
  8
LAYER_1
 40
0.0847
 41
0.0847
 66
1
 10
0
 20
0
 30
0
  0
VERTEX
  8
LAYER_1
 10
100.3606
 20
188.7563
  0
VERTEX
  8
LAYER_1
 10
100.3606
 20
188.8409
  0
SEQEND
  0
POLYLINE
  8
LAYER_1
 40
0.1693
 41
0.1693
 66
1
 10
0
 20
0
 30
0
  0
VERTEX
  8
LAYER_1
 10
100.1278
 20
186.8513
  0
VERTEX
  8
LAYER_1
 10
111.1768
 20
186.8513
  0
SEQEND
  0
POLYLINE
  8
LAYER_1
 40
0.1693
 41
0.1693
 66
1
 10
0
 20
0
 30
0
  0
VERTEX
  8
LAYER_1
 10
100.1066
 20
186.8301
 42
0.3555396393
  0
VERTEX
  8
LAYER_1
 10
100.0008
 20
186.7878
  0
SEQEND
  0
POLYLINE
  8
LAYER_1
 40
0.1693
 41
0.1693
 66
1
 10
0
 20
0
 30
0
  0
VERTEX
  8
LAYER_1
 10
99.5351
 20
186.4068
  0
VERTEX
  8
LAYER_1
 10
100.0008
 20
186.8089
  0
SEQEND
  0
POLYLINE
  8
LAYER_1
 40
0.1693
 41
0.1693
 66
1
 10
0
 20
0
 30
0
  0
VERTEX
  8
LAYER_1
 10
99.5351
 20
186.4068
 42
0.2328101076
  0
VERTEX
  8
LAYER_1
 10
99.4716
 20
186.2798
  0
SEQEND
  0
POLYLINE
  8
LAYER_1
 40
0.1693
 41
0.1693
 66
1
 10
0
 20
0
 30
0
  0
VERTEX
  8
LAYER_1
 10
99.4716
 20
185.7506
  0
VERTEX
  8
LAYER_1
 10
99.4716
 20
186.2586
  0
SEQEND
  0
POLYLINE
  8
LAYER_1
 40
0.1693
 41
0.1693
 66
1
 10
0
 20
0
 30
0
  0
VERTEX
  8
LAYER_1
 10
99.4716
 20
185.7506
  0
VERTEX
  8
LAYER_1
 10
111.8329
 20
185.7506
  0
VERTEX
  8
LAYER_1
 10
111.8329
 20
186.2586
  0
SEQEND
  0
POLYLINE
  8
LAYER_1
 40
0.1693
 41
0.1693
 66
1
 10
0
 20
0
 30
0
  0
VERTEX
  8
LAYER_1
 10
111.8329
 20
186.2798
 42
0.1336575704
  0
VERTEX
  8
LAYER_1
 10
111.7483
 20
186.4279
  0
SEQEND
  0
POLYLINE
  8
LAYER_1
 40
0.1693
 41
0.1693
 66
1
 10
0
 20
0
 30
0
  0
VERTEX
  8
LAYER_1
 10
111.7695
 20
186.4068
  0
VERTEX
  8
LAYER_1
 10
111.3038
 20
186.8089
  0
SEQEND
  0
POLYLINE
  8
LAYER_1
 40
0.1693
 41
0.1693
 66
1
 10
0
 20
0
 30
0
  0
VERTEX
  8
LAYER_1
 10
99.6621
 20
185.1368
  0
VERTEX
  8
LAYER_1
 10
111.6424
 20
185.1368
  0
SEQEND
  0
POLYLINE
  8
LAYER_1
 40
0.1693
 41
0.1693
 66
1
 10
0
 20
0
 30
0
  0
VERTEX
  8
LAYER_1
 10
101.1226
 20
183.9514
  0
VERTEX
  8
LAYER_1
 10
101.1226
 20
185.1368
  0
SEQEND
  0
POLYLINE
  8
LAYER_1
 40
0.1693
 41
0.1693
 66
1
 10
0
 20
0
 30
0
  0
VERTEX
  8
LAYER_1
 10
99.6621
 20
185.1368
  0
VERTEX
  8
LAYER_1
 10
99.6621
 20
185.7506
  0
SEQEND
  0
POLYLINE
  8
LAYER_1
 40
0.1693
 41
0.1693
 66
1
 10
0
 20
0
 30
0
  0
VERTEX
  8
LAYER_1
 10
110.182
 20
183.9514
  0
VERTEX
  8
LAYER_1
 10
110.182
 20
185.1368
  0
SEQEND
  0
POLYLINE
  8
LAYER_1
 40
0.1693
 41
0.1693
 66
1
 10
0
 20
0
 30
0
  0
VERTEX
  8
LAYER_1
 10
101.1226
 20
183.9514
  0
VERTEX
  8
LAYER_1
 10
110.182
 20
183.9514
  0
SEQEND
  0
POLYLINE
  8
LAYER_1
 40
0.1693
 41
0.1693
 66
1
 10
0
 20
0
 30
0
  0
VERTEX
  8
LAYER_1
 10
111.6425
 20
185.1368
  0
VERTEX
  8
LAYER_1
 10
111.6425
 20
185.7506
  0
SEQEND
  0
TEXT
  8
LAYER_1
 10
150.3562
 20
191.7407
 11
150.3562
 21
191.7407
 40
2.5779
 41
0.5
  1
âXâ`âìü[âïâpâbâLâô
  0
TEXT
  8
LAYER_1
 10
150.7159
 20
188.2271
 11
150.7159
 21
188.2271
 40
2.5779
 41
0.5
  1
â}âEâôâeâBâôâOâfâBâXâN
  0
POLYLINE
  8
LAYER_1
 40
0.0847
 41
0.0847
 66
1
 10
0
 20
0
 30
0
  0
VERTEX
  8
LAYER_1
 10
101.1649
 20
186.8513
  0
VERTEX
  8
LAYER_1
 10
101.1649
 20
187.5921
  0
SEQEND
  0
POLYLINE
  8
LAYER_1
 40
0.0847
 41
0.0847
 66
1
 10
0
 20
0
 30
0
  0
VERTEX
  8
LAYER_1
 10
101.1649
 20
188.0789
  0
VERTEX
  8
LAYER_1
 10
101.1649
 20
188.8409
  0
SEQEND
  0
POLYLINE
  8
LAYER_1
 40
0.0847
 41
0.0847
 66
1
 10
0
 20
0
 30
0
  0
VERTEX
  8
LAYER_1
 10
107.9806
 20
195.1063
  0
VERTEX
  8
LAYER_1
 10
116.0874
 20
205.3933
  0
SEQEND
  0
POLYLINE
  8
LAYER_1
 40
0.0847
 41
0.0847
 66
1
 10
0
 20
0
 30
0
  0
VERTEX
  8
LAYER_1
 10
97.7148
 20
187.1476
  0
VERTEX
  8
LAYER_1
 10
98.2228
 20
187.1476
  0
SEQEND
  0
POLYLINE
  8
LAYER_1
 40
0.0847
 41
0.0847
 66
1
 10
0
 20
0
 30
0
  0
VERTEX
  8
LAYER_1
 10
97.7148
 20
186.8513
  0
VERTEX
  8
LAYER_1
 10
97.7148
 20
187.1476
  0
SEQEND
  0
POLYLINE
  8
LAYER_1
 40
0.0847
 41
0.0847
 66
1
 10
0
 20
0
 30
0
  0
VERTEX
  8
LAYER_1
 10
98.2228
 20
186.8513
  0
VERTEX
  8
LAYER_1
 10
98.2228
 20
187.1476
  0
SEQEND
  0
POLYLINE
  8
LAYER_1
 40
0.0847
 41
0.0847
 66
1
 10
0
 20
0
 30
0
  0
VERTEX
  8
LAYER_1
 10
111.2826
 20
188.9044
  0
VERTEX
  8
LAYER_1
 10
150.5891
 20
164.3511
  0
SEQEND
  0
TEXT
  8
LAYER_1
 10
151.1603
 20
162.5944
 11
151.1603
 21
162.5944
 40
2.5779
 41
0.5
  1
äOâèâôâOüiô¹öÆüj
  0
POLYLINE
  8
LAYER_1
 40
0.0847
 41
0.0847
 66
1
 10
0
 20
0
 30
0
  0
VERTEX
  8
LAYER_1
 10
100.6781
 20
185.6448
  0
VERTEX
  8
LAYER_1
 10
51.4656
 20
158.8901
  0
SEQEND
  0
TEXT
  8
LAYER_1
 10
18.2971
 20
157.5355
 11
18.2971
 21
157.5355
 40
2.5779
 41
0.5
  1
Ä¸ÄëâpâbâLâôòtì└òté½âiâbâg
  0
POLYLINE
  8
LAYER_1
 40
0.0847
 41
0.0847
 66
1
 10
0
 20
0
 30
0
  0
VERTEX
  8
LAYER_1
 10
97.9476
 20
187.0206
  0
VERTEX
  8
LAYER_1
 10
50.3649
 20
167.0393
  0
SEQEND
  0
TEXT
  8
LAYER_1
 10
32.8811
 20
166.1079
 11
32.8811
 21
166.1079
 40
2.5779
 41
0.5
  1
äOâèâôâOüiìòüj
  0
POLYLINE
  8
LAYER_1
 40
0.254
 41
0.254
 66
1
 10
0
 20
0
 30
0
  0
VERTEX
  8
LAYER_1
 10
99.1541
 20
181.8559
  0
VERTEX
  8
LAYER_1
 10
99.1541
 20
186.8513
  0
SEQEND
  0
POLYLINE
  8
LAYER_1
 40
0.254
 41
0.254
 66
1
 10
0
 20
0
 30
0
  0
VERTEX
  8
LAYER_1
 10
112.1504
 20
181.8559
  0
VERTEX
  8
LAYER_1
 10
112.1504
 20
186.8513
  0
SEQEND
  0
POLYLINE
  8
LAYER_1
 40
0.0847
 41
0.0847
 66
1
 10
0
 20
0
 30
0
  0
VERTEX
  8
LAYER_1
 10
112.6796
 20
181.8559
  0
VERTEX
  8
LAYER_1
 10
117.6961
 20
186.8513
  0
SEQEND
  0
POLYLINE
  8
LAYER_1
 40
0.0847
 41
0.0847
 66
1
 10
0
 20
0
 30
0
  0
VERTEX
  8
LAYER_1
 10
166.4218
 20
181.8559
  0
VERTEX
  8
LAYER_1
 10
171.4171
 20
186.8513
  0
SEQEND
  0
POLYLINE
  8
LAYER_1
 40
0.0847
 41
0.0847
 66
1
 10
0
 20
0
 30
0
  0
VERTEX
  8
LAYER_1
 10
163.6066
 20
181.8559
  0
VERTEX
  8
LAYER_1
 10
168.6019
 20
186.8513
  0
SEQEND
  0
POLYLINE
  8
LAYER_1
 40
0.0847
 41
0.0847
 66
1
 10
0
 20
0
 30
0
  0
VERTEX
  8
LAYER_1
 10
160.7703
 20
181.8559
  0
VERTEX
  8
LAYER_1
 10
165.7656
 20
186.8513
  0
SEQEND
  0
POLYLINE
  8
LAYER_1
 40
0.0847
 41
0.0847
 66
1
 10
0
 20
0
 30
0
  0
VERTEX
  8
LAYER_1
 10
157.934
 20
181.8559
  0
VERTEX
  8
LAYER_1
 10
162.9504
 20
186.8513
  0
SEQEND
  0
POLYLINE
  8
LAYER_1
 40
0.0847
 41
0.0847
 66
1
 10
0
 20
0
 30
0
  0
VERTEX
  8
LAYER_1
 10
155.1188
 20
181.8559
  0
VERTEX
  8
LAYER_1
 10
160.1141
 20
186.8513
  0
SEQEND
  0
POLYLINE
  8
LAYER_1
 40
0.0847
 41
0.0847
 66
1
 10
0
 20
0
 30
0
  0
VERTEX
  8
LAYER_1
 10
172.0733
 20
181.8559
  0
VERTEX
  8
LAYER_1
 10
176.2643
 20
186.0258
  0
SEQEND
  0
POLYLINE
  8
LAYER_1
 40
0.0847
 41
0.0847
 66
1
 10
0
 20
0
 30
0
  0
VERTEX
  8
LAYER_1
 10
169.2581
 20
181.8559
  0
VERTEX
  8
LAYER_1
 10
174.2535
 20
186.8513
  0
SEQEND
  0
POLYLINE
  8
LAYER_1
 40
0.0847
 41
0.0847
 66
1
 10
0
 20
0
 30
0
  0
VERTEX
  8
LAYER_1
 10
152.2825
 20
181.8559
  0
VERTEX
  8
LAYER_1
 10
157.2778
 20
186.8513
  0
SEQEND
  0
POLYLINE
  8
LAYER_1
 40
0.0847
 41
0.0847
 66
1
 10
0
 20
0
 30
0
  0
VERTEX
  8
LAYER_1
 10
149.4461
 20
181.8559
  0
VERTEX
  8
LAYER_1
 10
154.4626
 20
186.8513
  0
SEQEND
  0
POLYLINE
  8
LAYER_1
 40
0.0847
 41
0.0847
 66
1
 10
0
 20
0
 30
0
  0
VERTEX
  8
LAYER_1
 10
146.631
 20
181.8559
  0
VERTEX
  8
LAYER_1
 10
151.6263
 20
186.8513
  0
SEQEND
  0
POLYLINE
  8
LAYER_1
 40
0.0847
 41
0.0847
 66
1
 10
0
 20
0
 30
0
  0
VERTEX
  8
LAYER_1
 10
143.7947
 20
181.8559
  0
VERTEX
  8
LAYER_1
 10
148.79
 20
186.8513
  0
SEQEND
  0
POLYLINE
  8
LAYER_1
 40
0.0847
 41
0.0847
 66
1
 10
0
 20
0
 30
0
  0
VERTEX
  8
LAYER_1
 10
140.9795
 20
181.8559
  0
VERTEX
  8
LAYER_1
 10
145.9748
 20
186.8513
  0
SEQEND
  0
POLYLINE
  8
LAYER_1
 40
0.0847
 41
0.0847
 66
1
 10
0
 20
0
 30
0
  0
VERTEX
  8
LAYER_1
 10
138.1432
 20
181.8559
  0
VERTEX
  8
LAYER_1
 10
143.1385
 20
186.8513
  0
SEQEND
  0
POLYLINE
  8
LAYER_1
 40
0.0847
 41
0.0847
 66
1
 10
0
 20
0
 30
0
  0
VERTEX
  8
LAYER_1
 10
135.3068
 20
181.8559
  0
VERTEX
  8
LAYER_1
 10
140.3233
 20
186.8513
  0
SEQEND
  0
POLYLINE
  8
LAYER_1
 40
0.0847
 41
0.0847
 66
1
 10
0
 20
0
 30
0
  0
VERTEX
  8
LAYER_1
 10
132.4917
 20
181.8559
  0
VERTEX
  8
LAYER_1
 10
137.487
 20
186.8513
  0
SEQEND
  0
POLYLINE
  8
LAYER_1
 40
0.0847
 41
0.0847
 66
1
 10
0
 20
0
 30
0
  0
VERTEX
  8
LAYER_1
 10
129.6553
 20
181.8559
  0
VERTEX
  8
LAYER_1
 10
134.6507
 20
186.8513
  0
SEQEND
  0
POLYLINE
  8
LAYER_1
 40
0.0847
 41
0.0847
 66
1
 10
0
 20
0
 30
0
  0
VERTEX
  8
LAYER_1
 10
126.8402
 20
181.8559
  0
VERTEX
  8
LAYER_1
 10
131.8355
 20
186.8513
  0
SEQEND
  0
POLYLINE
  8
LAYER_1
 40
0.0847
 41
0.0847
 66
1
 10
0
 20
0
 30
0
  0
VERTEX
  8
LAYER_1
 10
124.0038
 20
181.8559
  0
VERTEX
  8
LAYER_1
 10
128.9991
 20
186.8513
  0
SEQEND
  0
POLYLINE
  8
LAYER_1
 40
0.0847
 41
0.0847
 66
1
 10
0
 20
0
 30
0
  0
VERTEX
  8
LAYER_1
 10
121.1675
 20
181.8559
  0
VERTEX
  8
LAYER_1
 10
126.1628
 20
186.8513
  0
SEQEND
  0
POLYLINE
  8
LAYER_1
 40
0.0847
 41
0.0847
 66
1
 10
0
 20
0
 30
0
  0
VERTEX
  8
LAYER_1
 10
118.3523
 20
181.8559
  0
VERTEX
  8
LAYER_1
 10
123.3476
 20
186.8513
  0
SEQEND
  0
POLYLINE
  8
LAYER_1
 40
0.0847
 41
0.0847
 66
1
 10
0
 20
0
 30
0
  0
VERTEX
  8
LAYER_1
 10
115.516
 20
181.8559
  0
VERTEX
  8
LAYER_1
 10
120.5113
 20
186.8513
  0
SEQEND
  0
POLYLINE
  8
LAYER_1
 40
0.0847
 41
0.0847
 66
1
 10
0
 20
0
 30
0
  0
VERTEX
  8
LAYER_1
 10
36.3527
 20
181.8559
  0
VERTEX
  8
LAYER_1
 10
41.348
 20
186.8513
  0
SEQEND
  0
POLYLINE
  8
LAYER_1
 40
0.0847
 41
0.0847
 66
1
 10
0
 20
0
 30
0
  0
VERTEX
  8
LAYER_1
 10
98.5615
 20
181.8559
  0
VERTEX
  8
LAYER_1
 10
99.1541
 20
182.4486
  0
SEQEND
  0
POLYLINE
  8
LAYER_1
 40
0.0847
 41
0.0847
 66
1
 10
0
 20
0
 30
0
  0
VERTEX
  8
LAYER_1
 10
95.7463
 20
181.8559
  0
VERTEX
  8
LAYER_1
 10
99.1541
 20
185.2638
  0
SEQEND
  0
POLYLINE
  8
LAYER_1
 40
0.0847
 41
0.0847
 66
1
 10
0
 20
0
 30
0
  0
VERTEX
  8
LAYER_1
 10
92.91
 20
181.8559
  0
VERTEX
  8
LAYER_1
 10
97.9053
 20
186.8513
  0
SEQEND
  0
POLYLINE
  8
LAYER_1
 40
0.0847
 41
0.0847
 66
1
 10
0
 20
0
 30
0
  0
VERTEX
  8
LAYER_1
 10
90.0736
 20
181.8559
  0
VERTEX
  8
LAYER_1
 10
95.0901
 20
186.8513
  0
SEQEND
  0
POLYLINE
  8
LAYER_1
 40
0.0847
 41
0.0847
 66
1
 10
0
 20
0
 30
0
  0
VERTEX
  8
LAYER_1
 10
87.2585
 20
181.8559
  0
VERTEX
  8
LAYER_1
 10
92.2538
 20
186.8513
  0
SEQEND
  0
POLYLINE
  8
LAYER_1
 40
0.0847
 41
0.0847
 66
1
 10
0
 20
0
 30
0
  0
VERTEX
  8
LAYER_1
 10
84.4221
 20
181.8559
  0
VERTEX
  8
LAYER_1
 10
89.4175
 20
186.8513
  0
SEQEND
  0
POLYLINE
  8
LAYER_1
 40
0.0847
 41
0.0847
 66
1
 10
0
 20
0
 30
0
  0
VERTEX
  8
LAYER_1
 10
81.607
 20
181.8559
  0
VERTEX
  8
LAYER_1
 10
86.6023
 20
186.8513
  0
SEQEND
  0
POLYLINE
  8
LAYER_1
 40
0.0847
 41
0.0847
 66
1
 10
0
 20
0
 30
0
  0
VERTEX
  8
LAYER_1
 10
78.7706
 20
181.8559
  0
VERTEX
  8
LAYER_1
 10
83.766
 20
186.8513
  0
SEQEND
  0
POLYLINE
  8
LAYER_1
 40
0.0847
 41
0.0847
 66
1
 10
0
 20
0
 30
0
  0
VERTEX
  8
LAYER_1
 10
75.9343
 20
181.8559
  0
VERTEX
  8
LAYER_1
 10
80.9508
 20
186.8513
  0
SEQEND
  0
POLYLINE
  8
LAYER_1
 40
0.0847
 41
0.0847
 66
1
 10
0
 20
0
 30
0
  0
VERTEX
  8
LAYER_1
 10
73.1191
 20
181.8559
  0
VERTEX
  8
LAYER_1
 10
78.1144
 20
186.8513
  0
SEQEND
  0
POLYLINE
  8
LAYER_1
 40
0.0847
 41
0.0847
 66
1
 10
0
 20
0
 30
0
  0
VERTEX
  8
LAYER_1
 10
70.2828
 20
181.8559
  0
VERTEX
  8
LAYER_1
 10
75.2781
 20
186.8513
  0
SEQEND
  0
POLYLINE
  8
LAYER_1
 40
0.0847
 41
0.0847
 66
1
 10
0
 20
0
 30
0
  0
VERTEX
  8
LAYER_1
 10
67.4464
 20
181.8559
  0
VERTEX
  8
LAYER_1
 10
72.4629
 20
186.8513
  0
SEQEND
  0
POLYLINE
  8
LAYER_1
 40
0.0847
 41
0.0847
 66
1
 10
0
 20
0
 30
0
  0
VERTEX
  8
LAYER_1
 10
64.6313
 20
181.8559
  0
VERTEX
  8
LAYER_1
 10
69.6266
 20
186.8513
  0
SEQEND
  0
POLYLINE
  8
LAYER_1
 40
0.0847
 41
0.0847
 66
1
 10
0
 20
0
 30
0
  0
VERTEX
  8
LAYER_1
 10
61.7949
 20
181.8559
  0
VERTEX
  8
LAYER_1
 10
66.7903
 20
186.8513
  0
SEQEND
  0
POLYLINE
  8
LAYER_1
 40
0.0847
 41
0.0847
 66
1
 10
0
 20
0
 30
0
  0
VERTEX
  8
LAYER_1
 10
58.9798
 20
181.8559
  0
VERTEX
  8
LAYER_1
 10
63.9751
 20
186.8513
  0
SEQEND
  0
POLYLINE
  8
LAYER_1
 40
0.0847
 41
0.0847
 66
1
 10
0
 20
0
 30
0
  0
VERTEX
  8
LAYER_1
 10
56.1434
 20
181.8559
  0
VERTEX
  8
LAYER_1
 10
61.1388
 20
186.8513
  0
SEQEND
  0
POLYLINE
  8
LAYER_1
 40
0.0847
 41
0.0847
 66
1
 10
0
 20
0
 30
0
  0
VERTEX
  8
LAYER_1
 10
53.3071
 20
181.8559
  0
VERTEX
  8
LAYER_1
 10
58.3236
 20
186.8513
  0
SEQEND
  0
POLYLINE
  8
LAYER_1
 40
0.0847
 41
0.0847
 66
1
 10
0
 20
0
 30
0
  0
VERTEX
  8
LAYER_1
 10
50.4919
 20
181.8559
  0
VERTEX
  8
LAYER_1
 10
55.4872
 20
186.8513
  0
SEQEND
  0
POLYLINE
  8
LAYER_1
 40
0.0847
 41
0.0847
 66
1
 10
0
 20
0
 30
0
  0
VERTEX
  8
LAYER_1
 10
47.6556
 20
181.8559
  0
VERTEX
  8
LAYER_1
 10
52.6509
 20
186.8513
  0
SEQEND
  0
POLYLINE
  8
LAYER_1
 40
0.0847
 41
0.0847
 66
1
 10
0
 20
0
 30
0
  0
VERTEX
  8
LAYER_1
 10
44.8193
 20
181.8559
  0
VERTEX
  8
LAYER_1
 10
49.8358
 20
186.8513
  0
SEQEND
  0
POLYLINE
  8
LAYER_1
 40
0.0847
 41
0.0847
 66
1
 10
0
 20
0
 30
0
  0
VERTEX
  8
LAYER_1
 10
42.0041
 20
181.8559
  0
VERTEX
  8
LAYER_1
 10
46.9994
 20
186.8513
  0
SEQEND
  0
POLYLINE
  8
LAYER_1
 40
0.0847
 41
0.0847
 66
1
 10
0
 20
0
 30
0
  0
VERTEX
  8
LAYER_1
 10
39.1678
 20
181.8559
  0
VERTEX
  8
LAYER_1
 10
44.1631
 20
186.8513
  0
SEQEND
  0
POLYLINE
  8
LAYER_1
 40
0.0847
 41
0.0847
 66
1
 10
0
 20
0
 30
0
  0
VERTEX
  8
LAYER_1
 10
34.9768
 20
186.1316
  0
VERTEX
  8
LAYER_1
 10
35.6964
 20
186.8513
  0
SEQEND
  0
POLYLINE
  8
LAYER_1
 40
0.0847
 41
0.0847
 66
1
 10
0
 20
0
 30
0
  0
VERTEX
  8
LAYER_1
 10
34.5111
 20
186.8513
  0
VERTEX
  8
LAYER_1
 10
34.6593
 20
186.6396
  0
VERTEX
  8
LAYER_1
 10
34.8921
 20
186.2798
  0
VERTEX
  8
LAYER_1
 10
35.1249
 20
185.8988
  0
VERTEX
  8
LAYER_1
 10
35.2943
 20
185.5389
  0
VERTEX
  8
LAYER_1
 10
35.4424
 20
185.1791
  0
VERTEX
  8
LAYER_1
 10
35.5271
 20
184.8193
  0
VERTEX
  8
LAYER_1
 10
35.5271
 20
184.6076
  0
VERTEX
  8
LAYER_1
 10
35.5271
 20
184.3748
  0
VERTEX
  8
LAYER_1
 10
35.4424
 20
184.0149
  0
VERTEX
  8
LAYER_1
 10
35.2943
 20
183.6551
  0
VERTEX
  8
LAYER_1
 10
35.1249
 20
183.2953
  0
VERTEX
  8
LAYER_1
 10
34.8921
 20
182.9143
  0
VERTEX
  8
LAYER_1
 10
34.6593
 20
182.5544
  0
VERTEX
  8
LAYER_1
 10
34.1724
 20
181.8559
  0
SEQEND
  0
POLYLINE
  8
LAYER_1
 40
0.0847
 41
0.0847
 66
1
 10
0
 20
0
 30
0
  0
VERTEX
  8
LAYER_1
 10
176.7934
 20
186.8513
  0
VERTEX
  8
LAYER_1
 10
176.6452
 20
186.6396
  0
VERTEX
  8
LAYER_1
 10
176.4124
 20
186.2798
  0
VERTEX
  8
LAYER_1
 10
176.1796
 20
185.8988
  0
VERTEX
  8
LAYER_1
 10
176.0102
 20
185.5389
  0
VERTEX
  8
LAYER_1
 10
175.8621
 20
185.1791
  0
VERTEX
  8
LAYER_1
 10
175.7774
 20
184.8193
  0
VERTEX
  8
LAYER_1
 10
175.7774
 20
184.6076
  0
VERTEX
  8
LAYER_1
 10
175.7774
 20
184.3748
  0
VERTEX
  8
LAYER_1
 10
175.8621
 20
184.0149
  0
VERTEX
  8
LAYER_1
 10
176.0102
 20
183.6551
  0
VERTEX
  8
LAYER_1
 10
176.1796
 20
183.2953
  0
VERTEX
  8
LAYER_1
 10
176.4124
 20
182.9143
  0
VERTEX
  8
LAYER_1
 10
176.6452
 20
182.5544
  0
VERTEX
  8
LAYER_1
 10
176.9416
 20
182.1311
  0
SEQEND
  0
POLYLINE
  8
LAYER_1
 40
0.0847
 41
0.0847
 66
1
 10
0
 20
0
 30
0
  0
VERTEX
  8
LAYER_1
 10
174.9096
 20
181.8559
  0
VERTEX
  8
LAYER_1
 10
176.2431
 20
183.1894
  0
SEQEND
  0
POLYLINE
  8
LAYER_1
 40
0.254
 41
0.254
 66
1
 10
0
 20
0
 30
0
  0
VERTEX
  8
LAYER_1
 10
34.1724
 20
181.8559
  0
VERTEX
  8
LAYER_1
 10
99.1541
 20
181.8559
  0
SEQEND
  0
POLYLINE
  8
LAYER_1
 40
0.254
 41
0.254
 66
1
 10
0
 20
0
 30
0
  0
VERTEX
  8
LAYER_1
 10
112.1504
 20
181.8559
  0
VERTEX
  8
LAYER_1
 10
177.1321
 20
181.8559
  0
SEQEND
  0
POLYLINE
  8
LAYER_1
 40
0.0847
 41
0.0847
 66
1
 10
0
 20
0
 30
0
  0
VERTEX
  8
LAYER_1
 10
176.9416
 20
182.1311
  0
VERTEX
  8
LAYER_1
 10
177.1321
 20
181.8559
  0
SEQEND
  0
TEXT
  8
LAYER_1
 10
116.7647
 20
205.5263
 11
116.7647
 21
205.5263
 40
3.0419
 41
0.5
  1
JORGERÉ╗ örÉàïÓï´70mm
  0
POLYLINE
  8
LAYER_1
 40
0.1693
 41
0.1693
 66
1
 10
0
 20
0
 30
0
  0
VERTEX
  8
LAYER_1
 10
110.3513
 20
180.8399
  0
VERTEX
  8
LAYER_1
 10
113.8438
 20
180.8399
  0
SEQEND
  0
POLYLINE
  8
LAYER_1
 40
0.1693
 41
0.1693
 66
1
 10
0
 20
0
 30
0
  0
VERTEX
  8
LAYER_1
 10
96.0214
 20
181.1574
  0
VERTEX
  8
LAYER_1
 10
97.5666
 20
181.1574
  0
SEQEND
  0
POLYLINE
  8
LAYER_1
 40
0.1693
 41
0.1693
 66
1
 10
0
 20
0
 30
0
  0
VERTEX
  8
LAYER_1
 10
95.5981
 20
181.2633
 42
0.0747795354
  0
VERTEX
  8
LAYER_1
 10
96.0003
 20
181.1574
  0
SEQEND
  0
POLYLINE
  8
LAYER_1
 40
0.1693
 41
0.1693
 66
1
 10
0
 20
0
 30
0
  0
VERTEX
  8
LAYER_1
 10
94.8573
 20
181.7924
  0
VERTEX
  8
LAYER_1
 10
94.8573
 20
181.8559
  0
SEQEND
  0
POLYLINE
  8
LAYER_1
 40
0.1693
 41
0.1693
 66
1
 10
0
 20
0
 30
0
  0
VERTEX
  8
LAYER_1
 10
94.8784
 20
181.7289
 42
0.06721447761
  0
VERTEX
  8
LAYER_1
 10
95.5769
 20
181.2421
  0
SEQEND
  0
POLYLINE
  8
LAYER_1
 40
0.1693
 41
0.1693
 66
1
 10
0
 20
0
 30
0
  0
VERTEX
  8
LAYER_1
 10
94.8573
 20
181.8136
  0
VERTEX
  8
LAYER_1
 10
94.8573
 20
181.7924
  0
VERTEX
  8
LAYER_1
 10
94.8573
 20
181.7501
  0
SEQEND
  0
POLYLINE
  8
LAYER_1
 40
0.1693
 41
0.1693
 66
1
 10
0
 20
0
 30
0
  0
VERTEX
  8
LAYER_1
 10
97.8629
 20
180.8611
 42
0.3680087477
  0
VERTEX
  8
LAYER_1
 10
97.5666
 20
181.1363
  0
VERTEX
  8
LAYER_1
 10
97.5454
 20
181.1363
  0
SEQEND
  0
POLYLINE
  8
LAYER_1
 40
0.1693
 41
0.1693
 66
1
 10
0
 20
0
 30
0
  0
VERTEX
  8
LAYER_1
 10
114.1401
 20
181.1574
  0
VERTEX
  8
LAYER_1
 10
115.6853
 20
181.1574
  0
SEQEND
  0
POLYLINE
  8
LAYER_1
 40
0.1693
 41
0.1693
 66
1
 10
0
 20
0
 30
0
  0
VERTEX
  8
LAYER_1
 10
115.6641
 20
181.1574
  0
VERTEX
  8
LAYER_1
 10
115.6853
 20
181.1574
 42
0.1076431409
  0
VERTEX
  8
LAYER_1
 10
116.0874
 20
181.2633
  0
SEQEND
  0
POLYLINE
  8
LAYER_1
 40
0.1693
 41
0.1693
 66
1
 10
0
 20
0
 30
0
  0
VERTEX
  8
LAYER_1
 10
116.8494
 20
181.7924
  0
VERTEX
  8
LAYER_1
 10
116.8494
 20
181.8559
  0
SEQEND
  0
POLYLINE
  8
LAYER_1
 40
0.1693
 41
0.1693
 66
1
 10
0
 20
0
 30
0
  0
VERTEX
  8
LAYER_1
 10
116.0874
 20
181.2421
 42
0.1038961643
  0
VERTEX
  8
LAYER_1
 10
116.7859
 20
181.7289
  0
SEQEND
  0
POLYLINE
  8
LAYER_1
 40
0.1693
 41
0.1693
 66
1
 10
0
 20
0
 30
0
  0
VERTEX
  8
LAYER_1
 10
116.8071
 20
181.7289
  0
VERTEX
  8
LAYER_1
 10
116.8494
 20
181.7924
 42
0.4471283441
  0
VERTEX
  8
LAYER_1
 10
116.8283
 20
181.8136
  0
SEQEND
  0
POLYLINE
  8
LAYER_1
 40
0.1693
 41
0.1693
 66
1
 10
0
 20
0
 30
0
  0
VERTEX
  8
LAYER_1
 10
114.1189
 20
181.1363
 42
0.4038302305
  0
VERTEX
  8
LAYER_1
 10
113.8438
 20
180.8611
  0
SEQEND
  0
POLYLINE
  8
LAYER_1
 40
0.1693
 41
0.1693
 66
1
 10
0
 20
0
 30
0
  0
VERTEX
  8
LAYER_1
 10
97.8629
 20
180.8399
  0
VERTEX
  8
LAYER_1
 10
100.9533
 20
180.8399
  0
SEQEND
  0
POLYLINE
  8
LAYER_1
 40
0.1693
 41
0.1693
 66
1
 10
0
 20
0
 30
0
  0
VERTEX
  8
LAYER_1
 10
94.8573
 20
181.8559
  0
VERTEX
  8
LAYER_1
 10
100.9533
 20
181.8559
  0
SEQEND
  0
POLYLINE
  8
LAYER_1
 40
0.1693
 41
0.1693
 66
1
 10
0
 20
0
 30
0
  0
VERTEX
  8
LAYER_1
 10
110.3513
 20
181.8559
  0
VERTEX
  8
LAYER_1
 10
116.8494
 20
181.8559
  0
SEQEND
  0
POLYLINE
  8
LAYER_1
 40
0.0847
 41
0.0847
 66
1
 10
0
 20
0
 30
0
  0
VERTEX
  8
LAYER_1
 10
116.5319
 20
181.4749
  0
VERTEX
  8
LAYER_1
 10
116.8494
 20
181.7924
  0
SEQEND
  0
POLYLINE
  8
LAYER_1
 40
0.0847
 41
0.0847
 66
1
 10
0
 20
0
 30
0
  0
VERTEX
  8
LAYER_1
 10
115.9393
 20
181.1786
  0
VERTEX
  8
LAYER_1
 10
116.6166
 20
181.8559
  0
SEQEND
  0
POLYLINE
  8
LAYER_1
 40
0.0847
 41
0.0847
 66
1
 10
0
 20
0
 30
0
  0
VERTEX
  8
LAYER_1
 10
115.6218
 20
181.1574
  0
VERTEX
  8
LAYER_1
 10
116.3203
 20
181.8559
  0
SEQEND
  0
POLYLINE
  8
LAYER_1
 40
0.0847
 41
0.0847
 66
1
 10
0
 20
0
 30
0
  0
VERTEX
  8
LAYER_1
 10
115.3466
 20
181.1574
  0
VERTEX
  8
LAYER_1
 10
116.0451
 20
181.8559
  0
SEQEND
  0
POLYLINE
  8
LAYER_1
 40
0.0847
 41
0.0847
 66
1
 10
0
 20
0
 30
0
  0
VERTEX
  8
LAYER_1
 10
115.0503
 20
181.1574
  0
VERTEX
  8
LAYER_1
 10
115.7488
 20
181.8559
  0
SEQEND
  0
POLYLINE
  8
LAYER_1
 40
0.0847
 41
0.0847
 66
1
 10
0
 20
0
 30
0
  0
VERTEX
  8
LAYER_1
 10
114.7751
 20
181.1574
  0
VERTEX
  8
LAYER_1
 10
115.4736
 20
181.8559
  0
SEQEND
  0
POLYLINE
  8
LAYER_1
 40
0.0847
 41
0.0847
 66
1
 10
0
 20
0
 30
0
  0
VERTEX
  8
LAYER_1
 10
114.4999
 20
181.1574
  0
VERTEX
  8
LAYER_1
 10
115.1984
 20
181.8559
  0
SEQEND
  0
POLYLINE
  8
LAYER_1
 40
0.0847
 41
0.0847
 66
1
 10
0
 20
0
 30
0
  0
VERTEX
  8
LAYER_1
 10
114.2036
 20
181.1574
  0
VERTEX
  8
LAYER_1
 10
114.9021
 20
181.8559
  0
SEQEND
  0
POLYLINE
  8
LAYER_1
 40
0.0847
 41
0.0847
 66
1
 10
0
 20
0
 30
0
  0
VERTEX
  8
LAYER_1
 10
113.6321
 20
180.8399
  0
VERTEX
  8
LAYER_1
 10
114.6269
 20
181.8559
  0
SEQEND
  0
POLYLINE
  8
LAYER_1
 40
0.0847
 41
0.0847
 66
1
 10
0
 20
0
 30
0
  0
VERTEX
  8
LAYER_1
 10
113.3358
 20
180.8399
  0
VERTEX
  8
LAYER_1
 10
114.3518
 20
181.8559
  0
SEQEND
  0
POLYLINE
  8
LAYER_1
 40
0.0847
 41
0.0847
 66
1
 10
0
 20
0
 30
0
  0
VERTEX
  8
LAYER_1
 10
113.0606
 20
180.8399
  0
VERTEX
  8
LAYER_1
 10
114.0554
 20
181.8559
  0
SEQEND
  0
POLYLINE
  8
LAYER_1
 40
0.0847
 41
0.0847
 66
1
 10
0
 20
0
 30
0
  0
VERTEX
  8
LAYER_1
 10
111.9388
 20
180.8399
  0
VERTEX
  8
LAYER_1
 10
112.9336
 20
181.8559
  0
SEQEND
  0
POLYLINE
  8
LAYER_1
 40
0.0847
 41
0.0847
 66
1
 10
0
 20
0
 30
0
  0
VERTEX
  8
LAYER_1
 10
111.6425
 20
180.8399
  0
VERTEX
  8
LAYER_1
 10
112.6584
 20
181.8559
  0
SEQEND
  0
POLYLINE
  8
LAYER_1
 40
0.0847
 41
0.0847
 66
1
 10
0
 20
0
 30
0
  0
VERTEX
  8
LAYER_1
 10
110.5206
 20
180.8399
  0
VERTEX
  8
LAYER_1
 10
111.5155
 20
181.8559
  0
SEQEND
  0
POLYLINE
  8
LAYER_1
 40
0.0847
 41
0.0847
 66
1
 10
0
 20
0
 30
0
  0
VERTEX
  8
LAYER_1
 10
110.3513
 20
180.9458
  0
VERTEX
  8
LAYER_1
 10
111.2403
 20
181.8559
  0
SEQEND
  0
POLYLINE
  8
LAYER_1
 40
0.0847
 41
0.0847
 66
1
 10
0
 20
0
 30
0
  0
VERTEX
  8
LAYER_1
 10
110.3513
 20
181.2421
  0
VERTEX
  8
LAYER_1
 10
110.944
 20
181.8559
  0
SEQEND
  0
POLYLINE
  8
LAYER_1
 40
0.0847
 41
0.0847
 66
1
 10
0
 20
0
 30
0
  0
VERTEX
  8
LAYER_1
 10
110.3513
 20
181.5173
  0
VERTEX
  8
LAYER_1
 10
110.6688
 20
181.8559
  0
SEQEND
  0
POLYLINE
  8
LAYER_1
 40
0.0847
 41
0.0847
 66
1
 10
0
 20
0
 30
0
  0
VERTEX
  8
LAYER_1
 10
110.3513
 20
181.8136
  0
VERTEX
  8
LAYER_1
 10
110.3936
 20
181.8559
  0
SEQEND
  0
POLYLINE
  8
LAYER_1
 40
0.0847
 41
0.0847
 66
1
 10
0
 20
0
 30
0
  0
VERTEX
  8
LAYER_1
 10
100.9321
 20
180.8399
  0
VERTEX
  8
LAYER_1
 10
100.9533
 20
180.8823
  0
SEQEND
  0
POLYLINE
  8
LAYER_1
 40
0.0847
 41
0.0847
 66
1
 10
0
 20
0
 30
0
  0
VERTEX
  8
LAYER_1
 10
100.6358
 20
180.8399
  0
VERTEX
  8
LAYER_1
 10
100.9533
 20
181.1786
  0
SEQEND
  0
POLYLINE
  8
LAYER_1
 40
0.0847
 41
0.0847
 66
1
 10
0
 20
0
 30
0
  0
VERTEX
  8
LAYER_1
 10
99.2176
 20
180.8399
  0
VERTEX
  8
LAYER_1
 10
100.2336
 20
181.8559
  0
SEQEND
  0
POLYLINE
  8
LAYER_1
 40
0.0847
 41
0.0847
 66
1
 10
0
 20
0
 30
0
  0
VERTEX
  8
LAYER_1
 10
98.9425
 20
180.8399
  0
VERTEX
  8
LAYER_1
 10
99.9373
 20
181.8559
  0
SEQEND
  0
POLYLINE
  8
LAYER_1
 40
0.0847
 41
0.0847
 66
1
 10
0
 20
0
 30
0
  0
VERTEX
  8
LAYER_1
 10
98.6673
 20
180.8399
  0
VERTEX
  8
LAYER_1
 10
99.6621
 20
181.8559
  0
SEQEND
  0
POLYLINE
  8
LAYER_1
 40
0.0847
 41
0.0847
 66
1
 10
0
 20
0
 30
0
  0
VERTEX
  8
LAYER_1
 10
98.371
 20
180.8399
  0
VERTEX
  8
LAYER_1
 10
99.3658
 20
181.8559
  0
SEQEND
  0
POLYLINE
  8
LAYER_1
 40
0.0847
 41
0.0847
 66
1
 10
0
 20
0
 30
0
  0
VERTEX
  8
LAYER_1
 10
98.0958
 20
180.8399
  0
VERTEX
  8
LAYER_1
 10
99.0906
 20
181.8559
  0
SEQEND
  0
POLYLINE
  8
LAYER_1
 40
0.0847
 41
0.0847
 66
1
 10
0
 20
0
 30
0
  0
VERTEX
  8
LAYER_1
 10
97.863
 20
180.9034
  0
VERTEX
  8
LAYER_1
 10
98.8155
 20
181.8559
  0
SEQEND
  0
POLYLINE
  8
LAYER_1
 40
0.0847
 41
0.0847
 66
1
 10
0
 20
0
 30
0
  0
VERTEX
  8
LAYER_1
 10
97.7571
 20
181.0728
  0
VERTEX
  8
LAYER_1
 10
98.5191
 20
181.8559
  0
SEQEND
  0
POLYLINE
  8
LAYER_1
 40
0.0847
 41
0.0847
 66
1
 10
0
 20
0
 30
0
  0
VERTEX
  8
LAYER_1
 10
96.974
 20
181.1574
  0
VERTEX
  8
LAYER_1
 10
97.6725
 20
181.8559
  0
SEQEND
  0
POLYLINE
  8
LAYER_1
 40
0.0847
 41
0.0847
 66
1
 10
0
 20
0
 30
0
  0
VERTEX
  8
LAYER_1
 10
96.6988
 20
181.1574
  0
VERTEX
  8
LAYER_1
 10
97.3973
 20
181.8559
  0
SEQEND
  0
POLYLINE
  8
LAYER_1
 40
0.0847
 41
0.0847
 66
1
 10
0
 20
0
 30
0
  0
VERTEX
  8
LAYER_1
 10
96.4236
 20
181.1574
  0
VERTEX
  8
LAYER_1
 10
97.1221
 20
181.8559
  0
SEQEND
  0
POLYLINE
  8
LAYER_1
 40
0.0847
 41
0.0847
 66
1
 10
0
 20
0
 30
0
  0
VERTEX
  8
LAYER_1
 10
96.1273
 20
181.1574
  0
VERTEX
  8
LAYER_1
 10
96.8258
 20
181.8559
  0
SEQEND
  0
POLYLINE
  8
LAYER_1
 40
0.0847
 41
0.0847
 66
1
 10
0
 20
0
 30
0
  0
VERTEX
  8
LAYER_1
 10
95.8521
 20
181.1574
  0
VERTEX
  8
LAYER_1
 10
96.5506
 20
181.8559
  0
SEQEND
  0
POLYLINE
  8
LAYER_1
 40
0.0847
 41
0.0847
 66
1
 10
0
 20
0
 30
0
  0
VERTEX
  8
LAYER_1
 10
95.6405
 20
181.2209
  0
VERTEX
  8
LAYER_1
 10
96.2755
 20
181.8559
  0
SEQEND
  0
POLYLINE
  8
LAYER_1
 40
0.0847
 41
0.0847
 66
1
 10
0
 20
0
 30
0
  0
VERTEX
  8
LAYER_1
 10
95.45
 20
181.3056
  0
VERTEX
  8
LAYER_1
 10
95.9791
 20
181.8559
  0
SEQEND
  0
POLYLINE
  8
LAYER_1
 40
0.0847
 41
0.0847
 66
1
 10
0
 20
0
 30
0
  0
VERTEX
  8
LAYER_1
 10
95.2806
 20
181.4114
  0
VERTEX
  8
LAYER_1
 10
95.7039
 20
181.8559
  0
SEQEND
  0
POLYLINE
  8
LAYER_1
 40
0.0847
 41
0.0847
 66
1
 10
0
 20
0
 30
0
  0
VERTEX
  8
LAYER_1
 10
95.1113
 20
181.5384
  0
VERTEX
  8
LAYER_1
 10
95.4076
 20
181.8559
  0
SEQEND
  0
POLYLINE
  8
LAYER_1
 40
0.0847
 41
0.0847
 66
1
 10
0
 20
0
 30
0
  0
VERTEX
  8
LAYER_1
 10
94.9419
 20
181.6654
  0
VERTEX
  8
LAYER_1
 10
95.1324
 20
181.8559
  0
SEQEND
  0
POLYLINE
  8
LAYER_1
 40
0.0847
 41
0.0847
 66
1
 10
0
 20
0
 30
0
  0
VERTEX
  8
LAYER_1
 10
99.7679
 20
181.1574
  0
VERTEX
  8
LAYER_1
 10
99.9161
 20
181.1574
  0
SEQEND
  0
POLYLINE
  8
LAYER_1
 40
0.0847
 41
0.0847
 66
1
 10
0
 20
0
 30
0
  0
VERTEX
  8
LAYER_1
 10
100.2124
 20
181.1574
  0
VERTEX
  8
LAYER_1
 10
100.3606
 20
181.1574
  0
SEQEND
  0
POLYLINE
  8
LAYER_1
 40
0.0847
 41
0.0847
 66
1
 10
0
 20
0
 30
0
  0
VERTEX
  8
LAYER_1
 10
100.3606
 20
180.8399
  0
VERTEX
  8
LAYER_1
 10
100.3606
 20
180.9034
  0
SEQEND
  0
POLYLINE
  8
LAYER_1
 40
0.0847
 41
0.0847
 66
1
 10
0
 20
0
 30
0
  0
VERTEX
  8
LAYER_1
 10
100.3606
 20
181.0728
  0
VERTEX
  8
LAYER_1
 10
100.3606
 20
181.1574
  0
SEQEND
  0
POLYLINE
  8
LAYER_1
 40
0.0847
 41
0.0847
 66
1
 10
0
 20
0
 30
0
  0
VERTEX
  8
LAYER_1
 10
111.5366
 20
180.8399
  0
VERTEX
  8
LAYER_1
 10
111.5366
 20
180.9034
  0
SEQEND
  0
POLYLINE
  8
LAYER_1
 40
0.0847
 41
0.0847
 66
1
 10
0
 20
0
 30
0
  0
VERTEX
  8
LAYER_1
 10
111.5366
 20
181.0728
  0
VERTEX
  8
LAYER_1
 10
111.5366
 20
181.1574
  0
SEQEND
  0
POLYLINE
  8
LAYER_1
 40
0.0847
 41
0.0847
 66
1
 10
0
 20
0
 30
0
  0
VERTEX
  8
LAYER_1
 10
110.944
 20
181.1574
  0
VERTEX
  8
LAYER_1
 10
111.0921
 20
181.1574
  0
SEQEND
  0
POLYLINE
  8
LAYER_1
 40
0.0847
 41
0.0847
 66
1
 10
0
 20
0
 30
0
  0
VERTEX
  8
LAYER_1
 10
111.3885
 20
181.1574
  0
VERTEX
  8
LAYER_1
 10
111.5366
 20
181.1574
  0
SEQEND
  0
POLYLINE
  8
LAYER_1
 40
0.0847
 41
0.0847
 66
1
 10
0
 20
0
 30
0
  0
VERTEX
  8
LAYER_1
 10
110.944
 20
180.8399
  0
VERTEX
  8
LAYER_1
 10
110.944
 20
180.9034
  0
SEQEND
  0
POLYLINE
  8
LAYER_1
 40
0.0847
 41
0.0847
 66
1
 10
0
 20
0
 30
0
  0
VERTEX
  8
LAYER_1
 10
110.944
 20
181.0728
  0
VERTEX
  8
LAYER_1
 10
110.944
 20
181.1574
  0
SEQEND
  0
POLYLINE
  8
LAYER_1
 40
0.0847
 41
0.0847
 66
1
 10
0
 20
0
 30
0
  0
VERTEX
  8
LAYER_1
 10
100.9533
 20
180.8399
  0
VERTEX
  8
LAYER_1
 10
100.9533
 20
181.2209
  0
SEQEND
  0
POLYLINE
  8
LAYER_1
 40
0.0847
 41
0.0847
 66
1
 10
0
 20
0
 30
0
  0
VERTEX
  8
LAYER_1
 10
100.9533
 20
181.4749
  0
VERTEX
  8
LAYER_1
 10
100.9533
 20
181.8559
  0
SEQEND
  0
POLYLINE
  8
LAYER_1
 40
0.0847
 41
0.0847
 66
1
 10
0
 20
0
 30
0
  0
VERTEX
  8
LAYER_1
 10
110.3513
 20
180.8399
  0
VERTEX
  8
LAYER_1
 10
110.3513
 20
181.2209
  0
SEQEND
  0
POLYLINE
  8
LAYER_1
 40
0.0847
 41
0.0847
 66
1
 10
0
 20
0
 30
0
  0
VERTEX
  8
LAYER_1
 10
110.3513
 20
181.4749
  0
VERTEX
  8
LAYER_1
 10
110.3513
 20
181.8559
  0
SEQEND
  0
POLYLINE
  8
LAYER_1
 40
0.0847
 41
0.0847
 66
1
 10
0
 20
0
 30
0
  0
VERTEX
  8
LAYER_1
 10
100.9533
 20
181.8559
  0
VERTEX
  8
LAYER_1
 10
101.2496
 20
181.8559
  0
SEQEND
  0
POLYLINE
  8
LAYER_1
 40
0.0847
 41
0.0847
 66
1
 10
0
 20
0
 30
0
  0
VERTEX
  8
LAYER_1
 10
101.4401
 20
181.8559
  0
VERTEX
  8
LAYER_1
 10
101.7576
 20
181.8559
  0
SEQEND
  0
POLYLINE
  8
LAYER_1
 40
0.0847
 41
0.0847
 66
1
 10
0
 20
0
 30
0
  0
VERTEX
  8
LAYER_1
 10
109.7586
 20
181.8559
  0
VERTEX
  8
LAYER_1
 10
109.9703
 20
181.8559
  0
SEQEND
  0
POLYLINE
  8
LAYER_1
 40
0.0847
 41
0.0847
 66
1
 10
0
 20
0
 30
0
  0
VERTEX
  8
LAYER_1
 10
110.1184
 20
181.8559
  0
VERTEX
  8
LAYER_1
 10
110.3513
 20
181.8559
  0
SEQEND
  0
POLYLINE
  8
LAYER_1
 40
0.0847
 41
0.0847
 66
1
 10
0
 20
0
 30
0
  0
VERTEX
  8
LAYER_1
 10
97.7148
 20
181.5384
  0
VERTEX
  8
LAYER_1
 10
98.2228
 20
181.5384
  0
SEQEND
  0
POLYLINE
  8
LAYER_1
 40
0.0847
 41
0.0847
 66
1
 10
0
 20
0
 30
0
  0
VERTEX
  8
LAYER_1
 10
97.7148
 20
181.5384
  0
VERTEX
  8
LAYER_1
 10
97.7148
 20
181.856
  0
SEQEND
  0
POLYLINE
  8
LAYER_1
 40
0.0847
 41
0.0847
 66
1
 10
0
 20
0
 30
0
  0
VERTEX
  8
LAYER_1
 10
98.2228
 20
181.5384
  0
VERTEX
  8
LAYER_1
 10
98.2228
 20
181.856
  0
SEQEND
  0
POLYLINE
  8
LAYER_1
 40
0.0847
 41
0.0847
 66
1
 10
0
 20
0
 30
0
  0
VERTEX
  8
LAYER_1
 10
113.0818
 20
181.5384
  0
VERTEX
  8
LAYER_1
 10
113.5898
 20
181.5384
  0
VERTEX
  8
LAYER_1
 10
113.5898
 20
181.856
  0
SEQEND
  0
POLYLINE
  8
LAYER_1
 40
0.0847
 41
0.0847
 66
1
 10
0
 20
0
 30
0
  0
VERTEX
  8
LAYER_1
 10
113.0818
 20
181.5384
  0
VERTEX
  8
LAYER_1
 10
113.0818
 20
181.856
  0
SEQEND
  0
TEXT
  8
LAYER_1
 10
140.3231
 20
177.9824
 11
140.3231
 21
177.9824
 40
4.2535
 41
0.5
  1
ôVö┬èJî¹Éíû@üF65067
  0
POLYLINE
  8
LAYER_1
 40
0.0847
 41
0.0847
 66
1
 10
0
 20
0
 30
0
  0
VERTEX
  8
LAYER_1
 10
107.5149
 20
170.0238
  0
VERTEX
  8
LAYER_1
 10
151.7956
 20
156.9004
  0
SEQEND
  0
POLYLINE
  8
LAYER_1
 40
0.0847
 41
0.0847
 66
1
 10
0
 20
0
 30
0
  0
VERTEX
  8
LAYER_1
 10
51.4656
 20
158.8901
  0
VERTEX
  8
LAYER_1
 10
100.9321
 20
179.3583
  0
SEQEND
  0
POLYLINE
  8
LAYER_1
 40
0.1693
 41
0.1693
 66
1
 10
0
 20
0
 30
0
  0
VERTEX
  8
LAYER_1
 10
91.6399
 20
191.8889
  0
VERTEX
  8
LAYER_1
 10
92.1903
 20
191.8678
  0
SEQEND
  0
POLYLINE
  8
LAYER_1
 40
0.1693
 41
0.1693
 66
1
 10
0
 20
0
 30
0
  0
VERTEX
  8
LAYER_1
 10
94.5609
 20
191.6349
  0
VERTEX
  8
LAYER_1
 10
94.1376
 20
191.6984
  0
SEQEND
  0
POLYLINE
  8
LAYER_1
 40
0.0847
 41
0.0847
 66
1
 10
0
 20
0
 30
0
  0
VERTEX
  8
LAYER_1
 10
48.4811
 20
215.5321
  0
VERTEX
  8
LAYER_1
 10
51.1058
 20
211.5104
  0
SEQEND
  0
POLYLINE
  8
LAYER_1
 40
0.0847
 41
0.0847
 66
1
 10
0
 20
0
 30
0
  0
VERTEX
  8
LAYER_1
 10
48.4811
 20
215.5321
 42
0.2758877772
  0
VERTEX
  8
LAYER_1
 10
46.7031
 20
216.6328
  0
VERTEX
  8
LAYER_1
 10
46.6819
 20
216.6328
  0
SEQEND
  0
POLYLINE
  8
LAYER_1
 40
0.1693
 41
0.1693
 66
1
 10
0
 20
0
 30
0
  0
VERTEX
  8
LAYER_1
 10
38.8714
 20
214.0504
  0
VERTEX
  8
LAYER_1
 10
38.8714
 20
214.4314
  0
VERTEX
  8
LAYER_1
 10
38.9138
 20
214.7913
  0
VERTEX
  8
LAYER_1
 10
38.9773
 20
215.1088
  0
SEQEND
  0
POLYLINE
  8
LAYER_1
 40
0.1693
 41
0.1693
 66
1
 10
0
 20
0
 30
0
  0
VERTEX
  8
LAYER_1
 10
39.0619
 20
215.4051
  0
VERTEX
  8
LAYER_1
 10
39.1678
 20
215.6591
  0
VERTEX
  8
LAYER_1
 10
39.2948
 20
215.8919
  0
VERTEX
  8
LAYER_1
 10
39.4429
 20
216.0824
  0
VERTEX
  8
LAYER_1
 10
39.6123
 20
216.2518
  0
VERTEX
  8
LAYER_1
 10
39.8239
 20
216.3999
  0
VERTEX
  8
LAYER_1
 10
40.0568
 20
216.5058
  0
VERTEX
  8
LAYER_1
 10
40.2896
 20
216.5904
  0
VERTEX
  8
LAYER_1
 10
40.5648
 20
216.6328
  0
VERTEX
  8
LAYER_1
 10
40.8611
 20
216.6539
  0
SEQEND
  0
POLYLINE
  8
LAYER_1
 40
0.1693
 41
0.1693
 66
1
 10
0
 20
0
 30
0
  0
VERTEX
  8
LAYER_1
 10
172.4331
 20
214.0504
  0
VERTEX
  8
LAYER_1
 10
172.4331
 20
214.4314
  0
VERTEX
  8
LAYER_1
 10
172.3907
 20
214.7913
  0
VERTEX
  8
LAYER_1
 10
172.3272
 20
215.1088
  0
VERTEX
  8
LAYER_1
 10
172.2426
 20
215.4051
  0
VERTEX
  8
LAYER_1
 10
172.1368
 20
215.6591
  0
VERTEX
  8
LAYER_1
 10
172.0098
 20
215.8919
  0
VERTEX
  8
LAYER_1
 10
171.8616
 20
216.0824
  0
VERTEX
  8
LAYER_1
 10
171.6922
 20
216.2518
  0
VERTEX
  8
LAYER_1
 10
171.4806
 20
216.3999
  0
VERTEX
  8
LAYER_1
 10
171.2477
 20
216.5058
  0
VERTEX
  8
LAYER_1
 10
171.0149
 20
216.5904
  0
VERTEX
  8
LAYER_1
 10
170.7397
 20
216.6328
  0
VERTEX
  8
LAYER_1
 10
170.4434
 20
216.6539
  0
SEQEND
  0
POLYLINE
  8
LAYER_1
 40
0.0847
 41
0.0847
 66
1
 10
0
 20
0
 30
0
  0
VERTEX
  8
LAYER_1
 10
142.0166
 20
195.5084
  0
VERTEX
  8
LAYER_1
 10
141.5086
 20
195.3603
  0
VERTEX
  8
LAYER_1
 10
140.9794
 20
195.2121
  0
VERTEX
  8
LAYER_1
 10
140.0269
 20
194.9793
  0
VERTEX
  8
LAYER_1
 10
139.0956
 20
194.7888
  0
VERTEX
  8
LAYER_1
 10
135.5184
 20
194.2808
  0
VERTEX
  8
LAYER_1
 10
133.9309
 20
194.0903
  0
VERTEX
  8
LAYER_1
 10
132.3223
 20
193.9421
  0
VERTEX
  8
LAYER_1
 10
130.7559
 20
193.8151
  0
VERTEX
  8
LAYER_1
 10
130.1209
 20
193.8151
  0
VERTEX
  8
LAYER_1
 10
129.4648
 20
193.8151
  0
VERTEX
  8
LAYER_1
 10
128.8086
 20
193.8363
  0
VERTEX
  8
LAYER_1
 10
128.1736
 20
193.8363
  0
VERTEX
  8
LAYER_1
 10
127.5386
 20
193.8574
  0
VERTEX
  8
LAYER_1
 10
126.9036
 20
193.8574
  0
VERTEX
  8
LAYER_1
 10
126.2686
 20
193.8786
  0
VERTEX
  8
LAYER_1
 10
125.6548
 20
193.8998
  0
VERTEX
  8
LAYER_1
 10
125.0409
 20
193.8998
  0
SEQEND
  0
POLYLINE
  8
LAYER_1
 40
0.0847
 41
0.0847
 66
1
 10
0
 20
0
 30
0
  0
VERTEX
  8
LAYER_1
 10
85.6498
 20
193.8998
  0
VERTEX
  8
LAYER_1
 10
85.0359
 20
193.8786
  0
VERTEX
  8
LAYER_1
 10
84.4009
 20
193.8574
  0
VERTEX
  8
LAYER_1
 10
83.7659
 20
193.8574
  0
VERTEX
  8
LAYER_1
 10
83.1309
 20
193.8363
  0
VERTEX
  8
LAYER_1
 10
82.4959
 20
193.8363
  0
VERTEX
  8
LAYER_1
 10
81.8398
 20
193.8151
  0
VERTEX
  8
LAYER_1
 10
81.1836
 20
193.8151
  0
VERTEX
  8
LAYER_1
 10
80.5486
 20
193.8151
  0
VERTEX
  8
LAYER_1
 10
78.9823
 20
193.9421
  0
VERTEX
  8
LAYER_1
 10
77.3736
 20
194.0903
  0
VERTEX
  8
LAYER_1
 10
75.7861
 20
194.2808
  0
VERTEX
  8
LAYER_1
 10
72.2089
 20
194.7888
  0
VERTEX
  8
LAYER_1
 10
71.2776
 20
194.9793
  0
VERTEX
  8
LAYER_1
 10
70.3251
 20
195.2121
  0
VERTEX
  8
LAYER_1
 10
69.7959
 20
195.3603
  0
VERTEX
  8
LAYER_1
 10
69.2879
 20
195.5084
  0
VERTEX
  8
LAYER_1
 10
68.3989
 20
195.8048
  0
VERTEX
  8
LAYER_1
 10
67.5311
 20
196.1223
  0
VERTEX
  8
LAYER_1
 10
66.6633
 20
196.4609
  0
VERTEX
  8
LAYER_1
 10
65.7954
 20
196.8419
  0
VERTEX
  8
LAYER_1
 10
64.9276
 20
197.2441
  0
VERTEX
  8
LAYER_1
 10
64.4408
 20
197.4769
  0
VERTEX
  8
LAYER_1
 10
63.8058
 20
197.8156
  0
SEQEND
  0
POLYLINE
  8
LAYER_1
 40
0.1693
 41
0.1693
 66
1
 10
0
 20
0
 30
0
  0
VERTEX
  8
LAYER_1
 10
113.6321
 20
189.0526
  0
VERTEX
  8
LAYER_1
 10
113.6321
 20
191.0423
  0
SEQEND
  0
POLYLINE
  8
LAYER_1
 40
0.1693
 41
0.1693
 66
1
 10
0
 20
0
 30
0
  0
VERTEX
  8
LAYER_1
 10
51.6138
 20
206.6633
  0
VERTEX
  8
LAYER_1
 10
52.5239
 20
205.4356
  0
VERTEX
  8
LAYER_1
 10
53.4976
 20
204.2714
  0
VERTEX
  8
LAYER_1
 10
53.8574
 20
203.8269
  0
VERTEX
  8
LAYER_1
 10
54.4713
 20
203.0649
  0
VERTEX
  8
LAYER_1
 10
55.1063
 20
202.3029
  0
VERTEX
  8
LAYER_1
 10
55.7413
 20
201.5621
  0
VERTEX
  8
LAYER_1
 10
56.4186
 20
200.8424
  0
VERTEX
  8
LAYER_1
 10
57.0959
 20
200.1439
  0
VERTEX
  8
LAYER_1
 10
57.5193
 20
199.7629
  0
VERTEX
  8
LAYER_1
 10
58.0696
 20
199.2973
  0
VERTEX
  8
LAYER_1
 10
59.0433
 20
198.5141
  0
VERTEX
  8
LAYER_1
 10
60.0593
 20
197.7944
  0
VERTEX
  8
LAYER_1
 10
61.1388
 20
197.1383
  0
VERTEX
  8
LAYER_1
 10
62.2183
 20
196.5033
  0
VERTEX
  8
LAYER_1
 10
63.3401
 20
195.9106
  0
VERTEX
  8
LAYER_1
 10
63.9963
 20
195.5719
  0
VERTEX
  8
LAYER_1
 10
64.5043
 20
195.3391
  0
VERTEX
  8
LAYER_1
 10
65.3933
 20
194.9158
  0
VERTEX
  8
LAYER_1
 10
66.2823
 20
194.5348
  0
VERTEX
  8
LAYER_1
 10
67.1713
 20
194.1749
  0
VERTEX
  8
LAYER_1
 10
68.0814
 20
193.8363
  0
VERTEX
  8
LAYER_1
 10
68.9916
 20
193.5399
  0
VERTEX
  8
LAYER_1
 10
69.5208
 20
193.3918
  0
VERTEX
  8
LAYER_1
 10
70.0923
 20
193.2224
  0
VERTEX
  8
LAYER_1
 10
71.0659
 20
192.9896
  0
VERTEX
  8
LAYER_1
 10
72.0396
 20
192.7991
  0
VERTEX
  8
LAYER_1
 10
75.6591
 20
192.2699
  0
VERTEX
  8
LAYER_1
 10
77.2678
 20
192.0794
  0
VERTEX
  8
LAYER_1
 10
78.8976
 20
191.9313
  0
VERTEX
  8
LAYER_1
 10
80.5063
 20
191.8043
  0
VERTEX
  8
LAYER_1
 10
81.1836
 20
191.8043
  0
VERTEX
  8
LAYER_1
 10
81.8609
 20
191.8043
  0
VERTEX
  8
LAYER_1
 10
82.4959
 20
191.8254
  0
VERTEX
  8
LAYER_1
 10
83.1521
 20
191.8254
  0
VERTEX
  8
LAYER_1
 10
83.7871
 20
191.8466
  0
VERTEX
  8
LAYER_1
 10
84.4221
 20
191.8466
  0
VERTEX
  8
LAYER_1
 10
85.0571
 20
191.8678
  0
VERTEX
  8
LAYER_1
 10
85.6709
 20
191.8678
  0
SEQEND
  0
POLYLINE
  8
LAYER_1
 40
0.1693
 41
0.1693
 66
1
 10
0
 20
0
 30
0
  0
VERTEX
  8
LAYER_1
 10
121.9929
 20
191.9313
  0
VERTEX
  8
LAYER_1
 10
121.4003
 20
191.9313
  0
SEQEND
  0
POLYLINE
  8
LAYER_1
 40
0.1693
 41
0.1693
 66
1
 10
0
 20
0
 30
0
  0
VERTEX
  8
LAYER_1
 10
122.5856
 20
191.9313
  0
VERTEX
  8
LAYER_1
 10
121.9929
 20
191.9313
  0
SEQEND
  0
POLYLINE
  8
LAYER_1
 40
0.1693
 41
0.1693
 66
1
 10
0
 20
0
 30
0
  0
VERTEX
  8
LAYER_1
 10
123.1783
 20
191.9313
  0
VERTEX
  8
LAYER_1
 10
122.5856
 20
191.9313
  0
SEQEND
  0
POLYLINE
  8
LAYER_1
 40
0.1693
 41
0.1693
 66
1
 10
0
 20
0
 30
0
  0
VERTEX
  8
LAYER_1
 10
123.7921
 20
191.9101
  0
VERTEX
  8
LAYER_1
 10
123.1783
 20
191.9313
  0
SEQEND
  0
POLYLINE
  8
LAYER_1
 40
0.1693
 41
0.1693
 66
1
 10
0
 20
0
 30
0
  0
VERTEX
  8
LAYER_1
 10
124.4059
 20
191.9101
  0
VERTEX
  8
LAYER_1
 10
123.7921
 20
191.9101
  0
SEQEND
  0
POLYLINE
  8
LAYER_1
 40
0.1693
 41
0.1693
 66
1
 10
0
 20
0
 30
0
  0
VERTEX
  8
LAYER_1
 10
125.0198
 20
191.8889
  0
VERTEX
  8
LAYER_1
 10
124.4059
 20
191.9101
  0
SEQEND
  0
POLYLINE
  8
LAYER_1
 40
0.1693
 41
0.1693
 66
1
 10
0
 20
0
 30
0
  0
VERTEX
  8
LAYER_1
 10
125.6336
 20
191.8678
  0
VERTEX
  8
LAYER_1
 10
125.0197
 20
191.8889
  0
SEQEND
  0
POLYLINE
  8
LAYER_1
 40
0.1693
 41
0.1693
 66
1
 10
0
 20
0
 30
0
  0
VERTEX
  8
LAYER_1
 10
126.2474
 20
191.8678
  0
VERTEX
  8
LAYER_1
 10
125.6336
 20
191.8678
  0
SEQEND
  0
POLYLINE
  8
LAYER_1
 40
0.1693
 41
0.1693
 66
1
 10
0
 20
0
 30
0
  0
VERTEX
  8
LAYER_1
 10
126.8824
 20
191.8466
  0
VERTEX
  8
LAYER_1
 10
126.2474
 20
191.8678
  0
SEQEND
  0
POLYLINE
  8
LAYER_1
 40
0.1693
 41
0.1693
 66
1
 10
0
 20
0
 30
0
  0
VERTEX
  8
LAYER_1
 10
127.5174
 20
191.8466
  0
VERTEX
  8
LAYER_1
 10
126.8824
 20
191.8466
  0
SEQEND
  0
POLYLINE
  8
LAYER_1
 40
0.1693
 41
0.1693
 66
1
 10
0
 20
0
 30
0
  0
VERTEX
  8
LAYER_1
 10
128.1524
 20
191.8254
  0
VERTEX
  8
LAYER_1
 10
127.5174
 20
191.8466
  0
SEQEND
  0
POLYLINE
  8
LAYER_1
 40
0.1693
 41
0.1693
 66
1
 10
0
 20
0
 30
0
  0
VERTEX
  8
LAYER_1
 10
128.8086
 20
191.8254
  0
VERTEX
  8
LAYER_1
 10
128.1524
 20
191.8254
  0
SEQEND
  0
POLYLINE
  8
LAYER_1
 40
0.1693
 41
0.1693
 66
1
 10
0
 20
0
 30
0
  0
VERTEX
  8
LAYER_1
 10
129.4436
 20
191.8043
  0
VERTEX
  8
LAYER_1
 10
128.8085
 20
191.8254
  0
SEQEND
  0
POLYLINE
  8
LAYER_1
 40
0.1693
 41
0.1693
 66
1
 10
0
 20
0
 30
0
  0
VERTEX
  8
LAYER_1
 10
130.1209
 20
191.8043
  0
VERTEX
  8
LAYER_1
 10
129.4436
 20
191.8043
  0
SEQEND
  0
POLYLINE
  8
LAYER_1
 40
0.1693
 41
0.1693
 66
1
 10
0
 20
0
 30
0
  0
VERTEX
  8
LAYER_1
 10
130.7982
 20
191.8043
  0
VERTEX
  8
LAYER_1
 10
130.1209
 20
191.8043
  0
SEQEND
  0
POLYLINE
  8
LAYER_1
 40
0.1693
 41
0.1693
 66
1
 10
0
 20
0
 30
0
  0
VERTEX
  8
LAYER_1
 10
132.4069
 20
191.9313
  0
VERTEX
  8
LAYER_1
 10
130.7982
 20
191.8043
  0
SEQEND
  0
POLYLINE
  8
LAYER_1
 40
0.1693
 41
0.1693
 66
1
 10
0
 20
0
 30
0
  0
VERTEX
  8
LAYER_1
 10
134.0367
 20
192.0794
  0
VERTEX
  8
LAYER_1
 10
132.4069
 20
191.9313
  0
SEQEND
  0
POLYLINE
  8
LAYER_1
 40
0.1693
 41
0.1693
 66
1
 10
0
 20
0
 30
0
  0
VERTEX
  8
LAYER_1
 10
135.6454
 20
192.2699
  0
VERTEX
  8
LAYER_1
 10
134.0367
 20
192.0794
  0
SEQEND
  0
POLYLINE
  8
LAYER_1
 40
0.1693
 41
0.1693
 66
1
 10
0
 20
0
 30
0
  0
VERTEX
  8
LAYER_1
 10
139.2649
 20
192.7991
  0
VERTEX
  8
LAYER_1
 10
135.6454
 20
192.2699
  0
SEQEND
  0
POLYLINE
  8
LAYER_1
 40
0.1693
 41
0.1693
 66
1
 10
0
 20
0
 30
0
  0
VERTEX
  8
LAYER_1
 10
140.2386
 20
192.9896
  0
VERTEX
  8
LAYER_1
 10
139.2649
 20
192.7991
  0
SEQEND
  0
POLYLINE
  8
LAYER_1
 40
0.1693
 41
0.1693
 66
1
 10
0
 20
0
 30
0
  0
VERTEX
  8
LAYER_1
 10
141.2122
 20
193.2224
  0
VERTEX
  8
LAYER_1
 10
140.2386
 20
192.9896
  0
SEQEND
  0
POLYLINE
  8
LAYER_1
 40
0.1693
 41
0.1693
 66
1
 10
0
 20
0
 30
0
  0
VERTEX
  8
LAYER_1
 10
141.7837
 20
193.3918
  0
VERTEX
  8
LAYER_1
 10
141.2122
 20
193.2224
  0
SEQEND
  0
POLYLINE
  8
LAYER_1
 40
0.1693
 41
0.1693
 66
1
 10
0
 20
0
 30
0
  0
VERTEX
  8
LAYER_1
 10
142.3129
 20
193.5399
  0
VERTEX
  8
LAYER_1
 10
141.7837
 20
193.3918
  0
SEQEND
  0
POLYLINE
  8
LAYER_1
 40
0.1693
 41
0.1693
 66
1
 10
0
 20
0
 30
0
  0
VERTEX
  8
LAYER_1
 10
143.2231
 20
193.8363
  0
VERTEX
  8
LAYER_1
 10
142.3129
 20
193.5399
  0
SEQEND
  0
POLYLINE
  8
LAYER_1
 40
0.1693
 41
0.1693
 66
1
 10
0
 20
0
 30
0
  0
VERTEX
  8
LAYER_1
 10
144.1332
 20
194.1749
  0
VERTEX
  8
LAYER_1
 10
143.2231
 20
193.8363
  0
SEQEND
  0
POLYLINE
  8
LAYER_1
 40
0.1693
 41
0.1693
 66
1
 10
0
 20
0
 30
0
  0
VERTEX
  8
LAYER_1
 10
145.0223
 20
194.5348
  0
VERTEX
  8
LAYER_1
 10
144.1332
 20
194.1749
  0
SEQEND
  0
POLYLINE
  8
LAYER_1
 40
0.1693
 41
0.1693
 66
1
 10
0
 20
0
 30
0
  0
VERTEX
  8
LAYER_1
 10
145.9113
 20
194.9158
  0
VERTEX
  8
LAYER_1
 10
145.0223
 20
194.5348
  0
SEQEND
  0
POLYLINE
  8
LAYER_1
 40
0.1693
 41
0.1693
 66
1
 10
0
 20
0
 30
0
  0
VERTEX
  8
LAYER_1
 10
146.8003
 20
195.3391
  0
VERTEX
  8
LAYER_1
 10
145.9113
 20
194.9158
  0
SEQEND
  0
POLYLINE
  8
LAYER_1
 40
0.1693
 41
0.1693
 66
1
 10
0
 20
0
 30
0
  0
VERTEX
  8
LAYER_1
 10
147.3083
 20
195.5719
  0
VERTEX
  8
LAYER_1
 10
146.8003
 20
195.3391
  0
SEQEND
  0
POLYLINE
  8
LAYER_1
 40
0.1693
 41
0.1693
 66
1
 10
0
 20
0
 30
0
  0
VERTEX
  8
LAYER_1
 10
147.9644
 20
195.9106
  0
VERTEX
  8
LAYER_1
 10
147.3082
 20
195.5719
  0
SEQEND
  0
POLYLINE
  8
LAYER_1
 40
0.1693
 41
0.1693
 66
1
 10
0
 20
0
 30
0
  0
VERTEX
  8
LAYER_1
 10
149.0863
 20
196.5033
  0
VERTEX
  8
LAYER_1
 10
147.9644
 20
195.9106
  0
SEQEND
  0
POLYLINE
  8
LAYER_1
 40
0.1693
 41
0.1693
 66
1
 10
0
 20
0
 30
0
  0
VERTEX
  8
LAYER_1
 10
150.1658
 20
197.1383
  0
VERTEX
  8
LAYER_1
 10
149.0862
 20
196.5033
  0
SEQEND
  0
POLYLINE
  8
LAYER_1
 40
0.1693
 41
0.1693
 66
1
 10
0
 20
0
 30
0
  0
VERTEX
  8
LAYER_1
 10
151.2453
 20
197.7944
  0
VERTEX
  8
LAYER_1
 10
150.1657
 20
197.1383
  0
SEQEND
  0
POLYLINE
  8
LAYER_1
 40
0.1693
 41
0.1693
 66
1
 10
0
 20
0
 30
0
  0
VERTEX
  8
LAYER_1
 10
152.2613
 20
198.5141
  0
VERTEX
  8
LAYER_1
 10
151.2453
 20
197.7944
  0
SEQEND
  0
POLYLINE
  8
LAYER_1
 40
0.1693
 41
0.1693
 66
1
 10
0
 20
0
 30
0
  0
VERTEX
  8
LAYER_1
 10
153.2349
 20
199.2973
  0
VERTEX
  8
LAYER_1
 10
152.2613
 20
198.5141
  0
SEQEND
  0
POLYLINE
  8
LAYER_1
 40
0.1693
 41
0.1693
 66
1
 10
0
 20
0
 30
0
  0
VERTEX
  8
LAYER_1
 10
153.7853
 20
199.7629
  0
VERTEX
  8
LAYER_1
 10
153.2349
 20
199.2973
  0
SEQEND
  0
POLYLINE
  8
LAYER_1
 40
0.1693
 41
0.1693
 66
1
 10
0
 20
0
 30
0
  0
VERTEX
  8
LAYER_1
 10
154.2086
 20
200.1439
  0
VERTEX
  8
LAYER_1
 10
153.7853
 20
199.7629
  0
SEQEND
  0
POLYLINE
  8
LAYER_1
 40
0.1693
 41
0.1693
 66
1
 10
0
 20
0
 30
0
  0
VERTEX
  8
LAYER_1
 10
154.8859
 20
200.8424
  0
VERTEX
  8
LAYER_1
 10
154.2086
 20
200.1439
  0
SEQEND
  0
POLYLINE
  8
LAYER_1
 40
0.1693
 41
0.1693
 66
1
 10
0
 20
0
 30
0
  0
VERTEX
  8
LAYER_1
 10
155.5633
 20
201.5621
  0
VERTEX
  8
LAYER_1
 10
154.8859
 20
200.8424
  0
SEQEND
  0
POLYLINE
  8
LAYER_1
 40
0.1693
 41
0.1693
 66
1
 10
0
 20
0
 30
0
  0
VERTEX
  8
LAYER_1
 10
156.1983
 20
202.3029
  0
VERTEX
  8
LAYER_1
 10
155.5632
 20
201.5621
  0
SEQEND
  0
POLYLINE
  8
LAYER_1
 40
0.1693
 41
0.1693
 66
1
 10
0
 20
0
 30
0
  0
VERTEX
  8
LAYER_1
 10
156.8332
 20
203.0649
  0
VERTEX
  8
LAYER_1
 10
156.1982
 20
202.3029
  0
SEQEND
  0
POLYLINE
  8
LAYER_1
 40
0.1693
 41
0.1693
 66
1
 10
0
 20
0
 30
0
  0
VERTEX
  8
LAYER_1
 10
157.4471
 20
203.8269
  0
VERTEX
  8
LAYER_1
 10
156.8332
 20
203.0649
  0
SEQEND
  0
POLYLINE
  8
LAYER_1
 40
0.1693
 41
0.1693
 66
1
 10
0
 20
0
 30
0
  0
VERTEX
  8
LAYER_1
 10
157.8069
 20
204.2714
  0
VERTEX
  8
LAYER_1
 10
157.4471
 20
203.8269
  0
SEQEND
  0
POLYLINE
  8
LAYER_1
 40
0.1693
 41
0.1693
 66
1
 10
0
 20
0
 30
0
  0
VERTEX
  8
LAYER_1
 10
158.7806
 20
205.4356
  0
VERTEX
  8
LAYER_1
 10
157.8069
 20
204.2714
  0
SEQEND
  0
POLYLINE
  8
LAYER_1
 40
0.1693
 41
0.1693
 66
1
 10
0
 20
0
 30
0
  0
VERTEX
  8
LAYER_1
 10
159.6908
 20
206.6633
  0
VERTEX
  8
LAYER_1
 10
158.7806
 20
205.4356
  0
SEQEND
  0
POLYLINE
  8
LAYER_1
 40
0.1693
 41
0.1693
 66
1
 10
0
 20
0
 30
0
  0
VERTEX
  8
LAYER_1
 10
160.5586
 20
207.9544
  0
VERTEX
  8
LAYER_1
 10
159.6908
 20
206.6633
  0
SEQEND
  0
POLYLINE
  8
LAYER_1
 40
0.1693
 41
0.1693
 66
1
 10
0
 20
0
 30
0
  0
VERTEX
  8
LAYER_1
 10
161.3629
 20
209.3514
  0
VERTEX
  8
LAYER_1
 10
160.5586
 20
207.9544
  0
SEQEND
  0
POLYLINE
  8
LAYER_1
 40
0.1693
 41
0.1693
 66
1
 10
0
 20
0
 30
0
  0
VERTEX
  8
LAYER_1
 10
162.1038
 20
210.8331
  0
VERTEX
  8
LAYER_1
 10
161.3629
 20
209.3514
  0
SEQEND
  0
POLYLINE
  8
LAYER_1
 40
0.1693
 41
0.1693
 66
1
 10
0
 20
0
 30
0
  0
VERTEX
  8
LAYER_1
 10
162.1673
 20
211.0024
  0
VERTEX
  8
LAYER_1
 10
162.1038
 20
210.8331
  0
SEQEND
  0
POLYLINE
  8
LAYER_1
 40
0.1693
 41
0.1693
 66
1
 10
0
 20
0
 30
0
  0
VERTEX
  8
LAYER_1
 10
164.2628
 20
212.9074
  0
VERTEX
  8
LAYER_1
 10
164.2204
 20
212.9074
  0
VERTEX
  8
LAYER_1
 10
164.1781
 20
212.8863
  0
VERTEX
  8
LAYER_1
 10
164.1569
 20
212.8651
  0
VERTEX
  8
LAYER_1
 10
164.1146
 20
212.8439
  0
VERTEX
  8
LAYER_1
 10
164.0723
 20
212.8439
  0
VERTEX
  8
LAYER_1
 10
164.0299
 20
212.8228
  0
VERTEX
  8
LAYER_1
 10
163.9876
 20
212.8016
  0
VERTEX
  8
LAYER_1
 10
163.9453
 20
212.7804
  0
VERTEX
  8
LAYER_1
 10
163.9241
 20
212.7593
  0
VERTEX
  8
LAYER_1
 10
163.8818
 20
212.7381
  0
VERTEX
  8
LAYER_1
 10
163.8394
 20
212.7169
  0
VERTEX
  8
LAYER_1
 10
163.7971
 20
212.6958
  0
VERTEX
  8
LAYER_1
 10
163.7548
 20
212.6746
  0
VERTEX
  8
LAYER_1
 10
163.7124
 20
212.6534
  0
VERTEX
  8
LAYER_1
 10
163.6701
 20
212.6323
  0
VERTEX
  8
LAYER_1
 10
163.6278
 20
212.6111
  0
VERTEX
  8
LAYER_1
 10
163.6066
 20
212.5899
  0
VERTEX
  8
LAYER_1
 10
163.5643
 20
212.5688
  0
VERTEX
  8
LAYER_1
 10
163.5219
 20
212.5264
  0
VERTEX
  8
LAYER_1
 10
163.4796
 20
212.5053
  0
VERTEX
  8
LAYER_1
 10
163.4373
 20
212.4841
  0
VERTEX
  8
LAYER_1
 10
163.3949
 20
212.4418
  0
VERTEX
  8
LAYER_1
 10
163.3526
 20
212.4206
  0
VERTEX
  8
LAYER_1
 10
163.3314
 20
212.3783
  0
VERTEX
  8
LAYER_1
 10
163.2891
 20
212.3571
  0
VERTEX
  8
LAYER_1
 10
163.2468
 20
212.3359
  0
VERTEX
  8
LAYER_1
 10
163.2044
 20
212.2936
  0
VERTEX
  8
LAYER_1
 10
163.1621
 20
212.2724
  0
VERTEX
  8
LAYER_1
 10
163.1198
 20
212.2301
  0
VERTEX
  8
LAYER_1
 10
163.0986
 20
212.2089
  0
VERTEX
  8
LAYER_1
 10
163.0563
 20
212.1666
  0
VERTEX
  8
LAYER_1
 10
163.0139
 20
212.1243
  0
VERTEX
  8
LAYER_1
 10
162.9716
 20
212.1031
  0
VERTEX
  8
LAYER_1
 10
162.9504
 20
212.0608
  0
VERTEX
  8
LAYER_1
 10
162.9081
 20
212.0184
  0
VERTEX
  8
LAYER_1
 10
162.8658
 20
211.9973
  0
VERTEX
  8
LAYER_1
 10
162.8446
 20
211.9549
  0
VERTEX
  8
LAYER_1
 10
162.8023
 20
211.9126
  0
VERTEX
  8
LAYER_1
 10
162.7811
 20
211.8914
  0
VERTEX
  8
LAYER_1
 10
162.7388
 20
211.8491
  0
VERTEX
  8
LAYER_1
 10
162.6964
 20
211.8068
  0
VERTEX
  8
LAYER_1
 10
162.6753
 20
211.7856
  0
VERTEX
  8
LAYER_1
 10
162.6329
 20
211.7433
  0
VERTEX
  8
LAYER_1
 10
162.6118
 20
211.7009
  0
VERTEX
  8
LAYER_1
 10
162.5906
 20
211.6586
  0
VERTEX
  8
LAYER_1
 10
162.5483
 20
211.6374
  0
VERTEX
  8
LAYER_1
 10
162.5271
 20
211.5951
  0
VERTEX
  8
LAYER_1
 10
162.4848
 20
211.5528
  0
VERTEX
  8
LAYER_1
 10
162.4636
 20
211.5104
  0
VERTEX
  8
LAYER_1
 10
162.4424
 20
211.4681
  0
VERTEX
  8
LAYER_1
 10
162.4213
 20
211.4469
  0
VERTEX
  8
LAYER_1
 10
162.4001
 20
211.4046
  0
VERTEX
  8
LAYER_1
 10
162.3578
 20
211.3623
  0
VERTEX
  8
LAYER_1
 10
162.3366
 20
211.3199
  0
VERTEX
  8
LAYER_1
 10
162.3154
 20
211.2988
  0
VERTEX
  8
LAYER_1
 10
162.2943
 20
211.2564
  0
VERTEX
  8
LAYER_1
 10
162.2731
 20
211.2141
  0
VERTEX
  8
LAYER_1
 10
162.2519
 20
211.1718
  0
VERTEX
  8
LAYER_1
 10
162.2308
 20
211.1506
  0
VERTEX
  8
LAYER_1
 10
162.2096
 20
211.1083
  0
VERTEX
  8
LAYER_1
 10
162.2096
 20
211.0659
  0
VERTEX
  8
LAYER_1
 10
162.1884
 20
211.0236
  0
VERTEX
  8
LAYER_1
 10
162.1673
 20
211.0024
  0
SEQEND
  0
POLYLINE
  8
LAYER_1
 40
0.1693
 41
0.1693
 66
1
 10
0
 20
0
 30
0
  0
VERTEX
  8
LAYER_1
 10
50.7459
 20
207.9544
  0
VERTEX
  8
LAYER_1
 10
51.6138
 20
206.6633
  0
SEQEND
  0
POLYLINE
  8
LAYER_1
 40
0.1693
 41
0.1693
 66
1
 10
0
 20
0
 30
0
  0
VERTEX
  8
LAYER_1
 10
49.9416
 20
209.3514
  0
VERTEX
  8
LAYER_1
 10
50.7459
 20
207.9544
  0
SEQEND
  0
POLYLINE
  8
LAYER_1
 40
0.1693
 41
0.1693
 66
1
 10
0
 20
0
 30
0
  0
VERTEX
  8
LAYER_1
 10
49.2008
 20
210.8331
  0
VERTEX
  8
LAYER_1
 10
49.9416
 20
209.3514
  0
SEQEND
  0
POLYLINE
  8
LAYER_1
 40
0.1693
 41
0.1693
 66
1
 10
0
 20
0
 30
0
  0
VERTEX
  8
LAYER_1
 10
49.1373
 20
211.0024
  0
VERTEX
  8
LAYER_1
 10
49.2008
 20
210.8331
  0
SEQEND
  0
POLYLINE
  8
LAYER_1
 40
0.1693
 41
0.1693
 66
1
 10
0
 20
0
 30
0
  0
VERTEX
  8
LAYER_1
 10
49.1373
 20
211.0024
  0
VERTEX
  8
LAYER_1
 10
49.1161
 20
211.0448
  0
VERTEX
  8
LAYER_1
 10
49.0949
 20
211.0659
  0
VERTEX
  8
LAYER_1
 10
49.0738
 20
211.1083
  0
VERTEX
  8
LAYER_1
 10
49.0738
 20
211.1506
  0
VERTEX
  8
LAYER_1
 10
49.0526
 20
211.1929
  0
VERTEX
  8
LAYER_1
 10
49.0314
 20
211.2141
  0
VERTEX
  8
LAYER_1
 10
49.0103
 20
211.2564
  0
VERTEX
  8
LAYER_1
 10
48.9891
 20
211.2988
  0
VERTEX
  8
LAYER_1
 10
48.9679
 20
211.3411
  0
VERTEX
  8
LAYER_1
 10
48.9256
 20
211.3623
  0
VERTEX
  8
LAYER_1
 10
48.9044
 20
211.4046
  0
VERTEX
  8
LAYER_1
 10
48.8833
 20
211.4469
  0
VERTEX
  8
LAYER_1
 10
48.8621
 20
211.4893
  0
VERTEX
  8
LAYER_1
 10
48.8409
 20
211.5316
  0
VERTEX
  8
LAYER_1
 10
48.7986
 20
211.5528
  0
VERTEX
  8
LAYER_1
 10
48.7774
 20
211.5951
  0
VERTEX
  8
LAYER_1
 10
48.7563
 20
211.6374
  0
VERTEX
  8
LAYER_1
 10
48.7139
 20
211.6798
  0
VERTEX
  8
LAYER_1
 10
48.6928
 20
211.7009
  0
VERTEX
  8
LAYER_1
 10
48.6504
 20
211.7433
  0
VERTEX
  8
LAYER_1
 10
48.6293
 20
211.7856
  0
VERTEX
  8
LAYER_1
 10
48.5869
 20
211.8279
  0
VERTEX
  8
LAYER_1
 10
48.5658
 20
211.8491
  0
VERTEX
  8
LAYER_1
 10
48.5234
 20
211.8914
  0
VERTEX
  8
LAYER_1
 10
48.5023
 20
211.9338
  0
VERTEX
  8
LAYER_1
 10
48.4599
 20
211.9549
  0
VERTEX
  8
LAYER_1
 10
48.4176
 20
211.9973
  0
VERTEX
  8
LAYER_1
 10
48.3964
 20
212.0396
  0
VERTEX
  8
LAYER_1
 10
48.3541
 20
212.0608
  0
VERTEX
  8
LAYER_1
 10
48.3118
 20
212.1031
  0
VERTEX
  8
LAYER_1
 10
48.2906
 20
212.1454
  0
VERTEX
  8
LAYER_1
 10
48.2483
 20
212.1666
  0
VERTEX
  8
LAYER_1
 10
48.2059
 20
212.2089
  0
VERTEX
  8
LAYER_1
 10
48.1636
 20
212.2301
  0
VERTEX
  8
LAYER_1
 10
48.1213
 20
212.2724
  0
VERTEX
  8
LAYER_1
 10
48.1001
 20
212.2936
  0
VERTEX
  8
LAYER_1
 10
48.0578
 20
212.3359
  0
VERTEX
  8
LAYER_1
 10
48.0154
 20
212.3571
  0
VERTEX
  8
LAYER_1
 10
47.9731
 20
212.3994
  0
VERTEX
  8
LAYER_1
 10
47.9308
 20
212.4206
  0
VERTEX
  8
LAYER_1
 10
47.8884
 20
212.4629
  0
VERTEX
  8
LAYER_1
 10
47.8673
 20
212.4841
  0
VERTEX
  8
LAYER_1
 10
47.8249
 20
212.5053
  0
VERTEX
  8
LAYER_1
 10
47.7826
 20
212.5264
  0
SEQEND
  0
POLYLINE
  8
LAYER_1
 40
0.1693
 41
0.1693
 66
1
 10
0
 20
0
 30
0
  0
VERTEX
  8
LAYER_1
 10
47.7826
 20
212.5264
  0
VERTEX
  8
LAYER_1
 10
47.7403
 20
212.5688
  0
VERTEX
  8
LAYER_1
 10
47.6979
 20
212.5899
  0
VERTEX
  8
LAYER_1
 10
47.6556
 20
212.6111
  0
VERTEX
  8
LAYER_1
 10
47.6133
 20
212.6323
  0
VERTEX
  8
LAYER_1
 10
47.5709
 20
212.6534
  0
VERTEX
  8
LAYER_1
 10
47.5498
 20
212.6746
  0
VERTEX
  8
LAYER_1
 10
47.5074
 20
212.7169
  0
VERTEX
  8
LAYER_1
 10
47.4651
 20
212.7381
  0
VERTEX
  8
LAYER_1
 10
47.4228
 20
212.7593
  0
VERTEX
  8
LAYER_1
 10
47.3804
 20
212.7593
  0
VERTEX
  8
LAYER_1
 10
47.3381
 20
212.7804
  0
VERTEX
  8
LAYER_1
 10
47.2958
 20
212.8016
  0
VERTEX
  8
LAYER_1
 10
47.2746
 20
212.8228
  0
VERTEX
  8
LAYER_1
 10
47.2323
 20
212.8439
  0
VERTEX
  8
LAYER_1
 10
47.1899
 20
212.8651
  0
VERTEX
  8
LAYER_1
 10
47.1476
 20
212.8651
  0
VERTEX
  8
LAYER_1
 10
47.1053
 20
212.8863
  0
VERTEX
  8
LAYER_1
 10
47.0841
 20
212.9074
  0
VERTEX
  8
LAYER_1
 10
47.0418
 20
212.9074
  0
VERTEX
  8
LAYER_1
 10
43.5704
 20
214.0504
  0
SEQEND
  0
POLYLINE
  8
LAYER_1
 40
0.1693
 41
0.1693
 66
1
 10
0
 20
0
 30
0
  0
VERTEX
  8
LAYER_1
 10
164.2628
 20
212.9074
  0
VERTEX
  8
LAYER_1
 10
167.7341
 20
214.0504
  0
SEQEND
  0
POLYLINE
  8
LAYER_1
 40
0.1693
 41
0.1693
 66
1
 10
0
 20
0
 30
0
  0
VERTEX
  8
LAYER_1
 10
162.0826
 20
214.0504
  0
VERTEX
  8
LAYER_1
 10
172.4331
 20
214.0504
  0
SEQEND
  0
POLYLINE
  8
LAYER_1
 40
0.1693
 41
0.1693
 66
1
 10
0
 20
0
 30
0
  0
VERTEX
  8
LAYER_1
 10
40.8611
 20
216.6539
  0
VERTEX
  8
LAYER_1
 10
46.7031
 20
216.6539
  0
SEQEND
  0
POLYLINE
  8
LAYER_1
 40
0.1693
 41
0.1693
 66
1
 10
0
 20
0
 30
0
  0
VERTEX
  8
LAYER_1
 10
164.6014
 20
216.6539
  0
VERTEX
  8
LAYER_1
 10
170.7398
 20
216.6539
  0
SEQEND
  0
POLYLINE
  8
LAYER_1
 40
0.1693
 41
0.1693
 66
1
 10
0
 20
0
 30
0
  0
VERTEX
  8
LAYER_1
 10
38.8714
 20
214.0504
  0
VERTEX
  8
LAYER_1
 10
49.2219
 20
214.0504
  0
SEQEND
  0
POLYLINE
  8
LAYER_1
 40
0.0847
 41
0.0847
 66
1
 10
0
 20
0
 30
0
  0
VERTEX
  8
LAYER_1
 10
60.2286
 20
200.1228
  0
VERTEX
  8
LAYER_1
 10
59.3396
 20
200.8424
  0
VERTEX
  8
LAYER_1
 10
58.8528
 20
201.2446
  0
VERTEX
  8
LAYER_1
 10
58.4929
 20
201.5833
  0
VERTEX
  8
LAYER_1
 10
57.8579
 20
202.2183
  0
VERTEX
  8
LAYER_1
 10
57.2441
 20
202.8956
  0
VERTEX
  8
LAYER_1
 10
56.6303
 20
203.5941
  0
VERTEX
  8
LAYER_1
 10
56.0376
 20
204.3349
  0
VERTEX
  8
LAYER_1
 10
55.4238
 20
205.0758
  0
VERTEX
  8
LAYER_1
 10
55.0428
 20
205.5414
  0
VERTEX
  8
LAYER_1
 10
54.0903
 20
206.6844
  0
VERTEX
  8
LAYER_1
 10
53.2436
 20
207.8063
  0
VERTEX
  8
LAYER_1
 10
52.4393
 20
209.0128
  0
VERTEX
  8
LAYER_1
 10
51.6984
 20
210.3039
  0
SEQEND
  0
POLYLINE
  8
LAYER_1
 40
0.0847
 41
0.0847
 66
1
 10
0
 20
0
 30
0
  0
VERTEX
  8
LAYER_1
 10
51.1058
 20
211.5104
  0
VERTEX
  8
LAYER_1
 10
51.6984
 20
210.3039
  0
SEQEND
  0
POLYLINE
  8
LAYER_1
 40
0.0847
 41
0.0847
 66
1
 10
0
 20
0
 30
0
  0
VERTEX
  8
LAYER_1
 10
62.6204
 20
198.4718
  0
VERTEX
  8
LAYER_1
 10
62.8321
 20
198.3448
  0
SEQEND
  0
POLYLINE
  8
LAYER_1
 40
0.0847
 41
0.0847
 66
1
 10
0
 20
0
 30
0
  0
VERTEX
  8
LAYER_1
 10
62.8321
 20
198.3236
  0
VERTEX
  8
LAYER_1
 10
63.8058
 20
197.8156
  0
SEQEND
  0
POLYLINE
  8
LAYER_1
 40
0.0847
 41
0.0847
 66
1
 10
0
 20
0
 30
0
  0
VERTEX
  8
LAYER_1
 10
62.6204
 20
198.4506
  0
VERTEX
  8
LAYER_1
 10
60.2286
 20
200.1228
  0
SEQEND
  0
POLYLINE
  8
LAYER_1
 40
0.0847
 41
0.0847
 66
1
 10
0
 20
0
 30
0
  0
VERTEX
  8
LAYER_1
 10
162.8235
 20
215.5321
  0
VERTEX
  8
LAYER_1
 10
160.1988
 20
211.5104
  0
SEQEND
  0
POLYLINE
  8
LAYER_1
 40
0.0847
 41
0.0847
 66
1
 10
0
 20
0
 30
0
  0
VERTEX
  8
LAYER_1
 10
164.5803
 20
216.6328
 42
0.2784206192
  0
VERTEX
  8
LAYER_1
 10
162.8023
 20
215.5321
  0
SEQEND
  0
POLYLINE
  8
LAYER_1
 40
0.0847
 41
0.0847
 66
1
 10
0
 20
0
 30
0
  0
VERTEX
  8
LAYER_1
 10
146.377
 20
197.2441
  0
VERTEX
  8
LAYER_1
 10
146.8638
 20
197.4769
  0
VERTEX
  8
LAYER_1
 10
147.4988
 20
197.8156
  0
SEQEND
  0
POLYLINE
  8
LAYER_1
 40
0.0847
 41
0.0847
 66
1
 10
0
 20
0
 30
0
  0
VERTEX
  8
LAYER_1
 10
151.076
 20
200.1228
  0
VERTEX
  8
LAYER_1
 10
151.9649
 20
200.8424
  0
VERTEX
  8
LAYER_1
 10
152.4518
 20
201.2446
  0
VERTEX
  8
LAYER_1
 10
152.8116
 20
201.5833
  0
VERTEX
  8
LAYER_1
 10
153.4466
 20
202.2183
  0
VERTEX
  8
LAYER_1
 10
154.0604
 20
202.8956
  0
VERTEX
  8
LAYER_1
 10
154.6743
 20
203.5941
  0
VERTEX
  8
LAYER_1
 10
155.2669
 20
204.3349
  0
VERTEX
  8
LAYER_1
 10
155.8808
 20
205.0758
  0
VERTEX
  8
LAYER_1
 10
156.2618
 20
205.5414
  0
VERTEX
  8
LAYER_1
 10
157.2143
 20
206.6844
  0
VERTEX
  8
LAYER_1
 10
158.061
 20
207.8063
  0
VERTEX
  8
LAYER_1
 10
158.8653
 20
209.0128
  0
VERTEX
  8
LAYER_1
 10
159.6061
 20
210.3039
  0
SEQEND
  0
POLYLINE
  8
LAYER_1
 40
0.0847
 41
0.0847
 66
1
 10
0
 20
0
 30
0
  0
VERTEX
  8
LAYER_1
 10
160.1988
 20
211.5104
  0
VERTEX
  8
LAYER_1
 10
159.6061
 20
210.3039
  0
SEQEND
  0
POLYLINE
  8
LAYER_1
 40
0.0847
 41
0.0847
 66
1
 10
0
 20
0
 30
0
  0
VERTEX
  8
LAYER_1
 10
148.4301
 20
198.3236
  0
VERTEX
  8
LAYER_1
 10
148.6418
 20
198.4506
  0
SEQEND
  0
POLYLINE
  8
LAYER_1
 40
0.0847
 41
0.0847
 66
1
 10
0
 20
0
 30
0
  0
VERTEX
  8
LAYER_1
 10
148.4725
 20
198.3236
  0
VERTEX
  8
LAYER_1
 10
147.4988
 20
197.8156
  0
SEQEND
  0
POLYLINE
  8
LAYER_1
 40
0.0847
 41
0.0847
 66
1
 10
0
 20
0
 30
0
  0
VERTEX
  8
LAYER_1
 10
148.6841
 20
198.4506
  0
VERTEX
  8
LAYER_1
 10
151.0759
 20
200.1228
  0
SEQEND
  0
POLYLINE
  8
LAYER_1
 40
0.0847
 41
0.0847
 66
1
 10
0
 20
0
 30
0
  0
VERTEX
  8
LAYER_1
 10
142.0166
 20
195.5084
  0
VERTEX
  8
LAYER_1
 10
142.9056
 20
195.8048
  0
VERTEX
  8
LAYER_1
 10
143.7734
 20
196.1223
  0
VERTEX
  8
LAYER_1
 10
144.6413
 20
196.4609
  0
VERTEX
  8
LAYER_1
 10
145.5091
 20
196.8419
  0
VERTEX
  8
LAYER_1
 10
146.3769
 20
197.2441
  0
SEQEND
  0
POLYLINE
  8
LAYER_1
 40
0.0847
 41
0.0847
 66
1
 10
0
 20
0
 30
0
  0
VERTEX
  8
LAYER_1
 10
49.2219
 20
214.0504
  0
VERTEX
  8
LAYER_1
 10
50.0686
 20
214.0504
  0
SEQEND
  0
POLYLINE
  8
LAYER_1
 40
0.0847
 41
0.0847
 66
1
 10
0
 20
0
 30
0
  0
VERTEX
  8
LAYER_1
 10
51.7831
 20
214.0504
  0
VERTEX
  8
LAYER_1
 10
53.4764
 20
214.0504
  0
SEQEND
  0
POLYLINE
  8
LAYER_1
 40
0.0847
 41
0.0847
 66
1
 10
0
 20
0
 30
0
  0
VERTEX
  8
LAYER_1
 10
55.1909
 20
214.0504
  0
VERTEX
  8
LAYER_1
 10
56.9054
 20
214.0504
  0
SEQEND
  0
POLYLINE
  8
LAYER_1
 40
0.0847
 41
0.0847
 66
1
 10
0
 20
0
 30
0
  0
VERTEX
  8
LAYER_1
 10
58.6199
 20
214.0504
  0
VERTEX
  8
LAYER_1
 10
60.3344
 20
214.0504
  0
SEQEND
  0
POLYLINE
  8
LAYER_1
 40
0.0847
 41
0.0847
 66
1
 10
0
 20
0
 30
0
  0
VERTEX
  8
LAYER_1
 10
62.0278
 20
214.0504
  0
VERTEX
  8
LAYER_1
 10
63.7423
 20
214.0504
  0
SEQEND
  0
POLYLINE
  8
LAYER_1
 40
0.0847
 41
0.0847
 66
1
 10
0
 20
0
 30
0
  0
VERTEX
  8
LAYER_1
 10
65.4568
 20
214.0504
  0
VERTEX
  8
LAYER_1
 10
67.1713
 20
214.0504
  0
SEQEND
  0
POLYLINE
  8
LAYER_1
 40
0.0847
 41
0.0847
 66
1
 10
0
 20
0
 30
0
  0
VERTEX
  8
LAYER_1
 10
68.8858
 20
214.0504
  0
VERTEX
  8
LAYER_1
 10
70.5791
 20
214.0504
  0
SEQEND
  0
POLYLINE
  8
LAYER_1
 40
0.0847
 41
0.0847
 66
1
 10
0
 20
0
 30
0
  0
VERTEX
  8
LAYER_1
 10
72.2936
 20
214.0504
  0
VERTEX
  8
LAYER_1
 10
74.0081
 20
214.0504
  0
SEQEND
  0
POLYLINE
  8
LAYER_1
 40
0.0847
 41
0.0847
 66
1
 10
0
 20
0
 30
0
  0
VERTEX
  8
LAYER_1
 10
75.7226
 20
214.0504
  0
VERTEX
  8
LAYER_1
 10
77.4371
 20
214.0504
  0
SEQEND
  0
POLYLINE
  8
LAYER_1
 40
0.0847
 41
0.0847
 66
1
 10
0
 20
0
 30
0
  0
VERTEX
  8
LAYER_1
 10
79.1304
 20
214.0504
  0
VERTEX
  8
LAYER_1
 10
80.8449
 20
214.0504
  0
SEQEND
  0
POLYLINE
  8
LAYER_1
 40
0.0847
 41
0.0847
 66
1
 10
0
 20
0
 30
0
  0
VERTEX
  8
LAYER_1
 10
82.5594
 20
214.0504
  0
VERTEX
  8
LAYER_1
 10
84.2739
 20
214.0504
  0
SEQEND
  0
POLYLINE
  8
LAYER_1
 40
0.0847
 41
0.0847
 66
1
 10
0
 20
0
 30
0
  0
VERTEX
  8
LAYER_1
 10
85.9673
 20
214.0504
  0
VERTEX
  8
LAYER_1
 10
87.6818
 20
214.0504
  0
SEQEND
  0
POLYLINE
  8
LAYER_1
 40
0.0847
 41
0.0847
 66
1
 10
0
 20
0
 30
0
  0
VERTEX
  8
LAYER_1
 10
89.3963
 20
214.0504
  0
VERTEX
  8
LAYER_1
 10
91.1108
 20
214.0504
  0
SEQEND
  0
POLYLINE
  8
LAYER_1
 40
0.0847
 41
0.0847
 66
1
 10
0
 20
0
 30
0
  0
VERTEX
  8
LAYER_1
 10
92.8253
 20
214.0504
  0
VERTEX
  8
LAYER_1
 10
94.5186
 20
214.0504
  0
SEQEND
  0
POLYLINE
  8
LAYER_1
 40
0.0847
 41
0.0847
 66
1
 10
0
 20
0
 30
0
  0
VERTEX
  8
LAYER_1
 10
96.2331
 20
214.0504
  0
VERTEX
  8
LAYER_1
 10
97.9476
 20
214.0504
  0
SEQEND
  0
POLYLINE
  8
LAYER_1
 40
0.0847
 41
0.0847
 66
1
 10
0
 20
0
 30
0
  0
VERTEX
  8
LAYER_1
 10
99.6621
 20
214.0504
  0
VERTEX
  8
LAYER_1
 10
101.3766
 20
214.0504
  0
SEQEND
  0
POLYLINE
  8
LAYER_1
 40
0.0847
 41
0.0847
 66
1
 10
0
 20
0
 30
0
  0
VERTEX
  8
LAYER_1
 10
103.07
 20
214.0504
  0
VERTEX
  8
LAYER_1
 10
104.7844
 20
214.0504
  0
SEQEND
  0
POLYLINE
  8
LAYER_1
 40
0.0847
 41
0.0847
 66
1
 10
0
 20
0
 30
0
  0
VERTEX
  8
LAYER_1
 10
106.499
 20
214.0504
  0
VERTEX
  8
LAYER_1
 10
108.2134
 20
214.0504
  0
SEQEND
  0
POLYLINE
  8
LAYER_1
 40
0.0847
 41
0.0847
 66
1
 10
0
 20
0
 30
0
  0
VERTEX
  8
LAYER_1
 10
109.9068
 20
214.0504
  0
VERTEX
  8
LAYER_1
 10
111.6213
 20
214.0504
  0
SEQEND
  0
POLYLINE
  8
LAYER_1
 40
0.0847
 41
0.0847
 66
1
 10
0
 20
0
 30
0
  0
VERTEX
  8
LAYER_1
 10
113.3358
 20
214.0504
  0
VERTEX
  8
LAYER_1
 10
115.0503
 20
214.0504
  0
SEQEND
  0
POLYLINE
  8
LAYER_1
 40
0.0847
 41
0.0847
 66
1
 10
0
 20
0
 30
0
  0
VERTEX
  8
LAYER_1
 10
116.7648
 20
214.0504
  0
VERTEX
  8
LAYER_1
 10
118.4581
 20
214.0504
  0
SEQEND
  0
POLYLINE
  8
LAYER_1
 40
0.0847
 41
0.0847
 66
1
 10
0
 20
0
 30
0
  0
VERTEX
  8
LAYER_1
 10
120.1726
 20
214.0504
  0
VERTEX
  8
LAYER_1
 10
121.8871
 20
214.0504
  0
SEQEND
  0
POLYLINE
  8
LAYER_1
 40
0.0847
 41
0.0847
 66
1
 10
0
 20
0
 30
0
  0
VERTEX
  8
LAYER_1
 10
123.6016
 20
214.0504
  0
VERTEX
  8
LAYER_1
 10
125.3161
 20
214.0504
  0
SEQEND
  0
POLYLINE
  8
LAYER_1
 40
0.0847
 41
0.0847
 66
1
 10
0
 20
0
 30
0
  0
VERTEX
  8
LAYER_1
 10
127.0095
 20
214.0504
  0
VERTEX
  8
LAYER_1
 10
128.724
 20
214.0504
  0
SEQEND
  0
POLYLINE
  8
LAYER_1
 40
0.0847
 41
0.0847
 66
1
 10
0
 20
0
 30
0
  0
VERTEX
  8
LAYER_1
 10
130.4385
 20
214.0504
  0
VERTEX
  8
LAYER_1
 10
132.153
 20
214.0504
  0
SEQEND
  0
POLYLINE
  8
LAYER_1
 40
0.0847
 41
0.0847
 66
1
 10
0
 20
0
 30
0
  0
VERTEX
  8
LAYER_1
 10
133.8463
 20
214.0504
  0
VERTEX
  8
LAYER_1
 10
135.5608
 20
214.0504
  0
SEQEND
  0
POLYLINE
  8
LAYER_1
 40
0.0847
 41
0.0847
 66
1
 10
0
 20
0
 30
0
  0
VERTEX
  8
LAYER_1
 10
137.2753
 20
214.0504
  0
VERTEX
  8
LAYER_1
 10
138.9898
 20
214.0504
  0
SEQEND
  0
POLYLINE
  8
LAYER_1
 40
0.0847
 41
0.0847
 66
1
 10
0
 20
0
 30
0
  0
VERTEX
  8
LAYER_1
 10
140.7043
 20
214.0504
  0
VERTEX
  8
LAYER_1
 10
142.3976
 20
214.0504
  0
SEQEND
  0
POLYLINE
  8
LAYER_1
 40
0.0847
 41
0.0847
 66
1
 10
0
 20
0
 30
0
  0
VERTEX
  8
LAYER_1
 10
144.1121
 20
214.0504
  0
VERTEX
  8
LAYER_1
 10
145.8266
 20
214.0504
  0
SEQEND
  0
POLYLINE
  8
LAYER_1
 40
0.0847
 41
0.0847
 66
1
 10
0
 20
0
 30
0
  0
VERTEX
  8
LAYER_1
 10
147.5411
 20
214.0504
  0
VERTEX
  8
LAYER_1
 10
149.2556
 20
214.0504
  0
SEQEND
  0
POLYLINE
  8
LAYER_1
 40
0.0847
 41
0.0847
 66
1
 10
0
 20
0
 30
0
  0
VERTEX
  8
LAYER_1
 10
150.9489
 20
214.0504
  0
VERTEX
  8
LAYER_1
 10
152.6634
 20
214.0504
  0
SEQEND
  0
POLYLINE
  8
LAYER_1
 40
0.0847
 41
0.0847
 66
1
 10
0
 20
0
 30
0
  0
VERTEX
  8
LAYER_1
 10
154.3779
 20
214.0504
  0
VERTEX
  8
LAYER_1
 10
156.0924
 20
214.0504
  0
SEQEND
  0
POLYLINE
  8
LAYER_1
 40
0.0847
 41
0.0847
 66
1
 10
0
 20
0
 30
0
  0
VERTEX
  8
LAYER_1
 10
157.8069
 20
214.0504
  0
VERTEX
  8
LAYER_1
 10
159.5002
 20
214.0504
  0
SEQEND
  0
POLYLINE
  8
LAYER_1
 40
0.0847
 41
0.0847
 66
1
 10
0
 20
0
 30
0
  0
VERTEX
  8
LAYER_1
 10
161.2147
 20
214.0504
  0
VERTEX
  8
LAYER_1
 10
162.0825
 20
214.0504
  0
SEQEND
  0
POLYLINE
  8
LAYER_1
 40
0.0847
 41
0.0847
 66
1
 10
0
 20
0
 30
0
  0
VERTEX
  8
LAYER_1
 10
46.7031
 20
216.6539
  0
VERTEX
  8
LAYER_1
 10
47.5497
 20
216.6539
  0
SEQEND
  0
POLYLINE
  8
LAYER_1
 40
0.0847
 41
0.0847
 66
1
 10
0
 20
0
 30
0
  0
VERTEX
  8
LAYER_1
 10
49.2854
 20
216.6539
  0
VERTEX
  8
LAYER_1
 10
51.021
 20
216.6539
  0
SEQEND
  0
POLYLINE
  8
LAYER_1
 40
0.0847
 41
0.0847
 66
1
 10
0
 20
0
 30
0
  0
VERTEX
  8
LAYER_1
 10
52.7567
 20
216.6539
  0
VERTEX
  8
LAYER_1
 10
54.4924
 20
216.6539
  0
SEQEND
  0
POLYLINE
  8
LAYER_1
 40
0.0847
 41
0.0847
 66
1
 10
0
 20
0
 30
0
  0
VERTEX
  8
LAYER_1
 10
56.2281
 20
216.6539
  0
VERTEX
  8
LAYER_1
 10
57.9637
 20
216.6539
  0
SEQEND
  0
POLYLINE
  8
LAYER_1
 40
0.0847
 41
0.0847
 66
1
 10
0
 20
0
 30
0
  0
VERTEX
  8
LAYER_1
 10
59.6994
 20
216.6539
  0
VERTEX
  8
LAYER_1
 10
61.435
 20
216.6539
  0
SEQEND
  0
POLYLINE
  8
LAYER_1
 40
0.0847
 41
0.0847
 66
1
 10
0
 20
0
 30
0
  0
VERTEX
  8
LAYER_1
 10
63.1707
 20
216.6539
  0
VERTEX
  8
LAYER_1
 10
64.9064
 20
216.6539
  0
SEQEND
  0
POLYLINE
  8
LAYER_1
 40
0.0847
 41
0.0847
 66
1
 10
0
 20
0
 30
0
  0
VERTEX
  8
LAYER_1
 10
66.6209
 20
216.6539
  0
VERTEX
  8
LAYER_1
 10
68.3565
 20
216.6539
  0
SEQEND
  0
POLYLINE
  8
LAYER_1
 40
0.0847
 41
0.0847
 66
1
 10
0
 20
0
 30
0
  0
VERTEX
  8
LAYER_1
 10
70.0922
 20
216.6539
  0
VERTEX
  8
LAYER_1
 10
71.8279
 20
216.6539
  0
SEQEND
  0
POLYLINE
  8
LAYER_1
 40
0.0847
 41
0.0847
 66
1
 10
0
 20
0
 30
0
  0
VERTEX
  8
LAYER_1
 10
73.5635
 20
216.6539
  0
VERTEX
  8
LAYER_1
 10
75.2992
 20
216.6539
  0
SEQEND
  0
POLYLINE
  8
LAYER_1
 40
0.0847
 41
0.0847
 66
1
 10
0
 20
0
 30
0
  0
VERTEX
  8
LAYER_1
 10
77.0349
 20
216.6539
  0
VERTEX
  8
LAYER_1
 10
78.7705
 20
216.6539
  0
SEQEND
  0
POLYLINE
  8
LAYER_1
 40
0.0847
 41
0.0847
 66
1
 10
0
 20
0
 30
0
  0
VERTEX
  8
LAYER_1
 10
80.5062
 20
216.6539
  0
VERTEX
  8
LAYER_1
 10
82.2419
 20
216.6539
  0
SEQEND
  0
POLYLINE
  8
LAYER_1
 40
0.0847
 41
0.0847
 66
1
 10
0
 20
0
 30
0
  0
VERTEX
  8
LAYER_1
 10
83.9775
 20
216.6539
  0
VERTEX
  8
LAYER_1
 10
85.7132
 20
216.6539
  0
SEQEND
  0
POLYLINE
  8
LAYER_1
 40
0.0847
 41
0.0847
 66
1
 10
0
 20
0
 30
0
  0
VERTEX
  8
LAYER_1
 10
87.4277
 20
216.6539
  0
VERTEX
  8
LAYER_1
 10
89.1634
 20
216.6539
  0
SEQEND
  0
POLYLINE
  8
LAYER_1
 40
0.0847
 41
0.0847
 66
1
 10
0
 20
0
 30
0
  0
VERTEX
  8
LAYER_1
 10
90.899
 20
216.6539
  0
VERTEX
  8
LAYER_1
 10
92.6347
 20
216.6539
  0
SEQEND
  0
POLYLINE
  8
LAYER_1
 40
0.0847
 41
0.0847
 66
1
 10
0
 20
0
 30
0
  0
VERTEX
  8
LAYER_1
 10
94.3704
 20
216.6539
  0
VERTEX
  8
LAYER_1
 10
96.106
 20
216.6539
  0
SEQEND
  0
POLYLINE
  8
LAYER_1
 40
0.0847
 41
0.0847
 66
1
 10
0
 20
0
 30
0
  0
VERTEX
  8
LAYER_1
 10
97.8417
 20
216.6539
  0
VERTEX
  8
LAYER_1
 10
99.5774
 20
216.6539
  0
SEQEND
  0
POLYLINE
  8
LAYER_1
 40
0.0847
 41
0.0847
 66
1
 10
0
 20
0
 30
0
  0
VERTEX
  8
LAYER_1
 10
101.313
 20
216.6539
  0
VERTEX
  8
LAYER_1
 10
103.0487
 20
216.6539
  0
SEQEND
  0
POLYLINE
  8
LAYER_1
 40
0.0847
 41
0.0847
 66
1
 10
0
 20
0
 30
0
  0
VERTEX
  8
LAYER_1
 10
104.7844
 20
216.6539
  0
VERTEX
  8
LAYER_1
 10
106.4989
 20
216.6539
  0
SEQEND
  0
POLYLINE
  8
LAYER_1
 40
0.0847
 41
0.0847
 66
1
 10
0
 20
0
 30
0
  0
VERTEX
  8
LAYER_1
 10
108.2345
 20
216.6539
  0
VERTEX
  8
LAYER_1
 10
109.9702
 20
216.6539
  0
SEQEND
  0
POLYLINE
  8
LAYER_1
 40
0.0847
 41
0.0847
 66
1
 10
0
 20
0
 30
0
  0
VERTEX
  8
LAYER_1
 10
111.7059
 20
216.6539
  0
VERTEX
  8
LAYER_1
 10
113.4415
 20
216.6539
  0
SEQEND
  0
POLYLINE
  8
LAYER_1
 40
0.0847
 41
0.0847
 66
1
 10
0
 20
0
 30
0
  0
VERTEX
  8
LAYER_1
 10
115.1772
 20
216.6539
  0
VERTEX
  8
LAYER_1
 10
116.9129
 20
216.6539
  0
SEQEND
  0
POLYLINE
  8
LAYER_1
 40
0.0847
 41
0.0847
 66
1
 10
0
 20
0
 30
0
  0
VERTEX
  8
LAYER_1
 10
118.6485
 20
216.6539
  0
VERTEX
  8
LAYER_1
 10
120.3842
 20
216.6539
  0
SEQEND
  0
POLYLINE
  8
LAYER_1
 40
0.0847
 41
0.0847
 66
1
 10
0
 20
0
 30
0
  0
VERTEX
  8
LAYER_1
 10
122.1199
 20
216.6539
  0
VERTEX
  8
LAYER_1
 10
123.8555
 20
216.6539
  0
SEQEND
  0
POLYLINE
  8
LAYER_1
 40
0.0847
 41
0.0847
 66
1
 10
0
 20
0
 30
0
  0
VERTEX
  8
LAYER_1
 10
125.57
 20
216.6539
  0
VERTEX
  8
LAYER_1
 10
127.3057
 20
216.6539
  0
SEQEND
  0
POLYLINE
  8
LAYER_1
 40
0.0847
 41
0.0847
 66
1
 10
0
 20
0
 30
0
  0
VERTEX
  8
LAYER_1
 10
129.0414
 20
216.6539
  0
VERTEX
  8
LAYER_1
 10
130.777
 20
216.6539
  0
SEQEND
  0
POLYLINE
  8
LAYER_1
 40
0.0847
 41
0.0847
 66
1
 10
0
 20
0
 30
0
  0
VERTEX
  8
LAYER_1
 10
132.5127
 20
216.6539
  0
VERTEX
  8
LAYER_1
 10
134.2484
 20
216.6539
  0
SEQEND
  0
POLYLINE
  8
LAYER_1
 40
0.0847
 41
0.0847
 66
1
 10
0
 20
0
 30
0
  0
VERTEX
  8
LAYER_1
 10
135.984
 20
216.6539
  0
VERTEX
  8
LAYER_1
 10
137.7197
 20
216.6539
  0
SEQEND
  0
POLYLINE
  8
LAYER_1
 40
0.0847
 41
0.0847
 66
1
 10
0
 20
0
 30
0
  0
VERTEX
  8
LAYER_1
 10
139.4554
 20
216.6539
  0
VERTEX
  8
LAYER_1
 10
141.191
 20
216.6539
  0
SEQEND
  0
POLYLINE
  8
LAYER_1
 40
0.0847
 41
0.0847
 66
1
 10
0
 20
0
 30
0
  0
VERTEX
  8
LAYER_1
 10
142.9267
 20
216.6539
  0
VERTEX
  8
LAYER_1
 10
144.6624
 20
216.6539
  0
SEQEND
  0
POLYLINE
  8
LAYER_1
 40
0.0847
 41
0.0847
 66
1
 10
0
 20
0
 30
0
  0
VERTEX
  8
LAYER_1
 10
146.3769
 20
216.6539
  0
VERTEX
  8
LAYER_1
 10
148.1125
 20
216.6539
  0
SEQEND
  0
POLYLINE
  8
LAYER_1
 40
0.0847
 41
0.0847
 66
1
 10
0
 20
0
 30
0
  0
VERTEX
  8
LAYER_1
 10
149.8482
 20
216.6539
  0
VERTEX
  8
LAYER_1
 10
151.5839
 20
216.6539
  0
SEQEND
  0
POLYLINE
  8
LAYER_1
 40
0.0847
 41
0.0847
 66
1
 10
0
 20
0
 30
0
  0
VERTEX
  8
LAYER_1
 10
153.3196
 20
216.6539
  0
VERTEX
  8
LAYER_1
 10
155.0552
 20
216.6539
  0
SEQEND
  0
POLYLINE
  8
LAYER_1
 40
0.0847
 41
0.0847
 66
1
 10
0
 20
0
 30
0
  0
VERTEX
  8
LAYER_1
 10
156.7909
 20
216.6539
  0
VERTEX
  8
LAYER_1
 10
158.5266
 20
216.6539
  0
SEQEND
  0
POLYLINE
  8
LAYER_1
 40
0.0847
 41
0.0847
 66
1
 10
0
 20
0
 30
0
  0
VERTEX
  8
LAYER_1
 10
160.2623
 20
216.6539
  0
VERTEX
  8
LAYER_1
 10
161.9979
 20
216.6539
  0
SEQEND
  0
POLYLINE
  8
LAYER_1
 40
0.0847
 41
0.0847
 66
1
 10
0
 20
0
 30
0
  0
VERTEX
  8
LAYER_1
 10
163.7336
 20
216.6539
  0
VERTEX
  8
LAYER_1
 10
164.6014
 20
216.6539
  0
SEQEND
  0
POLYLINE
  8
LAYER_1
 40
0.0847
 41
0.0847
 66
1
 10
0
 20
0
 30
0
  0
VERTEX
  8
LAYER_1
 10
88.1051
 20
193.9421
  0
VERTEX
  8
LAYER_1
 10
87.4913
 20
193.9209
  0
VERTEX
  8
LAYER_1
 10
86.8774
 20
193.9209
  0
VERTEX
  8
LAYER_1
 10
86.2636
 20
193.8998
  0
VERTEX
  8
LAYER_1
 10
85.6498
 20
193.8998
  0
SEQEND
  0
POLYLINE
  8
LAYER_1
 40
0.1693
 41
0.1693
 66
1
 10
0
 20
0
 30
0
  0
VERTEX
  8
LAYER_1
 10
85.6709
 20
191.8678
  0
VERTEX
  8
LAYER_1
 10
86.2848
 20
191.8889
  0
VERTEX
  8
LAYER_1
 10
86.8986
 20
191.9101
  0
VERTEX
  8
LAYER_1
 10
87.5124
 20
191.9101
  0
VERTEX
  8
LAYER_1
 10
88.1263
 20
191.9313
  0
VERTEX
  8
LAYER_1
 10
88.7189
 20
191.9313
  0
VERTEX
  8
LAYER_1
 10
89.3116
 20
191.9313
  0
VERTEX
  8
LAYER_1
 10
89.9043
 20
191.9313
  0
VERTEX
  8
LAYER_1
 10
90.4969
 20
191.9313
  0
VERTEX
  8
LAYER_1
 10
91.0684
 20
191.9101
  0
VERTEX
  8
LAYER_1
 10
91.6399
 20
191.8889
  0
SEQEND
  0
POLYLINE
  8
LAYER_1
 40
0.1693
 41
0.1693
 66
1
 10
0
 20
0
 30
0
  0
VERTEX
  8
LAYER_1
 10
97.6724
 20
191.0423
  0
VERTEX
  8
LAYER_1
 10
97.4819
 20
191.0846
  0
VERTEX
  8
LAYER_1
 10
97.1644
 20
191.1481
  0
VERTEX
  8
LAYER_1
 10
96.8469
 20
191.2328
  0
VERTEX
  8
LAYER_1
 10
96.5083
 20
191.2963
  0
VERTEX
  8
LAYER_1
 10
96.1908
 20
191.3598
  0
VERTEX
  8
LAYER_1
 10
95.8733
 20
191.4233
  0
VERTEX
  8
LAYER_1
 10
95.6828
 20
191.4656
  0
VERTEX
  8
LAYER_1
 10
95.4288
 20
191.5079
  0
VERTEX
  8
LAYER_1
 10
95.0054
 20
191.5714
  0
VERTEX
  8
LAYER_1
 10
94.5609
 20
191.6349
  0
SEQEND
  0
POLYLINE
  8
LAYER_1
 40
0.1693
 41
0.1693
 66
1
 10
0
 20
0
 30
0
  0
VERTEX
  8
LAYER_1
 10
94.1376
 20
191.6984
  0
VERTEX
  8
LAYER_1
 10
93.6931
 20
191.7619
  0
VERTEX
  8
LAYER_1
 10
93.2486
 20
191.8043
  0
SEQEND
  0
POLYLINE
  8
LAYER_1
 40
0.1693
 41
0.1693
 66
1
 10
0
 20
0
 30
0
  0
VERTEX
  8
LAYER_1
 10
92.1903
 20
191.8678
  0
VERTEX
  8
LAYER_1
 10
92.9734
 20
191.8466
  0
SEQEND
  0
POLYLINE
  8
LAYER_1
 40
0.1693
 41
0.1693
 66
1
 10
0
 20
0
 30
0
  0
VERTEX
  8
LAYER_1
 10
93.2486
 20
191.8043
  0
VERTEX
  8
LAYER_1
 10
92.9734
 20
191.8466
  0
SEQEND
  0
POLYLINE
  8
LAYER_1
 40
0.0847
 41
0.0847
 66
1
 10
0
 20
0
 30
0
  0
VERTEX
  8
LAYER_1
 10
89.3116
 20
193.9421
  0
VERTEX
  8
LAYER_1
 10
88.7189
 20
193.9421
  0
VERTEX
  8
LAYER_1
 10
88.1051
 20
193.9421
  0
SEQEND
  0
POLYLINE
  8
LAYER_1
 40
0.0847
 41
0.0847
 66
1
 10
0
 20
0
 30
0
  0
VERTEX
  8
LAYER_1
 10
99.1753
 20
191.0423
  0
VERTEX
  8
LAYER_1
 10
99.0694
 20
191.1481
  0
SEQEND
  0
POLYLINE
  8
LAYER_1
 40
0.1693
 41
0.1693
 66
1
 10
0
 20
0
 30
0
  0
VERTEX
  8
LAYER_1
 10
119.6646
 20
191.8889
  0
VERTEX
  8
LAYER_1
 10
119.1143
 20
191.8678
  0
SEQEND
  0
POLYLINE
  8
LAYER_1
 40
0.1693
 41
0.1693
 66
1
 10
0
 20
0
 30
0
  0
VERTEX
  8
LAYER_1
 10
116.7436
 20
191.6349
  0
VERTEX
  8
LAYER_1
 10
117.1669
 20
191.6984
  0
SEQEND
  0
POLYLINE
  8
LAYER_1
 40
0.1693
 41
0.1693
 66
1
 10
0
 20
0
 30
0
  0
VERTEX
  8
LAYER_1
 10
121.4003
 20
191.9313
  0
VERTEX
  8
LAYER_1
 10
120.8076
 20
191.9313
  0
VERTEX
  8
LAYER_1
 10
120.2361
 20
191.9101
  0
VERTEX
  8
LAYER_1
 10
119.6646
 20
191.8889
  0
SEQEND
  0
POLYLINE
  8
LAYER_1
 40
0.1693
 41
0.1693
 66
1
 10
0
 20
0
 30
0
  0
VERTEX
  8
LAYER_1
 10
113.6321
 20
191.0423
  0
VERTEX
  8
LAYER_1
 10
113.8226
 20
191.0846
  0
VERTEX
  8
LAYER_1
 10
114.1401
 20
191.1481
  0
VERTEX
  8
LAYER_1
 10
114.4576
 20
191.2328
  0
VERTEX
  8
LAYER_1
 10
114.7963
 20
191.2963
  0
VERTEX
  8
LAYER_1
 10
115.1138
 20
191.3598
  0
VERTEX
  8
LAYER_1
 10
115.4313
 20
191.4233
  0
VERTEX
  8
LAYER_1
 10
115.6218
 20
191.4656
  0
VERTEX
  8
LAYER_1
 10
115.8758
 20
191.5079
  0
VERTEX
  8
LAYER_1
 10
116.2991
 20
191.5714
  0
VERTEX
  8
LAYER_1
 10
116.7436
 20
191.6349
  0
SEQEND
  0
POLYLINE
  8
LAYER_1
 40
0.1693
 41
0.1693
 66
1
 10
0
 20
0
 30
0
  0
VERTEX
  8
LAYER_1
 10
117.1669
 20
191.6984
  0
VERTEX
  8
LAYER_1
 10
117.6114
 20
191.7619
  0
VERTEX
  8
LAYER_1
 10
118.0559
 20
191.8043
  0
SEQEND
  0
POLYLINE
  8
LAYER_1
 40
0.1693
 41
0.1693
 66
1
 10
0
 20
0
 30
0
  0
VERTEX
  8
LAYER_1
 10
119.1143
 20
191.8678
  0
VERTEX
  8
LAYER_1
 10
118.3311
 20
191.8466
  0
SEQEND
  0
POLYLINE
  8
LAYER_1
 40
0.1693
 41
0.1693
 66
1
 10
0
 20
0
 30
0
  0
VERTEX
  8
LAYER_1
 10
118.0559
 20
191.8043
  0
VERTEX
  8
LAYER_1
 10
118.3311
 20
191.8466
  0
SEQEND
  0
POLYLINE
  8
LAYER_1
 40
0.0847
 41
0.0847
 66
1
 10
0
 20
0
 30
0
  0
VERTEX
  8
LAYER_1
 10
121.9929
 20
193.9421
  0
VERTEX
  8
LAYER_1
 10
122.5856
 20
193.9421
  0
SEQEND
  0
POLYLINE
  8
LAYER_1
 40
0.0847
 41
0.0847
 66
1
 10
0
 20
0
 30
0
  0
VERTEX
  8
LAYER_1
 10
112.1293
 20
191.0423
  0
VERTEX
  8
LAYER_1
 10
112.2351
 20
191.1481
  0
SEQEND
  0
POLYLINE
  8
LAYER_1
 40
0.0847
 41
0.0847
 66
1
 10
0
 20
0
 30
0
  0
VERTEX
  8
LAYER_1
 10
123.1994
 20
193.9421
  0
VERTEX
  8
LAYER_1
 10
123.8133
 20
193.9209
  0
VERTEX
  8
LAYER_1
 10
124.4271
 20
193.9209
  0
VERTEX
  8
LAYER_1
 10
125.0409
 20
193.8998
  0
SEQEND
  0
POLYLINE
  8
LAYER_1
 40
0.0847
 41
0.0847
 66
1
 10
0
 20
0
 30
0
  0
VERTEX
  8
LAYER_1
 10
122.5856
 20
193.9421
  0
VERTEX
  8
LAYER_1
 10
123.1994
 20
193.9421
  0
SEQEND
  0
POLYLINE
  8
LAYER_1
 40
0.0847
 41
0.0847
 66
1
 10
0
 20
0
 30
0
  0
VERTEX
  8
LAYER_1
 10
121.2098
 20
193.9421
  0
VERTEX
  8
LAYER_1
 10
121.9929
 20
193.9421
  0
SEQEND
  0
POLYLINE
  8
LAYER_1
 40
0.0847
 41
0.0847
 66
1
 10
0
 20
0
 30
0
  0
VERTEX
  8
LAYER_1
 10
99.1753
 20
191.0423
  0
VERTEX
  8
LAYER_1
 10
98.9636
 20
191.2116
  0
VERTEX
  8
LAYER_1
 10
98.6249
 20
191.5291
  0
VERTEX
  8
LAYER_1
 10
98.2651
 20
191.8466
  0
VERTEX
  8
LAYER_1
 10
97.8841
 20
192.1429
  0
VERTEX
  8
LAYER_1
 10
97.5031
 20
192.4181
  0
VERTEX
  8
LAYER_1
 10
97.1221
 20
192.6509
  0
VERTEX
  8
LAYER_1
 10
96.8893
 20
192.7779
  0
VERTEX
  8
LAYER_1
 10
96.6988
 20
192.8838
  0
VERTEX
  8
LAYER_1
 10
96.3813
 20
193.0108
  0
VERTEX
  8
LAYER_1
 10
96.0426
 20
193.1378
  0
VERTEX
  8
LAYER_1
 10
95.7039
 20
193.2224
  0
VERTEX
  8
LAYER_1
 10
95.3653
 20
193.3283
  0
VERTEX
  8
LAYER_1
 10
95.0266
 20
193.3918
  0
VERTEX
  8
LAYER_1
 10
94.8149
 20
193.4341
  0
VERTEX
  8
LAYER_1
 10
94.4339
 20
193.5188
  0
VERTEX
  8
LAYER_1
 10
93.7566
 20
193.6246
  0
VERTEX
  8
LAYER_1
 10
93.0793
 20
193.7093
  0
VERTEX
  8
LAYER_1
 10
92.3808
 20
193.7728
  0
VERTEX
  8
LAYER_1
 10
91.7034
 20
193.8363
  0
VERTEX
  8
LAYER_1
 10
91.0261
 20
193.8786
  0
VERTEX
  8
LAYER_1
 10
90.6239
 20
193.8998
  0
VERTEX
  8
LAYER_1
 10
90.1159
 20
193.9421
  0
VERTEX
  8
LAYER_1
 10
89.3116
 20
193.9421
  0
SEQEND
  0
POLYLINE
  8
LAYER_1
 40
0.0847
 41
0.0847
 66
1
 10
0
 20
0
 30
0
  0
VERTEX
  8
LAYER_1
 10
112.1293
 20
191.0423
  0
VERTEX
  8
LAYER_1
 10
112.3409
 20
191.2116
  0
VERTEX
  8
LAYER_1
 10
112.6796
 20
191.5291
  0
VERTEX
  8
LAYER_1
 10
113.0394
 20
191.8466
  0
VERTEX
  8
LAYER_1
 10
113.4204
 20
192.1429
  0
VERTEX
  8
LAYER_1
 10
113.8014
 20
192.4181
  0
VERTEX
  8
LAYER_1
 10
114.1824
 20
192.6509
  0
VERTEX
  8
LAYER_1
 10
114.4153
 20
192.7779
  0
VERTEX
  8
LAYER_1
 10
114.6058
 20
192.8838
  0
VERTEX
  8
LAYER_1
 10
114.9233
 20
193.0108
  0
VERTEX
  8
LAYER_1
 10
115.2619
 20
193.1378
  0
VERTEX
  8
LAYER_1
 10
115.6006
 20
193.2224
  0
VERTEX
  8
LAYER_1
 10
115.9393
 20
193.3283
  0
VERTEX
  8
LAYER_1
 10
116.2779
 20
193.3918
  0
VERTEX
  8
LAYER_1
 10
116.4896
 20
193.4341
  0
VERTEX
  8
LAYER_1
 10
116.8706
 20
193.5188
  0
VERTEX
  8
LAYER_1
 10
117.5479
 20
193.6246
  0
VERTEX
  8
LAYER_1
 10
118.2253
 20
193.7093
  0
VERTEX
  8
LAYER_1
 10
118.9238
 20
193.7728
  0
VERTEX
  8
LAYER_1
 10
119.6011
 20
193.8363
  0
VERTEX
  8
LAYER_1
 10
120.2784
 20
193.8786
  0
VERTEX
  8
LAYER_1
 10
120.6806
 20
193.8998
  0
VERTEX
  8
LAYER_1
 10
121.2098
 20
193.9421
  0
SEQEND
  0
POLYLINE
  8
LAYER_1
 40
0.1693
 41
0.1693
 66
1
 10
0
 20
0
 30
0
  0
VERTEX
  8
LAYER_1
 10
104.1706
 20
191.2328
  0
VERTEX
  8
LAYER_1
 10
104.1706
 20
193.0319
  0
SEQEND
  0
POLYLINE
  8
LAYER_1
 40
0.1693
 41
0.1693
 66
1
 10
0
 20
0
 30
0
  0
VERTEX
  8
LAYER_1
 10
107.1339
 20
191.2328
  0
VERTEX
  8
LAYER_1
 10
107.1339
 20
193.0319
  0
SEQEND
  0
POLYLINE
  8
LAYER_1
 40
0.1693
 41
0.1693
 66
1
 10
0
 20
0
 30
0
  0
VERTEX
  8
LAYER_1
 10
101.5036
 20
187.2323
  0
VERTEX
  8
LAYER_1
 10
109.8009
 20
187.2323
  0
SEQEND
  0
POLYLINE
  8
LAYER_1
 40
0.1693
 41
0.1693
 66
1
 10
0
 20
0
 30
0
  0
VERTEX
  8
LAYER_1
 10
101.8211
 20
182.8084
  0
VERTEX
  8
LAYER_1
 10
101.5036
 20
182.5333
  0
VERTEX
  8
LAYER_1
 10
101.8211
 20
182.3004
  0
VERTEX
  8
LAYER_1
 10
101.5036
 20
182.0464
  0
VERTEX
  8
LAYER_1
 10
101.8211
 20
181.7924
  0
VERTEX
  8
LAYER_1
 10
101.5036
 20
181.5384
  0
VERTEX
  8
LAYER_1
 10
101.8211
 20
181.3056
  0
VERTEX
  8
LAYER_1
 10
101.5036
 20
181.0304
  0
SEQEND
  0
POLYLINE
  8
LAYER_1
 40
0.1693
 41
0.1693
 66
1
 10
0
 20
0
 30
0
  0
VERTEX
  8
LAYER_1
 10
109.8009
 20
182.8296
  0
VERTEX
  8
LAYER_1
 10
109.4834
 20
182.5756
  0
VERTEX
  8
LAYER_1
 10
109.8009
 20
182.3216
  0
VERTEX
  8
LAYER_1
 10
109.4834
 20
182.0888
  0
VERTEX
  8
LAYER_1
 10
109.8009
 20
181.8136
  0
VERTEX
  8
LAYER_1
 10
109.4834
 20
181.5808
  0
VERTEX
  8
LAYER_1
 10
109.8009
 20
181.3268
  0
VERTEX
  8
LAYER_1
 10
109.4834
 20
181.0728
  0
SEQEND
  0
POLYLINE
  8
LAYER_1
 40
0.1693
 41
0.1693
 66
1
 10
0
 20
0
 30
0
  0
VERTEX
  8
LAYER_1
 10
98.4556
 20
193.0743
  0
VERTEX
  8
LAYER_1
 10
98.4556
 20
193.1166
  0
SEQEND
  0
POLYLINE
  8
LAYER_1
 40
0.1693
 41
0.1693
 66
1
 10
0
 20
0
 30
0
  0
VERTEX
  8
LAYER_1
 10
98.4556
 20
193.0954
  0
VERTEX
  8
LAYER_1
 10
98.4556
 20
193.0743
  0
VERTEX
  8
LAYER_1
 10
98.4768
 20
193.0531
  0
SEQEND
  0
POLYLINE
  8
LAYER_1
 40
0.1693
 41
0.1693
 66
1
 10
0
 20
0
 30
0
  0
VERTEX
  8
LAYER_1
 10
112.8489
 20
193.0743
  0
VERTEX
  8
LAYER_1
 10
112.8489
 20
193.1166
  0
SEQEND
  0
POLYLINE
  8
LAYER_1
 40
0.1693
 41
0.1693
 66
1
 10
0
 20
0
 30
0
  0
VERTEX
  8
LAYER_1
 10
112.7854
 20
193.0531
  0
VERTEX
  8
LAYER_1
 10
112.8066
 20
193.0319
 42
0.3838901317
  0
VERTEX
  8
LAYER_1
 10
112.8489
 20
193.0743
  0
VERTEX
  8
LAYER_1
 10
112.8278
 20
193.0954
  0
SEQEND
  0
POLYLINE
  8
LAYER_1
 40
0.1693
 41
0.1693
 66
1
 10
0
 20
0
 30
0
  0
VERTEX
  8
LAYER_1
 10
98.4979
 20
193.0319
  0
VERTEX
  8
LAYER_1
 10
112.8066
 20
193.0319
  0
SEQEND
  0
POLYLINE
  8
LAYER_1
 40
0.1693
 41
0.1693
 66
1
 10
0
 20
0
 30
0
  0
VERTEX
  8
LAYER_1
 10
98.5826
 20
193.3071
 42
0.251913164
  0
VERTEX
  8
LAYER_1
 10
98.4768
 20
193.1378
  0
SEQEND
  0
POLYLINE
  8
LAYER_1
 40
0.1693
 41
0.1693
 66
1
 10
0
 20
0
 30
0
  0
VERTEX
  8
LAYER_1
 10
112.7008
 20
193.3071
 42
0.06894823328
  0
VERTEX
  8
LAYER_1
 10
108.3717
 20
194.6168
 42
0.03951500279
  0
VERTEX
  8
LAYER_1
 10
105.6523
 20
194.8311
 42
0.107312117
  0
VERTEX
  8
LAYER_1
 10
98.5614
 20
193.2859
  0
SEQEND
  0
POLYLINE
  8
LAYER_1
 40
0.1693
 41
0.1693
 66
1
 10
0
 20
0
 30
0
  0
VERTEX
  8
LAYER_1
 10
112.8278
 20
193.1378
 42
0.2986977645
  0
VERTEX
  8
LAYER_1
 10
112.6796
 20
193.3071
  0
SEQEND
  0
POLYLINE
  8
LAYER_1
 40
0.1693
 41
0.1693
 66
1
 10
0
 20
0
 30
0
  0
VERTEX
  8
LAYER_1
 10
99.2388
 20
191.2328
 42
0.377891706
  0
VERTEX
  8
LAYER_1
 10
99.1541
 20
191.127
 42
0.4410819922
  0
VERTEX
  8
LAYER_1
 10
99.2388
 20
191.0423
  0
SEQEND
  0
POLYLINE
  8
LAYER_1
 40
0.1693
 41
0.1693
 66
1
 10
0
 20
0
 30
0
  0
VERTEX
  8
LAYER_1
 10
99.2599
 20
191.0423
  0
VERTEX
  8
LAYER_1
 10
101.5036
 20
190.4285
  0
SEQEND
  0
POLYLINE
  8
LAYER_1
 40
0.1693
 41
0.1693
 66
1
 10
0
 20
0
 30
0
  0
VERTEX
  8
LAYER_1
 10
112.0446
 20
191.0423
  0
VERTEX
  8
LAYER_1
 10
109.8009
 20
190.4285
  0
SEQEND
  0
POLYLINE
  8
LAYER_1
 40
0.1693
 41
0.1693
 66
1
 10
0
 20
0
 30
0
  0
VERTEX
  8
LAYER_1
 10
99.2599
 20
191.2328
  0
VERTEX
  8
LAYER_1
 10
112.0446
 20
191.2328
  0
SEQEND
  0
POLYLINE
  8
LAYER_1
 40
0.1693
 41
0.1693
 66
1
 10
0
 20
0
 30
0
  0
VERTEX
  8
LAYER_1
 10
112.0234
 20
191.0423
 42
0.4459787268
  0
VERTEX
  8
LAYER_1
 10
112.0446
 20
191.0211
 42
0.3000596991
  0
VERTEX
  8
LAYER_1
 10
112.1504
 20
191.127
 42
0.3599078685
  0
VERTEX
  8
LAYER_1
 10
112.0446
 20
191.2328
  0
VERTEX
  8
LAYER_1
 10
112.0234
 20
191.2328
  0
SEQEND
  0
POLYLINE
  8
LAYER_1
 40
0.1693
 41
0.1693
 66
1
 10
0
 20
0
 30
0
  0
VERTEX
  8
LAYER_1
 10
99.2599
 20
191.0423
  0
VERTEX
  8
LAYER_1
 10
112.0446
 20
191.0423
  0
SEQEND
  0
POLYLINE
  8
LAYER_1
 40
0.1693
 41
0.1693
 66
1
 10
0
 20
0
 30
0
  0
VERTEX
  8
LAYER_1
 10
101.5036
 20
183.0413
  0
VERTEX
  8
LAYER_1
 10
101.8211
 20
182.8085
  0
SEQEND
  0
POLYLINE
  8
LAYER_1
 40
0.1693
 41
0.1693
 66
1
 10
0
 20
0
 30
0
  0
VERTEX
  8
LAYER_1
 10
109.4834
 20
183.0836
  0
VERTEX
  8
LAYER_1
 10
109.8009
 20
182.8296
  0
SEQEND
  0
POLYLINE
  8
LAYER_1
 40
0.0847
 41
0.0847
 66
1
 10
0
 20
0
 30
0
  0
VERTEX
  8
LAYER_1
 10
97.6724
 20
191.0423
  0
VERTEX
  8
LAYER_1
 10
99.1541
 20
191.0423
  0
SEQEND
  0
POLYLINE
  8
LAYER_1
 40
0.0847
 41
0.0847
 66
1
 10
0
 20
0
 30
0
  0
VERTEX
  8
LAYER_1
 10
112.1504
 20
191.0423
  0
VERTEX
  8
LAYER_1
 10
113.6321
 20
191.0423
  0
SEQEND
  0
POLYLINE
  8
LAYER_1
 40
0.0847
 41
0.0847
 66
1
 10
0
 20
0
 30
0
  0
VERTEX
  8
LAYER_1
 10
99.1753
 20
191.0423
  0
VERTEX
  8
LAYER_1
 10
100.2548
 20
191.0423
  0
SEQEND
  0
POLYLINE
  8
LAYER_1
 40
0.0847
 41
0.0847
 66
1
 10
0
 20
0
 30
0
  0
VERTEX
  8
LAYER_1
 10
102.4138
 20
191.0423
  0
VERTEX
  8
LAYER_1
 10
104.5728
 20
191.0423
  0
SEQEND
  0
POLYLINE
  8
LAYER_1
 40
0.0847
 41
0.0847
 66
1
 10
0
 20
0
 30
0
  0
VERTEX
  8
LAYER_1
 10
106.7318
 20
191.0423
  0
VERTEX
  8
LAYER_1
 10
108.8908
 20
191.0423
  0
SEQEND
  0
POLYLINE
  8
LAYER_1
 40
0.0847
 41
0.0847
 66
1
 10
0
 20
0
 30
0
  0
VERTEX
  8
LAYER_1
 10
111.0498
 20
191.0423
  0
VERTEX
  8
LAYER_1
 10
112.1293
 20
191.0423
  0
SEQEND
  0
POLYLINE
  8
LAYER_1
 40
0.1693
 41
0.1693
 66
1
 10
0
 20
0
 30
0
  0
VERTEX
  8
LAYER_1
 10
101.8211
 20
183.8033
  0
VERTEX
  8
LAYER_1
 10
101.5036
 20
183.5493
  0
VERTEX
  8
LAYER_1
 10
101.8211
 20
183.2953
  0
VERTEX
  8
LAYER_1
 10
101.5036
 20
183.0413
  0
SEQEND
  0
POLYLINE
  8
LAYER_1
 40
0.1693
 41
0.1693
 66
1
 10
0
 20
0
 30
0
  0
VERTEX
  8
LAYER_1
 10
101.6306
 20
183.9514
  0
VERTEX
  8
LAYER_1
 10
101.8211
 20
183.8033
  0
SEQEND
  0
POLYLINE
  8
LAYER_1
 40
0.1693
 41
0.1693
 66
1
 10
0
 20
0
 30
0
  0
VERTEX
  8
LAYER_1
 10
109.8009
 20
183.8244
  0
VERTEX
  8
LAYER_1
 10
109.4834
 20
183.5704
  0
VERTEX
  8
LAYER_1
 10
109.8009
 20
183.3164
  0
VERTEX
  8
LAYER_1
 10
109.4834
 20
183.0836
  0
SEQEND
  0
POLYLINE
  8
LAYER_1
 40
0.1693
 41
0.1693
 66
1
 10
0
 20
0
 30
0
  0
VERTEX
  8
LAYER_1
 10
109.6528
 20
183.9514
  0
VERTEX
  8
LAYER_1
 10
109.8009
 20
183.8244
  0
SEQEND
  0
POLYLINE
  8
LAYER_1
 40
0.0847
 41
0.0847
 66
1
 10
0
 20
0
 30
0
  0
VERTEX
  8
LAYER_1
 10
102.0116
 20
177.9613
  0
VERTEX
  8
LAYER_1
 10
102.0116
 20
182.8508
  0
SEQEND
  0
POLYLINE
  8
LAYER_1
 40
0.0847
 41
0.0847
 66
1
 10
0
 20
0
 30
0
  0
VERTEX
  8
LAYER_1
 10
102.0116
 20
186.1316
  0
VERTEX
  8
LAYER_1
 10
102.0116
 20
191.0423
  0
SEQEND
  0
POLYLINE
  8
LAYER_1
 40
0.0847
 41
0.0847
 66
1
 10
0
 20
0
 30
0
  0
VERTEX
  8
LAYER_1
 10
109.2929
 20
177.9613
  0
VERTEX
  8
LAYER_1
 10
109.2929
 20
182.8508
  0
SEQEND
  0
POLYLINE
  8
LAYER_1
 40
0.0847
 41
0.0847
 66
1
 10
0
 20
0
 30
0
  0
VERTEX
  8
LAYER_1
 10
109.2929
 20
186.1316
  0
VERTEX
  8
LAYER_1
 10
109.2929
 20
191.0423
  0
SEQEND
  0
POLYLINE
  8
LAYER_1
 40
0.0847
 41
0.0847
 66
1
 10
0
 20
0
 30
0
  0
VERTEX
  8
LAYER_1
 10
102.4561
 20
165.7904
  0
VERTEX
  8
LAYER_1
 10
102.4773
 20
165.8116
  0
SEQEND
  0
POLYLINE
  8
LAYER_1
 40
0.0847
 41
0.0847
 66
1
 10
0
 20
0
 30
0
  0
VERTEX
  8
LAYER_1
 10
102.5619
 20
165.8751
  0
VERTEX
  8
LAYER_1
 10
102.6043
 20
165.9174
  0
VERTEX
  8
LAYER_1
 10
102.6678
 20
165.9598
  0
SEQEND
  0
POLYLINE
  8
LAYER_1
 40
0.0847
 41
0.0847
 66
1
 10
0
 20
0
 30
0
  0
VERTEX
  8
LAYER_1
 10
102.7948
 20
166.0868
  0
VERTEX
  8
LAYER_1
 10
102.8794
 20
166.1503
  0
VERTEX
  8
LAYER_1
 10
102.9429
 20
166.1926
  0
SEQEND
  0
POLYLINE
  8
LAYER_1
 40
0.0847
 41
0.0847
 66
1
 10
0
 20
0
 30
0
  0
VERTEX
  8
LAYER_1
 10
103.0699
 20
166.3196
  0
VERTEX
  8
LAYER_1
 10
103.1334
 20
166.3831
  0
VERTEX
  8
LAYER_1
 10
103.1969
 20
166.4254
  0
SEQEND
  0
POLYLINE
  8
LAYER_1
 40
0.0847
 41
0.0847
 66
1
 10
0
 20
0
 30
0
  0
VERTEX
  8
LAYER_1
 10
103.3239
 20
166.5101
  0
VERTEX
  8
LAYER_1
 10
103.3874
 20
166.5524
  0
VERTEX
  8
LAYER_1
 10
103.4509
 20
166.5736
  0
SEQEND
  0
POLYLINE
  8
LAYER_1
 40
0.0847
 41
0.0847
 66
1
 10
0
 20
0
 30
0
  0
VERTEX
  8
LAYER_1
 10
103.5779
 20
166.6583
  0
VERTEX
  8
LAYER_1
 10
103.6626
 20
166.7006
  0
VERTEX
  8
LAYER_1
 10
103.7261
 20
166.7006
  0
SEQEND
  0
POLYLINE
  8
LAYER_1
 40
0.0847
 41
0.0847
 66
1
 10
0
 20
0
 30
0
  0
VERTEX
  8
LAYER_1
 10
103.8531
 20
166.7429
  0
VERTEX
  8
LAYER_1
 10
103.9166
 20
166.7641
  0
VERTEX
  8
LAYER_1
 10
103.9378
 20
166.7641
  0
SEQEND
  0
POLYLINE
  8
LAYER_1
 40
0.0847
 41
0.0847
 66
1
 10
0
 20
0
 30
0
  0
VERTEX
  8
LAYER_1
 10
104.0224
 20
166.7641
  0
VERTEX
  8
LAYER_1
 10
104.0648
 20
166.7853
  0
VERTEX
  8
LAYER_1
 10
104.0859
 20
166.7853
  0
SEQEND
  0
POLYLINE
  8
LAYER_1
 40
0.0847
 41
0.0847
 66
1
 10
0
 20
0
 30
0
  0
VERTEX
  8
LAYER_1
 10
104.1706
 20
166.7853
  0
VERTEX
  8
LAYER_1
 10
104.2129
 20
166.7641
  0
VERTEX
  8
LAYER_1
 10
104.2764
 20
166.7641
  0
SEQEND
  0
POLYLINE
  8
LAYER_1
 40
0.0847
 41
0.0847
 66
1
 10
0
 20
0
 30
0
  0
VERTEX
  8
LAYER_1
 10
104.4034
 20
166.7218
  0
VERTEX
  8
LAYER_1
 10
104.4669
 20
166.7006
  0
VERTEX
  8
LAYER_1
 10
104.5304
 20
166.6794
  0
SEQEND
  0
POLYLINE
  8
LAYER_1
 40
0.0847
 41
0.0847
 66
1
 10
0
 20
0
 30
0
  0
VERTEX
  8
LAYER_1
 10
104.6574
 20
166.5948
  0
VERTEX
  8
LAYER_1
 10
104.7421
 20
166.5524
  0
VERTEX
  8
LAYER_1
 10
104.8056
 20
166.5101
  0
SEQEND
  0
POLYLINE
  8
LAYER_1
 40
0.0847
 41
0.0847
 66
1
 10
0
 20
0
 30
0
  0
VERTEX
  8
LAYER_1
 10
104.9326
 20
166.4254
  0
VERTEX
  8
LAYER_1
 10
104.9961
 20
166.3831
  0
VERTEX
  8
LAYER_1
 10
105.0596
 20
166.3408
  0
SEQEND
  0
POLYLINE
  8
LAYER_1
 40
0.0847
 41
0.0847
 66
1
 10
0
 20
0
 30
0
  0
VERTEX
  8
LAYER_1
 10
105.1866
 20
166.2138
  0
VERTEX
  8
LAYER_1
 10
105.2501
 20
166.1503
  0
VERTEX
  8
LAYER_1
 10
105.3136
 20
166.1079
  0
SEQEND
  0
POLYLINE
  8
LAYER_1
 40
0.0847
 41
0.0847
 66
1
 10
0
 20
0
 30
0
  0
VERTEX
  8
LAYER_1
 10
105.4406
 20
165.9809
  0
VERTEX
  8
LAYER_1
 10
105.5041
 20
165.9174
  0
VERTEX
  8
LAYER_1
 10
105.5676
 20
165.8539
  0
SEQEND
  0
POLYLINE
  8
LAYER_1
 40
0.0847
 41
0.0847
 66
1
 10
0
 20
0
 30
0
  0
VERTEX
  8
LAYER_1
 10
105.7158
 20
165.7269
  0
VERTEX
  8
LAYER_1
 10
105.8004
 20
165.6423
  0
VERTEX
  8
LAYER_1
 10
105.8639
 20
165.5999
  0
SEQEND
  0
POLYLINE
  8
LAYER_1
 40
0.0847
 41
0.0847
 66
1
 10
0
 20
0
 30
0
  0
VERTEX
  8
LAYER_1
 10
105.9909
 20
165.4729
  0
VERTEX
  8
LAYER_1
 10
106.0544
 20
165.4094
  0
VERTEX
  8
LAYER_1
 10
106.1179
 20
165.3671
  0
SEQEND
  0
POLYLINE
  8
LAYER_1
 40
0.0847
 41
0.0847
 66
1
 10
0
 20
0
 30
0
  0
VERTEX
  8
LAYER_1
 10
106.2449
 20
165.2613
  0
VERTEX
  8
LAYER_1
 10
106.3084
 20
165.1978
  0
VERTEX
  8
LAYER_1
 10
106.3719
 20
165.1554
  0
SEQEND
  0
POLYLINE
  8
LAYER_1
 40
0.0847
 41
0.0847
 66
1
 10
0
 20
0
 30
0
  0
VERTEX
  8
LAYER_1
 10
106.4989
 20
165.0708
  0
VERTEX
  8
LAYER_1
 10
106.5624
 20
165.0073
  0
VERTEX
  8
LAYER_1
 10
106.6259
 20
164.9861
  0
SEQEND
  0
POLYLINE
  8
LAYER_1
 40
0.0847
 41
0.0847
 66
1
 10
0
 20
0
 30
0
  0
VERTEX
  8
LAYER_1
 10
106.7529
 20
164.9226
  0
VERTEX
  8
LAYER_1
 10
106.8376
 20
164.8803
  0
VERTEX
  8
LAYER_1
 10
106.9011
 20
164.8591
  0
SEQEND
  0
POLYLINE
  8
LAYER_1
 40
0.0847
 41
0.0847
 66
1
 10
0
 20
0
 30
0
  0
VERTEX
  8
LAYER_1
 10
107.0281
 20
164.8168
  0
VERTEX
  8
LAYER_1
 10
107.0916
 20
164.7956
  0
VERTEX
  8
LAYER_1
 10
107.1128
 20
164.7956
  0
SEQEND
  0
POLYLINE
  8
LAYER_1
 40
0.0847
 41
0.0847
 66
1
 10
0
 20
0
 30
0
  0
VERTEX
  8
LAYER_1
 10
107.1974
 20
164.7956
  0
VERTEX
  8
LAYER_1
 10
107.2398
 20
164.7744
  0
VERTEX
  8
LAYER_1
 10
107.2609
 20
164.7744
  0
SEQEND
  0
POLYLINE
  8
LAYER_1
 40
0.0847
 41
0.0847
 66
1
 10
0
 20
0
 30
0
  0
VERTEX
  8
LAYER_1
 10
107.3456
 20
164.7744
  0
VERTEX
  8
LAYER_1
 10
107.3879
 20
164.7956
  0
VERTEX
  8
LAYER_1
 10
107.4514
 20
164.8168
  0
SEQEND
  0
POLYLINE
  8
LAYER_1
 40
0.0847
 41
0.0847
 66
1
 10
0
 20
0
 30
0
  0
VERTEX
  8
LAYER_1
 10
107.5785
 20
164.8591
  0
VERTEX
  8
LAYER_1
 10
107.6419
 20
164.8803
  0
VERTEX
  8
LAYER_1
 10
107.7054
 20
164.9014
  0
SEQEND
  0
POLYLINE
  8
LAYER_1
 40
0.0847
 41
0.0847
 66
1
 10
0
 20
0
 30
0
  0
VERTEX
  8
LAYER_1
 10
107.8325
 20
164.9649
  0
VERTEX
  8
LAYER_1
 10
107.9171
 20
165.0073
  0
VERTEX
  8
LAYER_1
 10
107.9806
 20
165.0496
  0
SEQEND
  0
POLYLINE
  8
LAYER_1
 40
0.0847
 41
0.0847
 66
1
 10
0
 20
0
 30
0
  0
VERTEX
  8
LAYER_1
 10
108.1076
 20
165.1343
  0
VERTEX
  8
LAYER_1
 10
108.1711
 20
165.1978
  0
VERTEX
  8
LAYER_1
 10
108.2346
 20
165.2401
  0
SEQEND
  0
POLYLINE
  8
LAYER_1
 40
0.0847
 41
0.0847
 66
1
 10
0
 20
0
 30
0
  0
VERTEX
  8
LAYER_1
 10
108.3616
 20
165.3459
  0
VERTEX
  8
LAYER_1
 10
108.4251
 20
165.4094
  0
VERTEX
  8
LAYER_1
 10
108.4886
 20
165.4518
  0
SEQEND
  0
POLYLINE
  8
LAYER_1
 40
0.0847
 41
0.0847
 66
1
 10
0
 20
0
 30
0
  0
VERTEX
  8
LAYER_1
 10
108.6156
 20
165.5788
  0
VERTEX
  8
LAYER_1
 10
108.7003
 20
165.6423
  0
VERTEX
  8
LAYER_1
 10
108.7214
 20
165.6634
  0
SEQEND
  0
POLYLINE
  8
LAYER_1
 40
0.0847
 41
0.0847
 66
1
 10
0
 20
0
 30
0
  0
VERTEX
  8
LAYER_1
 10
108.8061
 20
165.7481
  0
VERTEX
  8
LAYER_1
 10
108.8485
 20
165.7904
  0
SEQEND
  0
POLYLINE
  8
LAYER_1
 40
0.0847
 41
0.0847
 66
1
 10
0
 20
0
 30
0
  0
VERTEX
  8
LAYER_1
 10
102.4561
 20
165.7904
  0
VERTEX
  8
LAYER_1
 10
102.4561
 20
166.7429
  0
SEQEND
  0
POLYLINE
  8
LAYER_1
 40
0.0847
 41
0.0847
 66
1
 10
0
 20
0
 30
0
  0
VERTEX
  8
LAYER_1
 10
102.4561
 20
168.6479
  0
VERTEX
  8
LAYER_1
 10
102.4561
 20
170.5529
  0
SEQEND
  0
POLYLINE
  8
LAYER_1
 40
0.0847
 41
0.0847
 66
1
 10
0
 20
0
 30
0
  0
VERTEX
  8
LAYER_1
 10
102.4561
 20
172.4579
  0
VERTEX
  8
LAYER_1
 10
102.4561
 20
174.3629
  0
SEQEND
  0
POLYLINE
  8
LAYER_1
 40
0.0847
 41
0.0847
 66
1
 10
0
 20
0
 30
0
  0
VERTEX
  8
LAYER_1
 10
102.4561
 20
176.2679
  0
VERTEX
  8
LAYER_1
 10
102.4561
 20
177.2416
  0
SEQEND
  0
POLYLINE
  8
LAYER_1
 40
0.0847
 41
0.0847
 66
1
 10
0
 20
0
 30
0
  0
VERTEX
  8
LAYER_1
 10
108.8485
 20
165.7904
  0
VERTEX
  8
LAYER_1
 10
108.8485
 20
166.7429
  0
SEQEND
  0
POLYLINE
  8
LAYER_1
 40
0.0847
 41
0.0847
 66
1
 10
0
 20
0
 30
0
  0
VERTEX
  8
LAYER_1
 10
108.8485
 20
168.6479
  0
VERTEX
  8
LAYER_1
 10
108.8485
 20
170.5529
  0
SEQEND
  0
POLYLINE
  8
LAYER_1
 40
0.0847
 41
0.0847
 66
1
 10
0
 20
0
 30
0
  0
VERTEX
  8
LAYER_1
 10
108.8485
 20
172.4579
  0
VERTEX
  8
LAYER_1
 10
108.8485
 20
174.3629
  0
SEQEND
  0
POLYLINE
  8
LAYER_1
 40
0.0847
 41
0.0847
 66
1
 10
0
 20
0
 30
0
  0
VERTEX
  8
LAYER_1
 10
108.8485
 20
176.2679
  0
VERTEX
  8
LAYER_1
 10
108.8485
 20
177.2416
  0
SEQEND
  0
POLYLINE
  8
LAYER_1
 40
0.0847
 41
0.0847
 66
1
 10
0
 20
0
 30
0
  0
VERTEX
  8
LAYER_1
 10
186.9323
 20
176.8394
  0
VERTEX
  8
LAYER_1
 10
186.9323
 20
181.8559
  0
SEQEND
  0
POLYLINE
  8
LAYER_1
 40
0.0847
 41
0.0847
 66
1
 10
0
 20
0
 30
0
  0
VERTEX
  8
LAYER_1
 10
186.9323
 20
186.8513
  0
VERTEX
  8
LAYER_1
 10
186.9323
 20
191.8466
  0
SEQEND
  0
POLYLINE
  8
LAYER_1
 40
0.0847
 41
0.0847
 66
1
 10
0
 20
0
 30
0
  0
VERTEX
  8
LAYER_1
 10
186.9323
 20
181.8559
  0
VERTEX
  8
LAYER_1
 10
186.9323
 20
186.8513
  0
SEQEND
  0
POLYLINE
  8
LAYER_1
 40
0.1693
 41
0.1693
 66
1
 10
0
 20
0
 30
0
  0
VERTEX
  8
LAYER_1
 10
186.9323
 20
181.8559
  0
VERTEX
  8
LAYER_1
 10
187.3344
 20
180.3954
  0
SEQEND
  0
POLYLINE
  8
LAYER_1
 40
0.1693
 41
0.1693
 66
1
 10
0
 20
0
 30
0
  0
VERTEX
  8
LAYER_1
 10
186.9323
 20
181.8559
  0
VERTEX
  8
LAYER_1
 10
186.5513
 20
180.3954
  0
SEQEND
  0
POLYLINE
  8
LAYER_1
 40
0.1693
 41
0.1693
 66
1
 10
0
 20
0
 30
0
  0
VERTEX
  8
LAYER_1
 10
186.9323
 20
186.8513
  0
VERTEX
  8
LAYER_1
 10
186.5513
 20
188.2906
  0
SEQEND
  0
POLYLINE
  8
LAYER_1
 40
0.1693
 41
0.1693
 66
1
 10
0
 20
0
 30
0
  0
VERTEX
  8
LAYER_1
 10
186.9323
 20
186.8513
  0
VERTEX
  8
LAYER_1
 10
187.3344
 20
188.2906
  0
SEQEND
  0
POLYLINE
  8
LAYER_1
 40
0.0847
 41
0.0847
 66
1
 10
0
 20
0
 30
0
  0
VERTEX
  8
LAYER_1
 10
180.6246
 20
181.8559
  0
VERTEX
  8
LAYER_1
 10
186.9323
 20
181.8559
  0
SEQEND
  0
POLYLINE
  8
LAYER_1
 40
0.0847
 41
0.0847
 66
1
 10
0
 20
0
 30
0
  0
VERTEX
  8
LAYER_1
 10
180.6246
 20
186.8513
  0
VERTEX
  8
LAYER_1
 10
186.9323
 20
186.8513
  0
SEQEND
  0
TEXT
  8
LAYER_1
 10
186.2057
 20
182.7241
 11
186.2057
 21
182.7241
 40
3.6606
 41
0.5
 50
89.99999999
  1
25
  0
POLYLINE
  8
LAYER_1
 40
0.0847
 41
0.0847
 66
1
 10
0
 20
0
 30
0
  0
VERTEX
  8
LAYER_1
 10
97.2703
 20
181.1574
  0
VERTEX
  8
LAYER_1
 10
97.7148
 20
181.6019
  0
SEQEND
  0
POLYLINE
  8
LAYER_1
 40
0.0847
 41
0.0847
 66
1
 10
0
 20
0
 30
0
  0
VERTEX
  8
LAYER_1
 10
97.5454
 20
181.1574
  0
VERTEX
  8
LAYER_1
 10
97.9476
 20
181.5384
  0
SEQEND
  0
POLYLINE
  8
LAYER_1
 40
0.0847
 41
0.0847
 66
1
 10
0
 20
0
 30
0
  0
VERTEX
  8
LAYER_1
 10
98.2228
 20
181.8136
  0
VERTEX
  8
LAYER_1
 10
98.2439
 20
181.8559
  0
SEQEND
  0
POLYLINE
  8
LAYER_1
 40
0.0847
 41
0.0847
 66
1
 10
0
 20
0
 30
0
  0
VERTEX
  8
LAYER_1
 10
99.5139
 20
180.8399
  0
VERTEX
  8
LAYER_1
 10
99.7679
 20
181.0939
  0
SEQEND
  0
POLYLINE
  8
LAYER_1
 40
0.0847
 41
0.0847
 66
1
 10
0
 20
0
 30
0
  0
VERTEX
  8
LAYER_1
 10
99.8103
 20
181.1574
  0
VERTEX
  8
LAYER_1
 10
100.5088
 20
181.8559
  0
SEQEND
  0
POLYLINE
  8
LAYER_1
 40
0.0847
 41
0.0847
 66
1
 10
0
 20
0
 30
0
  0
VERTEX
  8
LAYER_1
 10
100.0854
 20
181.1574
  0
VERTEX
  8
LAYER_1
 10
100.7839
 20
181.8559
  0
SEQEND
  0
POLYLINE
  8
LAYER_1
 40
0.0847
 41
0.0847
 66
1
 10
0
 20
0
 30
0
  0
VERTEX
  8
LAYER_1
 10
100.3606
 20
181.1363
  0
VERTEX
  8
LAYER_1
 10
100.9533
 20
181.7289
  0
SEQEND
  0
POLYLINE
  8
LAYER_1
 40
0.0847
 41
0.0847
 66
1
 10
0
 20
0
 30
0
  0
VERTEX
  8
LAYER_1
 10
100.3606
 20
180.8611
  0
VERTEX
  8
LAYER_1
 10
100.9533
 20
181.4538
  0
SEQEND
  0
POLYLINE
  8
LAYER_1
 40
0.0847
 41
0.0847
 66
1
 10
0
 20
0
 30
0
  0
VERTEX
  8
LAYER_1
 10
110.7958
 20
180.8399
  0
VERTEX
  8
LAYER_1
 10
110.9439
 20
180.9881
  0
SEQEND
  0
POLYLINE
  8
LAYER_1
 40
0.0847
 41
0.0847
 66
1
 10
0
 20
0
 30
0
  0
VERTEX
  8
LAYER_1
 10
111.0921
 20
181.1574
  0
VERTEX
  8
LAYER_1
 10
111.7906
 20
181.8559
  0
SEQEND
  0
POLYLINE
  8
LAYER_1
 40
0.0847
 41
0.0847
 66
1
 10
0
 20
0
 30
0
  0
VERTEX
  8
LAYER_1
 10
111.3884
 20
181.1574
  0
VERTEX
  8
LAYER_1
 10
112.0869
 20
181.8559
  0
SEQEND
  0
POLYLINE
  8
LAYER_1
 40
0.0847
 41
0.0847
 66
1
 10
0
 20
0
 30
0
  0
VERTEX
  8
LAYER_1
 10
111.5366
 20
181.0304
  0
VERTEX
  8
LAYER_1
 10
112.3621
 20
181.8559
  0
SEQEND
  0
POLYLINE
  8
LAYER_1
 40
0.0847
 41
0.0847
 66
1
 10
0
 20
0
 30
0
  0
VERTEX
  8
LAYER_1
 10
112.2139
 20
180.8399
  0
VERTEX
  8
LAYER_1
 10
113.0818
 20
181.7289
  0
SEQEND
  0
POLYLINE
  8
LAYER_1
 40
0.0847
 41
0.0847
 66
1
 10
0
 20
0
 30
0
  0
VERTEX
  8
LAYER_1
 10
112.4891
 20
180.8399
  0
VERTEX
  8
LAYER_1
 10
113.1876
 20
181.5384
  0
SEQEND
  0
POLYLINE
  8
LAYER_1
 40
0.0847
 41
0.0847
 66
1
 10
0
 20
0
 30
0
  0
VERTEX
  8
LAYER_1
 10
112.7854
 20
180.8399
  0
VERTEX
  8
LAYER_1
 10
113.4839
 20
181.5384
  0
SEQEND
  0
POLYLINE
  8
LAYER_1
 40
0.0847
 41
0.0847
 66
1
 10
0
 20
0
 30
0
  0
VERTEX
  8
LAYER_1
 10
113.5898
 20
181.6654
  0
VERTEX
  8
LAYER_1
 10
113.7803
 20
181.8559
  0
SEQEND
  0
POLYLINE
  8
LAYER_1
 40
0.1693
 41
0.1693
 66
1
 10
0
 20
0
 30
0
  0
VERTEX
  8
LAYER_1
 10
101.1226
 20
177.9401
  0
VERTEX
  8
LAYER_1
 10
110.1819
 20
177.9401
  0
SEQEND
  0
POLYLINE
  8
LAYER_1
 40
0.1693
 41
0.1693
 66
1
 10
0
 20
0
 30
0
  0
VERTEX
  8
LAYER_1
 10
100.1278
 20
180.8399
  0
VERTEX
  8
LAYER_1
 10
111.1768
 20
180.8399
  0
SEQEND
  0
POLYLINE
  8
LAYER_1
 40
0.1693
 41
0.1693
 66
1
 10
0
 20
0
 30
0
  0
VERTEX
  8
LAYER_1
 10
100.1066
 20
180.8399
 42
0.3555396393
  0
VERTEX
  8
LAYER_1
 10
100.0008
 20
180.7976
  0
SEQEND
  0
POLYLINE
  8
LAYER_1
 40
0.1693
 41
0.1693
 66
1
 10
0
 20
0
 30
0
  0
VERTEX
  8
LAYER_1
 10
99.5351
 20
180.4166
  0
VERTEX
  8
LAYER_1
 10
100.0008
 20
180.7976
  0
SEQEND
  0
POLYLINE
  8
LAYER_1
 40
0.1693
 41
0.1693
 66
1
 10
0
 20
0
 30
0
  0
VERTEX
  8
LAYER_1
 10
99.5351
 20
180.3954
 42
0.233112743
  0
VERTEX
  8
LAYER_1
 10
99.4716
 20
180.2684
  0
SEQEND
  0
POLYLINE
  8
LAYER_1
 40
0.1693
 41
0.1693
 66
1
 10
0
 20
0
 30
0
  0
VERTEX
  8
LAYER_1
 10
99.4716
 20
179.7393
  0
VERTEX
  8
LAYER_1
 10
99.4716
 20
180.2473
  0
SEQEND
  0
POLYLINE
  8
LAYER_1
 40
0.1693
 41
0.1693
 66
1
 10
0
 20
0
 30
0
  0
VERTEX
  8
LAYER_1
 10
99.4716
 20
179.7393
  0
VERTEX
  8
LAYER_1
 10
111.8329
 20
179.7393
  0
VERTEX
  8
LAYER_1
 10
111.8329
 20
180.2473
  0
SEQEND
  0
POLYLINE
  8
LAYER_1
 40
0.1693
 41
0.1693
 66
1
 10
0
 20
0
 30
0
  0
VERTEX
  8
LAYER_1
 10
111.8329
 20
180.2684
 42
0.1337828565
  0
VERTEX
  8
LAYER_1
 10
111.7483
 20
180.4166
  0
SEQEND
  0
POLYLINE
  8
LAYER_1
 40
0.1693
 41
0.1693
 66
1
 10
0
 20
0
 30
0
  0
VERTEX
  8
LAYER_1
 10
111.7694
 20
180.4166
  0
VERTEX
  8
LAYER_1
 10
111.3038
 20
180.7976
  0
SEQEND
  0
POLYLINE
  8
LAYER_1
 40
0.1693
 41
0.1693
 66
1
 10
0
 20
0
 30
0
  0
VERTEX
  8
LAYER_1
 10
111.2826
 20
180.8188
  0
VERTEX
  8
LAYER_1
 10
111.1768
 20
180.8399
  0
VERTEX
  8
LAYER_1
 10
111.1556
 20
180.8399
  0
SEQEND
  0
POLYLINE
  8
LAYER_1
 40
0.1693
 41
0.1693
 66
1
 10
0
 20
0
 30
0
  0
VERTEX
  8
LAYER_1
 10
99.6621
 20
179.1466
  0
VERTEX
  8
LAYER_1
 10
111.6424
 20
179.1466
  0
SEQEND
  0
POLYLINE
  8
LAYER_1
 40
0.1693
 41
0.1693
 66
1
 10
0
 20
0
 30
0
  0
VERTEX
  8
LAYER_1
 10
101.1226
 20
177.9401
  0
VERTEX
  8
LAYER_1
 10
101.1226
 20
179.1466
  0
SEQEND
  0
POLYLINE
  8
LAYER_1
 40
0.1693
 41
0.1693
 66
1
 10
0
 20
0
 30
0
  0
VERTEX
  8
LAYER_1
 10
99.6621
 20
179.1466
  0
VERTEX
  8
LAYER_1
 10
99.6621
 20
179.7393
  0
SEQEND
  0
POLYLINE
  8
LAYER_1
 40
0.1693
 41
0.1693
 66
1
 10
0
 20
0
 30
0
  0
VERTEX
  8
LAYER_1
 10
110.1819
 20
177.9401
  0
VERTEX
  8
LAYER_1
 10
110.1819
 20
179.1466
  0
SEQEND
  0
POLYLINE
  8
LAYER_1
 40
0.1693
 41
0.1693
 66
1
 10
0
 20
0
 30
0
  0
VERTEX
  8
LAYER_1
 10
111.6424
 20
179.1466
  0
VERTEX
  8
LAYER_1
 10
111.6424
 20
179.7393
  0
SEQEND
  0
POLYLINE
  8
LAYER_1
 40
0.1693
 41
0.1693
 66
1
 10
0
 20
0
 30
0
  0
VERTEX
  8
LAYER_1
 10
102.0116
 20
177.4109
  0
VERTEX
  8
LAYER_1
 10
102.0116
 20
177.9401
  0
SEQEND
  0
POLYLINE
  8
LAYER_1
 40
0.1693
 41
0.1693
 66
1
 10
0
 20
0
 30
0
  0
VERTEX
  8
LAYER_1
 10
109.293
 20
177.4109
  0
VERTEX
  8
LAYER_1
 10
109.293
 20
177.9401
  0
SEQEND
  0
POLYLINE
  8
LAYER_1
 40
0.1693
 41
0.1693
 66
1
 10
0
 20
0
 30
0
  0
VERTEX
  8
LAYER_1
 10
101.6518
 20
177.4109
  0
VERTEX
  8
LAYER_1
 10
109.6316
 20
177.4109
  0
SEQEND
  0
POLYLINE
  8
LAYER_1
 40
0.1693
 41
0.1693
 66
1
 10
0
 20
0
 30
0
  0
VERTEX
  8
LAYER_1
 10
109.6316
 20
177.2204
  0
VERTEX
  8
LAYER_1
 10
109.6316
 20
177.4109
  0
SEQEND
  0
POLYLINE
  8
LAYER_1
 40
0.1693
 41
0.1693
 66
1
 10
0
 20
0
 30
0
  0
VERTEX
  8
LAYER_1
 10
101.6518
 20
177.2204
  0
VERTEX
  8
LAYER_1
 10
109.6316
 20
177.2204
  0
SEQEND
  0
POLYLINE
  8
LAYER_1
 40
0.1693
 41
0.1693
 66
1
 10
0
 20
0
 30
0
  0
VERTEX
  8
LAYER_1
 10
101.6518
 20
177.2204
  0
VERTEX
  8
LAYER_1
 10
101.6518
 20
177.4109
  0
SEQEND
  0
POLYLINE
  8
LAYER_1
 40
0.0847
 41
0.0847
 66
1
 10
0
 20
0
 30
0
  0
VERTEX
  8
LAYER_1
 10
100.0643
 20
180.8399
  0
VERTEX
  8
LAYER_1
 10
100.0854
 20
180.8399
  0
SEQEND
  0
POLYLINE
  8
LAYER_1
 40
0.0847
 41
0.0847
 66
1
 10
0
 20
0
 30
0
  0
VERTEX
  8
LAYER_1
 10
111.0921
 20
180.8399
  0
SEQEND
  0
POLYLINE
  8
LAYER_1
 40
0.1693
 41
0.1693
 66
1
 10
0
 20
0
 30
0
  0
VERTEX
  8
LAYER_1
 10
101.5036
 20
181.0304
  0
VERTEX
  8
LAYER_1
 10
101.7576
 20
180.8399
  0
SEQEND
  0
POLYLINE
  8
LAYER_1
 40
0.1693
 41
0.1693
 66
1
 10
0
 20
0
 30
0
  0
VERTEX
  8
LAYER_1
 10
109.4834
 20
181.0728
  0
VERTEX
  8
LAYER_1
 10
109.7586
 20
180.8399
  0
SEQEND
  0
POLYLINE
  8
LAYER_1
 40
0.1693
 41
0.1693
 66
1
 10
0
 20
0
 30
0
  0
VERTEX
  8
LAYER_1
 10
99.5563
 20
190.8306
  0
VERTEX
  8
LAYER_1
 10
111.7483
 20
190.8306
  0
SEQEND
  0
POLYLINE
  8
LAYER_1
 40
0.1693
 41
0.1693
 66
1
 10
0
 20
0
 30
0
  0
VERTEX
  8
LAYER_1
 10
99.5563
 20
190.8306
  0
VERTEX
  8
LAYER_1
 10
99.5563
 20
191.0423
  0
VERTEX
  8
LAYER_1
 10
111.7483
 20
191.0423
  0
SEQEND
  0
POLYLINE
  8
LAYER_1
 40
0.1693
 41
0.1693
 66
1
 10
0
 20
0
 30
0
  0
VERTEX
  8
LAYER_1
 10
111.7483
 20
190.8306
  0
VERTEX
  8
LAYER_1
 10
111.7483
 20
191.0423
  0
SEQEND
  0
POLYLINE
  8
LAYER_1
 40
0.0847
 41
0.0847
 66
1
 10
0
 20
0
 30
0
  0
VERTEX
  8
LAYER_1
 10
99.7679
 20
191.0423
  0
VERTEX
  8
LAYER_1
 10
99.9796
 20
190.8306
  0
SEQEND
  0
POLYLINE
  8
LAYER_1
 40
0.0847
 41
0.0847
 66
1
 10
0
 20
0
 30
0
  0
VERTEX
  8
LAYER_1
 10
111.6213
 20
191.0423
  0
VERTEX
  8
LAYER_1
 10
111.7483
 20
190.9153
  0
SEQEND
  0
POLYLINE
  8
LAYER_1
 40
0.0847
 41
0.0847
 66
1
 10
0
 20
0
 30
0
  0
VERTEX
  8
LAYER_1
 10
100.6146
 20
191.0423
  0
VERTEX
  8
LAYER_1
 10
100.8263
 20
190.8306
  0
SEQEND
  0
POLYLINE
  8
LAYER_1
 40
0.0847
 41
0.0847
 66
1
 10
0
 20
0
 30
0
  0
VERTEX
  8
LAYER_1
 10
101.4613
 20
191.0423
  0
VERTEX
  8
LAYER_1
 10
101.6729
 20
190.8306
  0
SEQEND
  0
POLYLINE
  8
LAYER_1
 40
0.0847
 41
0.0847
 66
1
 10
0
 20
0
 30
0
  0
VERTEX
  8
LAYER_1
 10
102.3079
 20
191.0423
  0
VERTEX
  8
LAYER_1
 10
102.5196
 20
190.8306
  0
SEQEND
  0
POLYLINE
  8
LAYER_1
 40
0.0847
 41
0.0847
 66
1
 10
0
 20
0
 30
0
  0
VERTEX
  8
LAYER_1
 10
103.1758
 20
191.0423
  0
VERTEX
  8
LAYER_1
 10
103.3663
 20
190.8306
  0
SEQEND
  0
POLYLINE
  8
LAYER_1
 40
0.0847
 41
0.0847
 66
1
 10
0
 20
0
 30
0
  0
VERTEX
  8
LAYER_1
 10
104.0224
 20
191.0423
  0
VERTEX
  8
LAYER_1
 10
104.2129
 20
190.8306
  0
SEQEND
  0
POLYLINE
  8
LAYER_1
 40
0.0847
 41
0.0847
 66
1
 10
0
 20
0
 30
0
  0
VERTEX
  8
LAYER_1
 10
104.8691
 20
191.0423
  0
VERTEX
  8
LAYER_1
 10
105.0596
 20
190.8306
  0
SEQEND
  0
POLYLINE
  8
LAYER_1
 40
0.0847
 41
0.0847
 66
1
 10
0
 20
0
 30
0
  0
VERTEX
  8
LAYER_1
 10
105.6946
 20
191.0423
  0
VERTEX
  8
LAYER_1
 10
105.8851
 20
190.8306
  0
SEQEND
  0
POLYLINE
  8
LAYER_1
 40
0.0847
 41
0.0847
 66
1
 10
0
 20
0
 30
0
  0
VERTEX
  8
LAYER_1
 10
106.5413
 20
191.0423
  0
VERTEX
  8
LAYER_1
 10
106.7317
 20
190.8306
  0
SEQEND
  0
POLYLINE
  8
LAYER_1
 40
0.0847
 41
0.0847
 66
1
 10
0
 20
0
 30
0
  0
VERTEX
  8
LAYER_1
 10
107.3879
 20
191.0423
  0
VERTEX
  8
LAYER_1
 10
107.5784
 20
190.8306
  0
SEQEND
  0
POLYLINE
  8
LAYER_1
 40
0.0847
 41
0.0847
 66
1
 10
0
 20
0
 30
0
  0
VERTEX
  8
LAYER_1
 10
108.2346
 20
191.0423
  0
VERTEX
  8
LAYER_1
 10
108.4251
 20
190.8306
  0
SEQEND
  0
POLYLINE
  8
LAYER_1
 40
0.0847
 41
0.0847
 66
1
 10
0
 20
0
 30
0
  0
VERTEX
  8
LAYER_1
 10
109.0812
 20
191.0423
  0
VERTEX
  8
LAYER_1
 10
109.2929
 20
190.8306
  0
SEQEND
  0
POLYLINE
  8
LAYER_1
 40
0.0847
 41
0.0847
 66
1
 10
0
 20
0
 30
0
  0
VERTEX
  8
LAYER_1
 10
109.9279
 20
191.0423
  0
VERTEX
  8
LAYER_1
 10
110.1396
 20
190.8306
  0
SEQEND
  0
POLYLINE
  8
LAYER_1
 40
0.0847
 41
0.0847
 66
1
 10
0
 20
0
 30
0
  0
VERTEX
  8
LAYER_1
 10
110.7746
 20
191.0423
  0
VERTEX
  8
LAYER_1
 10
110.9862
 20
190.8306
  0
SEQEND
  0
POLYLINE
  8
LAYER_1
 40
0.0847
 41
0.0847
 66
1
 10
0
 20
0
 30
0
  0
VERTEX
  8
LAYER_1
 10
101.1649
 20
191.0423
  0
VERTEX
  8
LAYER_1
 10
102.2867
 20
191.0423
  0
SEQEND
  0
POLYLINE
  8
LAYER_1
 40
0.0847
 41
0.0847
 66
1
 10
0
 20
0
 30
0
  0
VERTEX
  8
LAYER_1
 10
104.5304
 20
191.0423
  0
VERTEX
  8
LAYER_1
 10
106.7741
 20
191.0423
  0
SEQEND
  0
POLYLINE
  8
LAYER_1
 40
0.0847
 41
0.0847
 66
1
 10
0
 20
0
 30
0
  0
VERTEX
  8
LAYER_1
 10
109.0177
 20
191.0423
  0
VERTEX
  8
LAYER_1
 10
110.1396
 20
191.0423
  0
SEQEND
  0
POLYLINE
  8
LAYER_1
 40
0.0847
 41
0.0847
 66
1
 10
0
 20
0
 30
0
  0
VERTEX
  8
LAYER_1
 10
101.5036
 20
190.8306
  0
VERTEX
  8
LAYER_1
 10
101.5036
 20
190.8729
  0
SEQEND
  0
POLYLINE
  8
LAYER_1
 40
0.0847
 41
0.0847
 66
1
 10
0
 20
0
 30
0
  0
VERTEX
  8
LAYER_1
 10
101.5036
 20
190.9788
  0
VERTEX
  8
LAYER_1
 10
101.5036
 20
191.0423
  0
SEQEND
  0
POLYLINE
  8
LAYER_1
 40
0.0847
 41
0.0847
 66
1
 10
0
 20
0
 30
0
  0
VERTEX
  8
LAYER_1
 10
109.8009
 20
190.8306
  0
VERTEX
  8
LAYER_1
 10
109.8009
 20
190.8941
  0
SEQEND
  0
POLYLINE
  8
LAYER_1
 40
0.0847
 41
0.0847
 66
1
 10
0
 20
0
 30
0
  0
VERTEX
  8
LAYER_1
 10
109.8009
 20
190.9576
  0
VERTEX
  8
LAYER_1
 10
109.8009
 20
191.0423
  0
SEQEND
  0
POLYLINE
  8
LAYER_1
 40
0.1693
 41
0.1693
 66
1
 10
0
 20
0
 30
0
  0
VERTEX
  8
LAYER_1
 10
101.5036
 20
186.8513
  0
VERTEX
  8
LAYER_1
 10
101.5036
 20
190.4284
  0
SEQEND
  0
POLYLINE
  8
LAYER_1
 40
0.1693
 41
0.1693
 66
1
 10
0
 20
0
 30
0
  0
VERTEX
  8
LAYER_1
 10
109.8009
 20
186.8513
  0
VERTEX
  8
LAYER_1
 10
109.8009
 20
190.4284
  0
SEQEND
  0
POLYLINE
  8
LAYER_1
 40
0.0847
 41
0.0847
 66
1
 10
0
 20
0
 30
0
  0
VERTEX
  8
LAYER_1
 10
111.3461
 20
190.9364
  0
VERTEX
  8
LAYER_1
 10
150.3563
 20
192.6298
  0
SEQEND
  0
POLYLINE
  8
LAYER_1
 40
0.1693
 41
0.1693
 66
1
 10
0
 20
0
 30
0
  0
VERTEX
  8
LAYER_1
 10
113.6321
 20
189.0526
  0
VERTEX
  8
LAYER_1
 10
113.6321
 20
191.0423
  0
VERTEX
  8
LAYER_1
 10
113.8226
 20
191.0846
  0
VERTEX
  8
LAYER_1
 10
114.1401
 20
191.1481
  0
VERTEX
  8
LAYER_1
 10
114.4576
 20
191.2328
  0
VERTEX
  8
LAYER_1
 10
114.7963
 20
191.2963
  0
VERTEX
  8
LAYER_1
 10
115.1138
 20
191.3598
  0
VERTEX
  8
LAYER_1
 10
115.4313
 20
191.4233
  0
VERTEX
  8
LAYER_1
 10
115.6218
 20
191.4656
  0
VERTEX
  8
LAYER_1
 10
115.8758
 20
191.5079
  0
VERTEX
  8
LAYER_1
 10
116.2991
 20
191.5714
  0
VERTEX
  8
LAYER_1
 10
116.7436
 20
191.6349
  0
VERTEX
  8
LAYER_1
 10
117.1669
 20
191.6984
  0
VERTEX
  8
LAYER_1
 10
117.6114
 20
191.7619
  0
VERTEX
  8
LAYER_1
 10
118.0559
 20
191.8043
  0
VERTEX
  8
LAYER_1
 10
118.3311
 20
191.8466
  0
SEQEND
  0
POLYLINE
  8
LAYER_1
 40
0.1693
 41
0.1693
 66
1
 10
0
 20
0
 30
0
  0
VERTEX
  8
LAYER_1
 10
119.1143
 20
191.8678
  0
VERTEX
  8
LAYER_1
 10
118.3311
 20
191.8466
  0
SEQEND
  0
POLYLINE
  8
LAYER_1
 40
0.1693
 41
0.1693
 66
1
 10
0
 20
0
 30
0
  0
VERTEX
  8
LAYER_1
 10
119.6646
 20
191.8889
  0
VERTEX
  8
LAYER_1
 10
119.1143
 20
191.8678
  0
SEQEND
  0
POLYLINE
  8
LAYER_1
 40
0.1693
 41
0.1693
 66
1
 10
0
 20
0
 30
0
  0
VERTEX
  8
LAYER_1
 10
120.2361
 20
191.9101
  0
VERTEX
  8
LAYER_1
 10
119.6646
 20
191.8889
  0
SEQEND
  0
POLYLINE
  8
LAYER_1
 40
0.1693
 41
0.1693
 66
1
 10
0
 20
0
 30
0
  0
VERTEX
  8
LAYER_1
 10
120.8076
 20
191.9313
  0
VERTEX
  8
LAYER_1
 10
120.2361
 20
191.9101
  0
SEQEND
  0
POLYLINE
  8
LAYER_1
 40
0.1693
 41
0.1693
 66
1
 10
0
 20
0
 30
0
  0
VERTEX
  8
LAYER_1
 10
121.4003
 20
191.9313
  0
VERTEX
  8
LAYER_1
 10
120.8076
 20
191.9313
  0
SEQEND
  0
POLYLINE
  8
LAYER_1
 40
0.1693
 41
0.1693
 66
1
 10
0
 20
0
 30
0
  0
VERTEX
  8
LAYER_1
 10
121.9929
 20
191.9313
  0
VERTEX
  8
LAYER_1
 10
121.4003
 20
191.9313
  0
SEQEND
  0
POLYLINE
  8
LAYER_1
 40
0.1693
 41
0.1693
 66
1
 10
0
 20
0
 30
0
  0
VERTEX
  8
LAYER_1
 10
122.5856
 20
191.9313
  0
VERTEX
  8
LAYER_1
 10
121.9929
 20
191.9313
  0
SEQEND
  0
POLYLINE
  8
LAYER_1
 40
0.1693
 41
0.1693
 66
1
 10
0
 20
0
 30
0
  0
VERTEX
  8
LAYER_1
 10
123.1783
 20
191.9313
  0
VERTEX
  8
LAYER_1
 10
122.5856
 20
191.9313
  0
SEQEND
  0
POLYLINE
  8
LAYER_1
 40
0.1693
 41
0.1693
 66
1
 10
0
 20
0
 30
0
  0
VERTEX
  8
LAYER_1
 10
123.7921
 20
191.9101
  0
VERTEX
  8
LAYER_1
 10
123.1783
 20
191.9313
  0
SEQEND
  0
POLYLINE
  8
LAYER_1
 40
0.1693
 41
0.1693
 66
1
 10
0
 20
0
 30
0
  0
VERTEX
  8
LAYER_1
 10
124.4059
 20
191.9101
  0
VERTEX
  8
LAYER_1
 10
123.7921
 20
191.9101
  0
SEQEND
  0
POLYLINE
  8
LAYER_1
 40
0.1693
 41
0.1693
 66
1
 10
0
 20
0
 30
0
  0
VERTEX
  8
LAYER_1
 10
125.0198
 20
191.8889
  0
VERTEX
  8
LAYER_1
 10
124.4059
 20
191.9101
  0
SEQEND
  0
POLYLINE
  8
LAYER_1
 40
0.1693
 41
0.1693
 66
1
 10
0
 20
0
 30
0
  0
VERTEX
  8
LAYER_1
 10
125.6336
 20
191.8678
  0
VERTEX
  8
LAYER_1
 10
125.0197
 20
191.8889
  0
SEQEND
  0
POLYLINE
  8
LAYER_1
 40
0.1693
 41
0.1693
 66
1
 10
0
 20
0
 30
0
  0
VERTEX
  8
LAYER_1
 10
126.2474
 20
191.8678
  0
VERTEX
  8
LAYER_1
 10
125.6336
 20
191.8678
  0
SEQEND
  0
POLYLINE
  8
LAYER_1
 40
0.1693
 41
0.1693
 66
1
 10
0
 20
0
 30
0
  0
VERTEX
  8
LAYER_1
 10
126.8824
 20
191.8466
  0
VERTEX
  8
LAYER_1
 10
126.2474
 20
191.8678
  0
SEQEND
  0
POLYLINE
  8
LAYER_1
 40
0.1693
 41
0.1693
 66
1
 10
0
 20
0
 30
0
  0
VERTEX
  8
LAYER_1
 10
127.5174
 20
191.8466
  0
VERTEX
  8
LAYER_1
 10
126.8824
 20
191.8466
  0
SEQEND
  0
POLYLINE
  8
LAYER_1
 40
0.1693
 41
0.1693
 66
1
 10
0
 20
0
 30
0
  0
VERTEX
  8
LAYER_1
 10
128.1524
 20
191.8254
  0
VERTEX
  8
LAYER_1
 10
127.5174
 20
191.8466
  0
SEQEND
  0
POLYLINE
  8
LAYER_1
 40
0.1693
 41
0.1693
 66
1
 10
0
 20
0
 30
0
  0
VERTEX
  8
LAYER_1
 10
128.8086
 20
191.8254
  0
VERTEX
  8
LAYER_1
 10
128.1524
 20
191.8254
  0
SEQEND
  0
POLYLINE
  8
LAYER_1
 40
0.1693
 41
0.1693
 66
1
 10
0
 20
0
 30
0
  0
VERTEX
  8
LAYER_1
 10
129.4436
 20
191.8043
  0
VERTEX
  8
LAYER_1
 10
128.8085
 20
191.8254
  0
SEQEND
  0
POLYLINE
  8
LAYER_1
 40
0.1693
 41
0.1693
 66
1
 10
0
 20
0
 30
0
  0
VERTEX
  8
LAYER_1
 10
130.1209
 20
191.8043
  0
VERTEX
  8
LAYER_1
 10
129.4436
 20
191.8043
  0
SEQEND
  0
POLYLINE
  8
LAYER_1
 40
0.1693
 41
0.1693
 66
1
 10
0
 20
0
 30
0
  0
VERTEX
  8
LAYER_1
 10
130.7982
 20
191.8043
  0
VERTEX
  8
LAYER_1
 10
130.1209
 20
191.8043
  0
SEQEND
  0
POLYLINE
  8
LAYER_1
 40
0.1693
 41
0.1693
 66
1
 10
0
 20
0
 30
0
  0
VERTEX
  8
LAYER_1
 10
132.4069
 20
191.9313
  0
VERTEX
  8
LAYER_1
 10
130.7982
 20
191.8043
  0
SEQEND
  0
POLYLINE
  8
LAYER_1
 40
0.1693
 41
0.1693
 66
1
 10
0
 20
0
 30
0
  0
VERTEX
  8
LAYER_1
 10
134.0367
 20
192.0794
  0
VERTEX
  8
LAYER_1
 10
132.4069
 20
191.9313
  0
SEQEND
  0
POLYLINE
  8
LAYER_1
 40
0.1693
 41
0.1693
 66
1
 10
0
 20
0
 30
0
  0
VERTEX
  8
LAYER_1
 10
135.6454
 20
192.2699
  0
VERTEX
  8
LAYER_1
 10
134.0367
 20
192.0794
  0
SEQEND
  0
POLYLINE
  8
LAYER_1
 40
0.1693
 41
0.1693
 66
1
 10
0
 20
0
 30
0
  0
VERTEX
  8
LAYER_1
 10
139.2649
 20
192.7991
  0
VERTEX
  8
LAYER_1
 10
135.6454
 20
192.2699
  0
SEQEND
  0
POLYLINE
  8
LAYER_1
 40
0.1693
 41
0.1693
 66
1
 10
0
 20
0
 30
0
  0
VERTEX
  8
LAYER_1
 10
140.2386
 20
192.9896
  0
VERTEX
  8
LAYER_1
 10
139.2649
 20
192.7991
  0
SEQEND
  0
POLYLINE
  8
LAYER_1
 40
0.1693
 41
0.1693
 66
1
 10
0
 20
0
 30
0
  0
VERTEX
  8
LAYER_1
 10
141.2122
 20
193.2224
  0
VERTEX
  8
LAYER_1
 10
140.2386
 20
192.9896
  0
SEQEND
  0
POLYLINE
  8
LAYER_1
 40
0.1693
 41
0.1693
 66
1
 10
0
 20
0
 30
0
  0
VERTEX
  8
LAYER_1
 10
141.7837
 20
193.3918
  0
VERTEX
  8
LAYER_1
 10
141.2122
 20
193.2224
  0
SEQEND
  0
POLYLINE
  8
LAYER_1
 40
0.1693
 41
0.1693
 66
1
 10
0
 20
0
 30
0
  0
VERTEX
  8
LAYER_1
 10
142.3129
 20
193.5399
  0
VERTEX
  8
LAYER_1
 10
141.7837
 20
193.3918
  0
SEQEND
  0
POLYLINE
  8
LAYER_1
 40
0.1693
 41
0.1693
 66
1
 10
0
 20
0
 30
0
  0
VERTEX
  8
LAYER_1
 10
143.2231
 20
193.8363
  0
VERTEX
  8
LAYER_1
 10
142.3129
 20
193.5399
  0
SEQEND
  0
POLYLINE
  8
LAYER_1
 40
0.1693
 41
0.1693
 66
1
 10
0
 20
0
 30
0
  0
VERTEX
  8
LAYER_1
 10
144.1332
 20
194.1749
  0
VERTEX
  8
LAYER_1
 10
143.2231
 20
193.8363
  0
SEQEND
  0
POLYLINE
  8
LAYER_1
 40
0.1693
 41
0.1693
 66
1
 10
0
 20
0
 30
0
  0
VERTEX
  8
LAYER_1
 10
145.0223
 20
194.5348
  0
VERTEX
  8
LAYER_1
 10
144.1332
 20
194.1749
  0
SEQEND
  0
POLYLINE
  8
LAYER_1
 40
0.1693
 41
0.1693
 66
1
 10
0
 20
0
 30
0
  0
VERTEX
  8
LAYER_1
 10
145.9113
 20
194.9158
  0
VERTEX
  8
LAYER_1
 10
145.0223
 20
194.5348
  0
SEQEND
  0
POLYLINE
  8
LAYER_1
 40
0.1693
 41
0.1693
 66
1
 10
0
 20
0
 30
0
  0
VERTEX
  8
LAYER_1
 10
146.8003
 20
195.3391
  0
VERTEX
  8
LAYER_1
 10
145.9113
 20
194.9158
  0
SEQEND
  0
POLYLINE
  8
LAYER_1
 40
0.1693
 41
0.1693
 66
1
 10
0
 20
0
 30
0
  0
VERTEX
  8
LAYER_1
 10
147.3083
 20
195.5719
  0
VERTEX
  8
LAYER_1
 10
146.8003
 20
195.3391
  0
SEQEND
  0
POLYLINE
  8
LAYER_1
 40
0.1693
 41
0.1693
 66
1
 10
0
 20
0
 30
0
  0
VERTEX
  8
LAYER_1
 10
147.9644
 20
195.9106
  0
VERTEX
  8
LAYER_1
 10
147.3082
 20
195.5719
  0
SEQEND
  0
POLYLINE
  8
LAYER_1
 40
0.1693
 41
0.1693
 66
1
 10
0
 20
0
 30
0
  0
VERTEX
  8
LAYER_1
 10
149.0863
 20
196.5033
  0
VERTEX
  8
LAYER_1
 10
147.9644
 20
195.9106
  0
SEQEND
  0
POLYLINE
  8
LAYER_1
 40
0.1693
 41
0.1693
 66
1
 10
0
 20
0
 30
0
  0
VERTEX
  8
LAYER_1
 10
150.1658
 20
197.1383
  0
VERTEX
  8
LAYER_1
 10
149.0862
 20
196.5033
  0
SEQEND
  0
POLYLINE
  8
LAYER_1
 40
0.1693
 41
0.1693
 66
1
 10
0
 20
0
 30
0
  0
VERTEX
  8
LAYER_1
 10
151.2453
 20
197.7944
  0
VERTEX
  8
LAYER_1
 10
150.1657
 20
197.1383
  0
SEQEND
  0
POLYLINE
  8
LAYER_1
 40
0.1693
 41
0.1693
 66
1
 10
0
 20
0
 30
0
  0
VERTEX
  8
LAYER_1
 10
152.2613
 20
198.5141
  0
VERTEX
  8
LAYER_1
 10
151.2453
 20
197.7944
  0
SEQEND
  0
POLYLINE
  8
LAYER_1
 40
0.1693
 41
0.1693
 66
1
 10
0
 20
0
 30
0
  0
VERTEX
  8
LAYER_1
 10
153.2349
 20
199.2973
  0
VERTEX
  8
LAYER_1
 10
152.2613
 20
198.5141
  0
SEQEND
  0
POLYLINE
  8
LAYER_1
 40
0.1693
 41
0.1693
 66
1
 10
0
 20
0
 30
0
  0
VERTEX
  8
LAYER_1
 10
153.7853
 20
199.7629
  0
VERTEX
  8
LAYER_1
 10
153.2349
 20
199.2973
  0
SEQEND
  0
POLYLINE
  8
LAYER_1
 40
0.1693
 41
0.1693
 66
1
 10
0
 20
0
 30
0
  0
VERTEX
  8
LAYER_1
 10
154.2086
 20
200.1439
  0
VERTEX
  8
LAYER_1
 10
153.7853
 20
199.7629
  0
SEQEND
  0
POLYLINE
  8
LAYER_1
 40
0.1693
 41
0.1693
 66
1
 10
0
 20
0
 30
0
  0
VERTEX
  8
LAYER_1
 10
154.8859
 20
200.8424
  0
VERTEX
  8
LAYER_1
 10
154.2086
 20
200.1439
  0
SEQEND
  0
POLYLINE
  8
LAYER_1
 40
0.1693
 41
0.1693
 66
1
 10
0
 20
0
 30
0
  0
VERTEX
  8
LAYER_1
 10
155.5633
 20
201.5621
  0
VERTEX
  8
LAYER_1
 10
154.8859
 20
200.8424
  0
SEQEND
  0
POLYLINE
  8
LAYER_1
 40
0.1693
 41
0.1693
 66
1
 10
0
 20
0
 30
0
  0
VERTEX
  8
LAYER_1
 10
156.1983
 20
202.3029
  0
VERTEX
  8
LAYER_1
 10
155.5632
 20
201.5621
  0
SEQEND
  0
POLYLINE
  8
LAYER_1
 40
0.1693
 41
0.1693
 66
1
 10
0
 20
0
 30
0
  0
VERTEX
  8
LAYER_1
 10
156.8332
 20
203.0649
  0
VERTEX
  8
LAYER_1
 10
156.1982
 20
202.3029
  0
SEQEND
  0
POLYLINE
  8
LAYER_1
 40
0.1693
 41
0.1693
 66
1
 10
0
 20
0
 30
0
  0
VERTEX
  8
LAYER_1
 10
157.4471
 20
203.8269
  0
VERTEX
  8
LAYER_1
 10
156.8332
 20
203.0649
  0
SEQEND
  0
POLYLINE
  8
LAYER_1
 40
0.1693
 41
0.1693
 66
1
 10
0
 20
0
 30
0
  0
VERTEX
  8
LAYER_1
 10
157.8069
 20
204.2714
  0
VERTEX
  8
LAYER_1
 10
157.4471
 20
203.8269
  0
SEQEND
  0
POLYLINE
  8
LAYER_1
 40
0.1693
 41
0.1693
 66
1
 10
0
 20
0
 30
0
  0
VERTEX
  8
LAYER_1
 10
158.7806
 20
205.4356
  0
VERTEX
  8
LAYER_1
 10
157.8069
 20
204.2714
  0
SEQEND
  0
POLYLINE
  8
LAYER_1
 40
0.1693
 41
0.1693
 66
1
 10
0
 20
0
 30
0
  0
VERTEX
  8
LAYER_1
 10
159.6908
 20
206.6633
  0
VERTEX
  8
LAYER_1
 10
158.7806
 20
205.4356
  0
SEQEND
  0
POLYLINE
  8
LAYER_1
 40
0.1693
 41
0.1693
 66
1
 10
0
 20
0
 30
0
  0
VERTEX
  8
LAYER_1
 10
160.5586
 20
207.9544
  0
VERTEX
  8
LAYER_1
 10
159.6908
 20
206.6633
  0
SEQEND
  0
POLYLINE
  8
LAYER_1
 40
0.1693
 41
0.1693
 66
1
 10
0
 20
0
 30
0
  0
VERTEX
  8
LAYER_1
 10
161.3629
 20
209.3514
  0
VERTEX
  8
LAYER_1
 10
160.5586
 20
207.9544
  0
SEQEND
  0
POLYLINE
  8
LAYER_1
 40
0.1693
 41
0.1693
 66
1
 10
0
 20
0
 30
0
  0
VERTEX
  8
LAYER_1
 10
162.1038
 20
210.8331
  0
VERTEX
  8
LAYER_1
 10
161.3629
 20
209.3514
  0
SEQEND
  0
POLYLINE
  8
LAYER_1
 40
0.1693
 41
0.1693
 66
1
 10
0
 20
0
 30
0
  0
VERTEX
  8
LAYER_1
 10
162.1673
 20
211.0024
  0
VERTEX
  8
LAYER_1
 10
162.1038
 20
210.8331
  0
SEQEND
  0
POLYLINE
  8
LAYER_1
 40
0.1693
 41
0.1693
 66
1
 10
0
 20
0
 30
0
  0
VERTEX
  8
LAYER_1
 10
164.2628
 20
212.9074
  0
VERTEX
  8
LAYER_1
 10
164.2204
 20
212.9074
  0
VERTEX
  8
LAYER_1
 10
164.1781
 20
212.8863
  0
VERTEX
  8
LAYER_1
 10
164.1569
 20
212.8651
  0
VERTEX
  8
LAYER_1
 10
164.1146
 20
212.8439
  0
VERTEX
  8
LAYER_1
 10
164.0723
 20
212.8439
  0
VERTEX
  8
LAYER_1
 10
164.0299
 20
212.8228
  0
VERTEX
  8
LAYER_1
 10
163.9876
 20
212.8016
  0
VERTEX
  8
LAYER_1
 10
163.9453
 20
212.7804
  0
VERTEX
  8
LAYER_1
 10
163.9241
 20
212.7593
  0
VERTEX
  8
LAYER_1
 10
163.8818
 20
212.7381
  0
VERTEX
  8
LAYER_1
 10
163.8394
 20
212.7169
  0
VERTEX
  8
LAYER_1
 10
163.7971
 20
212.6958
  0
VERTEX
  8
LAYER_1
 10
163.7548
 20
212.6746
  0
VERTEX
  8
LAYER_1
 10
163.7124
 20
212.6534
  0
VERTEX
  8
LAYER_1
 10
163.6701
 20
212.6323
  0
VERTEX
  8
LAYER_1
 10
163.6278
 20
212.6111
  0
VERTEX
  8
LAYER_1
 10
163.6066
 20
212.5899
  0
VERTEX
  8
LAYER_1
 10
163.5643
 20
212.5688
  0
VERTEX
  8
LAYER_1
 10
163.5219
 20
212.5264
  0
VERTEX
  8
LAYER_1
 10
163.4796
 20
212.5053
  0
VERTEX
  8
LAYER_1
 10
163.4373
 20
212.4841
  0
VERTEX
  8
LAYER_1
 10
163.3949
 20
212.4418
  0
VERTEX
  8
LAYER_1
 10
163.3526
 20
212.4206
  0
VERTEX
  8
LAYER_1
 10
163.3314
 20
212.3783
  0
VERTEX
  8
LAYER_1
 10
163.2891
 20
212.3571
  0
VERTEX
  8
LAYER_1
 10
163.2468
 20
212.3359
  0
VERTEX
  8
LAYER_1
 10
163.2044
 20
212.2936
  0
VERTEX
  8
LAYER_1
 10
163.1621
 20
212.2724
  0
VERTEX
  8
LAYER_1
 10
163.1198
 20
212.2301
  0
VERTEX
  8
LAYER_1
 10
163.0986
 20
212.2089
  0
VERTEX
  8
LAYER_1
 10
163.0563
 20
212.1666
  0
VERTEX
  8
LAYER_1
 10
163.0139
 20
212.1243
  0
VERTEX
  8
LAYER_1
 10
162.9716
 20
212.1031
  0
VERTEX
  8
LAYER_1
 10
162.9504
 20
212.0608
  0
VERTEX
  8
LAYER_1
 10
162.9081
 20
212.0184
  0
VERTEX
  8
LAYER_1
 10
162.8658
 20
211.9973
  0
VERTEX
  8
LAYER_1
 10
162.8446
 20
211.9549
  0
VERTEX
  8
LAYER_1
 10
162.8023
 20
211.9126
  0
VERTEX
  8
LAYER_1
 10
162.7811
 20
211.8914
  0
VERTEX
  8
LAYER_1
 10
162.7388
 20
211.8491
  0
VERTEX
  8
LAYER_1
 10
162.6964
 20
211.8068
  0
VERTEX
  8
LAYER_1
 10
162.6753
 20
211.7856
  0
VERTEX
  8
LAYER_1
 10
162.6329
 20
211.7433
  0
VERTEX
  8
LAYER_1
 10
162.6118
 20
211.7009
  0
VERTEX
  8
LAYER_1
 10
162.5906
 20
211.6586
  0
VERTEX
  8
LAYER_1
 10
162.5483
 20
211.6374
  0
VERTEX
  8
LAYER_1
 10
162.5271
 20
211.5951
  0
VERTEX
  8
LAYER_1
 10
162.4848
 20
211.5528
  0
VERTEX
  8
LAYER_1
 10
162.4636
 20
211.5104
  0
VERTEX
  8
LAYER_1
 10
162.4424
 20
211.4681
  0
VERTEX
  8
LAYER_1
 10
162.4213
 20
211.4469
  0
VERTEX
  8
LAYER_1
 10
162.4001
 20
211.4046
  0
VERTEX
  8
LAYER_1
 10
162.3578
 20
211.3623
  0
VERTEX
  8
LAYER_1
 10
162.3366
 20
211.3199
  0
VERTEX
  8
LAYER_1
 10
162.3154
 20
211.2988
  0
VERTEX
  8
LAYER_1
 10
162.2943
 20
211.2564
  0
VERTEX
  8
LAYER_1
 10
162.2731
 20
211.2141
  0
VERTEX
  8
LAYER_1
 10
162.2519
 20
211.1718
  0
VERTEX
  8
LAYER_1
 10
162.2308
 20
211.1506
  0
VERTEX
  8
LAYER_1
 10
162.2096
 20
211.1083
  0
VERTEX
  8
LAYER_1
 10
162.2096
 20
211.0659
  0
VERTEX
  8
LAYER_1
 10
162.1884
 20
211.0236
  0
VERTEX
  8
LAYER_1
 10
162.1673
 20
211.0024
  0
SEQEND
  0
POLYLINE
  8
LAYER_1
 40
0.1693
 41
0.1693
 66
1
 10
0
 20
0
 30
0
  0
VERTEX
  8
LAYER_1
 10
164.2628
 20
212.9074
  0
VERTEX
  8
LAYER_1
 10
167.7341
 20
214.0504
  0
SEQEND
  0
POLYLINE
  8
LAYER_1
 40
0.1693
 41
0.1693
 66
1
 10
0
 20
0
 30
0
  0
VERTEX
  8
LAYER_1
 10
97.6724
 20
188.8409
  0
VERTEX
  8
LAYER_1
 10
97.6724
 20
191.0423
  0
SEQEND
  0
POLYLINE
  8
LAYER_1
 40
0.1693
 41
0.1693
 66
1
 10
0
 20
0
 30
0
  0
VERTEX
  8
LAYER_1
 10
97.6724
 20
188.8409
  0
VERTEX
  8
LAYER_1
 10
101.1649
 20
188.8409
  0
SEQEND
  0
POLYLINE
  8
LAYER_1
 40
0.1693
 41
0.1693
 66
1
 10
0
 20
0
 30
0
  0
VERTEX
  8
LAYER_1
 10
99.1541
 20
191.0423
  0
VERTEX
  8
LAYER_1
 10
101.1649
 20
188.8409
  0
SEQEND
  0
POLYLINE
  8
LAYER_1
 40
0.1693
 41
0.1693
 66
1
 10
0
 20
0
 30
0
  0
VERTEX
  8
LAYER_1
 10
113.6321
 20
191.0423
  0
VERTEX
  8
LAYER_1
 10
113.8226
 20
191.0846
  0
SEQEND
  0
POLYLINE
  8
LAYER_1
 40
0.0847
 41
0.0847
 66
1
 10
0
 20
0
 30
0
  0
VERTEX
  8
LAYER_1
 10
112.1504
 20
191.0423
  0
VERTEX
  8
LAYER_1
 10
113.6321
 20
191.0423
  0
SEQEND
  0
POLYLINE
  8
LAYER_1
 40
0.1693
 41
0.1693
 66
1
 10
0
 20
0
 30
0
  0
VERTEX
  8
LAYER_1
 10
113.6321
 20
188.8409
  0
VERTEX
  8
LAYER_1
 10
113.6321
 20
191.0423
  0
SEQEND
  0
POLYLINE
  8
LAYER_1
 40
0.1693
 41
0.1693
 66
1
 10
0
 20
0
 30
0
  0
VERTEX
  8
LAYER_1
 10
112.1504
 20
191.0423
  0
VERTEX
  8
LAYER_1
 10
110.1396
 20
188.8409
  0
SEQEND
  0
POLYLINE
  8
LAYER_1
 40
0.1693
 41
0.1693
 66
1
 10
0
 20
0
 30
0
  0
VERTEX
  8
LAYER_1
 10
116.4473
 20
187.1264
 42
0.3903408884
  0
VERTEX
  8
LAYER_1
 10
115.6853
 20
187.9096
  0
SEQEND
  0
POLYLINE
  8
LAYER_1
 40
0.1693
 41
0.1693
 66
1
 10
0
 20
0
 30
0
  0
VERTEX
  8
LAYER_1
 10
113.4416
 20
188.8409
  0
SEQEND
  0
POLYLINE
  8
LAYER_1
 40
0.1693
 41
0.1693
 66
1
 10
0
 20
0
 30
0
  0
VERTEX
  8
LAYER_1
 10
114.1613
 20
188.0366
  0
VERTEX
  8
LAYER_1
 10
115.7064
 20
187.9096
  0
SEQEND
  0
POLYLINE
  8
LAYER_1
 40
0.1693
 41
0.1693
 66
1
 10
0
 20
0
 30
0
  0
VERTEX
  8
LAYER_1
 10
113.4416
 20
188.8621
  0
VERTEX
  8
LAYER_1
 10
113.4416
 20
188.8409
 42
0.37352895
  0
VERTEX
  8
LAYER_1
 10
114.1613
 20
188.0578
  0
SEQEND
  0
POLYLINE
  8
LAYER_1
 40
0.1693
 41
0.1693
 66
1
 10
0
 20
0
 30
0
  0
VERTEX
  8
LAYER_1
 10
116.4473
 20
186.8513
  0
VERTEX
  8
LAYER_1
 10
116.4473
 20
187.1053
  0
SEQEND
  0
POLYLINE
  8
LAYER_1
 40
0.1693
 41
0.1693
 66
1
 10
0
 20
0
 30
0
  0
VERTEX
  8
LAYER_1
 10
110.1396
 20
186.8513
  0
VERTEX
  8
LAYER_1
 10
116.4473
 20
186.8513
  0
SEQEND
  0
POLYLINE
  8
LAYER_1
 40
0.0847
 41
0.0847
 66
1
 10
0
 20
0
 30
0
  0
VERTEX
  8
LAYER_1
 10
110.9439
 20
188.5446
  0
VERTEX
  8
LAYER_1
 10
111.0921
 20
188.5446
  0
SEQEND
  0
POLYLINE
  8
LAYER_1
 40
0.0847
 41
0.0847
 66
1
 10
0
 20
0
 30
0
  0
VERTEX
  8
LAYER_1
 10
111.3884
 20
188.5446
  0
VERTEX
  8
LAYER_1
 10
111.5366
 20
188.5446
  0
VERTEX
  8
LAYER_1
 10
111.5366
 20
188.6081
  0
SEQEND
  0
POLYLINE
  8
LAYER_1
 40
0.0847
 41
0.0847
 66
1
 10
0
 20
0
 30
0
  0
VERTEX
  8
LAYER_1
 10
111.5366
 20
188.7563
  0
VERTEX
  8
LAYER_1
 10
111.5366
 20
188.8409
  0
SEQEND
  0
POLYLINE
  8
LAYER_1
 40
0.0847
 41
0.0847
 66
1
 10
0
 20
0
 30
0
  0
VERTEX
  8
LAYER_1
 10
110.9439
 20
188.5446
  0
VERTEX
  8
LAYER_1
 10
110.9439
 20
188.6081
  0
SEQEND
  0
POLYLINE
  8
LAYER_1
 40
0.0847
 41
0.0847
 66
1
 10
0
 20
0
 30
0
  0
VERTEX
  8
LAYER_1
 10
110.9439
 20
188.7563
  0
VERTEX
  8
LAYER_1
 10
110.9439
 20
188.8409
  0
SEQEND
  0
POLYLINE
  8
LAYER_1
 40
0.1693
 41
0.1693
 66
1
 10
0
 20
0
 30
0
  0
VERTEX
  8
LAYER_1
 10
111.2826
 20
186.8089
  0
VERTEX
  8
LAYER_1
 10
111.1768
 20
186.8301
  0
VERTEX
  8
LAYER_1
 10
111.1556
 20
186.8301
  0
SEQEND
  0
POLYLINE
  8
LAYER_1
 40
0.0847
 41
0.0847
 66
1
 10
0
 20
0
 30
0
  0
VERTEX
  8
LAYER_1
 10
110.1396
 20
186.8513
  0
VERTEX
  8
LAYER_1
 10
110.1396
 20
187.5921
  0
SEQEND
  0
POLYLINE
  8
LAYER_1
 40
0.0847
 41
0.0847
 66
1
 10
0
 20
0
 30
0
  0
VERTEX
  8
LAYER_1
 10
110.1396
 20
188.0789
  0
VERTEX
  8
LAYER_1
 10
110.1396
 20
188.8409
  0
SEQEND
  0
POLYLINE
  8
LAYER_1
 40
0.0847
 41
0.0847
 66
1
 10
0
 20
0
 30
0
  0
VERTEX
  8
LAYER_1
 10
113.0818
 20
187.1476
  0
VERTEX
  8
LAYER_1
 10
113.5898
 20
187.1476
  0
SEQEND
  0
POLYLINE
  8
LAYER_1
 40
0.0847
 41
0.0847
 66
1
 10
0
 20
0
 30
0
  0
VERTEX
  8
LAYER_1
 10
113.5898
 20
186.8513
  0
VERTEX
  8
LAYER_1
 10
113.5898
 20
187.1476
  0
SEQEND
  0
POLYLINE
  8
LAYER_1
 40
0.0847
 41
0.0847
 66
1
 10
0
 20
0
 30
0
  0
VERTEX
  8
LAYER_1
 10
113.0818
 20
186.8513
  0
VERTEX
  8
LAYER_1
 10
113.0818
 20
187.1476
  0
SEQEND
  0
POLYLINE
  8
LAYER_1
 40
0.1693
 41
0.1693
 66
1
 10
0
 20
0
 30
0
  0
VERTEX
  8
LAYER_1
 10
110.1396
 20
188.8409
  0
VERTEX
  8
LAYER_1
 10
113.6321
 20
188.8409
  0
SEQEND
  0
POLYLINE
  8
LAYER_1
 40
0.0847
 41
0.0847
 66
1
 10
0
 20
0
 30
0
  0
VERTEX
  8
LAYER_1
 10
116.3626
 20
186.8513
  0
VERTEX
  8
LAYER_1
 10
116.4473
 20
186.9359
  0
SEQEND
  0
POLYLINE
  8
LAYER_1
 40
0.0847
 41
0.0847
 66
1
 10
0
 20
0
 30
0
  0
VERTEX
  8
LAYER_1
 10
116.0874
 20
186.8513
  0
VERTEX
  8
LAYER_1
 10
116.4261
 20
187.2111
  0
SEQEND
  0
POLYLINE
  8
LAYER_1
 40
0.0847
 41
0.0847
 66
1
 10
0
 20
0
 30
0
  0
VERTEX
  8
LAYER_1
 10
115.7911
 20
186.8513
  0
VERTEX
  8
LAYER_1
 10
116.3838
 20
187.4228
  0
SEQEND
  0
POLYLINE
  8
LAYER_1
 40
0.0847
 41
0.0847
 66
1
 10
0
 20
0
 30
0
  0
VERTEX
  8
LAYER_1
 10
115.5159
 20
186.8513
  0
VERTEX
  8
LAYER_1
 10
116.2779
 20
187.6133
  0
SEQEND
  0
POLYLINE
  8
LAYER_1
 40
0.0847
 41
0.0847
 66
1
 10
0
 20
0
 30
0
  0
VERTEX
  8
LAYER_1
 10
115.2408
 20
186.8513
  0
VERTEX
  8
LAYER_1
 10
116.1298
 20
187.7403
  0
SEQEND
  0
POLYLINE
  8
LAYER_1
 40
0.0847
 41
0.0847
 66
1
 10
0
 20
0
 30
0
  0
VERTEX
  8
LAYER_1
 10
114.9444
 20
186.8513
  0
VERTEX
  8
LAYER_1
 10
115.9604
 20
187.8461
  0
SEQEND
  0
POLYLINE
  8
LAYER_1
 40
0.0847
 41
0.0847
 66
1
 10
0
 20
0
 30
0
  0
VERTEX
  8
LAYER_1
 10
114.6693
 20
186.8513
  0
VERTEX
  8
LAYER_1
 10
115.7276
 20
187.9096
  0
SEQEND
  0
POLYLINE
  8
LAYER_1
 40
0.0847
 41
0.0847
 66
1
 10
0
 20
0
 30
0
  0
VERTEX
  8
LAYER_1
 10
114.3729
 20
186.8513
  0
VERTEX
  8
LAYER_1
 10
115.4736
 20
187.9308
  0
SEQEND
  0
POLYLINE
  8
LAYER_1
 40
0.0847
 41
0.0847
 66
1
 10
0
 20
0
 30
0
  0
VERTEX
  8
LAYER_1
 10
114.0978
 20
186.8513
  0
VERTEX
  8
LAYER_1
 10
115.1984
 20
187.9519
  0
SEQEND
  0
POLYLINE
  8
LAYER_1
 40
0.0847
 41
0.0847
 66
1
 10
0
 20
0
 30
0
  0
VERTEX
  8
LAYER_1
 10
113.8226
 20
186.8513
  0
VERTEX
  8
LAYER_1
 10
114.9444
 20
187.9731
  0
SEQEND
  0
POLYLINE
  8
LAYER_1
 40
0.0847
 41
0.0847
 66
1
 10
0
 20
0
 30
0
  0
VERTEX
  8
LAYER_1
 10
113.5263
 20
186.8513
  0
VERTEX
  8
LAYER_1
 10
114.6904
 20
187.9943
  0
SEQEND
  0
POLYLINE
  8
LAYER_1
 40
0.0847
 41
0.0847
 66
1
 10
0
 20
0
 30
0
  0
VERTEX
  8
LAYER_1
 10
113.2511
 20
186.8513
  0
VERTEX
  8
LAYER_1
 10
114.4364
 20
188.0154
  0
SEQEND
  0
POLYLINE
  8
LAYER_1
 40
0.0847
 41
0.0847
 66
1
 10
0
 20
0
 30
0
  0
VERTEX
  8
LAYER_1
 10
112.9759
 20
186.8513
  0
VERTEX
  8
LAYER_1
 10
114.1613
 20
188.0366
  0
SEQEND
  0
POLYLINE
  8
LAYER_1
 40
0.0847
 41
0.0847
 66
1
 10
0
 20
0
 30
0
  0
VERTEX
  8
LAYER_1
 10
112.6796
 20
186.8513
  0
VERTEX
  8
LAYER_1
 10
113.9496
 20
188.1001
  0
SEQEND
  0
POLYLINE
  8
LAYER_1
 40
0.0847
 41
0.0847
 66
1
 10
0
 20
0
 30
0
  0
VERTEX
  8
LAYER_1
 10
112.4044
 20
186.8513
  0
VERTEX
  8
LAYER_1
 10
113.7591
 20
188.2059
  0
SEQEND
  0
POLYLINE
  8
LAYER_1
 40
0.0847
 41
0.0847
 66
1
 10
0
 20
0
 30
0
  0
VERTEX
  8
LAYER_1
 10
112.1293
 20
186.8513
  0
VERTEX
  8
LAYER_1
 10
113.6109
 20
188.3329
  0
SEQEND
  0
POLYLINE
  8
LAYER_1
 40
0.0847
 41
0.0847
 66
1
 10
0
 20
0
 30
0
  0
VERTEX
  8
LAYER_1
 10
111.8329
 20
186.8513
  0
VERTEX
  8
LAYER_1
 10
113.5051
 20
188.5234
  0
SEQEND
  0
POLYLINE
  8
LAYER_1
 40
0.0847
 41
0.0847
 66
1
 10
0
 20
0
 30
0
  0
VERTEX
  8
LAYER_1
 10
111.5578
 20
186.8513
  0
VERTEX
  8
LAYER_1
 10
113.4416
 20
188.7351
  0
SEQEND
  0
POLYLINE
  8
LAYER_1
 40
0.0847
 41
0.0847
 66
1
 10
0
 20
0
 30
0
  0
VERTEX
  8
LAYER_1
 10
111.2615
 20
186.8513
  0
VERTEX
  8
LAYER_1
 10
113.2723
 20
188.8409
  0
SEQEND
  0
POLYLINE
  8
LAYER_1
 40
0.0847
 41
0.0847
 66
1
 10
0
 20
0
 30
0
  0
VERTEX
  8
LAYER_1
 10
110.9863
 20
186.8513
  0
VERTEX
  8
LAYER_1
 10
112.9971
 20
188.8409
  0
SEQEND
  0
POLYLINE
  8
LAYER_1
 40
0.0847
 41
0.0847
 66
1
 10
0
 20
0
 30
0
  0
VERTEX
  8
LAYER_1
 10
110.7111
 20
186.8513
  0
VERTEX
  8
LAYER_1
 10
112.7008
 20
188.8409
  0
SEQEND
  0
POLYLINE
  8
LAYER_1
 40
0.0847
 41
0.0847
 66
1
 10
0
 20
0
 30
0
  0
VERTEX
  8
LAYER_1
 10
110.4148
 20
186.8513
  0
VERTEX
  8
LAYER_1
 10
112.4256
 20
188.8409
  0
SEQEND
  0
POLYLINE
  8
LAYER_1
 40
0.0847
 41
0.0847
 66
1
 10
0
 20
0
 30
0
  0
VERTEX
  8
LAYER_1
 10
110.1396
 20
186.8513
  0
VERTEX
  8
LAYER_1
 10
112.1504
 20
188.8409
  0
SEQEND
  0
POLYLINE
  8
LAYER_1
 40
0.0847
 41
0.0847
 66
1
 10
0
 20
0
 30
0
  0
VERTEX
  8
LAYER_1
 10
110.1396
 20
187.1264
  0
VERTEX
  8
LAYER_1
 10
111.8541
 20
188.8409
  0
SEQEND
  0
POLYLINE
  8
LAYER_1
 40
0.0847
 41
0.0847
 66
1
 10
0
 20
0
 30
0
  0
VERTEX
  8
LAYER_1
 10
110.1396
 20
187.4228
  0
VERTEX
  8
LAYER_1
 10
111.5789
 20
188.8409
  0
SEQEND
  0
POLYLINE
  8
LAYER_1
 40
0.0847
 41
0.0847
 66
1
 10
0
 20
0
 30
0
  0
VERTEX
  8
LAYER_1
 10
110.1396
 20
187.6979
  0
VERTEX
  8
LAYER_1
 10
111.2826
 20
188.8409
  0
SEQEND
  0
POLYLINE
  8
LAYER_1
 40
0.0847
 41
0.0847
 66
1
 10
0
 20
0
 30
0
  0
VERTEX
  8
LAYER_1
 10
110.1396
 20
187.9731
  0
VERTEX
  8
LAYER_1
 10
111.0075
 20
188.8409
  0
SEQEND
  0
POLYLINE
  8
LAYER_1
 40
0.0847
 41
0.0847
 66
1
 10
0
 20
0
 30
0
  0
VERTEX
  8
LAYER_1
 10
110.1396
 20
188.2694
  0
VERTEX
  8
LAYER_1
 10
110.7323
 20
188.8409
  0
SEQEND
  0
POLYLINE
  8
LAYER_1
 40
0.0847
 41
0.0847
 66
1
 10
0
 20
0
 30
0
  0
VERTEX
  8
LAYER_1
 10
110.1396
 20
188.5446
  0
VERTEX
  8
LAYER_1
 10
110.436
 20
188.8409
  0
SEQEND
  0
POLYLINE
  8
LAYER_1
 40
0.0847
 41
0.0847
 66
1
 10
0
 20
0
 30
0
  0
VERTEX
  8
LAYER_1
 10
110.1396
 20
188.8198
  0
VERTEX
  8
LAYER_1
 10
110.1608
 20
188.8409
  0
SEQEND
  0
TEXT
  8
LAYER_1
 10
152.7902
 20
155.7151
 11
152.7902
 21
155.7151
 40
3.0419
 41
0.5
  1
örÉàâgâëâbâv%%c32
  0
ENDBLK
  0
BLOCK
  8
LAYER_1
  2
AIGNBL01010003
 70
64
 10
0
 20
0
 30
0
  3
AIGNBL01010003
  0
POLYLINE
  8
LAYER_1
 40
0.1693
 41
0.1693
 66
1
 10
0
 20
0
 30
0
  0
VERTEX
  8
LAYER_1
 10
43.6362
 20
106.1085
  0
VERTEX
  8
LAYER_1
 10
160.6879
 20
106.1085
  0
SEQEND
  0
TEXT
  8
LAYER_1
 10
48.1236
 20
99.6102
 11
48.1236
 21
99.6102
 40
3.1022
 41
0.5
  1
üyâZâbâgôÓùeüz
  0
TEXT
  8
LAYER_1
 10
48.1233
 20
94.5937
 11
48.1233
 21
94.5937
 40
3.6606
 41
0.5
  1
üESUS304 âXâeâôâîâX â}âEâôâeâBâôâOâfâBâXâN 5/10mmâXâyü[âTü[
  0
TEXT
  8
LAYER_1
 10
48.1233
 20
89.5983
 11
48.1233
 21
89.5983
 40
3.6606
 41
0.5
  1
üEäOâèâôâOü~2üiô¹öÆüEìò èe1üj
  0
TEXT
  8
LAYER_1
 10
47.9755
 20
69.2996
 11
47.9755
 21
69.2996
 40
3.1022
 41
0.5
  1
üªâ}âEâôâeâBâôâOâfâBâXâNé═üAÉàÉ­é╠ìéé│üEôVö┬é╠î·é¦é╔ë×éÂé─ÅÒë║ô³éÛæÍéªë┬ö\é┼éÀüB
  0
TEXT
  8
LAYER_1
 10
47.9751
 20
79.2901
 11
47.9751
 21
79.2901
 40
3.1022
 41
0.5
  1
üEâXâ`âìü[âïâpâbâLâô
  0
TEXT
  8
LAYER_1
 10
48.0599
 20
74.2947
 11
48.0599
 21
74.2947
 40
3.6606
 41
0.5
  1
üEôVö┬î┼ÆÞùp Ä¸ÄëâpâbâLâôòtì└òté½âiâbâgü~2
  0
TEXT
  8
LAYER_1
 10
126.821
 20
107.5689
 11
126.821
 21
107.5689
 40
3.6606
 41
0.5
  1
üªôVö┬î·ü@10025å@æ╬ë×
  0
TEXT
  8
LAYER_1
 10
47.9751
 20
84.2855
 11
47.9751
 21
84.2855
 40
3.6606
 41
0.5
  1
üEJORGERÉ╗ örÉàïÓï´ âNâìü[âÇâüâbâLüi70å@üj
  0
ENDBLK
  0
BLOCK
  8
LAYER_1
  2
AIGNBL01010004
 70
64
 10
0
 20
0
 30
0
  3
AIGNBL01010004
  0
INSERT
  8
LAYER_1
  2
AIGNBL01020005
 10
0
 20
0
 30
0
  0
INSERT
  8
LAYER_1
  2
AIGNBL0102000E
 10
0
 20
0
 30
0
  0
ENDBLK
  0
ENDSEC
  0
SECTION
  2
ENTITIES
  0
TEXT
  8
LAYER_1
 10
40.7785
 20
237.1057
 11
40.7785
 21
237.1057
 40
5.1558
 41
0.5
  1
Majesticüiâ}âWâFâXâeâBâbâNüjVESSELüiÆué½î^üjÉ¶û╩â{âEâï ÄµéÞòté»É}
  0
TEXT
  8
LAYER_1
 10
35.5141
 20
139.4081
 11
35.5141
 21
139.4081
 40
3.6606
 41
0.5
  1
üªÅÒïLÄµéÞòté»É}é═üASLAVIA CRYSTAL Majesticâ}âEâôâeâBâôâOâfâBâXâNâZâbâgé­ùpéóé¢éÓé╠éãé╚éÞé▄éÀüB
  0
INSERT
  8
LAYER_1
  2
AIGNBL01010002
 10
0
 20
0
 30
0
  0
INSERT
  8
LAYER_1
  2
AIGNBL01010003
 10
0
 20
0
 30
0
  0
TEXT
  8
LAYER_1
 10
186.826
 20
54.0008
 11
186.826
 21
54.0008
 40
3.3848
 41
0.5
  1
ü£TEL 0120-65-1232ü£FAX 06-6532-1580
  0
TEXT
  8
LAYER_1
 10
186.826
 20
50.4861
 11
186.826
 21
50.4861
 40
3.3848
 41
0.5
  1
hits@hiratatile.co.jp
  0
INSERT
  8
LAYER_1
  2
AIGNBL01010004
 10
0
 20
0
 30
0
  0
ENDSEC
  0
EOF
