  0
SECTION
  2
HEADER
  9
$ACADVER
  1
AC1009
  9
$LUNITS
 70
2
  9
$LUPREC
 70
4
  9
$LTSCALE
 40
1.0
  9
$EXTMIN
 10
-33.2277
 20
49.7179
 30
0
  9
$EXTMAX
 10
245.4165
 20
241.0004
 30
0
  0
ENDSEC
  0
SECTION
  2
TABLES
  0
TABLE
  2
LTYPE
 70
256
  0
ENDTAB
  0
TABLE
  2
LAYER
 70
1
  0
LAYER
  2
LAYER_1
 70
64
 62
7
  6
CONTINUOUS
  0
ENDTAB
  0
TABLE
  2
STYLE
 70
6
  0
STYLE
  2
STANDARD
 70
0
 40
0
 50
0
 71
0
 41
0
 42
0
  3
TXT
  4
BIGFONT
  0
ENDTAB
  0
ENDSEC
  0
SECTION
  2
BLOCKS
  0
BLOCK
  8
LAYER_1
  2
AIGNBL0104000F
 70
64
 10
0
 20
0
 30
0
  3
AIGNBL0104000F
  0
POLYLINE
  8
LAYER_1
 40
0.05
 41
0.05
 66
1
 10
0
 20
0
 30
0
 70
1
  0
VERTEX
  8
LAYER_1
 10
157.5551
 20
53.6067
  0
VERTEX
  8
LAYER_1
 10
157.0662
 20
52.4216
  0
VERTEX
  8
LAYER_1
 10
156.4382
 20
52.4216
  0
VERTEX
  8
LAYER_1
 10
158.0377
 20
56.1874
  0
VERTEX
  8
LAYER_1
 10
158.7709
 20
56.1874
  0
VERTEX
  8
LAYER_1
 10
160.3773
 20
52.4216
  0
VERTEX
  8
LAYER_1
 10
159.7272
 20
52.4216
  0
VERTEX
  8
LAYER_1
 10
159.2246
 20
53.6067
  0
SEQEND
  0
POLYLINE
  8
LAYER_1
 40
0.05
 41
0.05
 66
1
 10
0
 20
0
 30
0
 70
1
  0
VERTEX
  8
LAYER_1
 10
159.0988
 20
53.9856
  0
VERTEX
  8
LAYER_1
 10
158.6379
 20
55.0705
  0
VERTEX
  8
LAYER_1
 10
158.3933
 20
55.7575
  0
VERTEX
  8
LAYER_1
 10
158.3795
 20
55.7575
  0
VERTEX
  8
LAYER_1
 10
158.1418
 20
55.075
  0
VERTEX
  8
LAYER_1
 10
157.6812
 20
53.9856
  0
SEQEND
  0
ENDBLK
  0
BLOCK
  8
LAYER_1
  2
AIGNBL01040010
 70
64
 10
0
 20
0
 30
0
  3
AIGNBL01040010
  0
POLYLINE
  8
LAYER_1
 40
0.05
 41
0.05
 66
1
 10
0
 20
0
 30
0
 70
1
  0
VERTEX
  8
LAYER_1
 10
164.7426
 20
51.8683
 42
-0.01559967508
  0
VERTEX
  8
LAYER_1
 10
162.9405
 20
52.3044
  0
VERTEX
  8
LAYER_1
 10
162.6538
 20
52.3599
 42
-0.08356944747
  0
VERTEX
  8
LAYER_1
 10
161.7898
 20
52.5261
 42
-0.0975043791
  0
VERTEX
  8
LAYER_1
 10
161.1286
 20
52.932
 42
-0.2129077902
  0
VERTEX
  8
LAYER_1
 10
160.5799
 20
54.2647
 42
-0.09684612991
  0
VERTEX
  8
LAYER_1
 10
160.7245
 20
55.0381
 42
-0.2046351071
  0
VERTEX
  8
LAYER_1
 10
161.772
 20
56.0624
 42
-0.09825619238
  0
VERTEX
  8
LAYER_1
 10
162.773
 20
56.2488
 42
-0.08554836282
  0
VERTEX
  8
LAYER_1
 10
163.6416
 20
56.1075
 42
-0.1004347897
  0
VERTEX
  8
LAYER_1
 10
164.3067
 20
55.7132
 42
-0.2140895568
  0
VERTEX
  8
LAYER_1
 10
164.8821
 20
54.3433
 42
-0.09539620281
  0
VERTEX
  8
LAYER_1
 10
164.7432
 20
53.5755
 42
-0.2143310008
  0
VERTEX
  8
LAYER_1
 10
163.7204
 20
52.597
 42
-0.02339132607
  0
VERTEX
  8
LAYER_1
 10
163.5413
 20
52.5387
  0
VERTEX
  8
LAYER_1
 10
163.5413
 20
52.5163
 42
0.01711831943
  0
VERTEX
  8
LAYER_1
 10
164.9176
 20
52.2762
  0
SEQEND
  0
POLYLINE
  8
LAYER_1
 40
0.05
 41
0.05
 66
1
 10
0
 20
0
 30
0
 70
1
  0
VERTEX
  8
LAYER_1
 10
164.2399
 20
54.3219
 42
0.1071511414
  0
VERTEX
  8
LAYER_1
 10
164.0886
 20
55.0267
 42
0.2976450246
  0
VERTEX
  8
LAYER_1
 10
162.7517
 20
55.8522
 42
0.1072291499
  0
VERTEX
  8
LAYER_1
 10
162.0618
 20
55.7127
 42
0.2386106109
  0
VERTEX
  8
LAYER_1
 10
161.2749
 20
54.7071
 42
0.05752849981
  0
VERTEX
  8
LAYER_1
 10
161.2293
 20
54.2771
 42
0.218096749
  0
VERTEX
  8
LAYER_1
 10
161.7599
 20
53.0817
 42
0.1772796408
  0
VERTEX
  8
LAYER_1
 10
162.7237
 20
52.7561
 42
0.1075185771
  0
VERTEX
  8
LAYER_1
 10
163.4051
 20
52.8951
 42
0.2370926009
  0
VERTEX
  8
LAYER_1
 10
164.1922
 20
53.8947
 42
0.05601310134
  0
SEQEND
  0
ENDBLK
  0
BLOCK
  8
LAYER_1
  2
AIGNBL01040011
 70
64
 10
0
 20
0
 30
0
  3
AIGNBL01040011
  0
POLYLINE
  8
LAYER_1
 40
0.05
 41
0.05
 66
1
 10
0
 20
0
 30
0
 70
1
  0
VERTEX
  8
LAYER_1
 10
166.2095
 20
56.1874
  0
VERTEX
  8
LAYER_1
 10
166.2095
 20
53.9581
 42
0.114533087
  0
VERTEX
  8
LAYER_1
 10
166.3434
 20
53.2923
 42
0.1464774934
  0
VERTEX
  8
LAYER_1
 10
166.6938
 20
52.9071
 42
0.1362552487
  0
VERTEX
  8
LAYER_1
 10
167.3061
 20
52.7561
 42
0.1219300979
  0
VERTEX
  8
LAYER_1
 10
167.9292
 20
52.8908
 42
0.1503016186
  0
VERTEX
  8
LAYER_1
 10
168.301
 20
53.2598
 42
0.1256239276
  0
VERTEX
  8
LAYER_1
 10
168.4516
 20
53.9581
  0
VERTEX
  8
LAYER_1
 10
168.4516
 20
56.1874
  0
VERTEX
  8
LAYER_1
 10
169.0662
 20
56.1874
  0
VERTEX
  8
LAYER_1
 10
169.0662
 20
53.9915
 42
-0.09997505101
  0
VERTEX
  8
LAYER_1
 10
168.9313
 20
53.2488
 42
-0.1214984503
  0
VERTEX
  8
LAYER_1
 10
168.558
 20
52.7421
 42
-0.1106235892
  0
VERTEX
  8
LAYER_1
 10
167.9326
 20
52.4355
 42
-0.06128954947
  0
VERTEX
  8
LAYER_1
 10
167.2851
 20
52.3599
 42
-0.09418508724
  0
VERTEX
  8
LAYER_1
 10
166.4659
 20
52.498
 42
-0.2431728796
  0
VERTEX
  8
LAYER_1
 10
165.6624
 20
53.4087
 42
-0.06320085329
  0
VERTEX
  8
LAYER_1
 10
165.5949
 20
53.9695
  0
VERTEX
  8
LAYER_1
 10
165.5949
 20
56.1874
  0
SEQEND
  0
ENDBLK
  0
BLOCK
  8
LAYER_1
  2
AIGNBL01040012
 70
64
 10
0
 20
0
 30
0
  3
AIGNBL01040012
  0
POLYLINE
  8
LAYER_1
 40
0.05
 41
0.05
 66
1
 10
0
 20
0
 30
0
 70
1
  0
VERTEX
  8
LAYER_1
 10
170.8125
 20
53.6067
  0
VERTEX
  8
LAYER_1
 10
170.3233
 20
52.4216
  0
VERTEX
  8
LAYER_1
 10
169.6953
 20
52.4216
  0
VERTEX
  8
LAYER_1
 10
171.2945
 20
56.1874
  0
VERTEX
  8
LAYER_1
 10
172.0276
 20
56.1874
  0
VERTEX
  8
LAYER_1
 10
173.634
 20
52.4216
  0
VERTEX
  8
LAYER_1
 10
172.9846
 20
52.4216
  0
VERTEX
  8
LAYER_1
 10
172.482
 20
53.6067
  0
SEQEND
  0
POLYLINE
  8
LAYER_1
 40
0.05
 41
0.05
 66
1
 10
0
 20
0
 30
0
 70
1
  0
VERTEX
  8
LAYER_1
 10
172.3559
 20
53.9856
  0
VERTEX
  8
LAYER_1
 10
171.8946
 20
55.0705
  0
VERTEX
  8
LAYER_1
 10
171.65
 20
55.7575
  0
VERTEX
  8
LAYER_1
 10
171.6362
 20
55.7575
  0
VERTEX
  8
LAYER_1
 10
171.3989
 20
55.075
  0
VERTEX
  8
LAYER_1
 10
170.9379
 20
53.9856
  0
SEQEND
  0
ENDBLK
  0
BLOCK
  8
LAYER_1
  2
AIGNBL01040013
 70
64
 10
0
 20
0
 30
0
  3
AIGNBL01040013
  0
POLYLINE
  8
LAYER_1
 40
0.05
 41
0.05
 66
1
 10
0
 20
0
 30
0
 70
1
  0
VERTEX
  8
LAYER_1
 10
174.6748
 20
56.1426
 42
-0.03245981043
  0
VERTEX
  8
LAYER_1
 10
175.8416
 20
56.2157
 42
-0.08081710393
  0
VERTEX
  8
LAYER_1
 10
176.7981
 20
56.0839
 42
-0.07812211839
  0
VERTEX
  8
LAYER_1
 10
177.1615
 20
55.9029
 42
-0.2483368586
  0
VERTEX
  8
LAYER_1
 10
177.5731
 20
55.1146
 42
-0.226147
  0
VERTEX
  8
LAYER_1
 10
177.21
 20
54.3105
 42
-0.1097236176
  0
VERTEX
  8
LAYER_1
 10
176.5818
 20
53.9972
 42
-0.06566039781
  0
VERTEX
  8
LAYER_1
 10
175.7714
 20
53.8968
 42
-0.06232747682
  0
VERTEX
  8
LAYER_1
 10
175.2828
 20
53.9302
  0
VERTEX
  8
LAYER_1
 10
175.2828
 20
52.4216
  0
VERTEX
  8
LAYER_1
 10
174.6748
 20
52.4216
  0
SEQEND
  0
POLYLINE
  8
LAYER_1
 40
0.05
 41
0.05
 66
1
 10
0
 20
0
 30
0
 70
1
  0
VERTEX
  8
LAYER_1
 10
175.2828
 20
54.3271
 42
0.04202445636
  0
VERTEX
  8
LAYER_1
 10
175.7852
 20
54.2878
 42
0.1032333559
  0
VERTEX
  8
LAYER_1
 10
176.5043
 20
54.4151
 42
0.1555698608
  0
VERTEX
  8
LAYER_1
 10
176.8691
 20
54.7196
 42
0.1352698132
  0
VERTEX
  8
LAYER_1
 10
176.9661
 20
55.0922
 42
0.1736824711
  0
VERTEX
  8
LAYER_1
 10
176.8313
 20
55.4995
 42
0.151721714
  0
VERTEX
  8
LAYER_1
 10
176.4102
 20
55.759
 42
0.06880216409
  0
VERTEX
  8
LAYER_1
 10
175.8558
 20
55.8298
 42
0.06336772289
  0
VERTEX
  8
LAYER_1
 10
175.2828
 20
55.7906
  0
SEQEND
  0
ENDBLK
  0
BLOCK
  8
LAYER_1
  2
AIGNBL01040014
 70
64
 10
0
 20
0
 30
0
  3
AIGNBL01040014
  0
POLYLINE
  8
LAYER_1
 40
0.05
 41
0.05
 66
1
 10
0
 20
0
 30
0
 70
1
  0
VERTEX
  8
LAYER_1
 10
179.1252
 20
55.8856
 42
-0.276560599
  0
VERTEX
  8
LAYER_1
 10
178.9856
 20
55.6455
 42
-0.1265502936
  0
VERTEX
  8
LAYER_1
 10
178.7335
 20
55.5838
 42
-0.22367962
  0
VERTEX
  8
LAYER_1
 10
178.4232
 20
55.7162
 42
-0.1709078449
  0
VERTEX
  8
LAYER_1
 10
178.3631
 20
55.8856
 42
-0.2643879937
  0
VERTEX
  8
LAYER_1
 10
178.5125
 20
56.1327
 42
-0.1290073663
  0
VERTEX
  8
LAYER_1
 10
178.7472
 20
56.1926
 42
-0.2253241111
  0
VERTEX
  8
LAYER_1
 10
179.0641
 20
56.0619
 42
-0.1691304651
  0
SEQEND
  0
POLYLINE
  8
LAYER_1
 40
0.05
 41
0.05
 66
1
 10
0
 20
0
 30
0
 70
1
  0
VERTEX
  8
LAYER_1
 10
178.4396
 20
52.4216
  0
VERTEX
  8
LAYER_1
 10
178.4396
 20
55.1256
  0
VERTEX
  8
LAYER_1
 10
179.0542
 20
55.1256
  0
VERTEX
  8
LAYER_1
 10
179.0542
 20
52.4216
  0
SEQEND
  0
ENDBLK
  0
BLOCK
  8
LAYER_1
  2
AIGNBL01040015
 70
64
 10
0
 20
0
 30
0
  3
AIGNBL01040015
  0
POLYLINE
  8
LAYER_1
 40
0.05
 41
0.05
 66
1
 10
0
 20
0
 30
0
 70
1
  0
VERTEX
  8
LAYER_1
 10
180.9259
 20
53.6067
  0
VERTEX
  8
LAYER_1
 10
180.4377
 20
52.4216
  0
VERTEX
  8
LAYER_1
 10
179.8087
 20
52.4216
  0
VERTEX
  8
LAYER_1
 10
181.4082
 20
56.1874
  0
VERTEX
  8
LAYER_1
 10
182.142
 20
56.1874
  0
VERTEX
  8
LAYER_1
 10
183.7485
 20
52.4216
  0
VERTEX
  8
LAYER_1
 10
183.0987
 20
52.4216
  0
VERTEX
  8
LAYER_1
 10
182.5961
 20
53.6067
  0
SEQEND
  0
POLYLINE
  8
LAYER_1
 40
0.05
 41
0.05
 66
1
 10
0
 20
0
 30
0
 70
1
  0
VERTEX
  8
LAYER_1
 10
182.47
 20
53.9856
  0
VERTEX
  8
LAYER_1
 10
182.009
 20
55.0705
  0
VERTEX
  8
LAYER_1
 10
181.7651
 20
55.7575
  0
VERTEX
  8
LAYER_1
 10
181.7503
 20
55.7575
  0
VERTEX
  8
LAYER_1
 10
181.5133
 20
55.075
  0
VERTEX
  8
LAYER_1
 10
181.0523
 20
53.9856
  0
SEQEND
  0
ENDBLK
  0
BLOCK
  8
LAYER_1
  2
AIGNBL0103000E
 70
64
 10
0
 20
0
 30
0
  3
AIGNBL0103000E
  0
INSERT
  8
LAYER_1
  2
AIGNBL0104000F
 10
0
 20
0
 30
0
  0
INSERT
  8
LAYER_1
  2
AIGNBL01040010
 10
0
 20
0
 30
0
  0
INSERT
  8
LAYER_1
  2
AIGNBL01040011
 10
0
 20
0
 30
0
  0
INSERT
  8
LAYER_1
  2
AIGNBL01040012
 10
0
 20
0
 30
0
  0
INSERT
  8
LAYER_1
  2
AIGNBL01040013
 10
0
 20
0
 30
0
  0
INSERT
  8
LAYER_1
  2
AIGNBL01040014
 10
0
 20
0
 30
0
  0
INSERT
  8
LAYER_1
  2
AIGNBL01040015
 10
0
 20
0
 30
0
  0
ENDBLK
  0
BLOCK
  8
LAYER_1
  2
AIGNBL01030017
 70
64
 10
0
 20
0
 30
0
  3
AIGNBL01030017
  0
POLYLINE
  8
LAYER_1
 40
0.05
 41
0.05
 66
1
 10
0
 20
0
 30
0
 70
1
  0
VERTEX
  8
LAYER_1
 10
156.5481
 20
50.5223
  0
VERTEX
  8
LAYER_1
 10
157.1013
 20
50.5223
  0
VERTEX
  8
LAYER_1
 10
157.1013
 20
50.4286
  0
VERTEX
  8
LAYER_1
 10
156.443
 20
50.4286
  0
VERTEX
  8
LAYER_1
 10
156.443
 20
51.4618
  0
VERTEX
  8
LAYER_1
 10
157.0838
 20
51.4618
  0
VERTEX
  8
LAYER_1
 10
157.0838
 20
51.3684
  0
VERTEX
  8
LAYER_1
 10
156.5481
 20
51.3684
  0
VERTEX
  8
LAYER_1
 10
156.5481
 20
51.0139
  0
VERTEX
  8
LAYER_1
 10
157.0486
 20
51.0139
  0
VERTEX
  8
LAYER_1
 10
157.0486
 20
50.9206
  0
VERTEX
  8
LAYER_1
 10
156.5481
 20
50.9206
  0
SEQEND
  0
ENDBLK
  0
BLOCK
  8
LAYER_1
  2
AIGNBL01030018
 70
64
 10
0
 20
0
 30
0
  3
AIGNBL01030018
  0
POLYLINE
  8
LAYER_1
 40
0.05
 41
0.05
 66
1
 10
0
 20
0
 30
0
 70
1
  0
VERTEX
  8
LAYER_1
 10
158.241
 20
50.5819
  0
VERTEX
  8
LAYER_1
 10
158.2438
 20
50.5819
  0
VERTEX
  8
LAYER_1
 10
158.2438
 20
51.4618
  0
VERTEX
  8
LAYER_1
 10
158.3488
 20
51.4618
  0
VERTEX
  8
LAYER_1
 10
158.3488
 20
50.4286
  0
VERTEX
  8
LAYER_1
 10
158.2179
 20
50.4286
  0
VERTEX
  8
LAYER_1
 10
157.6168
 20
51.3174
  0
VERTEX
  8
LAYER_1
 10
157.6133
 20
51.3174
  0
VERTEX
  8
LAYER_1
 10
157.6133
 20
50.4286
  0
VERTEX
  8
LAYER_1
 10
157.5086
 20
50.4286
  0
VERTEX
  8
LAYER_1
 10
157.5086
 20
51.4618
  0
VERTEX
  8
LAYER_1
 10
157.6398
 20
51.4618
  0
SEQEND
  0
ENDBLK
  0
BLOCK
  8
LAYER_1
  2
AIGNBL01030019
 70
64
 10
0
 20
0
 30
0
  3
AIGNBL01030019
  0
POLYLINE
  8
LAYER_1
 40
0.05
 41
0.05
 66
1
 10
0
 20
0
 30
0
 70
1
  0
VERTEX
  8
LAYER_1
 10
158.8218
 20
50.6405
  0
VERTEX
  8
LAYER_1
 10
158.8763
 20
50.5375
 42
0.1809219053
  0
VERTEX
  8
LAYER_1
 10
158.9896
 20
50.4958
  0
VERTEX
  8
LAYER_1
 10
159.0788
 20
50.5154
  0
VERTEX
  8
LAYER_1
 10
159.135
 20
50.5688
  0
VERTEX
  8
LAYER_1
 10
159.1639
 20
50.6453
  0
VERTEX
  8
LAYER_1
 10
159.1722
 20
50.7349
  0
VERTEX
  8
LAYER_1
 10
159.1722
 20
51.4618
  0
VERTEX
  8
LAYER_1
 10
159.2773
 20
51.4618
  0
VERTEX
  8
LAYER_1
 10
159.2773
 20
50.7263
  0
VERTEX
  8
LAYER_1
 10
159.2659
 20
50.6184
  0
VERTEX
  8
LAYER_1
 10
159.2246
 20
50.5134
  0
VERTEX
  8
LAYER_1
 10
159.1398
 20
50.4338
  0
VERTEX
  8
LAYER_1
 10
159.001
 20
50.4024
 42
-0.1846674817
  0
VERTEX
  8
LAYER_1
 10
158.8163
 20
50.4624
 42
-0.1764563828
  0
VERTEX
  8
LAYER_1
 10
158.724
 20
50.6139
  0
SEQEND
  0
ENDBLK
  0
BLOCK
  8
LAYER_1
  2
AIGNBL0103001A
 70
64
 10
0
 20
0
 30
0
  3
AIGNBL0103001A
  0
POLYLINE
  8
LAYER_1
 40
0.05
 41
0.05
 66
1
 10
0
 20
0
 30
0
 70
1
  0
VERTEX
  8
LAYER_1
 10
160.7656
 20
50.9454
 42
-0.103587114
  0
VERTEX
  8
LAYER_1
 10
160.7246
 20
50.728
 42
-0.1000549391
  0
VERTEX
  8
LAYER_1
 10
160.6119
 20
50.5564
  0
VERTEX
  8
LAYER_1
 10
160.441
 20
50.4434
 42
-0.09506675375
  0
VERTEX
  8
LAYER_1
 10
160.2271
 20
50.4024
 42
-0.1010765979
  0
VERTEX
  8
LAYER_1
 10
160.0135
 20
50.4434
 42
-0.1005668876
  0
VERTEX
  8
LAYER_1
 10
159.8426
 20
50.5564
 42
-0.09506076213
  0
VERTEX
  8
LAYER_1
 10
159.7293
 20
50.728
 42
-0.0931359716
  0
VERTEX
  8
LAYER_1
 10
159.6886
 20
50.9454
 42
-0.1020962526
  0
VERTEX
  8
LAYER_1
 10
159.7293
 20
51.1628
 42
-0.1007559602
  0
VERTEX
  8
LAYER_1
 10
159.8426
 20
51.3343
 42
-0.09625543395
  0
VERTEX
  8
LAYER_1
 10
160.0135
 20
51.4473
 42
-0.0952064105
  0
VERTEX
  8
LAYER_1
 10
160.2271
 20
51.4883
 42
-0.101175466
  0
VERTEX
  8
LAYER_1
 10
160.441
 20
51.4473
 42
-0.09853409661
  0
VERTEX
  8
LAYER_1
 10
160.6119
 20
51.3343
 42
-0.09562840933
  0
VERTEX
  8
LAYER_1
 10
160.7246
 20
51.1628
 42
-0.09393796777
  0
SEQEND
  0
POLYLINE
  8
LAYER_1
 40
0.05
 41
0.05
 66
1
 10
0
 20
0
 30
0
 70
1
  0
VERTEX
  8
LAYER_1
 10
160.6546
 20
50.9447
  0
VERTEX
  8
LAYER_1
 10
160.6257
 20
51.1166
  0
VERTEX
  8
LAYER_1
 10
160.5409
 20
51.2599
  0
VERTEX
  8
LAYER_1
 10
160.4059
 20
51.3581
  0
VERTEX
  8
LAYER_1
 10
160.2271
 20
51.395
  0
VERTEX
  8
LAYER_1
 10
160.0483
 20
51.3581
  0
VERTEX
  8
LAYER_1
 10
159.9136
 20
51.2599
  0
VERTEX
  8
LAYER_1
 10
159.8289
 20
51.1166
  0
VERTEX
  8
LAYER_1
 10
159.7996
 20
50.9447
  0
VERTEX
  8
LAYER_1
 10
159.8289
 20
50.7728
  0
VERTEX
  8
LAYER_1
 10
159.9136
 20
50.6298
  0
VERTEX
  8
LAYER_1
 10
160.0483
 20
50.5323
 42
0.1008257054
  0
VERTEX
  8
LAYER_1
 10
160.2271
 20
50.4958
  0
VERTEX
  8
LAYER_1
 10
160.4059
 20
50.5323
  0
VERTEX
  8
LAYER_1
 10
160.5409
 20
50.6298
  0
VERTEX
  8
LAYER_1
 10
160.6257
 20
50.7728
  0
SEQEND
  0
ENDBLK
  0
BLOCK
  8
LAYER_1
  2
AIGNBL0103001B
 70
64
 10
0
 20
0
 30
0
  3
AIGNBL0103001B
  0
POLYLINE
  8
LAYER_1
 40
0.05
 41
0.05
 66
1
 10
0
 20
0
 30
0
 70
1
  0
VERTEX
  8
LAYER_1
 10
161.5404
 20
50.4286
  0
VERTEX
  8
LAYER_1
 10
161.4356
 20
50.4286
  0
VERTEX
  8
LAYER_1
 10
161.4356
 20
50.874
  0
VERTEX
  8
LAYER_1
 10
161.0488
 20
51.4618
  0
VERTEX
  8
LAYER_1
 10
161.18
 20
51.4618
  0
VERTEX
  8
LAYER_1
 10
161.4911
 20
50.9616
  0
VERTEX
  8
LAYER_1
 10
161.8046
 20
51.4618
  0
VERTEX
  8
LAYER_1
 10
161.9269
 20
51.4618
  0
VERTEX
  8
LAYER_1
 10
161.5404
 20
50.874
  0
SEQEND
  0
ENDBLK
  0
BLOCK
  8
LAYER_1
  2
AIGNBL0103001C
 70
64
 10
0
 20
0
 30
0
  3
AIGNBL0103001C
  0
POLYLINE
  8
LAYER_1
 40
0.05
 41
0.05
 66
1
 10
0
 20
0
 30
0
 70
1
  0
VERTEX
  8
LAYER_1
 10
162.8319
 20
51.4618
  0
VERTEX
  8
LAYER_1
 10
163.1396
 20
51.4618
  0
VERTEX
  8
LAYER_1
 10
163.2581
 20
51.4494
  0
VERTEX
  8
LAYER_1
 10
163.3649
 20
51.407
  0
VERTEX
  8
LAYER_1
 10
163.4427
 20
51.3261
  0
VERTEX
  8
LAYER_1
 10
163.4724
 20
51.1979
 42
-0.1787887146
  0
VERTEX
  8
LAYER_1
 10
163.4224
 20
51.0556
 42
-0.1642670326
  0
VERTEX
  8
LAYER_1
 10
163.2891
 20
50.976
  0
VERTEX
  8
LAYER_1
 10
163.2891
 20
50.9733
 42
-0.1734673322
  0
VERTEX
  8
LAYER_1
 10
163.4558
 20
50.8951
 42
-0.1923137572
  0
VERTEX
  8
LAYER_1
 10
163.522
 20
50.7146
  0
VERTEX
  8
LAYER_1
 10
163.4948
 20
50.5974
  0
VERTEX
  8
LAYER_1
 10
163.4186
 20
50.5068
  0
VERTEX
  8
LAYER_1
 10
163.2977
 20
50.4493
  0
VERTEX
  8
LAYER_1
 10
163.1379
 20
50.4286
  0
VERTEX
  8
LAYER_1
 10
162.8319
 20
50.4286
  0
SEQEND
  0
POLYLINE
  8
LAYER_1
 40
0.05
 41
0.05
 66
1
 10
0
 20
0
 30
0
 70
1
  0
VERTEX
  8
LAYER_1
 10
162.937
 20
51.0094
  0
VERTEX
  8
LAYER_1
 10
163.1485
 20
51.0094
  0
VERTEX
  8
LAYER_1
 10
163.2254
 20
51.0184
  0
VERTEX
  8
LAYER_1
 10
163.2956
 20
51.048
  0
VERTEX
  8
LAYER_1
 10
163.3477
 20
51.1045
  0
VERTEX
  8
LAYER_1
 10
163.3673
 20
51.1907
  0
VERTEX
  8
LAYER_1
 10
163.3477
 20
51.2744
  0
VERTEX
  8
LAYER_1
 10
163.2946
 20
51.3305
  0
VERTEX
  8
LAYER_1
 10
163.2157
 20
51.3619
  0
VERTEX
  8
LAYER_1
 10
163.1192
 20
51.3715
  0
VERTEX
  8
LAYER_1
 10
162.937
 20
51.3715
  0
SEQEND
  0
POLYLINE
  8
LAYER_1
 40
0.05
 41
0.05
 66
1
 10
0
 20
0
 30
0
 70
1
  0
VERTEX
  8
LAYER_1
 10
162.937
 20
50.5192
  0
VERTEX
  8
LAYER_1
 10
163.1327
 20
50.5192
  0
VERTEX
  8
LAYER_1
 10
163.2412
 20
50.5302
  0
VERTEX
  8
LAYER_1
 10
163.3318
 20
50.565
  0
VERTEX
  8
LAYER_1
 10
163.3935
 20
50.6281
  0
VERTEX
  8
LAYER_1
 10
163.4169
 20
50.7208
 42
0.2554060681
  0
VERTEX
  8
LAYER_1
 10
163.3477
 20
50.873
 42
0.1380642909
  0
VERTEX
  8
LAYER_1
 10
163.1516
 20
50.9233
  0
VERTEX
  8
LAYER_1
 10
162.937
 20
50.9233
  0
SEQEND
  0
ENDBLK
  0
BLOCK
  8
LAYER_1
  2
AIGNBL0103001D
 70
64
 10
0
 20
0
 30
0
  3
AIGNBL0103001D
  0
POLYLINE
  8
LAYER_1
 40
0.05
 41
0.05
 66
1
 10
0
 20
0
 30
0
 70
1
  0
VERTEX
  8
LAYER_1
 10
163.954
 20
50.4286
  0
VERTEX
  8
LAYER_1
 10
163.8386
 20
50.4286
  0
VERTEX
  8
LAYER_1
 10
164.2854
 20
51.4618
  0
VERTEX
  8
LAYER_1
 10
164.3877
 20
51.4618
  0
VERTEX
  8
LAYER_1
 10
164.8311
 20
50.4286
  0
VERTEX
  8
LAYER_1
 10
164.7143
 20
50.4286
  0
VERTEX
  8
LAYER_1
 10
164.6003
 20
50.7001
  0
VERTEX
  8
LAYER_1
 10
164.0663
 20
50.7001
  0
SEQEND
  0
POLYLINE
  8
LAYER_1
 40
0.05
 41
0.05
 66
1
 10
0
 20
0
 30
0
 70
1
  0
VERTEX
  8
LAYER_1
 10
164.1056
 20
50.7965
  0
VERTEX
  8
LAYER_1
 10
164.561
 20
50.7965
  0
VERTEX
  8
LAYER_1
 10
164.3333
 20
51.3454
  0
SEQEND
  0
ENDBLK
  0
BLOCK
  8
LAYER_1
  2
AIGNBL0103001E
 70
64
 10
0
 20
0
 30
0
  3
AIGNBL0103001E
  0
POLYLINE
  8
LAYER_1
 40
0.05
 41
0.05
 66
1
 10
0
 20
0
 30
0
 70
1
  0
VERTEX
  8
LAYER_1
 10
165.5157
 20
50.4286
  0
VERTEX
  8
LAYER_1
 10
165.4106
 20
50.4286
  0
VERTEX
  8
LAYER_1
 10
165.4106
 20
51.3684
  0
VERTEX
  8
LAYER_1
 10
165.0644
 20
51.3684
  0
VERTEX
  8
LAYER_1
 10
165.0644
 20
51.4618
  0
VERTEX
  8
LAYER_1
 10
165.8612
 20
51.4618
  0
VERTEX
  8
LAYER_1
 10
165.8612
 20
51.3684
  0
VERTEX
  8
LAYER_1
 10
165.5157
 20
51.3684
  0
SEQEND
  0
ENDBLK
  0
BLOCK
  8
LAYER_1
  2
AIGNBL0103001F
 70
64
 10
0
 20
0
 30
0
  3
AIGNBL0103001F
  0
POLYLINE
  8
LAYER_1
 40
0.05
 41
0.05
 66
1
 10
0
 20
0
 30
0
 70
1
  0
VERTEX
  8
LAYER_1
 10
166.2174
 20
51.4618
  0
VERTEX
  8
LAYER_1
 10
166.3221
 20
51.4618
  0
VERTEX
  8
LAYER_1
 10
166.3221
 20
51.0139
  0
VERTEX
  8
LAYER_1
 10
166.8858
 20
51.0139
  0
VERTEX
  8
LAYER_1
 10
166.8858
 20
51.4618
  0
VERTEX
  8
LAYER_1
 10
166.9908
 20
51.4618
  0
VERTEX
  8
LAYER_1
 10
166.9908
 20
50.4286
  0
VERTEX
  8
LAYER_1
 10
166.8858
 20
50.4286
  0
VERTEX
  8
LAYER_1
 10
166.8858
 20
50.9178
  0
VERTEX
  8
LAYER_1
 10
166.3221
 20
50.9178
  0
VERTEX
  8
LAYER_1
 10
166.3221
 20
50.4286
  0
VERTEX
  8
LAYER_1
 10
166.2174
 20
50.4286
  0
SEQEND
  0
ENDBLK
  0
BLOCK
  8
LAYER_1
  2
AIGNBL01030020
 70
64
 10
0
 20
0
 30
0
  3
AIGNBL01030020
  0
POLYLINE
  8
LAYER_1
 40
0.05
 41
0.05
 66
1
 10
0
 20
0
 30
0
 70
1
  0
VERTEX
  8
LAYER_1
 10
167.5713
 20
50.4286
  0
VERTEX
  8
LAYER_1
 10
167.4663
 20
50.4286
  0
VERTEX
  8
LAYER_1
 10
167.4663
 20
51.4618
  0
VERTEX
  8
LAYER_1
 10
167.7701
 20
51.4618
  0
VERTEX
  8
LAYER_1
 10
167.9107
 20
51.4473
  0
VERTEX
  8
LAYER_1
 10
168.0233
 20
51.3998
  0
VERTEX
  8
LAYER_1
 10
168.0967
 20
51.3143
  0
VERTEX
  8
LAYER_1
 10
168.1229
 20
51.1862
  0
VERTEX
  8
LAYER_1
 10
168.1029
 20
51.0825
  0
VERTEX
  8
LAYER_1
 10
168.0475
 20
51.0015
  0
VERTEX
  8
LAYER_1
 10
167.9641
 20
50.9467
  0
VERTEX
  8
LAYER_1
 10
167.859
 20
50.9206
  0
VERTEX
  8
LAYER_1
 10
168.1611
 20
50.4286
  0
VERTEX
  8
LAYER_1
 10
168.0327
 20
50.4286
  0
VERTEX
  8
LAYER_1
 10
167.7467
 20
50.9116
  0
VERTEX
  8
LAYER_1
 10
167.5713
 20
50.9116
  0
SEQEND
  0
POLYLINE
  8
LAYER_1
 40
0.05
 41
0.05
 66
1
 10
0
 20
0
 30
0
 70
1
  0
VERTEX
  8
LAYER_1
 10
167.5713
 20
51.0022
  0
VERTEX
  8
LAYER_1
 10
167.7539
 20
51.0022
 42
0.1657798624
  0
VERTEX
  8
LAYER_1
 10
167.9496
 20
51.048
 42
0.2503949893
  0
VERTEX
  8
LAYER_1
 10
168.0182
 20
51.1862
  0
VERTEX
  8
LAYER_1
 10
167.9989
 20
51.272
  0
VERTEX
  8
LAYER_1
 10
167.9465
 20
51.3292
  0
VERTEX
  8
LAYER_1
 10
167.8649
 20
51.3612
  0
VERTEX
  8
LAYER_1
 10
167.7584
 20
51.3715
  0
VERTEX
  8
LAYER_1
 10
167.5713
 20
51.3715
  0
SEQEND
  0
ENDBLK
  0
BLOCK
  8
LAYER_1
  2
AIGNBL01030021
 70
64
 10
0
 20
0
 30
0
  3
AIGNBL01030021
  0
POLYLINE
  8
LAYER_1
 40
0.05
 41
0.05
 66
1
 10
0
 20
0
 30
0
 70
1
  0
VERTEX
  8
LAYER_1
 10
169.5633
 20
50.9454
 42
-0.1000954639
  0
VERTEX
  8
LAYER_1
 10
169.5227
 20
50.728
 42
-0.1001905425
  0
VERTEX
  8
LAYER_1
 10
169.4093
 20
50.5564
 42
-0.09598116796
  0
VERTEX
  8
LAYER_1
 10
169.2388
 20
50.4434
 42
-0.09506675375
  0
VERTEX
  8
LAYER_1
 10
169.0249
 20
50.4024
 42
-0.1012184087
  0
VERTEX
  8
LAYER_1
 10
168.8109
 20
50.4434
 42
-0.1000476754
  0
VERTEX
  8
LAYER_1
 10
168.6404
 20
50.5564
 42
-0.09638651026
  0
VERTEX
  8
LAYER_1
 10
168.5274
 20
50.728
 42
-0.0931359716
  0
VERTEX
  8
LAYER_1
 10
168.4867
 20
50.9454
 42
-0.1020962526
  0
VERTEX
  8
LAYER_1
 10
168.5274
 20
51.1628
 42
-0.101889112
  0
VERTEX
  8
LAYER_1
 10
168.6404
 20
51.3343
 42
-0.09563682649
  0
VERTEX
  8
LAYER_1
 10
168.8109
 20
51.4473
 42
-0.0950295922
  0
VERTEX
  8
LAYER_1
 10
169.0249
 20
51.4883
 42
-0.101175466
  0
VERTEX
  8
LAYER_1
 10
169.2388
 20
51.4473
 42
-0.101575919
  0
VERTEX
  8
LAYER_1
 10
169.4093
 20
51.3343
 42
-0.09449174073
  0
VERTEX
  8
LAYER_1
 10
169.5227
 20
51.1628
 42
-0.09273041258
  0
SEQEND
  0
POLYLINE
  8
LAYER_1
 40
0.05
 41
0.05
 66
1
 10
0
 20
0
 30
0
 70
1
  0
VERTEX
  8
LAYER_1
 10
169.4524
 20
50.9447
  0
VERTEX
  8
LAYER_1
 10
169.4231
 20
51.1166
  0
VERTEX
  8
LAYER_1
 10
169.3383
 20
51.2599
  0
VERTEX
  8
LAYER_1
 10
169.2036
 20
51.3581
  0
VERTEX
  8
LAYER_1
 10
169.0249
 20
51.395
  0
VERTEX
  8
LAYER_1
 10
168.846
 20
51.3581
  0
VERTEX
  8
LAYER_1
 10
168.711
 20
51.2599
  0
VERTEX
  8
LAYER_1
 10
168.6262
 20
51.1166
  0
VERTEX
  8
LAYER_1
 10
168.5973
 20
50.9447
  0
VERTEX
  8
LAYER_1
 10
168.6262
 20
50.7728
  0
VERTEX
  8
LAYER_1
 10
168.711
 20
50.6298
  0
VERTEX
  8
LAYER_1
 10
168.846
 20
50.5323
  0
VERTEX
  8
LAYER_1
 10
169.0249
 20
50.4958
  0
VERTEX
  8
LAYER_1
 10
169.2036
 20
50.5323
  0
VERTEX
  8
LAYER_1
 10
169.3383
 20
50.6298
  0
VERTEX
  8
LAYER_1
 10
169.4231
 20
50.7728
  0
SEQEND
  0
ENDBLK
  0
BLOCK
  8
LAYER_1
  2
AIGNBL01030022
 70
64
 10
0
 20
0
 30
0
  3
AIGNBL01030022
  0
POLYLINE
  8
LAYER_1
 40
0.05
 41
0.05
 66
1
 10
0
 20
0
 30
0
 70
1
  0
VERTEX
  8
LAYER_1
 10
171.0051
 20
50.9454
 42
-0.1041417444
  0
VERTEX
  8
LAYER_1
 10
170.9641
 20
50.728
 42
-0.1000549391
  0
VERTEX
  8
LAYER_1
 10
170.8514
 20
50.5564
 42
-0.09536478376
  0
VERTEX
  8
LAYER_1
 10
170.6805
 20
50.4434
 42
-0.09507606236
  0
VERTEX
  8
LAYER_1
 10
170.4666
 20
50.4024
 42
-0.101822328
  0
VERTEX
  8
LAYER_1
 10
170.253
 20
50.4434
 42
-0.102112669
  0
VERTEX
  8
LAYER_1
 10
170.0821
 20
50.5564
 42
-0.09442769366
  0
VERTEX
  8
LAYER_1
 10
169.9688
 20
50.728
 42
-0.0931359716
  0
VERTEX
  8
LAYER_1
 10
169.9281
 20
50.9454
 42
-0.1020962526
  0
VERTEX
  8
LAYER_1
 10
169.9688
 20
51.1628
 42
-0.1007688052
  0
VERTEX
  8
LAYER_1
 10
170.0821
 20
51.3343
 42
-0.09625543395
  0
VERTEX
  8
LAYER_1
 10
170.253
 20
51.4473
 42
-0.09528409444
  0
VERTEX
  8
LAYER_1
 10
170.4666
 20
51.4883
 42
-0.101185532
  0
VERTEX
  8
LAYER_1
 10
170.6805
 20
51.4473
 42
-0.09904343471
  0
VERTEX
  8
LAYER_1
 10
170.8514
 20
51.3343
 42
-0.09562840933
  0
VERTEX
  8
LAYER_1
 10
170.9641
 20
51.1628
 42
-0.09397287008
  0
SEQEND
  0
POLYLINE
  8
LAYER_1
 40
0.05
 41
0.05
 66
1
 10
0
 20
0
 30
0
 70
1
  0
VERTEX
  8
LAYER_1
 10
170.8941
 20
50.9447
  0
VERTEX
  8
LAYER_1
 10
170.8652
 20
51.1166
  0
VERTEX
  8
LAYER_1
 10
170.7804
 20
51.2599
  0
VERTEX
  8
LAYER_1
 10
170.6454
 20
51.3581
  0
VERTEX
  8
LAYER_1
 10
170.4666
 20
51.395
  0
VERTEX
  8
LAYER_1
 10
170.2878
 20
51.3581
  0
VERTEX
  8
LAYER_1
 10
170.1531
 20
51.2599
  0
VERTEX
  8
LAYER_1
 10
170.0684
 20
51.1166
  0
VERTEX
  8
LAYER_1
 10
170.0391
 20
50.9447
  0
VERTEX
  8
LAYER_1
 10
170.0684
 20
50.7728
  0
VERTEX
  8
LAYER_1
 10
170.1531
 20
50.6298
  0
VERTEX
  8
LAYER_1
 10
170.2878
 20
50.5323
  0
VERTEX
  8
LAYER_1
 10
170.4666
 20
50.4958
  0
VERTEX
  8
LAYER_1
 10
170.6454
 20
50.5323
  0
VERTEX
  8
LAYER_1
 10
170.7804
 20
50.6298
  0
VERTEX
  8
LAYER_1
 10
170.8652
 20
50.7728
  0
SEQEND
  0
ENDBLK
  0
BLOCK
  8
LAYER_1
  2
AIGNBL01030023
 70
64
 10
0
 20
0
 30
0
  3
AIGNBL01030023
  0
POLYLINE
  8
LAYER_1
 40
0.05
 41
0.05
 66
1
 10
0
 20
0
 30
0
 70
1
  0
VERTEX
  8
LAYER_1
 10
171.9359
 20
50.6067
  0
VERTEX
  8
LAYER_1
 10
171.9377
 20
50.6067
  0
VERTEX
  8
LAYER_1
 10
172.2832
 20
51.4618
  0
VERTEX
  8
LAYER_1
 10
172.4441
 20
51.4618
  0
VERTEX
  8
LAYER_1
 10
172.4441
 20
50.4286
  0
VERTEX
  8
LAYER_1
 10
172.3387
 20
50.4286
  0
VERTEX
  8
LAYER_1
 10
172.3387
 20
51.3261
  0
VERTEX
  8
LAYER_1
 10
172.3359
 20
51.3261
  0
VERTEX
  8
LAYER_1
 10
171.9625
 20
50.4286
  0
VERTEX
  8
LAYER_1
 10
171.907
 20
50.4286
  0
VERTEX
  8
LAYER_1
 10
171.5332
 20
51.3261
  0
VERTEX
  8
LAYER_1
 10
171.5305
 20
51.3261
  0
VERTEX
  8
LAYER_1
 10
171.5305
 20
50.4286
  0
VERTEX
  8
LAYER_1
 10
171.4254
 20
50.4286
  0
VERTEX
  8
LAYER_1
 10
171.4254
 20
51.4618
  0
VERTEX
  8
LAYER_1
 10
171.5859
 20
51.4618
  0
SEQEND
  0
ENDBLK
  0
BLOCK
  8
LAYER_1
  2
AIGNBL01030024
 70
64
 10
0
 20
0
 30
0
  3
AIGNBL01030024
  0
POLYLINE
  8
LAYER_1
 40
0.05
 41
0.05
 66
1
 10
0
 20
0
 30
0
 70
1
  0
VERTEX
  8
LAYER_1
 10
173.5906
 20
50.5223
  0
VERTEX
  8
LAYER_1
 10
174.1439
 20
50.5223
  0
VERTEX
  8
LAYER_1
 10
174.1439
 20
50.4286
  0
VERTEX
  8
LAYER_1
 10
173.4855
 20
50.4286
  0
VERTEX
  8
LAYER_1
 10
173.4855
 20
51.4618
  0
VERTEX
  8
LAYER_1
 10
174.1263
 20
51.4618
  0
VERTEX
  8
LAYER_1
 10
174.1263
 20
51.3684
  0
VERTEX
  8
LAYER_1
 10
173.5906
 20
51.3684
  0
VERTEX
  8
LAYER_1
 10
173.5906
 20
51.0139
  0
VERTEX
  8
LAYER_1
 10
174.0912
 20
51.0139
  0
VERTEX
  8
LAYER_1
 10
174.0912
 20
50.9206
  0
VERTEX
  8
LAYER_1
 10
173.5906
 20
50.9206
  0
SEQEND
  0
ENDBLK
  0
BLOCK
  8
LAYER_1
  2
AIGNBL01030025
 70
64
 10
0
 20
0
 30
0
  3
AIGNBL01030025
  0
POLYLINE
  8
LAYER_1
 40
0.05
 41
0.05
 66
1
 10
0
 20
0
 30
0
 70
1
  0
VERTEX
  8
LAYER_1
 10
174.8891
 20
51.0446
  0
VERTEX
  8
LAYER_1
 10
175.1712
 20
51.4618
  0
VERTEX
  8
LAYER_1
 10
175.2963
 20
51.4618
  0
VERTEX
  8
LAYER_1
 10
174.9538
 20
50.9702
  0
VERTEX
  8
LAYER_1
 10
175.3332
 20
50.4286
  0
VERTEX
  8
LAYER_1
 10
175.2019
 20
50.4286
  0
VERTEX
  8
LAYER_1
 10
174.8863
 20
50.8944
  0
VERTEX
  8
LAYER_1
 10
174.5728
 20
50.4286
  0
VERTEX
  8
LAYER_1
 10
174.4412
 20
50.4286
  0
VERTEX
  8
LAYER_1
 10
174.8209
 20
50.9715
  0
VERTEX
  8
LAYER_1
 10
174.475
 20
51.4618
  0
VERTEX
  8
LAYER_1
 10
174.6066
 20
51.4618
  0
SEQEND
  0
ENDBLK
  0
BLOCK
  8
LAYER_1
  2
AIGNBL01030026
 70
64
 10
0
 20
0
 30
0
  3
AIGNBL01030026
  0
POLYLINE
  8
LAYER_1
 40
0.05
 41
0.05
 66
1
 10
0
 20
0
 30
0
 70
1
  0
VERTEX
  8
LAYER_1
 10
175.6994
 20
51.4618
  0
VERTEX
  8
LAYER_1
 10
175.9915
 20
51.4618
  0
VERTEX
  8
LAYER_1
 10
176.1345
 20
51.4453
  0
VERTEX
  8
LAYER_1
 10
176.2444
 20
51.3939
  0
VERTEX
  8
LAYER_1
 10
176.3154
 20
51.3078
  0
VERTEX
  8
LAYER_1
 10
176.3398
 20
51.1862
  0
VERTEX
  8
LAYER_1
 10
176.3147
 20
51.0642
  0
VERTEX
  8
LAYER_1
 10
176.243
 20
50.9781
  0
VERTEX
  8
LAYER_1
 10
176.1321
 20
50.9264
  0
VERTEX
  8
LAYER_1
 10
175.9884
 20
50.9089
  0
VERTEX
  8
LAYER_1
 10
175.8044
 20
50.9089
  0
VERTEX
  8
LAYER_1
 10
175.8044
 20
50.4286
  0
VERTEX
  8
LAYER_1
 10
175.6994
 20
50.4286
  0
SEQEND
  0
POLYLINE
  8
LAYER_1
 40
0.05
 41
0.05
 66
1
 10
0
 20
0
 30
0
 70
1
  0
VERTEX
  8
LAYER_1
 10
175.8044
 20
50.9977
  0
VERTEX
  8
LAYER_1
 10
175.9822
 20
50.9977
 42
0.1829203509
  0
VERTEX
  8
LAYER_1
 10
176.1706
 20
51.0459
 42
0.2347011275
  0
VERTEX
  8
LAYER_1
 10
176.2351
 20
51.1862
 42
0.26486771
  0
VERTEX
  8
LAYER_1
 10
176.1686
 20
51.3271
 42
0.126412566
  0
VERTEX
  8
LAYER_1
 10
175.9822
 20
51.3715
  0
VERTEX
  8
LAYER_1
 10
175.8044
 20
51.3715
  0
SEQEND
  0
ENDBLK
  0
BLOCK
  8
LAYER_1
  2
AIGNBL01030027
 70
64
 10
0
 20
0
 30
0
  3
AIGNBL01030027
  0
POLYLINE
  8
LAYER_1
 40
0.05
 41
0.05
 66
1
 10
0
 20
0
 30
0
 70
1
  0
VERTEX
  8
LAYER_1
 10
176.8521
 20
50.5223
  0
VERTEX
  8
LAYER_1
 10
177.4054
 20
50.5223
  0
VERTEX
  8
LAYER_1
 10
177.4054
 20
50.4286
  0
VERTEX
  8
LAYER_1
 10
176.747
 20
50.4286
  0
VERTEX
  8
LAYER_1
 10
176.747
 20
51.4618
  0
VERTEX
  8
LAYER_1
 10
177.3878
 20
51.4618
  0
VERTEX
  8
LAYER_1
 10
177.3878
 20
51.3684
  0
VERTEX
  8
LAYER_1
 10
176.8521
 20
51.3684
  0
VERTEX
  8
LAYER_1
 10
176.8521
 20
51.0139
  0
VERTEX
  8
LAYER_1
 10
177.3527
 20
51.0139
  0
VERTEX
  8
LAYER_1
 10
177.3527
 20
50.9206
  0
VERTEX
  8
LAYER_1
 10
176.8521
 20
50.9206
  0
SEQEND
  0
ENDBLK
  0
BLOCK
  8
LAYER_1
  2
AIGNBL01030028
 70
64
 10
0
 20
0
 30
0
  3
AIGNBL01030028
  0
POLYLINE
  8
LAYER_1
 40
0.05
 41
0.05
 66
1
 10
0
 20
0
 30
0
 70
1
  0
VERTEX
  8
LAYER_1
 10
177.9173
 20
50.4286
  0
VERTEX
  8
LAYER_1
 10
177.8122
 20
50.4286
  0
VERTEX
  8
LAYER_1
 10
177.8122
 20
51.4618
  0
VERTEX
  8
LAYER_1
 10
178.1161
 20
51.4618
  0
VERTEX
  8
LAYER_1
 10
178.2567
 20
51.4473
  0
VERTEX
  8
LAYER_1
 10
178.3693
 20
51.3998
  0
VERTEX
  8
LAYER_1
 10
178.443
 20
51.3143
  0
VERTEX
  8
LAYER_1
 10
178.4689
 20
51.1862
  0
VERTEX
  8
LAYER_1
 10
178.4489
 20
51.0825
  0
VERTEX
  8
LAYER_1
 10
178.3934
 20
51.0015
  0
VERTEX
  8
LAYER_1
 10
178.3101
 20
50.9467
  0
VERTEX
  8
LAYER_1
 10
178.205
 20
50.9206
  0
VERTEX
  8
LAYER_1
 10
178.5071
 20
50.4286
  0
VERTEX
  8
LAYER_1
 10
178.3786
 20
50.4286
  0
VERTEX
  8
LAYER_1
 10
178.0927
 20
50.9116
  0
VERTEX
  8
LAYER_1
 10
177.9173
 20
50.9116
  0
SEQEND
  0
POLYLINE
  8
LAYER_1
 40
0.05
 41
0.05
 66
1
 10
0
 20
0
 30
0
 70
1
  0
VERTEX
  8
LAYER_1
 10
177.9173
 20
51.0022
  0
VERTEX
  8
LAYER_1
 10
178.0999
 20
51.0022
 42
0.1667734107
  0
VERTEX
  8
LAYER_1
 10
178.2956
 20
51.048
 42
0.2503091692
  0
VERTEX
  8
LAYER_1
 10
178.3641
 20
51.1862
  0
VERTEX
  8
LAYER_1
 10
178.3452
 20
51.272
  0
VERTEX
  8
LAYER_1
 10
178.2925
 20
51.3292
  0
VERTEX
  8
LAYER_1
 10
178.2108
 20
51.3612
  0
VERTEX
  8
LAYER_1
 10
178.1044
 20
51.3715
  0
VERTEX
  8
LAYER_1
 10
177.9173
 20
51.3715
  0
SEQEND
  0
ENDBLK
  0
BLOCK
  8
LAYER_1
  2
AIGNBL01030029
 70
64
 10
0
 20
0
 30
0
  3
AIGNBL01030029
  0
POLYLINE
  8
LAYER_1
 40
0.05
 41
0.05
 66
1
 10
0
 20
0
 30
0
 70
1
  0
VERTEX
  8
LAYER_1
 10
178.9929
 20
50.4286
  0
VERTEX
  8
LAYER_1
 10
178.8882
 20
50.4286
  0
VERTEX
  8
LAYER_1
 10
178.8882
 20
51.4618
  0
VERTEX
  8
LAYER_1
 10
178.9929
 20
51.4618
  0
SEQEND
  0
ENDBLK
  0
BLOCK
  8
LAYER_1
  2
AIGNBL0103002A
 70
64
 10
0
 20
0
 30
0
  3
AIGNBL0103002A
  0
POLYLINE
  8
LAYER_1
 40
0.05
 41
0.05
 66
1
 10
0
 20
0
 30
0
 70
1
  0
VERTEX
  8
LAYER_1
 10
179.5737
 20
50.5223
  0
VERTEX
  8
LAYER_1
 10
180.1267
 20
50.5223
  0
VERTEX
  8
LAYER_1
 10
180.1267
 20
50.4286
  0
VERTEX
  8
LAYER_1
 10
179.4687
 20
50.4286
  0
VERTEX
  8
LAYER_1
 10
179.4687
 20
51.4618
  0
VERTEX
  8
LAYER_1
 10
180.1094
 20
51.4618
  0
VERTEX
  8
LAYER_1
 10
180.1094
 20
51.3684
  0
VERTEX
  8
LAYER_1
 10
179.5737
 20
51.3684
  0
VERTEX
  8
LAYER_1
 10
179.5737
 20
51.0139
  0
VERTEX
  8
LAYER_1
 10
180.0743
 20
51.0139
  0
VERTEX
  8
LAYER_1
 10
180.0743
 20
50.9206
  0
VERTEX
  8
LAYER_1
 10
179.5737
 20
50.9206
  0
SEQEND
  0
ENDBLK
  0
BLOCK
  8
LAYER_1
  2
AIGNBL0103002B
 70
64
 10
0
 20
0
 30
0
  3
AIGNBL0103002B
  0
POLYLINE
  8
LAYER_1
 40
0.05
 41
0.05
 66
1
 10
0
 20
0
 30
0
 70
1
  0
VERTEX
  8
LAYER_1
 10
181.2666
 20
50.5819
  0
VERTEX
  8
LAYER_1
 10
181.2694
 20
50.5819
  0
VERTEX
  8
LAYER_1
 10
181.2694
 20
51.4618
  0
VERTEX
  8
LAYER_1
 10
181.3745
 20
51.4618
  0
VERTEX
  8
LAYER_1
 10
181.3745
 20
50.4286
  0
VERTEX
  8
LAYER_1
 10
181.2432
 20
50.4286
  0
VERTEX
  8
LAYER_1
 10
180.642
 20
51.3174
  0
VERTEX
  8
LAYER_1
 10
180.6389
 20
51.3174
  0
VERTEX
  8
LAYER_1
 10
180.6389
 20
50.4286
  0
VERTEX
  8
LAYER_1
 10
180.5339
 20
50.4286
  0
VERTEX
  8
LAYER_1
 10
180.5339
 20
51.4618
  0
VERTEX
  8
LAYER_1
 10
180.6655
 20
51.4618
  0
SEQEND
  0
ENDBLK
  0
BLOCK
  8
LAYER_1
  2
AIGNBL0103002C
 70
64
 10
0
 20
0
 30
0
  3
AIGNBL0103002C
  0
POLYLINE
  8
LAYER_1
 40
0.05
 41
0.05
 66
1
 10
0
 20
0
 30
0
 70
1
  0
VERTEX
  8
LAYER_1
 10
182.7201
 20
50.5964
  0
VERTEX
  8
LAYER_1
 10
182.6564
 20
50.522
  0
VERTEX
  8
LAYER_1
 10
182.5703
 20
50.4603
  0
VERTEX
  8
LAYER_1
 10
182.4621
 20
50.4179
  0
VERTEX
  8
LAYER_1
 10
182.3333
 20
50.4024
 42
-0.100982896
  0
VERTEX
  8
LAYER_1
 10
182.1172
 20
50.4434
 42
-0.1036559164
  0
VERTEX
  8
LAYER_1
 10
181.9467
 20
50.5564
 42
-0.09812017057
  0
VERTEX
  8
LAYER_1
 10
181.8351
 20
50.728
 42
-0.09232404316
  0
VERTEX
  8
LAYER_1
 10
181.7948
 20
50.9454
 42
-0.1039024847
  0
VERTEX
  8
LAYER_1
 10
181.8358
 20
51.1628
 42
-0.1006255151
  0
VERTEX
  8
LAYER_1
 10
181.9484
 20
51.3343
 42
-0.09509197705
  0
VERTEX
  8
LAYER_1
 10
182.1193
 20
51.4473
 42
-0.0950295922
  0
VERTEX
  8
LAYER_1
 10
182.3333
 20
51.4883
  0
VERTEX
  8
LAYER_1
 10
182.4449
 20
51.4763
  0
VERTEX
  8
LAYER_1
 10
182.5479
 20
51.4428
  0
VERTEX
  8
LAYER_1
 10
182.6354
 20
51.3912
  0
VERTEX
  8
LAYER_1
 10
182.7012
 20
51.3233
  0
VERTEX
  8
LAYER_1
 10
182.6137
 20
51.2589
  0
VERTEX
  8
LAYER_1
 10
182.5703
 20
51.3088
  0
VERTEX
  8
LAYER_1
 10
182.5069
 20
51.3526
  0
VERTEX
  8
LAYER_1
 10
182.4273
 20
51.3832
  0
VERTEX
  8
LAYER_1
 10
182.3346
 20
51.395
  0
VERTEX
  8
LAYER_1
 10
182.1544
 20
51.3584
  0
VERTEX
  8
LAYER_1
 10
182.0194
 20
51.2603
  0
VERTEX
  8
LAYER_1
 10
181.9346
 20
51.1169
  0
VERTEX
  8
LAYER_1
 10
181.9057
 20
50.9454
  0
VERTEX
  8
LAYER_1
 10
181.9357
 20
50.7738
  0
VERTEX
  8
LAYER_1
 10
182.0211
 20
50.6305
  0
VERTEX
  8
LAYER_1
 10
182.1562
 20
50.5323
 42
0.1010490553
  0
VERTEX
  8
LAYER_1
 10
182.3346
 20
50.4958
  0
VERTEX
  8
LAYER_1
 10
182.5038
 20
50.5323
 42
0.1324826472
  0
VERTEX
  8
LAYER_1
 10
182.6381
 20
50.6491
  0
SEQEND
  0
ENDBLK
  0
BLOCK
  8
LAYER_1
  2
AIGNBL0103002D
 70
64
 10
0
 20
0
 30
0
  3
AIGNBL0103002D
  0
POLYLINE
  8
LAYER_1
 40
0.05
 41
0.05
 66
1
 10
0
 20
0
 30
0
 70
1
  0
VERTEX
  8
LAYER_1
 10
183.2073
 20
50.5223
  0
VERTEX
  8
LAYER_1
 10
183.7606
 20
50.5223
  0
VERTEX
  8
LAYER_1
 10
183.7606
 20
50.4286
  0
VERTEX
  8
LAYER_1
 10
183.1022
 20
50.4286
  0
VERTEX
  8
LAYER_1
 10
183.1022
 20
51.4618
  0
VERTEX
  8
LAYER_1
 10
183.743
 20
51.4618
  0
VERTEX
  8
LAYER_1
 10
183.743
 20
51.3684
  0
VERTEX
  8
LAYER_1
 10
183.2073
 20
51.3684
  0
VERTEX
  8
LAYER_1
 10
183.2073
 20
51.0139
  0
VERTEX
  8
LAYER_1
 10
183.7078
 20
51.0139
  0
VERTEX
  8
LAYER_1
 10
183.7078
 20
50.9206
  0
VERTEX
  8
LAYER_1
 10
183.2073
 20
50.9206
  0
SEQEND
  0
ENDBLK
  0
BLOCK
  8
LAYER_1
  2
AIGNBL0102000D
 70
64
 10
0
 20
0
 30
0
  3
AIGNBL0102000D
  0
INSERT
  8
LAYER_1
  2
AIGNBL0103000E
 10
0
 20
0
 30
0
  0
ENDBLK
  0
BLOCK
  8
LAYER_1
  2
AIGNBL01020016
 70
64
 10
0
 20
0
 30
0
  3
AIGNBL01020016
  0
INSERT
  8
LAYER_1
  2
AIGNBL01030017
 10
0
 20
0
 30
0
  0
INSERT
  8
LAYER_1
  2
AIGNBL01030018
 10
0
 20
0
 30
0
  0
INSERT
  8
LAYER_1
  2
AIGNBL01030019
 10
0
 20
0
 30
0
  0
INSERT
  8
LAYER_1
  2
AIGNBL0103001A
 10
0
 20
0
 30
0
  0
INSERT
  8
LAYER_1
  2
AIGNBL0103001B
 10
0
 20
0
 30
0
  0
INSERT
  8
LAYER_1
  2
AIGNBL0103001C
 10
0
 20
0
 30
0
  0
INSERT
  8
LAYER_1
  2
AIGNBL0103001D
 10
0
 20
0
 30
0
  0
INSERT
  8
LAYER_1
  2
AIGNBL0103001E
 10
0
 20
0
 30
0
  0
INSERT
  8
LAYER_1
  2
AIGNBL0103001F
 10
0
 20
0
 30
0
  0
INSERT
  8
LAYER_1
  2
AIGNBL01030020
 10
0
 20
0
 30
0
  0
INSERT
  8
LAYER_1
  2
AIGNBL01030021
 10
0
 20
0
 30
0
  0
INSERT
  8
LAYER_1
  2
AIGNBL01030022
 10
0
 20
0
 30
0
  0
INSERT
  8
LAYER_1
  2
AIGNBL01030023
 10
0
 20
0
 30
0
  0
INSERT
  8
LAYER_1
  2
AIGNBL01030024
 10
0
 20
0
 30
0
  0
INSERT
  8
LAYER_1
  2
AIGNBL01030025
 10
0
 20
0
 30
0
  0
INSERT
  8
LAYER_1
  2
AIGNBL01030026
 10
0
 20
0
 30
0
  0
INSERT
  8
LAYER_1
  2
AIGNBL01030027
 10
0
 20
0
 30
0
  0
INSERT
  8
LAYER_1
  2
AIGNBL01030028
 10
0
 20
0
 30
0
  0
INSERT
  8
LAYER_1
  2
AIGNBL01030029
 10
0
 20
0
 30
0
  0
INSERT
  8
LAYER_1
  2
AIGNBL0103002A
 10
0
 20
0
 30
0
  0
INSERT
  8
LAYER_1
  2
AIGNBL0103002B
 10
0
 20
0
 30
0
  0
INSERT
  8
LAYER_1
  2
AIGNBL0103002C
 10
0
 20
0
 30
0
  0
INSERT
  8
LAYER_1
  2
AIGNBL0103002D
 10
0
 20
0
 30
0
  0
ENDBLK
  0
BLOCK
  8
LAYER_1
  2
AIGNBL01010002
 70
64
 10
0
 20
0
 30
0
  3
AIGNBL01010002
  0
POLYLINE
  8
LAYER_1
 40
0.05
 41
0.05
 66
1
 10
0
 20
0
 30
0
 70
1
  0
VERTEX
  8
LAYER_1
 10
99.2129
 20
194.8788
  0
VERTEX
  8
LAYER_1
 10
98.7101
 20
194.8788
  0
VERTEX
  8
LAYER_1
 10
98.7101
 20
194.5084
  0
VERTEX
  8
LAYER_1
 10
99.2129
 20
194.5084
  0
SEQEND
  0
ENDBLK
  0
BLOCK
  8
LAYER_1
  2
AIGNBL01010003
 70
64
 10
0
 20
0
 30
0
  3
AIGNBL01010003
  0
POLYLINE
  8
LAYER_1
 40
0.0847
 41
0.0847
 66
1
 10
0
 20
0
 30
0
 70
1
  0
VERTEX
  8
LAYER_1
 10
99.2129
 20
194.8788
  0
VERTEX
  8
LAYER_1
 10
98.7101
 20
194.8788
  0
VERTEX
  8
LAYER_1
 10
98.7101
 20
194.5084
  0
VERTEX
  8
LAYER_1
 10
99.2129
 20
194.5084
  0
SEQEND
  0
ENDBLK
  0
BLOCK
  8
LAYER_1
  2
AIGNBL01010004
 70
64
 10
0
 20
0
 30
0
  3
AIGNBL01010004
  0
POLYLINE
  8
LAYER_1
 40
0.05
 41
0.05
 66
1
 10
0
 20
0
 30
0
 70
1
  0
VERTEX
  8
LAYER_1
 10
95.7733
 20
192.7622
  0
VERTEX
  8
LAYER_1
 10
95.2706
 20
192.7622
  0
VERTEX
  8
LAYER_1
 10
95.2706
 20
192.3918
  0
VERTEX
  8
LAYER_1
 10
95.7733
 20
192.3918
  0
SEQEND
  0
ENDBLK
  0
BLOCK
  8
LAYER_1
  2
AIGNBL01010005
 70
64
 10
0
 20
0
 30
0
  3
AIGNBL01010005
  0
POLYLINE
  8
LAYER_1
 40
0.0847
 41
0.0847
 66
1
 10
0
 20
0
 30
0
 70
1
  0
VERTEX
  8
LAYER_1
 10
95.7733
 20
192.7622
  0
VERTEX
  8
LAYER_1
 10
95.2706
 20
192.7622
  0
VERTEX
  8
LAYER_1
 10
95.2706
 20
192.3918
  0
VERTEX
  8
LAYER_1
 10
95.7733
 20
192.3918
  0
SEQEND
  0
ENDBLK
  0
BLOCK
  8
LAYER_1
  2
AIGNBL01010006
 70
64
 10
0
 20
0
 30
0
  3
AIGNBL01010006
  0
POLYLINE
  8
LAYER_1
 40
0.05
 41
0.05
 66
1
 10
0
 20
0
 30
0
 70
1
  0
VERTEX
  8
LAYER_1
 10
112.0451
 20
194.8788
  0
VERTEX
  8
LAYER_1
 10
111.5424
 20
194.8788
  0
VERTEX
  8
LAYER_1
 10
111.5424
 20
194.5084
  0
VERTEX
  8
LAYER_1
 10
112.0451
 20
194.5084
  0
SEQEND
  0
ENDBLK
  0
BLOCK
  8
LAYER_1
  2
AIGNBL01010007
 70
64
 10
0
 20
0
 30
0
  3
AIGNBL01010007
  0
POLYLINE
  8
LAYER_1
 40
0.0847
 41
0.0847
 66
1
 10
0
 20
0
 30
0
 70
1
  0
VERTEX
  8
LAYER_1
 10
112.0451
 20
194.8788
  0
VERTEX
  8
LAYER_1
 10
111.5424
 20
194.8788
  0
VERTEX
  8
LAYER_1
 10
111.5424
 20
194.5084
  0
VERTEX
  8
LAYER_1
 10
112.0451
 20
194.5084
  0
SEQEND
  0
ENDBLK
  0
BLOCK
  8
LAYER_1
  2
AIGNBL01010008
 70
64
 10
0
 20
0
 30
0
  3
AIGNBL01010008
  0
POLYLINE
  8
LAYER_1
 40
0.05
 41
0.05
 66
1
 10
0
 20
0
 30
0
 70
1
  0
VERTEX
  8
LAYER_1
 10
115.4847
 20
192.7622
  0
VERTEX
  8
LAYER_1
 10
114.982
 20
192.7622
  0
VERTEX
  8
LAYER_1
 10
114.982
 20
192.3918
  0
VERTEX
  8
LAYER_1
 10
115.4847
 20
192.3918
  0
SEQEND
  0
ENDBLK
  0
BLOCK
  8
LAYER_1
  2
AIGNBL01010009
 70
64
 10
0
 20
0
 30
0
  3
AIGNBL01010009
  0
POLYLINE
  8
LAYER_1
 40
0.0847
 41
0.0847
 66
1
 10
0
 20
0
 30
0
 70
1
  0
VERTEX
  8
LAYER_1
 10
115.4847
 20
192.7622
  0
VERTEX
  8
LAYER_1
 10
114.982
 20
192.7622
  0
VERTEX
  8
LAYER_1
 10
114.982
 20
192.3918
  0
VERTEX
  8
LAYER_1
 10
115.4847
 20
192.3918
  0
SEQEND
  0
ENDBLK
  0
BLOCK
  8
LAYER_1
  2
AIGNBL0101000A
 70
64
 10
0
 20
0
 30
0
  3
AIGNBL0101000A
  0
POLYLINE
  8
LAYER_1
 40
0.05
 41
0.05
 66
1
 10
0
 20
0
 30
0
 70
1
  0
VERTEX
  8
LAYER_1
 10
111.6218
 20
191.7038
  0
VERTEX
  8
LAYER_1
 10
99.1335
 20
191.7038
  0
VERTEX
  8
LAYER_1
 10
99.1335
 20
191.598
  0
VERTEX
  8
LAYER_1
 10
111.6218
 20
191.598
  0
SEQEND
  0
ENDBLK
  0
BLOCK
  8
LAYER_1
  2
AIGNBL0101000B
 70
64
 10
0
 20
0
 30
0
  3
AIGNBL0101000B
  0
POLYLINE
  8
LAYER_1
 40
0.0847
 41
0.0847
 66
1
 10
0
 20
0
 30
0
 70
1
  0
VERTEX
  8
LAYER_1
 10
111.6218
 20
191.7038
  0
VERTEX
  8
LAYER_1
 10
99.1335
 20
191.7038
  0
VERTEX
  8
LAYER_1
 10
99.1335
 20
191.598
  0
VERTEX
  8
LAYER_1
 10
111.6218
 20
191.598
  0
SEQEND
  0
ENDBLK
  0
BLOCK
  8
LAYER_1
  2
AIGNBL0101000C
 70
64
 10
0
 20
0
 30
0
  3
AIGNBL0101000C
  0
INSERT
  8
LAYER_1
  2
AIGNBL0102000D
 10
0
 20
0
 30
0
  0
INSERT
  8
LAYER_1
  2
AIGNBL01020016
 10
0
 20
0
 30
0
  0
ENDBLK
  0
ENDSEC
  0
SECTION
  2
ENTITIES
  0
TEXT
  8
LAYER_1
 10
69.3799
 20
237.1057
 11
69.3799
 21
237.1057
 40
5.1558
 41
0.5
  1
Mimiüiâ~â~üj210É¶û╩â{âEâï ÄµéÞòté»É}
  0
TEXT
  8
LAYER_1
 10
45.7271
 20
135.9497
 11
45.7271
 21
135.9497
 40
3.6606
 41
0.5
  1
üªÅÒïLÄµéÞòté»É}é═üASLAVIA CRYSTAL MimiâRâôâvâèü[âgâZâbâgé­ùpéóé¢éÓé╠éãé╚éÞé▄éÀüB
  0
INSERT
  8
LAYER_1
  2
AIGNBL01010002
 10
0
 20
0
 30
0
  0
INSERT
  8
LAYER_1
  2
AIGNBL01010003
 10
0
 20
0
 30
0
  0
INSERT
  8
LAYER_1
  2
AIGNBL01010004
 10
0
 20
0
 30
0
  0
INSERT
  8
LAYER_1
  2
AIGNBL01010005
 10
0
 20
0
 30
0
  0
INSERT
  8
LAYER_1
  2
AIGNBL01010006
 10
0
 20
0
 30
0
  0
INSERT
  8
LAYER_1
  2
AIGNBL01010007
 10
0
 20
0
 30
0
  0
INSERT
  8
LAYER_1
  2
AIGNBL01010008
 10
0
 20
0
 30
0
  0
INSERT
  8
LAYER_1
  2
AIGNBL01010009
 10
0
 20
0
 30
0
  0
INSERT
  8
LAYER_1
  2
AIGNBL0101000A
 10
0
 20
0
 30
0
  0
INSERT
  8
LAYER_1
  2
AIGNBL0101000B
 10
0
 20
0
 30
0
  0
POLYLINE
  8
LAYER_1
 40
0.1693
 41
0.1693
 66
1
 10
0
 20
0
 30
0
  0
VERTEX
  8
LAYER_1
 10
29.0182
 20
114.1114
  0
VERTEX
  8
LAYER_1
 10
182.3918
 20
114.1114
  0
SEQEND
  0
TEXT
  8
LAYER_1
 10
48.4069
 20
72.8152
 11
48.4069
 21
72.8152
 40
3.1022
 41
0.5
  1
üEörÉàâgâëâbâv
  0
TEXT
  8
LAYER_1
 10
48.4069
 20
97.7921
 11
48.4069
 21
97.7921
 40
3.6606
 41
0.5
  1
üEäOâèâôâOü~2üiô¹öÆüEìò èe1üj
  0
TEXT
  8
LAYER_1
 10
48.4069
 20
102.7875
 11
48.4069
 21
102.7875
 40
3.6606
 41
0.5
  1
üESUS304 Mimi â}âEâôâeâBâôâOâfâBâXâN
  0
TEXT
  8
LAYER_1
 10
48.7455
 20
107.6348
 11
48.7455
 21
107.6348
 40
3.1022
 41
0.5
  1
üyâZâbâgôÓùeüz
  0
TEXT
  8
LAYER_1
 10
48.4069
 20
67.7991
 11
48.4069
 21
67.7991
 40
3.1022
 41
0.5
  1
üEë╗Å¤âLâââbâvâëâEâôâhüiâNâìâÇüj
  0
POLYLINE
  8
LAYER_1
 40
0.0847
 41
0.0847
 66
1
 10
0
 20
0
 30
0
  0
VERTEX
  8
LAYER_1
 10
107.5472
 20
157.2022
  0
VERTEX
  8
LAYER_1
 10
107.6266
 20
157.2022
  0
SEQEND
  0
POLYLINE
  8
LAYER_1
 40
0.0847
 41
0.0847
 66
1
 10
0
 20
0
 30
0
  0
VERTEX
  8
LAYER_1
 10
107.7854
 20
157.2551
  0
VERTEX
  8
LAYER_1
 10
107.8647
 20
157.2815
  0
SEQEND
  0
POLYLINE
  8
LAYER_1
 40
0.0847
 41
0.0847
 66
1
 10
0
 20
0
 30
0
  0
VERTEX
  8
LAYER_1
 10
107.1768
 20
157.2022
  0
VERTEX
  8
LAYER_1
 10
107.2033
 20
157.2022
  0
SEQEND
  0
POLYLINE
  8
LAYER_1
 40
0.0847
 41
0.0847
 66
1
 10
0
 20
0
 30
0
  0
VERTEX
  8
LAYER_1
 10
107.3091
 20
157.2022
  0
VERTEX
  8
LAYER_1
 10
107.362
 20
157.1757
  0
VERTEX
  8
LAYER_1
 10
107.3885
 20
157.1757
  0
SEQEND
  0
POLYLINE
  8
LAYER_1
 40
0.0847
 41
0.0847
 66
1
 10
0
 20
0
 30
0
  0
VERTEX
  8
LAYER_1
 10
107.4943
 20
157.1757
  0
VERTEX
  8
LAYER_1
 10
107.5472
 20
157.2022
  0
SEQEND
  0
POLYLINE
  8
LAYER_1
 40
0.0847
 41
0.0847
 66
1
 10
0
 20
0
 30
0
  0
VERTEX
  8
LAYER_1
 10
102.5466
 20
159.3982
  0
VERTEX
  8
LAYER_1
 10
102.626
 20
159.4246
  0
SEQEND
  0
POLYLINE
  8
LAYER_1
 40
0.0847
 41
0.0847
 66
1
 10
0
 20
0
 30
0
  0
VERTEX
  8
LAYER_1
 10
102.7847
 20
159.504
  0
VERTEX
  8
LAYER_1
 10
102.8906
 20
159.5569
  0
VERTEX
  8
LAYER_1
 10
102.9699
 20
159.5834
  0
SEQEND
  0
POLYLINE
  8
LAYER_1
 40
0.0847
 41
0.0847
 66
1
 10
0
 20
0
 30
0
  0
VERTEX
  8
LAYER_1
 10
103.1287
 20
159.6363
  0
VERTEX
  8
LAYER_1
 10
103.2081
 20
159.6628
  0
VERTEX
  8
LAYER_1
 10
103.2345
 20
159.6628
  0
SEQEND
  0
POLYLINE
  8
LAYER_1
 40
0.0847
 41
0.0847
 66
1
 10
0
 20
0
 30
0
  0
VERTEX
  8
LAYER_1
 10
103.3404
 20
159.6628
  0
VERTEX
  8
LAYER_1
 10
103.3933
 20
159.6892
  0
VERTEX
  8
LAYER_1
 10
103.4197
 20
159.6892
  0
SEQEND
  0
POLYLINE
  8
LAYER_1
 40
0.0847
 41
0.0847
 66
1
 10
0
 20
0
 30
0
  0
VERTEX
  8
LAYER_1
 10
103.5256
 20
159.6892
  0
VERTEX
  8
LAYER_1
 10
103.5785
 20
159.6627
  0
VERTEX
  8
LAYER_1
 10
103.6579
 20
159.6363
  0
SEQEND
  0
POLYLINE
  8
LAYER_1
 40
0.0847
 41
0.0847
 66
1
 10
0
 20
0
 30
0
  0
VERTEX
  8
LAYER_1
 10
103.8166
 20
159.5834
  0
VERTEX
  8
LAYER_1
 10
103.896
 20
159.5569
  0
VERTEX
  8
LAYER_1
 10
103.9754
 20
159.5305
  0
SEQEND
  0
POLYLINE
  8
LAYER_1
 40
0.0847
 41
0.0847
 66
1
 10
0
 20
0
 30
0
  0
VERTEX
  8
LAYER_1
 10
104.1341
 20
159.4511
  0
VERTEX
  8
LAYER_1
 10
104.2399
 20
159.3982
  0
VERTEX
  8
LAYER_1
 10
104.3193
 20
159.3452
  0
SEQEND
  0
POLYLINE
  8
LAYER_1
 40
0.0847
 41
0.0847
 66
1
 10
0
 20
0
 30
0
  0
VERTEX
  8
LAYER_1
 10
104.4781
 20
159.2394
  0
VERTEX
  8
LAYER_1
 10
104.5574
 20
159.16
  0
VERTEX
  8
LAYER_1
 10
104.6368
 20
159.1071
  0
SEQEND
  0
POLYLINE
  8
LAYER_1
 40
0.0847
 41
0.0847
 66
1
 10
0
 20
0
 30
0
  0
VERTEX
  8
LAYER_1
 10
104.7956
 20
158.9749
  0
VERTEX
  8
LAYER_1
 10
104.8749
 20
158.8955
  0
VERTEX
  8
LAYER_1
 10
104.9543
 20
158.8426
  0
SEQEND
  0
POLYLINE
  8
LAYER_1
 40
0.0847
 41
0.0847
 66
1
 10
0
 20
0
 30
0
  0
VERTEX
  8
LAYER_1
 10
105.1131
 20
158.6838
  0
VERTEX
  8
LAYER_1
 10
105.1924
 20
158.6044
  0
VERTEX
  8
LAYER_1
 10
105.2718
 20
158.5251
  0
SEQEND
  0
POLYLINE
  8
LAYER_1
 40
0.0847
 41
0.0847
 66
1
 10
0
 20
0
 30
0
  0
VERTEX
  8
LAYER_1
 10
105.457
 20
158.3664
  0
VERTEX
  8
LAYER_1
 10
105.5629
 20
158.2605
  0
VERTEX
  8
LAYER_1
 10
105.6422
 20
158.2076
  0
SEQEND
  0
POLYLINE
  8
LAYER_1
 40
0.0847
 41
0.0847
 66
1
 10
0
 20
0
 30
0
  0
VERTEX
  8
LAYER_1
 10
105.801
 20
158.0489
  0
VERTEX
  8
LAYER_1
 10
105.8804
 20
157.9695
  0
VERTEX
  8
LAYER_1
 10
105.9597
 20
157.9166
  0
SEQEND
  0
POLYLINE
  8
LAYER_1
 40
0.0847
 41
0.0847
 66
1
 10
0
 20
0
 30
0
  0
VERTEX
  8
LAYER_1
 10
106.1185
 20
157.7843
  0
VERTEX
  8
LAYER_1
 10
106.1979
 20
157.7049
  0
VERTEX
  8
LAYER_1
 10
106.2772
 20
157.652
  0
SEQEND
  0
POLYLINE
  8
LAYER_1
 40
0.0847
 41
0.0847
 66
1
 10
0
 20
0
 30
0
  0
VERTEX
  8
LAYER_1
 10
106.436
 20
157.5462
  0
VERTEX
  8
LAYER_1
 10
106.5154
 20
157.4668
  0
VERTEX
  8
LAYER_1
 10
106.5947
 20
157.4403
  0
SEQEND
  0
POLYLINE
  8
LAYER_1
 40
0.0847
 41
0.0847
 66
1
 10
0
 20
0
 30
0
  0
VERTEX
  8
LAYER_1
 10
106.7535
 20
157.3345
  0
VERTEX
  8
LAYER_1
 10
106.8593
 20
157.2816
  0
VERTEX
  8
LAYER_1
 10
106.9387
 20
157.2816
  0
SEQEND
  0
POLYLINE
  8
LAYER_1
 40
0.0847
 41
0.0847
 66
1
 10
0
 20
0
 30
0
  0
VERTEX
  8
LAYER_1
 10
107.0975
 20
157.2287
  0
VERTEX
  8
LAYER_1
 10
107.1768
 20
157.2022
  0
SEQEND
  0
POLYLINE
  8
LAYER_1
 40
0.0847
 41
0.0847
 66
1
 10
0
 20
0
 30
0
  0
VERTEX
  8
LAYER_1
 10
102.2556
 20
159.1866
  0
VERTEX
  8
LAYER_1
 10
102.3085
 20
159.2395
  0
SEQEND
  0
POLYLINE
  8
LAYER_1
 40
0.0847
 41
0.0847
 66
1
 10
0
 20
0
 30
0
  0
VERTEX
  8
LAYER_1
 10
102.4672
 20
159.3454
  0
VERTEX
  8
LAYER_1
 10
102.5466
 20
159.3983
  0
SEQEND
  0
POLYLINE
  8
LAYER_1
 40
0.0847
 41
0.0847
 66
1
 10
0
 20
0
 30
0
  0
VERTEX
  8
LAYER_1
 10
107.8647
 20
157.2816
  0
VERTEX
  8
LAYER_1
 10
107.9441
 20
157.3081
  0
SEQEND
  0
POLYLINE
  8
LAYER_1
 40
0.0847
 41
0.0847
 66
1
 10
0
 20
0
 30
0
  0
VERTEX
  8
LAYER_1
 10
108.1029
 20
157.4139
  0
VERTEX
  8
LAYER_1
 10
108.2087
 20
157.4668
  0
VERTEX
  8
LAYER_1
 10
108.2616
 20
157.5197
  0
SEQEND
  0
POLYLINE
  8
LAYER_1
 40
0.0847
 41
0.0847
 66
1
 10
0
 20
0
 30
0
  0
VERTEX
  8
LAYER_1
 10
108.4204
 20
157.6256
  0
VERTEX
  8
LAYER_1
 10
108.4997
 20
157.6785
  0
SEQEND
  0
POLYLINE
  8
LAYER_1
 40
0.0847
 41
0.0847
 66
1
 10
0
 20
0
 30
0
  0
VERTEX
  8
LAYER_1
 10
199.4899
 20
192.3918
  0
VERTEX
  8
LAYER_1
 10
206.2633
 20
192.3918
  0
SEQEND
  0
POLYLINE
  8
LAYER_1
 40
0.0847
 41
0.0847
 66
1
 10
0
 20
0
 30
0
  0
VERTEX
  8
LAYER_1
 10
106.8858
 20
201.0701
  0
VERTEX
  8
LAYER_1
 10
127.1264
 20
224.7768
  0
SEQEND
  0
TEXT
  8
LAYER_1
 10
127.9728
 20
225.0947
 11
127.9728
 21
225.0947
 40
3.2224
 41
0.5
  1
ë╗Å¤âLâââbâvâëâEâôâh
  0
TEXT
  8
LAYER_1
 10
157.6857
 20
205.2509
 11
157.6857
 21
205.2509
 40
3.2224
 41
0.5
  1
âXâ|âôâWâpâbâLâô
  0
POLYLINE
  8
LAYER_1
 40
0.0847
 41
0.0847
 66
1
 10
0
 20
0
 30
0
  0
VERTEX
  8
LAYER_1
 10
117.0987
 20
192.868
  0
VERTEX
  8
LAYER_1
 10
158.2678
 20
201.8109
  0
SEQEND
  0
TEXT
  8
LAYER_1
 10
158.1356
 20
200.8584
 11
158.1356
 21
200.8584
 40
3.2224
 41
0.5
  1
â}âEâôâeâBâôâOâfâBâXâN
  0
POLYLINE
  8
LAYER_1
 40
0.0847
 41
0.0847
 66
1
 10
0
 20
0
 30
0
  0
VERTEX
  8
LAYER_1
 10
105.3776
 20
148.9472
  0
VERTEX
  8
LAYER_1
 10
105.3776
 20
151.8047
  0
SEQEND
  0
POLYLINE
  8
LAYER_1
 40
0.0847
 41
0.0847
 66
1
 10
0
 20
0
 30
0
  0
VERTEX
  8
LAYER_1
 10
105.3776
 20
152.9688
  0
VERTEX
  8
LAYER_1
 10
105.3776
 20
154.1065
  0
SEQEND
  0
POLYLINE
  8
LAYER_1
 40
0.0847
 41
0.0847
 66
1
 10
0
 20
0
 30
0
  0
VERTEX
  8
LAYER_1
 10
105.3776
 20
155.2707
  0
VERTEX
  8
LAYER_1
 10
105.3776
 20
161.0386
  0
SEQEND
  0
POLYLINE
  8
LAYER_1
 40
0.0847
 41
0.0847
 66
1
 10
0
 20
0
 30
0
  0
VERTEX
  8
LAYER_1
 10
105.3776
 20
162.1763
  0
VERTEX
  8
LAYER_1
 10
105.3776
 20
163.3405
  0
SEQEND
  0
POLYLINE
  8
LAYER_1
 40
0.0847
 41
0.0847
 66
1
 10
0
 20
0
 30
0
  0
VERTEX
  8
LAYER_1
 10
105.3776
 20
164.4782
  0
VERTEX
  8
LAYER_1
 10
105.3776
 20
170.2461
  0
SEQEND
  0
POLYLINE
  8
LAYER_1
 40
0.0847
 41
0.0847
 66
1
 10
0
 20
0
 30
0
  0
VERTEX
  8
LAYER_1
 10
105.3776
 20
171.3838
  0
VERTEX
  8
LAYER_1
 10
105.3776
 20
172.5479
  0
SEQEND
  0
POLYLINE
  8
LAYER_1
 40
0.0847
 41
0.0847
 66
1
 10
0
 20
0
 30
0
  0
VERTEX
  8
LAYER_1
 10
105.3776
 20
173.6856
  0
VERTEX
  8
LAYER_1
 10
105.3776
 20
179.4535
  0
SEQEND
  0
POLYLINE
  8
LAYER_1
 40
0.0847
 41
0.0847
 66
1
 10
0
 20
0
 30
0
  0
VERTEX
  8
LAYER_1
 10
105.3776
 20
180.6177
  0
VERTEX
  8
LAYER_1
 10
105.3776
 20
181.7554
  0
SEQEND
  0
POLYLINE
  8
LAYER_1
 40
0.0847
 41
0.0847
 66
1
 10
0
 20
0
 30
0
  0
VERTEX
  8
LAYER_1
 10
105.3776
 20
182.9196
  0
VERTEX
  8
LAYER_1
 10
105.3776
 20
188.661
  0
SEQEND
  0
POLYLINE
  8
LAYER_1
 40
0.0847
 41
0.0847
 66
1
 10
0
 20
0
 30
0
  0
VERTEX
  8
LAYER_1
 10
105.3776
 20
189.8252
  0
VERTEX
  8
LAYER_1
 10
105.3776
 20
190.9629
  0
SEQEND
  0
POLYLINE
  8
LAYER_1
 40
0.0847
 41
0.0847
 66
1
 10
0
 20
0
 30
0
  0
VERTEX
  8
LAYER_1
 10
105.3776
 20
192.1271
  0
VERTEX
  8
LAYER_1
 10
105.3776
 20
197.8685
  0
SEQEND
  0
POLYLINE
  8
LAYER_1
 40
0.0847
 41
0.0847
 66
1
 10
0
 20
0
 30
0
  0
VERTEX
  8
LAYER_1
 10
105.3776
 20
199.0327
  0
VERTEX
  8
LAYER_1
 10
105.3776
 20
200.1704
  0
SEQEND
  0
POLYLINE
  8
LAYER_1
 40
0.0847
 41
0.0847
 66
1
 10
0
 20
0
 30
0
  0
VERTEX
  8
LAYER_1
 10
105.3776
 20
201.3345
  0
VERTEX
  8
LAYER_1
 10
105.3776
 20
207.1024
  0
SEQEND
  0
POLYLINE
  8
LAYER_1
 40
0.0847
 41
0.0847
 66
1
 10
0
 20
0
 30
0
  0
VERTEX
  8
LAYER_1
 10
105.3776
 20
208.2401
  0
VERTEX
  8
LAYER_1
 10
105.3776
 20
209.4043
  0
SEQEND
  0
POLYLINE
  8
LAYER_1
 40
0.0847
 41
0.0847
 66
1
 10
0
 20
0
 30
0
  0
VERTEX
  8
LAYER_1
 10
105.3776
 20
210.542
  0
VERTEX
  8
LAYER_1
 10
105.3776
 20
216.3099
  0
SEQEND
  0
POLYLINE
  8
LAYER_1
 40
0.0847
 41
0.0847
 66
1
 10
0
 20
0
 30
0
  0
VERTEX
  8
LAYER_1
 10
105.3776
 20
217.4476
  0
VERTEX
  8
LAYER_1
 10
105.3776
 20
218.6118
  0
SEQEND
  0
POLYLINE
  8
LAYER_1
 40
0.0847
 41
0.0847
 66
1
 10
0
 20
0
 30
0
  0
VERTEX
  8
LAYER_1
 10
105.3776
 20
219.7495
  0
VERTEX
  8
LAYER_1
 10
105.3776
 20
225.5174
  0
SEQEND
  0
POLYLINE
  8
LAYER_1
 40
0.0847
 41
0.0847
 66
1
 10
0
 20
0
 30
0
  0
VERTEX
  8
LAYER_1
 10
105.3776
 20
226.6816
  0
VERTEX
  8
LAYER_1
 10
105.3776
 20
227.8192
  0
SEQEND
  0
POLYLINE
  8
LAYER_1
 40
0.0847
 41
0.0847
 66
1
 10
0
 20
0
 30
0
  0
VERTEX
  8
LAYER_1
 10
106.0832
 20
227.9251
  0
VERTEX
  8
LAYER_1
 10
106.0832
 20
230.809
  0
SEQEND
  0
TEXT
  8
LAYER_1
 10
48.4069
 20
62.8034
 11
48.4069
 21
62.8034
 40
3.6606
 41
0.5
  1
üEörÉàâgâëâbâvüiSâgâëâbâvé▄é¢é═Pâgâëâbâvé▄é¢é═â{âgâïâëâbâvüj
  0
TEXT
  8
LAYER_1
 10
143.6147
 20
115.7414
 11
143.6147
 21
115.7414
 40
3.6606
 41
0.5
  1
üªôVö┬î·ü@15055å@æ╬ë×
  0
TEXT
  8
LAYER_1
 10
48.4069
 20
92.7967
 11
48.4069
 21
92.7967
 40
3.6606
 41
0.5
  1
üEMimi âVâèü[âYü@örÉàÉ­üiörÉàû┌ÄMüjüi100å@üj
  0
POLYLINE
  8
LAYER_1
 40
0.0847
 41
0.0847
 66
1
 10
0
 20
0
 30
0
  0
VERTEX
  8
LAYER_1
 10
95.7468
 20
192.6299
  0
VERTEX
  8
LAYER_1
 10
47.672
 20
170.008
  0
SEQEND
  0
TEXT
  8
LAYER_1
 10
25.8174
 20
168.8442
 11
25.8174
 21
168.8442
 40
3.2224
 41
0.5
  1
äOâèâôâOüiìòüj
  0
TEXT
  8
LAYER_1
 10
158.5325
 20
163.5791
 11
158.5325
 21
163.5791
 40
3.2224
 41
0.5
  1
äOâèâôâOüiô¹öÆüj
  0
POLYLINE
  8
LAYER_1
 40
0.0847
 41
0.0847
 66
1
 10
0
 20
0
 30
0
  0
VERTEX
  8
LAYER_1
 10
111.7541
 20
194.6672
  0
VERTEX
  8
LAYER_1
 10
157.8181
 20
165.7482
  0
SEQEND
  0
TEXT
  8
LAYER_1
 10
163.4273
 20
155.9589
 11
163.4273
 21
155.9589
 40
3.2224
 41
0.5
  1
ÄOèpâpâbâLâô
  0
POLYLINE
  8
LAYER_1
 40
0.0847
 41
0.0847
 66
1
 10
0
 20
0
 30
0
  0
VERTEX
  8
LAYER_1
 10
107.2297
 20
192.6034
  0
VERTEX
  8
LAYER_1
 10
162.8187
 20
157.4403
  0
SEQEND
  0
TEXT
  8
LAYER_1
 10
151.5741
 20
150.5349
 11
151.5741
 21
150.5349
 40
3.2224
 41
0.5
  1
âXâèâbâvâpâbâLâô
  0
POLYLINE
  8
LAYER_1
 40
0.0847
 41
0.0847
 66
1
 10
0
 20
0
 30
0
  0
VERTEX
  8
LAYER_1
 10
105.7745
 20
191.6774
  0
VERTEX
  8
LAYER_1
 10
150.886
 20
151.8576
  0
SEQEND
  0
POLYLINE
  8
LAYER_1
 40
0.0847
 41
0.0847
 66
1
 10
0
 20
0
 30
0
  0
VERTEX
  8
LAYER_1
 10
106.4095
 20
160.5095
  0
VERTEX
  8
LAYER_1
 10
148.002
 20
145.3488
  0
SEQEND
  0
TEXT
  8
LAYER_1
 10
149.1663
 20
173.7386
 11
149.1663
 21
173.7386
 40
5.3169
 41
0.5
  1
ôVö┬èJî¹Éíû@üF53055
  0
POLYLINE
  8
LAYER_1
 40
0.0847
 41
0.0847
 66
1
 10
0
 20
0
 30
0
  0
VERTEX
  8
LAYER_1
 10
206.2633
 20
178.6599
  0
VERTEX
  8
LAYER_1
 10
206.2633
 20
192.3917
  0
SEQEND
  0
POLYLINE
  8
LAYER_1
 40
0.0847
 41
0.0847
 66
1
 10
0
 20
0
 30
0
  0
VERTEX
  8
LAYER_1
 10
199.4899
 20
178.6599
  0
VERTEX
  8
LAYER_1
 10
206.2633
 20
178.6599
  0
SEQEND
  0
POLYLINE
  8
LAYER_1
 40
0.0847
 41
0.0847
 66
1
 10
0
 20
0
 30
0
  0
VERTEX
  8
LAYER_1
 10
70.7437
 20
149.4499
  0
VERTEX
  8
LAYER_1
 10
96.6729
 20
178.0513
  0
SEQEND
  0
POLYLINE
  8
LAYER_1
 40
0.0847
 41
0.0847
 66
1
 10
0
 20
0
 30
0
  0
VERTEX
  8
LAYER_1
 10
102.2556
 20
159.1866
  0
VERTEX
  8
LAYER_1
 10
102.2556
 20
160.2978
  0
SEQEND
  0
POLYLINE
  8
LAYER_1
 40
0.0847
 41
0.0847
 66
1
 10
0
 20
0
 30
0
  0
VERTEX
  8
LAYER_1
 10
102.2556
 20
162.5468
  0
VERTEX
  8
LAYER_1
 10
102.2556
 20
164.8222
  0
SEQEND
  0
POLYLINE
  8
LAYER_1
 40
0.0847
 41
0.0847
 66
1
 10
0
 20
0
 30
0
  0
VERTEX
  8
LAYER_1
 10
102.2556
 20
167.0711
  0
VERTEX
  8
LAYER_1
 10
102.2556
 20
169.3201
  0
SEQEND
  0
POLYLINE
  8
LAYER_1
 40
0.0847
 41
0.0847
 66
1
 10
0
 20
0
 30
0
  0
VERTEX
  8
LAYER_1
 10
102.2556
 20
171.5955
  0
VERTEX
  8
LAYER_1
 10
102.2556
 20
172.7332
  0
SEQEND
  0
POLYLINE
  8
LAYER_1
 40
0.0847
 41
0.0847
 66
1
 10
0
 20
0
 30
0
  0
VERTEX
  8
LAYER_1
 10
108.4997
 20
157.6784
  0
VERTEX
  8
LAYER_1
 10
108.4997
 20
158.922
  0
SEQEND
  0
POLYLINE
  8
LAYER_1
 40
0.0847
 41
0.0847
 66
1
 10
0
 20
0
 30
0
  0
VERTEX
  8
LAYER_1
 10
108.4997
 20
161.4355
  0
VERTEX
  8
LAYER_1
 10
108.4997
 20
163.9491
  0
SEQEND
  0
POLYLINE
  8
LAYER_1
 40
0.0847
 41
0.0847
 66
1
 10
0
 20
0
 30
0
  0
VERTEX
  8
LAYER_1
 10
108.4997
 20
166.4362
  0
VERTEX
  8
LAYER_1
 10
108.4997
 20
168.9497
  0
SEQEND
  0
POLYLINE
  8
LAYER_1
 40
0.0847
 41
0.0847
 66
1
 10
0
 20
0
 30
0
  0
VERTEX
  8
LAYER_1
 10
108.4997
 20
171.4633
  0
VERTEX
  8
LAYER_1
 10
108.4997
 20
172.7332
  0
SEQEND
  0
POLYLINE
  8
LAYER_1
 40
0.0847
 41
0.0847
 66
1
 10
0
 20
0
 30
0
  0
VERTEX
  8
LAYER_1
 10
57.8849
 20
159.9274
  0
VERTEX
  8
LAYER_1
 10
100.3506
 20
177.3635
  0
SEQEND
  0
POLYLINE
  8
LAYER_1
 40
0.0847
 41
0.0847
 66
1
 10
0
 20
0
 30
0
  0
VERTEX
  8
LAYER_1
 10
57.8849
 20
159.9274
  0
VERTEX
  8
LAYER_1
 10
100.1124
 20
191.1747
  0
SEQEND
  0
POLYLINE
  8
LAYER_1
 40
0.0847
 41
0.0847
 66
1
 10
0
 20
0
 30
0
  0
VERTEX
  8
LAYER_1
 10
206.2633
 20
178.6599
  0
VERTEX
  8
LAYER_1
 10
206.2633
 20
192.3918
  0
SEQEND
  0
POLYLINE
  8
LAYER_1
 40
0.1693
 41
0.1693
 66
1
 10
0
 20
0
 30
0
  0
VERTEX
  8
LAYER_1
 10
206.2633
 20
178.6599
  0
VERTEX
  8
LAYER_1
 10
205.787
 20
180.459
  0
SEQEND
  0
POLYLINE
  8
LAYER_1
 40
0.1693
 41
0.1693
 66
1
 10
0
 20
0
 30
0
  0
VERTEX
  8
LAYER_1
 10
206.2633
 20
178.6599
  0
VERTEX
  8
LAYER_1
 10
206.766
 20
180.459
  0
SEQEND
  0
POLYLINE
  8
LAYER_1
 40
0.1693
 41
0.1693
 66
1
 10
0
 20
0
 30
0
  0
VERTEX
  8
LAYER_1
 10
206.2633
 20
192.3918
  0
VERTEX
  8
LAYER_1
 10
206.766
 20
190.5926
  0
SEQEND
  0
POLYLINE
  8
LAYER_1
 40
0.1693
 41
0.1693
 66
1
 10
0
 20
0
 30
0
  0
VERTEX
  8
LAYER_1
 10
206.2633
 20
192.3918
  0
VERTEX
  8
LAYER_1
 10
205.787
 20
190.5926
  0
SEQEND
  0
POLYLINE
  8
LAYER_1
 40
0.0847
 41
0.0847
 66
1
 10
0
 20
0
 30
0
  0
VERTEX
  8
LAYER_1
 10
199.4899
 20
178.6599
  0
VERTEX
  8
LAYER_1
 10
206.2632
 20
178.6599
  0
SEQEND
  0
POLYLINE
  8
LAYER_1
 40
0.0847
 41
0.0847
 66
1
 10
0
 20
0
 30
0
  0
VERTEX
  8
LAYER_1
 10
199.4899
 20
192.3918
  0
VERTEX
  8
LAYER_1
 10
206.2632
 20
192.3918
  0
SEQEND
  0
TEXT
  8
LAYER_1
 10
205.3551
 20
183.9518
 11
205.3551
 21
183.9518
 40
4.5757
 41
0.5
 50
89.99999999
  1
55
  0
POLYLINE
  8
LAYER_1
 40
0.0847
 41
0.0847
 66
1
 10
0
 20
0
 30
0
  0
VERTEX
  8
LAYER_1
 10
195.7329
 20
182.7609
  0
VERTEX
  8
LAYER_1
 10
195.8651
 20
182.1788
  0
SEQEND
  0
POLYLINE
  8
LAYER_1
 40
0.0847
 41
0.0847
 66
1
 10
0
 20
0
 30
0
  0
VERTEX
  8
LAYER_1
 10
15.8691
 20
179.242
  0
VERTEX
  8
LAYER_1
 10
16.266
 20
178.6599
  0
SEQEND
  0
POLYLINE
  8
LAYER_1
 40
0.254
 41
0.254
 66
1
 10
0
 20
0
 30
0
  0
VERTEX
  8
LAYER_1
 10
16.4776
 20
192.3918
  0
VERTEX
  8
LAYER_1
 10
97.2814
 20
192.3918
  0
SEQEND
  0
POLYLINE
  8
LAYER_1
 40
0.254
 41
0.254
 66
1
 10
0
 20
0
 30
0
  0
VERTEX
  8
LAYER_1
 10
113.4739
 20
192.3918
  0
VERTEX
  8
LAYER_1
 10
194.2776
 20
192.3918
  0
SEQEND
  0
POLYLINE
  8
LAYER_1
 40
0.0847
 41
0.0847
 66
1
 10
0
 20
0
 30
0
  0
VERTEX
  8
LAYER_1
 10
194.2776
 20
192.3918
  0
VERTEX
  8
LAYER_1
 10
194.0924
 20
192.1272
  0
SEQEND
  0
POLYLINE
  8
LAYER_1
 40
0.254
 41
0.254
 66
1
 10
0
 20
0
 30
0
  0
VERTEX
  8
LAYER_1
 10
97.2814
 20
178.6599
  0
VERTEX
  8
LAYER_1
 10
97.2814
 20
192.3917
  0
SEQEND
  0
POLYLINE
  8
LAYER_1
 40
0.254
 41
0.254
 66
1
 10
0
 20
0
 30
0
  0
VERTEX
  8
LAYER_1
 10
113.4739
 20
178.6599
  0
VERTEX
  8
LAYER_1
 10
113.4739
 20
192.3917
  0
SEQEND
  0
POLYLINE
  8
LAYER_1
 40
0.0847
 41
0.0847
 66
1
 10
0
 20
0
 30
0
  0
VERTEX
  8
LAYER_1
 10
18.0651
 20
189.2168
  0
VERTEX
  8
LAYER_1
 10
18.0916
 20
188.8728
  0
VERTEX
  8
LAYER_1
 10
18.0651
 20
188.5553
  0
VERTEX
  8
LAYER_1
 10
17.9329
 20
187.9732
  0
VERTEX
  8
LAYER_1
 10
17.7212
 20
187.4176
  0
VERTEX
  8
LAYER_1
 10
17.4301
 20
186.8355
  0
VERTEX
  8
LAYER_1
 10
17.0862
 20
186.2534
  0
VERTEX
  8
LAYER_1
 10
16.7158
 20
185.6978
  0
VERTEX
  8
LAYER_1
 10
16.266
 20
185.0363
  0
SEQEND
  0
POLYLINE
  8
LAYER_1
 40
0.0847
 41
0.0847
 66
1
 10
0
 20
0
 30
0
  0
VERTEX
  8
LAYER_1
 10
17.9329
 20
189.7724
  0
VERTEX
  8
LAYER_1
 10
18.0651
 20
189.2168
  0
SEQEND
  0
POLYLINE
  8
LAYER_1
 40
0.0847
 41
0.0847
 66
1
 10
0
 20
0
 30
0
  0
VERTEX
  8
LAYER_1
 10
17.7212
 20
190.3545
  0
VERTEX
  8
LAYER_1
 10
17.9328
 20
189.7724
  0
SEQEND
  0
POLYLINE
  8
LAYER_1
 40
0.0847
 41
0.0847
 66
1
 10
0
 20
0
 30
0
  0
VERTEX
  8
LAYER_1
 10
17.4301
 20
190.9101
  0
VERTEX
  8
LAYER_1
 10
17.7212
 20
190.3545
  0
SEQEND
  0
POLYLINE
  8
LAYER_1
 40
0.0847
 41
0.0847
 66
1
 10
0
 20
0
 30
0
  0
VERTEX
  8
LAYER_1
 10
17.0862
 20
191.4922
  0
VERTEX
  8
LAYER_1
 10
17.4301
 20
190.9101
  0
SEQEND
  0
POLYLINE
  8
LAYER_1
 40
0.0847
 41
0.0847
 66
1
 10
0
 20
0
 30
0
  0
VERTEX
  8
LAYER_1
 10
16.7158
 20
192.0478
  0
VERTEX
  8
LAYER_1
 10
17.0862
 20
191.4922
  0
SEQEND
  0
POLYLINE
  8
LAYER_1
 40
0.0847
 41
0.0847
 66
1
 10
0
 20
0
 30
0
  0
VERTEX
  8
LAYER_1
 10
16.4776
 20
192.3918
  0
VERTEX
  8
LAYER_1
 10
16.7158
 20
192.0478
  0
SEQEND
  0
POLYLINE
  8
LAYER_1
 40
0.0847
 41
0.0847
 66
1
 10
0
 20
0
 30
0
  0
VERTEX
  8
LAYER_1
 10
16.266
 20
185.0364
  0
VERTEX
  8
LAYER_1
 10
15.9485
 20
184.5866
  0
SEQEND
  0
POLYLINE
  8
LAYER_1
 40
0.0847
 41
0.0847
 66
1
 10
0
 20
0
 30
0
  0
VERTEX
  8
LAYER_1
 10
16.4776
 20
192.3918
  0
VERTEX
  8
LAYER_1
 10
16.7158
 20
192.0478
  0
VERTEX
  8
LAYER_1
 10
17.0862
 20
191.4922
  0
VERTEX
  8
LAYER_1
 10
17.4301
 20
190.9101
  0
VERTEX
  8
LAYER_1
 10
17.7212
 20
190.3545
  0
VERTEX
  8
LAYER_1
 10
17.9328
 20
189.7724
  0
VERTEX
  8
LAYER_1
 10
18.0651
 20
189.2168
  0
VERTEX
  8
LAYER_1
 10
18.0916
 20
188.8728
  0
VERTEX
  8
LAYER_1
 10
18.0651
 20
188.5553
  0
VERTEX
  8
LAYER_1
 10
17.9328
 20
187.9732
  0
VERTEX
  8
LAYER_1
 10
17.7212
 20
187.4176
  0
VERTEX
  8
LAYER_1
 10
17.4301
 20
186.8355
  0
VERTEX
  8
LAYER_1
 10
17.0862
 20
186.2534
  0
VERTEX
  8
LAYER_1
 10
16.7158
 20
185.6978
  0
VERTEX
  8
LAYER_1
 10
16.266
 20
185.0363
  0
VERTEX
  8
LAYER_1
 10
15.8691
 20
184.4543
  0
VERTEX
  8
LAYER_1
 10
15.5251
 20
183.8987
  0
VERTEX
  8
LAYER_1
 10
15.2341
 20
183.3166
  0
VERTEX
  8
LAYER_1
 10
15.0224
 20
182.7609
  0
VERTEX
  8
LAYER_1
 10
14.8901
 20
182.1789
  0
VERTEX
  8
LAYER_1
 10
14.8901
 20
181.8614
  0
VERTEX
  8
LAYER_1
 10
14.8901
 20
181.5174
  0
VERTEX
  8
LAYER_1
 10
15.0224
 20
180.9353
  0
VERTEX
  8
LAYER_1
 10
15.2341
 20
180.3797
  0
VERTEX
  8
LAYER_1
 10
15.5251
 20
179.7976
  0
VERTEX
  8
LAYER_1
 10
15.8691
 20
179.242
  0
SEQEND
  0
POLYLINE
  8
LAYER_1
 40
0.0847
 41
0.0847
 66
1
 10
0
 20
0
 30
0
  0
VERTEX
  8
LAYER_1
 10
16.266
 20
178.6599
  0
SEQEND
  0
POLYLINE
  8
LAYER_1
 40
0.254
 41
0.254
 66
1
 10
0
 20
0
 30
0
  0
VERTEX
  8
LAYER_1
 10
16.266
 20
178.6599
  0
VERTEX
  8
LAYER_1
 10
97.2814
 20
178.6599
  0
SEQEND
  0
POLYLINE
  8
LAYER_1
 40
0.0847
 41
0.0847
 66
1
 10
0
 20
0
 30
0
  0
VERTEX
  8
LAYER_1
 10
194.8862
 20
179.242
  0
VERTEX
  8
LAYER_1
 10
194.4893
 20
178.6599
  0
SEQEND
  0
POLYLINE
  8
LAYER_1
 40
0.0847
 41
0.0847
 66
1
 10
0
 20
0
 30
0
  0
VERTEX
  8
LAYER_1
 10
192.6901
 20
189.2168
  0
VERTEX
  8
LAYER_1
 10
192.6637
 20
188.8728
  0
VERTEX
  8
LAYER_1
 10
192.6901
 20
188.5553
  0
VERTEX
  8
LAYER_1
 10
192.8224
 20
187.9732
  0
VERTEX
  8
LAYER_1
 10
193.0341
 20
187.4176
  0
VERTEX
  8
LAYER_1
 10
193.3251
 20
186.8355
  0
VERTEX
  8
LAYER_1
 10
193.6691
 20
186.2534
  0
VERTEX
  8
LAYER_1
 10
194.0395
 20
185.6978
  0
VERTEX
  8
LAYER_1
 10
194.4893
 20
185.0363
  0
SEQEND
  0
POLYLINE
  8
LAYER_1
 40
0.0847
 41
0.0847
 66
1
 10
0
 20
0
 30
0
  0
VERTEX
  8
LAYER_1
 10
192.8224
 20
189.7724
  0
VERTEX
  8
LAYER_1
 10
192.6901
 20
189.2168
  0
SEQEND
  0
POLYLINE
  8
LAYER_1
 40
0.0847
 41
0.0847
 66
1
 10
0
 20
0
 30
0
  0
VERTEX
  8
LAYER_1
 10
193.0341
 20
190.3545
  0
VERTEX
  8
LAYER_1
 10
192.8224
 20
189.7724
  0
SEQEND
  0
POLYLINE
  8
LAYER_1
 40
0.0847
 41
0.0847
 66
1
 10
0
 20
0
 30
0
  0
VERTEX
  8
LAYER_1
 10
193.3251
 20
190.9101
  0
VERTEX
  8
LAYER_1
 10
193.0341
 20
190.3545
  0
SEQEND
  0
POLYLINE
  8
LAYER_1
 40
0.0847
 41
0.0847
 66
1
 10
0
 20
0
 30
0
  0
VERTEX
  8
LAYER_1
 10
193.6691
 20
191.4922
  0
VERTEX
  8
LAYER_1
 10
193.3251
 20
190.9101
  0
SEQEND
  0
POLYLINE
  8
LAYER_1
 40
0.0847
 41
0.0847
 66
1
 10
0
 20
0
 30
0
  0
VERTEX
  8
LAYER_1
 10
194.0395
 20
192.0478
  0
VERTEX
  8
LAYER_1
 10
193.6691
 20
191.4922
  0
SEQEND
  0
POLYLINE
  8
LAYER_1
 40
0.0847
 41
0.0847
 66
1
 10
0
 20
0
 30
0
  0
VERTEX
  8
LAYER_1
 10
194.2776
 20
192.3918
  0
VERTEX
  8
LAYER_1
 10
194.0395
 20
192.0478
  0
SEQEND
  0
POLYLINE
  8
LAYER_1
 40
0.0847
 41
0.0847
 66
1
 10
0
 20
0
 30
0
  0
VERTEX
  8
LAYER_1
 10
194.4893
 20
185.0364
  0
VERTEX
  8
LAYER_1
 10
194.8068
 20
184.5866
  0
SEQEND
  0
POLYLINE
  8
LAYER_1
 40
0.0847
 41
0.0847
 66
1
 10
0
 20
0
 30
0
  0
VERTEX
  8
LAYER_1
 10
194.2776
 20
192.3918
  0
VERTEX
  8
LAYER_1
 10
194.0395
 20
192.0478
  0
VERTEX
  8
LAYER_1
 10
193.6691
 20
191.4922
  0
VERTEX
  8
LAYER_1
 10
193.3251
 20
190.9101
  0
VERTEX
  8
LAYER_1
 10
193.0341
 20
190.3545
  0
VERTEX
  8
LAYER_1
 10
192.8224
 20
189.7724
  0
VERTEX
  8
LAYER_1
 10
192.6901
 20
189.2168
  0
VERTEX
  8
LAYER_1
 10
192.6637
 20
188.8728
  0
VERTEX
  8
LAYER_1
 10
192.6901
 20
188.5553
  0
VERTEX
  8
LAYER_1
 10
192.8224
 20
187.9732
  0
VERTEX
  8
LAYER_1
 10
193.0341
 20
187.4176
  0
VERTEX
  8
LAYER_1
 10
193.3251
 20
186.8355
  0
VERTEX
  8
LAYER_1
 10
193.6691
 20
186.2534
  0
VERTEX
  8
LAYER_1
 10
194.0395
 20
185.6978
  0
VERTEX
  8
LAYER_1
 10
194.4893
 20
185.0363
  0
VERTEX
  8
LAYER_1
 10
194.8862
 20
184.4543
  0
VERTEX
  8
LAYER_1
 10
195.2301
 20
183.8987
  0
VERTEX
  8
LAYER_1
 10
195.5212
 20
183.3166
  0
VERTEX
  8
LAYER_1
 10
195.7328
 20
182.7609
  0
SEQEND
  0
POLYLINE
  8
LAYER_1
 40
0.0847
 41
0.0847
 66
1
 10
0
 20
0
 30
0
  0
VERTEX
  8
LAYER_1
 10
195.8651
 20
182.1789
  0
VERTEX
  8
LAYER_1
 10
195.8651
 20
181.8614
  0
VERTEX
  8
LAYER_1
 10
195.8651
 20
181.5174
  0
VERTEX
  8
LAYER_1
 10
195.7328
 20
180.9353
  0
VERTEX
  8
LAYER_1
 10
195.5212
 20
180.3797
  0
VERTEX
  8
LAYER_1
 10
195.2301
 20
179.7976
  0
VERTEX
  8
LAYER_1
 10
194.8862
 20
179.242
  0
SEQEND
  0
POLYLINE
  8
LAYER_1
 40
0.254
 41
0.254
 66
1
 10
0
 20
0
 30
0
  0
VERTEX
  8
LAYER_1
 10
113.4739
 20
178.6599
  0
VERTEX
  8
LAYER_1
 10
194.4893
 20
178.6599
  0
SEQEND
  0
POLYLINE
  8
LAYER_1
 40
0.0847
 41
0.0847
 66
1
 10
0
 20
0
 30
0
  0
VERTEX
  8
LAYER_1
 10
194.4893
 20
178.6599
  0
SEQEND
  0
POLYLINE
  8
LAYER_1
 40
0.0847
 41
0.0847
 66
1
 10
0
 20
0
 30
0
  0
VERTEX
  8
LAYER_1
 10
191.4995
 20
178.6599
  0
VERTEX
  8
LAYER_1
 10
195.6799
 20
182.8403
  0
SEQEND
  0
POLYLINE
  8
LAYER_1
 40
0.0847
 41
0.0847
 66
1
 10
0
 20
0
 30
0
  0
VERTEX
  8
LAYER_1
 10
184.4087
 20
178.6599
  0
VERTEX
  8
LAYER_1
 10
193.087
 20
187.3118
  0
SEQEND
  0
POLYLINE
  8
LAYER_1
 40
0.0847
 41
0.0847
 66
1
 10
0
 20
0
 30
0
  0
VERTEX
  8
LAYER_1
 10
187.9541
 20
178.6599
  0
VERTEX
  8
LAYER_1
 10
194.4364
 20
185.1157
  0
SEQEND
  0
POLYLINE
  8
LAYER_1
 40
0.0847
 41
0.0847
 66
1
 10
0
 20
0
 30
0
  0
VERTEX
  8
LAYER_1
 10
180.8897
 20
178.6599
  0
VERTEX
  8
LAYER_1
 10
193.6162
 20
191.3599
  0
SEQEND
  0
POLYLINE
  8
LAYER_1
 40
0.0847
 41
0.0847
 66
1
 10
0
 20
0
 30
0
  0
VERTEX
  8
LAYER_1
 10
177.3443
 20
178.6599
  0
VERTEX
  8
LAYER_1
 10
191.1026
 20
192.3917
  0
SEQEND
  0
POLYLINE
  8
LAYER_1
 40
0.0847
 41
0.0847
 66
1
 10
0
 20
0
 30
0
  0
VERTEX
  8
LAYER_1
 10
173.8254
 20
178.6599
  0
VERTEX
  8
LAYER_1
 10
187.5572
 20
192.3917
  0
SEQEND
  0
POLYLINE
  8
LAYER_1
 40
0.0847
 41
0.0847
 66
1
 10
0
 20
0
 30
0
  0
VERTEX
  8
LAYER_1
 10
170.2799
 20
178.6599
  0
VERTEX
  8
LAYER_1
 10
184.0383
 20
192.3917
  0
SEQEND
  0
POLYLINE
  8
LAYER_1
 40
0.0847
 41
0.0847
 66
1
 10
0
 20
0
 30
0
  0
VERTEX
  8
LAYER_1
 10
166.761
 20
178.6599
  0
VERTEX
  8
LAYER_1
 10
180.4928
 20
192.3917
  0
SEQEND
  0
POLYLINE
  8
LAYER_1
 40
0.0847
 41
0.0847
 66
1
 10
0
 20
0
 30
0
  0
VERTEX
  8
LAYER_1
 10
163.2156
 20
178.6599
  0
VERTEX
  8
LAYER_1
 10
176.9739
 20
192.3917
  0
SEQEND
  0
POLYLINE
  8
LAYER_1
 40
0.0847
 41
0.0847
 66
1
 10
0
 20
0
 30
0
  0
VERTEX
  8
LAYER_1
 10
159.6701
 20
178.6599
  0
VERTEX
  8
LAYER_1
 10
173.4285
 20
192.3917
  0
SEQEND
  0
POLYLINE
  8
LAYER_1
 40
0.0847
 41
0.0847
 66
1
 10
0
 20
0
 30
0
  0
VERTEX
  8
LAYER_1
 10
156.1512
 20
178.6599
  0
VERTEX
  8
LAYER_1
 10
169.883
 20
192.3917
  0
SEQEND
  0
POLYLINE
  8
LAYER_1
 40
0.0847
 41
0.0847
 66
1
 10
0
 20
0
 30
0
  0
VERTEX
  8
LAYER_1
 10
152.6057
 20
178.6599
  0
VERTEX
  8
LAYER_1
 10
166.3641
 20
192.3917
  0
SEQEND
  0
POLYLINE
  8
LAYER_1
 40
0.0847
 41
0.0847
 66
1
 10
0
 20
0
 30
0
  0
VERTEX
  8
LAYER_1
 10
149.0868
 20
178.6599
  0
VERTEX
  8
LAYER_1
 10
162.8187
 20
192.3917
  0
SEQEND
  0
POLYLINE
  8
LAYER_1
 40
0.0847
 41
0.0847
 66
1
 10
0
 20
0
 30
0
  0
VERTEX
  8
LAYER_1
 10
145.5414
 20
178.6599
  0
VERTEX
  8
LAYER_1
 10
159.2997
 20
192.3917
  0
SEQEND
  0
POLYLINE
  8
LAYER_1
 40
0.0847
 41
0.0847
 66
1
 10
0
 20
0
 30
0
  0
VERTEX
  8
LAYER_1
 10
142.0224
 20
178.6599
  0
VERTEX
  8
LAYER_1
 10
155.7543
 20
192.3917
  0
SEQEND
  0
POLYLINE
  8
LAYER_1
 40
0.0847
 41
0.0847
 66
1
 10
0
 20
0
 30
0
  0
VERTEX
  8
LAYER_1
 10
134.9316
 20
178.6599
  0
VERTEX
  8
LAYER_1
 10
148.6899
 20
192.3917
  0
SEQEND
  0
POLYLINE
  8
LAYER_1
 40
0.0847
 41
0.0847
 66
1
 10
0
 20
0
 30
0
  0
VERTEX
  8
LAYER_1
 10
138.477
 20
178.6599
  0
VERTEX
  8
LAYER_1
 10
152.2353
 20
192.3917
  0
SEQEND
  0
POLYLINE
  8
LAYER_1
 40
0.0847
 41
0.0847
 66
1
 10
0
 20
0
 30
0
  0
VERTEX
  8
LAYER_1
 10
131.4126
 20
178.6599
  0
VERTEX
  8
LAYER_1
 10
145.1445
 20
192.3917
  0
SEQEND
  0
POLYLINE
  8
LAYER_1
 40
0.0847
 41
0.0847
 66
1
 10
0
 20
0
 30
0
  0
VERTEX
  8
LAYER_1
 10
127.8672
 20
178.6599
  0
VERTEX
  8
LAYER_1
 10
141.6255
 20
192.3917
  0
SEQEND
  0
POLYLINE
  8
LAYER_1
 40
0.0847
 41
0.0847
 66
1
 10
0
 20
0
 30
0
  0
VERTEX
  8
LAYER_1
 10
124.3482
 20
178.6599
  0
VERTEX
  8
LAYER_1
 10
138.0801
 20
192.3917
  0
SEQEND
  0
POLYLINE
  8
LAYER_1
 40
0.0847
 41
0.0847
 66
1
 10
0
 20
0
 30
0
  0
VERTEX
  8
LAYER_1
 10
120.8028
 20
178.6599
  0
VERTEX
  8
LAYER_1
 10
134.5611
 20
192.3917
  0
SEQEND
  0
POLYLINE
  8
LAYER_1
 40
0.0847
 41
0.0847
 66
1
 10
0
 20
0
 30
0
  0
VERTEX
  8
LAYER_1
 10
117.2839
 20
178.6599
  0
VERTEX
  8
LAYER_1
 10
131.0157
 20
192.3917
  0
SEQEND
  0
POLYLINE
  8
LAYER_1
 40
0.0847
 41
0.0847
 66
1
 10
0
 20
0
 30
0
  0
VERTEX
  8
LAYER_1
 10
113.7384
 20
178.6599
  0
VERTEX
  8
LAYER_1
 10
127.4968
 20
192.3917
  0
SEQEND
  0
POLYLINE
  8
LAYER_1
 40
0.0847
 41
0.0847
 66
1
 10
0
 20
0
 30
0
  0
VERTEX
  8
LAYER_1
 10
113.4739
 20
181.9143
  0
VERTEX
  8
LAYER_1
 10
123.9513
 20
192.3917
  0
SEQEND
  0
POLYLINE
  8
LAYER_1
 40
0.0847
 41
0.0847
 66
1
 10
0
 20
0
 30
0
  0
VERTEX
  8
LAYER_1
 10
113.4739
 20
185.4597
  0
VERTEX
  8
LAYER_1
 10
120.4059
 20
192.3917
  0
SEQEND
  0
POLYLINE
  8
LAYER_1
 40
0.0847
 41
0.0847
 66
1
 10
0
 20
0
 30
0
  0
VERTEX
  8
LAYER_1
 10
113.4739
 20
189.0051
  0
VERTEX
  8
LAYER_1
 10
116.887
 20
192.3917
  0
SEQEND
  0
POLYLINE
  8
LAYER_1
 40
0.0847
 41
0.0847
 66
1
 10
0
 20
0
 30
0
  0
VERTEX
  8
LAYER_1
 10
17.0861
 20
191.5186
  0
VERTEX
  8
LAYER_1
 10
17.9593
 20
192.3917
  0
SEQEND
  0
POLYLINE
  8
LAYER_1
 40
0.0847
 41
0.0847
 66
1
 10
0
 20
0
 30
0
  0
VERTEX
  8
LAYER_1
 10
18.0651
 20
188.9786
  0
VERTEX
  8
LAYER_1
 10
21.4782
 20
192.3917
  0
SEQEND
  0
POLYLINE
  8
LAYER_1
 40
0.0847
 41
0.0847
 66
1
 10
0
 20
0
 30
0
  0
VERTEX
  8
LAYER_1
 10
14.9166
 20
182.2847
  0
VERTEX
  8
LAYER_1
 10
25.0236
 20
192.3917
  0
SEQEND
  0
POLYLINE
  8
LAYER_1
 40
0.0847
 41
0.0847
 66
1
 10
0
 20
0
 30
0
  0
VERTEX
  8
LAYER_1
 10
15.7103
 20
179.533
  0
VERTEX
  8
LAYER_1
 10
28.5691
 20
192.3917
  0
SEQEND
  0
POLYLINE
  8
LAYER_1
 40
0.0847
 41
0.0847
 66
1
 10
0
 20
0
 30
0
  0
VERTEX
  8
LAYER_1
 10
18.3561
 20
178.6599
  0
VERTEX
  8
LAYER_1
 10
32.088
 20
192.3917
  0
SEQEND
  0
POLYLINE
  8
LAYER_1
 40
0.0847
 41
0.0847
 66
1
 10
0
 20
0
 30
0
  0
VERTEX
  8
LAYER_1
 10
21.8751
 20
178.6599
  0
VERTEX
  8
LAYER_1
 10
35.6334
 20
192.3917
  0
SEQEND
  0
POLYLINE
  8
LAYER_1
 40
0.0847
 41
0.0847
 66
1
 10
0
 20
0
 30
0
  0
VERTEX
  8
LAYER_1
 10
25.4205
 20
178.6599
  0
VERTEX
  8
LAYER_1
 10
39.1524
 20
192.3917
  0
SEQEND
  0
POLYLINE
  8
LAYER_1
 40
0.0847
 41
0.0847
 66
1
 10
0
 20
0
 30
0
  0
VERTEX
  8
LAYER_1
 10
28.9395
 20
178.6599
  0
VERTEX
  8
LAYER_1
 10
42.6978
 20
192.3917
  0
SEQEND
  0
POLYLINE
  8
LAYER_1
 40
0.0847
 41
0.0847
 66
1
 10
0
 20
0
 30
0
  0
VERTEX
  8
LAYER_1
 10
32.4849
 20
178.6599
  0
VERTEX
  8
LAYER_1
 10
46.2168
 20
192.3917
  0
SEQEND
  0
POLYLINE
  8
LAYER_1
 40
0.0847
 41
0.0847
 66
1
 10
0
 20
0
 30
0
  0
VERTEX
  8
LAYER_1
 10
36.0303
 20
178.6599
  0
VERTEX
  8
LAYER_1
 10
49.7622
 20
192.3917
  0
SEQEND
  0
POLYLINE
  8
LAYER_1
 40
0.0847
 41
0.0847
 66
1
 10
0
 20
0
 30
0
  0
VERTEX
  8
LAYER_1
 10
39.5493
 20
178.6599
  0
VERTEX
  8
LAYER_1
 10
53.3076
 20
192.3917
  0
SEQEND
  0
POLYLINE
  8
LAYER_1
 40
0.0847
 41
0.0847
 66
1
 10
0
 20
0
 30
0
  0
VERTEX
  8
LAYER_1
 10
43.0947
 20
178.6599
  0
VERTEX
  8
LAYER_1
 10
56.8266
 20
192.3917
  0
SEQEND
  0
POLYLINE
  8
LAYER_1
 40
0.0847
 41
0.0847
 66
1
 10
0
 20
0
 30
0
  0
VERTEX
  8
LAYER_1
 10
46.6136
 20
178.6599
  0
VERTEX
  8
LAYER_1
 10
60.372
 20
192.3917
  0
SEQEND
  0
POLYLINE
  8
LAYER_1
 40
0.0847
 41
0.0847
 66
1
 10
0
 20
0
 30
0
  0
VERTEX
  8
LAYER_1
 10
50.1591
 20
178.6599
  0
VERTEX
  8
LAYER_1
 10
63.8909
 20
192.3917
  0
SEQEND
  0
POLYLINE
  8
LAYER_1
 40
0.0847
 41
0.0847
 66
1
 10
0
 20
0
 30
0
  0
VERTEX
  8
LAYER_1
 10
53.678
 20
178.6599
  0
VERTEX
  8
LAYER_1
 10
67.4363
 20
192.3917
  0
SEQEND
  0
POLYLINE
  8
LAYER_1
 40
0.0847
 41
0.0847
 66
1
 10
0
 20
0
 30
0
  0
VERTEX
  8
LAYER_1
 10
57.2234
 20
178.6599
  0
VERTEX
  8
LAYER_1
 10
70.9553
 20
192.3917
  0
SEQEND
  0
POLYLINE
  8
LAYER_1
 40
0.0847
 41
0.0847
 66
1
 10
0
 20
0
 30
0
  0
VERTEX
  8
LAYER_1
 10
60.7688
 20
178.6599
  0
VERTEX
  8
LAYER_1
 10
74.5007
 20
192.3917
  0
SEQEND
  0
POLYLINE
  8
LAYER_1
 40
0.0847
 41
0.0847
 66
1
 10
0
 20
0
 30
0
  0
VERTEX
  8
LAYER_1
 10
64.2878
 20
178.6599
  0
VERTEX
  8
LAYER_1
 10
78.0461
 20
192.3917
  0
SEQEND
  0
POLYLINE
  8
LAYER_1
 40
0.0847
 41
0.0847
 66
1
 10
0
 20
0
 30
0
  0
VERTEX
  8
LAYER_1
 10
67.8332
 20
178.6599
  0
VERTEX
  8
LAYER_1
 10
81.5651
 20
192.3917
  0
SEQEND
  0
POLYLINE
  8
LAYER_1
 40
0.0847
 41
0.0847
 66
1
 10
0
 20
0
 30
0
  0
VERTEX
  8
LAYER_1
 10
71.3522
 20
178.6599
  0
VERTEX
  8
LAYER_1
 10
85.1105
 20
192.3917
  0
SEQEND
  0
POLYLINE
  8
LAYER_1
 40
0.0847
 41
0.0847
 66
1
 10
0
 20
0
 30
0
  0
VERTEX
  8
LAYER_1
 10
74.8976
 20
178.6599
  0
VERTEX
  8
LAYER_1
 10
88.6295
 20
192.3917
  0
SEQEND
  0
POLYLINE
  8
LAYER_1
 40
0.0847
 41
0.0847
 66
1
 10
0
 20
0
 30
0
  0
VERTEX
  8
LAYER_1
 10
78.4165
 20
178.6599
  0
VERTEX
  8
LAYER_1
 10
92.1749
 20
192.3917
  0
SEQEND
  0
POLYLINE
  8
LAYER_1
 40
0.0847
 41
0.0847
 66
1
 10
0
 20
0
 30
0
  0
VERTEX
  8
LAYER_1
 10
81.9619
 20
178.6599
  0
VERTEX
  8
LAYER_1
 10
95.6938
 20
192.3917
  0
SEQEND
  0
POLYLINE
  8
LAYER_1
 40
0.0847
 41
0.0847
 66
1
 10
0
 20
0
 30
0
  0
VERTEX
  8
LAYER_1
 10
85.5074
 20
178.6599
  0
VERTEX
  8
LAYER_1
 10
97.2813
 20
190.4338
  0
SEQEND
  0
POLYLINE
  8
LAYER_1
 40
0.0847
 41
0.0847
 66
1
 10
0
 20
0
 30
0
  0
VERTEX
  8
LAYER_1
 10
89.0263
 20
178.6599
  0
VERTEX
  8
LAYER_1
 10
97.2813
 20
186.8884
  0
SEQEND
  0
POLYLINE
  8
LAYER_1
 40
0.0847
 41
0.0847
 66
1
 10
0
 20
0
 30
0
  0
VERTEX
  8
LAYER_1
 10
92.5717
 20
178.6599
  0
VERTEX
  8
LAYER_1
 10
97.2813
 20
183.343
  0
SEQEND
  0
POLYLINE
  8
LAYER_1
 40
0.0847
 41
0.0847
 66
1
 10
0
 20
0
 30
0
  0
VERTEX
  8
LAYER_1
 10
96.0907
 20
178.6599
  0
VERTEX
  8
LAYER_1
 10
97.2813
 20
179.824
  0
SEQEND
  0
POLYLINE
  8
LAYER_1
 40
0.1693
 41
0.1693
 66
1
 10
0
 20
0
 30
0
  0
VERTEX
  8
LAYER_1
 10
95.4028
 20
177.8926
  0
VERTEX
  8
LAYER_1
 10
115.3524
 20
177.8926
  0
VERTEX
  8
LAYER_1
 10
115.3524
 20
178.6599
  0
SEQEND
  0
POLYLINE
  8
LAYER_1
 40
0.1693
 41
0.1693
 66
1
 10
0
 20
0
 30
0
  0
VERTEX
  8
LAYER_1
 10
95.4028
 20
178.6599
  0
VERTEX
  8
LAYER_1
 10
115.3524
 20
178.6599
  0
SEQEND
  0
POLYLINE
  8
LAYER_1
 40
0.1693
 41
0.1693
 66
1
 10
0
 20
0
 30
0
  0
VERTEX
  8
LAYER_1
 10
95.4028
 20
177.8926
  0
VERTEX
  8
LAYER_1
 10
95.4028
 20
178.6599
  0
SEQEND
  0
POLYLINE
  8
LAYER_1
 40
0.0847
 41
0.0847
 66
1
 10
0
 20
0
 30
0
  0
VERTEX
  8
LAYER_1
 10
101.2766
 20
177.8926
  0
VERTEX
  8
LAYER_1
 10
101.2766
 20
178.0778
  0
SEQEND
  0
POLYLINE
  8
LAYER_1
 40
0.0847
 41
0.0847
 66
1
 10
0
 20
0
 30
0
  0
VERTEX
  8
LAYER_1
 10
101.2766
 20
178.4482
  0
VERTEX
  8
LAYER_1
 10
101.2766
 20
178.6599
  0
SEQEND
  0
POLYLINE
  8
LAYER_1
 40
0.0847
 41
0.0847
 66
1
 10
0
 20
0
 30
0
  0
VERTEX
  8
LAYER_1
 10
109.4787
 20
177.8926
  0
VERTEX
  8
LAYER_1
 10
109.4787
 20
178.0778
  0
SEQEND
  0
POLYLINE
  8
LAYER_1
 40
0.0847
 41
0.0847
 66
1
 10
0
 20
0
 30
0
  0
VERTEX
  8
LAYER_1
 10
109.4787
 20
178.4482
  0
VERTEX
  8
LAYER_1
 10
109.4787
 20
178.6599
  0
SEQEND
  0
POLYLINE
  8
LAYER_1
 40
0.1693
 41
0.1693
 66
1
 10
0
 20
0
 30
0
  0
VERTEX
  8
LAYER_1
 10
99.2658
 20
190.963
  0
VERTEX
  8
LAYER_1
 10
111.4895
 20
190.963
  0
VERTEX
  8
LAYER_1
 10
111.4895
 20
191.598
  0
SEQEND
  0
POLYLINE
  8
LAYER_1
 40
0.1693
 41
0.1693
 66
1
 10
0
 20
0
 30
0
  0
VERTEX
  8
LAYER_1
 10
99.2658
 20
191.598
  0
VERTEX
  8
LAYER_1
 10
111.4895
 20
191.598
  0
SEQEND
  0
POLYLINE
  8
LAYER_1
 40
0.1693
 41
0.1693
 66
1
 10
0
 20
0
 30
0
  0
VERTEX
  8
LAYER_1
 10
99.2658
 20
190.963
  0
VERTEX
  8
LAYER_1
 10
99.2658
 20
191.598
  0
SEQEND
  0
POLYLINE
  8
LAYER_1
 40
0.1693
 41
0.1693
 66
1
 10
0
 20
0
 30
0
  0
VERTEX
  8
LAYER_1
 10
100.6416
 20
189.4813
  0
VERTEX
  8
LAYER_1
 10
100.6416
 20
190.963
  0
SEQEND
  0
POLYLINE
  8
LAYER_1
 40
0.1693
 41
0.1693
 66
1
 10
0
 20
0
 30
0
  0
VERTEX
  8
LAYER_1
 10
100.6416
 20
189.4813
  0
VERTEX
  8
LAYER_1
 10
110.1137
 20
189.4813
  0
VERTEX
  8
LAYER_1
 10
110.1137
 20
190.963
  0
SEQEND
  0
POLYLINE
  8
LAYER_1
 40
0.1693
 41
0.1693
 66
1
 10
0
 20
0
 30
0
  0
VERTEX
  8
LAYER_1
 10
99.2658
 20
177.8926
  0
VERTEX
  8
LAYER_1
 10
111.4895
 20
177.8926
  0
SEQEND
  0
POLYLINE
  8
LAYER_1
 40
0.1693
 41
0.1693
 66
1
 10
0
 20
0
 30
0
  0
VERTEX
  8
LAYER_1
 10
111.4895
 20
177.284
  0
VERTEX
  8
LAYER_1
 10
111.4895
 20
177.8925
  0
SEQEND
  0
POLYLINE
  8
LAYER_1
 40
0.1693
 41
0.1693
 66
1
 10
0
 20
0
 30
0
  0
VERTEX
  8
LAYER_1
 10
99.2658
 20
177.284
  0
VERTEX
  8
LAYER_1
 10
111.4895
 20
177.284
  0
SEQEND
  0
POLYLINE
  8
LAYER_1
 40
0.1693
 41
0.1693
 66
1
 10
0
 20
0
 30
0
  0
VERTEX
  8
LAYER_1
 10
110.1137
 20
175.8024
  0
VERTEX
  8
LAYER_1
 10
110.1137
 20
177.284
  0
SEQEND
  0
POLYLINE
  8
LAYER_1
 40
0.1693
 41
0.1693
 66
1
 10
0
 20
0
 30
0
  0
VERTEX
  8
LAYER_1
 10
100.6416
 20
175.8024
  0
VERTEX
  8
LAYER_1
 10
110.1137
 20
175.8024
  0
SEQEND
  0
POLYLINE
  8
LAYER_1
 40
0.1693
 41
0.1693
 66
1
 10
0
 20
0
 30
0
  0
VERTEX
  8
LAYER_1
 10
100.6416
 20
175.8024
  0
VERTEX
  8
LAYER_1
 10
100.6416
 20
177.284
  0
SEQEND
  0
POLYLINE
  8
LAYER_1
 40
0.1693
 41
0.1693
 66
1
 10
0
 20
0
 30
0
  0
VERTEX
  8
LAYER_1
 10
99.2658
 20
177.284
  0
VERTEX
  8
LAYER_1
 10
99.2658
 20
177.8925
  0
SEQEND
  0
POLYLINE
  8
LAYER_1
 40
0.1693
 41
0.1693
 66
1
 10
0
 20
0
 30
0
  0
VERTEX
  8
LAYER_1
 10
101.4618
 20
193.5824
  0
VERTEX
  8
LAYER_1
 10
98.8954
 20
192.0742
  0
SEQEND
  0
POLYLINE
  8
LAYER_1
 40
0.1693
 41
0.1693
 66
1
 10
0
 20
0
 30
0
  0
VERTEX
  8
LAYER_1
 10
98.8954
 20
191.7038
  0
VERTEX
  8
LAYER_1
 10
98.8954
 20
192.0742
  0
SEQEND
  0
POLYLINE
  8
LAYER_1
 40
0.1693
 41
0.1693
 66
1
 10
0
 20
0
 30
0
  0
VERTEX
  8
LAYER_1
 10
98.8954
 20
191.7038
  0
VERTEX
  8
LAYER_1
 10
111.8599
 20
191.7038
  0
VERTEX
  8
LAYER_1
 10
111.8599
 20
192.0742
  0
SEQEND
  0
POLYLINE
  8
LAYER_1
 40
0.1693
 41
0.1693
 66
1
 10
0
 20
0
 30
0
  0
VERTEX
  8
LAYER_1
 10
109.2935
 20
193.5824
  0
VERTEX
  8
LAYER_1
 10
111.8599
 20
192.0742
  0
SEQEND
  0
POLYLINE
  8
LAYER_1
 40
0.1693
 41
0.1693
 66
1
 10
0
 20
0
 30
0
  0
VERTEX
  8
LAYER_1
 10
101.4618
 20
193.5824
  0
VERTEX
  8
LAYER_1
 10
109.2935
 20
193.5824
  0
SEQEND
  0
POLYLINE
  8
LAYER_1
 40
0.0847
 41
0.0847
 66
1
 10
0
 20
0
 30
0
  0
VERTEX
  8
LAYER_1
 10
98.8954
 20
192.0742
  0
VERTEX
  8
LAYER_1
 10
111.8599
 20
192.0742
  0
SEQEND
  0
POLYLINE
  8
LAYER_1
 40
0.1693
 41
0.1693
 66
1
 10
0
 20
0
 30
0
  0
VERTEX
  8
LAYER_1
 10
99.1335
 20
191.598
  0
VERTEX
  8
LAYER_1
 10
99.1335
 20
191.7038
  0
SEQEND
  0
POLYLINE
  8
LAYER_1
 40
0.1693
 41
0.1693
 66
1
 10
0
 20
0
 30
0
  0
VERTEX
  8
LAYER_1
 10
99.1335
 20
191.598
  0
VERTEX
  8
LAYER_1
 10
111.6218
 20
191.598
  0
VERTEX
  8
LAYER_1
 10
111.6218
 20
191.7038
  0
SEQEND
  0
POLYLINE
  8
LAYER_1
 40
0.1693
 41
0.1693
 66
1
 10
0
 20
0
 30
0
  0
VERTEX
  8
LAYER_1
 10
99.1335
 20
191.7038
  0
VERTEX
  8
LAYER_1
 10
111.6218
 20
191.7038
  0
SEQEND
  0
POLYLINE
  8
LAYER_1
 40
0.1693
 41
0.1693
 66
1
 10
0
 20
0
 30
0
  0
VERTEX
  8
LAYER_1
 10
97.6518
 20
193.6353
  0
VERTEX
  8
LAYER_1
 10
97.6518
 20
194.8788
  0
SEQEND
  0
POLYLINE
  8
LAYER_1
 40
0.1693
 41
0.1693
 66
1
 10
0
 20
0
 30
0
  0
VERTEX
  8
LAYER_1
 10
113.1035
 20
193.6353
  0
VERTEX
  8
LAYER_1
 10
113.1035
 20
194.8788
  0
SEQEND
  0
POLYLINE
  8
LAYER_1
 40
0.1693
 41
0.1693
 66
1
 10
0
 20
0
 30
0
  0
VERTEX
  8
LAYER_1
 10
94.1329
 20
193.6353
  0
VERTEX
  8
LAYER_1
 10
97.6518
 20
193.6353
  0
SEQEND
  0
POLYLINE
  8
LAYER_1
 40
0.1693
 41
0.1693
 66
1
 10
0
 20
0
 30
0
  0
VERTEX
  8
LAYER_1
 10
113.1035
 20
193.6353
  0
VERTEX
  8
LAYER_1
 10
116.6224
 20
193.6353
  0
SEQEND
  0
POLYLINE
  8
LAYER_1
 40
0.1693
 41
0.1693
 66
1
 10
0
 20
0
 30
0
  0
VERTEX
  8
LAYER_1
 10
94.1064
 20
193.6353
 42
0.4239099685
  0
VERTEX
  8
LAYER_1
 10
92.8893
 20
192.4182
  0
SEQEND
  0
POLYLINE
  8
LAYER_1
 40
0.1693
 41
0.1693
 66
1
 10
0
 20
0
 30
0
  0
VERTEX
  8
LAYER_1
 10
117.866
 20
192.4182
 42
0.3809751598
  0
VERTEX
  8
LAYER_1
 10
116.6225
 20
193.6353
  0
VERTEX
  8
LAYER_1
 10
116.596
 20
193.6353
  0
SEQEND
  0
POLYLINE
  8
LAYER_1
 40
0.0847
 41
0.0847
 66
1
 10
0
 20
0
 30
0
  0
VERTEX
  8
LAYER_1
 10
117.7601
 20
192.3918
  0
VERTEX
  8
LAYER_1
 10
117.866
 20
192.4976
  0
SEQEND
  0
POLYLINE
  8
LAYER_1
 40
0.0847
 41
0.0847
 66
1
 10
0
 20
0
 30
0
  0
VERTEX
  8
LAYER_1
 10
117.3897
 20
192.3918
  0
VERTEX
  8
LAYER_1
 10
117.7866
 20
192.7886
  0
SEQEND
  0
POLYLINE
  8
LAYER_1
 40
0.0847
 41
0.0847
 66
1
 10
0
 20
0
 30
0
  0
VERTEX
  8
LAYER_1
 10
117.0458
 20
192.3918
  0
VERTEX
  8
LAYER_1
 10
117.6808
 20
193.0267
  0
SEQEND
  0
POLYLINE
  8
LAYER_1
 40
0.0847
 41
0.0847
 66
1
 10
0
 20
0
 30
0
  0
VERTEX
  8
LAYER_1
 10
116.7018
 20
192.3918
  0
VERTEX
  8
LAYER_1
 10
117.522
 20
193.2384
  0
SEQEND
  0
POLYLINE
  8
LAYER_1
 40
0.0847
 41
0.0847
 66
1
 10
0
 20
0
 30
0
  0
VERTEX
  8
LAYER_1
 10
116.3314
 20
192.3918
  0
VERTEX
  8
LAYER_1
 10
117.3368
 20
193.3972
  0
SEQEND
  0
POLYLINE
  8
LAYER_1
 40
0.0847
 41
0.0847
 66
1
 10
0
 20
0
 30
0
  0
VERTEX
  8
LAYER_1
 10
115.9874
 20
192.3918
  0
VERTEX
  8
LAYER_1
 10
117.1251
 20
193.5295
  0
SEQEND
  0
POLYLINE
  8
LAYER_1
 40
0.0847
 41
0.0847
 66
1
 10
0
 20
0
 30
0
  0
VERTEX
  8
LAYER_1
 10
115.6435
 20
192.3918
  0
VERTEX
  8
LAYER_1
 10
116.8606
 20
193.6088
  0
SEQEND
  0
POLYLINE
  8
LAYER_1
 40
0.0847
 41
0.0847
 66
1
 10
0
 20
0
 30
0
  0
VERTEX
  8
LAYER_1
 10
115.2731
 20
192.3918
  0
VERTEX
  8
LAYER_1
 10
116.5166
 20
193.6353
  0
SEQEND
  0
POLYLINE
  8
LAYER_1
 40
0.0847
 41
0.0847
 66
1
 10
0
 20
0
 30
0
  0
VERTEX
  8
LAYER_1
 10
114.9291
 20
192.3918
  0
VERTEX
  8
LAYER_1
 10
116.1726
 20
193.6353
  0
SEQEND
  0
POLYLINE
  8
LAYER_1
 40
0.0847
 41
0.0847
 66
1
 10
0
 20
0
 30
0
  0
VERTEX
  8
LAYER_1
 10
114.5852
 20
192.3918
  0
VERTEX
  8
LAYER_1
 10
115.8287
 20
193.6353
  0
SEQEND
  0
POLYLINE
  8
LAYER_1
 40
0.0847
 41
0.0847
 66
1
 10
0
 20
0
 30
0
  0
VERTEX
  8
LAYER_1
 10
114.2147
 20
192.3918
  0
VERTEX
  8
LAYER_1
 10
115.4583
 20
193.6353
  0
SEQEND
  0
POLYLINE
  8
LAYER_1
 40
0.0847
 41
0.0847
 66
1
 10
0
 20
0
 30
0
  0
VERTEX
  8
LAYER_1
 10
113.8708
 20
192.3918
  0
VERTEX
  8
LAYER_1
 10
115.1143
 20
193.6353
  0
SEQEND
  0
POLYLINE
  8
LAYER_1
 40
0.0847
 41
0.0847
 66
1
 10
0
 20
0
 30
0
  0
VERTEX
  8
LAYER_1
 10
113.5004
 20
192.3918
  0
VERTEX
  8
LAYER_1
 10
114.7704
 20
193.6353
  0
SEQEND
  0
POLYLINE
  8
LAYER_1
 40
0.0847
 41
0.0847
 66
1
 10
0
 20
0
 30
0
  0
VERTEX
  8
LAYER_1
 10
113.1564
 20
192.3918
  0
VERTEX
  8
LAYER_1
 10
114.3999
 20
193.6353
  0
SEQEND
  0
POLYLINE
  8
LAYER_1
 40
0.0847
 41
0.0847
 66
1
 10
0
 20
0
 30
0
  0
VERTEX
  8
LAYER_1
 10
112.8124
 20
192.3918
  0
VERTEX
  8
LAYER_1
 10
114.056
 20
193.6353
  0
SEQEND
  0
POLYLINE
  8
LAYER_1
 40
0.0847
 41
0.0847
 66
1
 10
0
 20
0
 30
0
  0
VERTEX
  8
LAYER_1
 10
112.442
 20
192.3918
  0
VERTEX
  8
LAYER_1
 10
113.712
 20
193.6353
  0
SEQEND
  0
POLYLINE
  8
LAYER_1
 40
0.0847
 41
0.0847
 66
1
 10
0
 20
0
 30
0
  0
VERTEX
  8
LAYER_1
 10
112.0981
 20
192.3918
  0
VERTEX
  8
LAYER_1
 10
113.3416
 20
193.6353
  0
SEQEND
  0
POLYLINE
  8
LAYER_1
 40
0.0847
 41
0.0847
 66
1
 10
0
 20
0
 30
0
  0
VERTEX
  8
LAYER_1
 10
111.7541
 20
192.3918
  0
VERTEX
  8
LAYER_1
 10
113.1035
 20
193.7676
  0
SEQEND
  0
POLYLINE
  8
LAYER_1
 40
0.0847
 41
0.0847
 66
1
 10
0
 20
0
 30
0
  0
VERTEX
  8
LAYER_1
 10
96.9374
 20
192.3918
  0
VERTEX
  8
LAYER_1
 10
99.4245
 20
194.8788
  0
SEQEND
  0
POLYLINE
  8
LAYER_1
 40
0.0847
 41
0.0847
 66
1
 10
0
 20
0
 30
0
  0
VERTEX
  8
LAYER_1
 10
96.567
 20
192.3918
  0
VERTEX
  8
LAYER_1
 10
99.0806
 20
194.8788
  0
SEQEND
  0
POLYLINE
  8
LAYER_1
 40
0.0847
 41
0.0847
 66
1
 10
0
 20
0
 30
0
  0
VERTEX
  8
LAYER_1
 10
96.2231
 20
192.3918
  0
VERTEX
  8
LAYER_1
 10
97.4666
 20
193.6353
  0
SEQEND
  0
POLYLINE
  8
LAYER_1
 40
0.0847
 41
0.0847
 66
1
 10
0
 20
0
 30
0
  0
VERTEX
  8
LAYER_1
 10
97.6518
 20
193.8205
  0
VERTEX
  8
LAYER_1
 10
98.7102
 20
194.8788
  0
SEQEND
  0
POLYLINE
  8
LAYER_1
 40
0.0847
 41
0.0847
 66
1
 10
0
 20
0
 30
0
  0
VERTEX
  8
LAYER_1
 10
95.8791
 20
192.3918
  0
VERTEX
  8
LAYER_1
 10
97.1226
 20
193.6353
  0
SEQEND
  0
POLYLINE
  8
LAYER_1
 40
0.0847
 41
0.0847
 66
1
 10
0
 20
0
 30
0
  0
VERTEX
  8
LAYER_1
 10
97.6518
 20
194.1645
  0
VERTEX
  8
LAYER_1
 10
98.3662
 20
194.8789
  0
SEQEND
  0
POLYLINE
  8
LAYER_1
 40
0.0847
 41
0.0847
 66
1
 10
0
 20
0
 30
0
  0
VERTEX
  8
LAYER_1
 10
95.5087
 20
192.3918
  0
VERTEX
  8
LAYER_1
 10
96.7522
 20
193.6353
  0
SEQEND
  0
POLYLINE
  8
LAYER_1
 40
0.0847
 41
0.0847
 66
1
 10
0
 20
0
 30
0
  0
VERTEX
  8
LAYER_1
 10
97.6518
 20
194.5084
  0
VERTEX
  8
LAYER_1
 10
98.0222
 20
194.8788
  0
SEQEND
  0
POLYLINE
  8
LAYER_1
 40
0.0847
 41
0.0847
 66
1
 10
0
 20
0
 30
0
  0
VERTEX
  8
LAYER_1
 10
95.1647
 20
192.3918
  0
VERTEX
  8
LAYER_1
 10
96.4083
 20
193.6353
  0
SEQEND
  0
POLYLINE
  8
LAYER_1
 40
0.0847
 41
0.0847
 66
1
 10
0
 20
0
 30
0
  0
VERTEX
  8
LAYER_1
 10
97.6518
 20
194.8789
  0
SEQEND
  0
POLYLINE
  8
LAYER_1
 40
0.0847
 41
0.0847
 66
1
 10
0
 20
0
 30
0
  0
VERTEX
  8
LAYER_1
 10
94.8208
 20
192.3918
  0
VERTEX
  8
LAYER_1
 10
96.0643
 20
193.6353
  0
SEQEND
  0
POLYLINE
  8
LAYER_1
 40
0.0847
 41
0.0847
 66
1
 10
0
 20
0
 30
0
  0
VERTEX
  8
LAYER_1
 10
94.4504
 20
192.3918
  0
VERTEX
  8
LAYER_1
 10
95.6939
 20
193.6353
  0
SEQEND
  0
POLYLINE
  8
LAYER_1
 40
0.0847
 41
0.0847
 66
1
 10
0
 20
0
 30
0
  0
VERTEX
  8
LAYER_1
 10
94.1064
 20
192.3918
  0
VERTEX
  8
LAYER_1
 10
95.3499
 20
193.6353
  0
SEQEND
  0
POLYLINE
  8
LAYER_1
 40
0.0847
 41
0.0847
 66
1
 10
0
 20
0
 30
0
  0
VERTEX
  8
LAYER_1
 10
93.736
 20
192.3918
  0
VERTEX
  8
LAYER_1
 10
95.006
 20
193.6353
  0
SEQEND
  0
POLYLINE
  8
LAYER_1
 40
0.0847
 41
0.0847
 66
1
 10
0
 20
0
 30
0
  0
VERTEX
  8
LAYER_1
 10
93.392
 20
192.3918
  0
VERTEX
  8
LAYER_1
 10
94.6356
 20
193.6353
  0
SEQEND
  0
POLYLINE
  8
LAYER_1
 40
0.0847
 41
0.0847
 66
1
 10
0
 20
0
 30
0
  0
VERTEX
  8
LAYER_1
 10
93.0481
 20
192.3918
  0
VERTEX
  8
LAYER_1
 10
94.2916
 20
193.6353
  0
SEQEND
  0
POLYLINE
  8
LAYER_1
 40
0.0847
 41
0.0847
 66
1
 10
0
 20
0
 30
0
  0
VERTEX
  8
LAYER_1
 10
92.9158
 20
192.6299
  0
VERTEX
  8
LAYER_1
 10
93.9212
 20
193.6088
  0
SEQEND
  0
POLYLINE
  8
LAYER_1
 40
0.0847
 41
0.0847
 66
1
 10
0
 20
0
 30
0
  0
VERTEX
  8
LAYER_1
 10
111.0397
 20
192.7357
  0
VERTEX
  8
LAYER_1
 10
113.1035
 20
194.8259
  0
SEQEND
  0
POLYLINE
  8
LAYER_1
 40
0.1693
 41
0.1693
 66
1
 10
0
 20
0
 30
0
  0
VERTEX
  8
LAYER_1
 10
100.8004
 20
193.4765
  0
VERTEX
  8
LAYER_1
 10
99.2658
 20
192.3917
  0
SEQEND
  0
POLYLINE
  8
LAYER_1
 40
0.1693
 41
0.1693
 66
1
 10
0
 20
0
 30
0
  0
VERTEX
  8
LAYER_1
 10
100.7739
 20
193.4765
 42
0.2068959683
  0
VERTEX
  8
LAYER_1
 10
100.8797
 20
193.6617
 42
0.2520611809
  0
VERTEX
  8
LAYER_1
 10
100.7739
 20
193.8469
  0
SEQEND
  0
POLYLINE
  8
LAYER_1
 40
0.1693
 41
0.1693
 66
1
 10
0
 20
0
 30
0
  0
VERTEX
  8
LAYER_1
 10
100.8268
 20
193.847
  0
VERTEX
  8
LAYER_1
 10
99.7156
 20
194.8788
  0
SEQEND
  0
POLYLINE
  8
LAYER_1
 40
0.0847
 41
0.0847
 66
1
 10
0
 20
0
 30
0
  0
VERTEX
  8
LAYER_1
 10
97.6253
 20
192.3918
  0
VERTEX
  8
LAYER_1
 10
99.9272
 20
194.6936
  0
SEQEND
  0
POLYLINE
  8
LAYER_1
 40
0.0847
 41
0.0847
 66
1
 10
0
 20
0
 30
0
  0
VERTEX
  8
LAYER_1
 10
97.2814
 20
192.3918
  0
VERTEX
  8
LAYER_1
 10
99.742
 20
194.8524
  0
SEQEND
  0
POLYLINE
  8
LAYER_1
 40
0.0847
 41
0.0847
 66
1
 10
0
 20
0
 30
0
  0
VERTEX
  8
LAYER_1
 10
97.9958
 20
192.3918
  0
VERTEX
  8
LAYER_1
 10
100.1124
 20
194.5084
  0
SEQEND
  0
POLYLINE
  8
LAYER_1
 40
0.0847
 41
0.0847
 66
1
 10
0
 20
0
 30
0
  0
VERTEX
  8
LAYER_1
 10
98.3397
 20
192.3918
  0
VERTEX
  8
LAYER_1
 10
100.2976
 20
194.3497
  0
SEQEND
  0
POLYLINE
  8
LAYER_1
 40
0.0847
 41
0.0847
 66
1
 10
0
 20
0
 30
0
  0
VERTEX
  8
LAYER_1
 10
98.6837
 20
192.3918
  0
VERTEX
  8
LAYER_1
 10
100.4828
 20
194.1645
  0
SEQEND
  0
POLYLINE
  8
LAYER_1
 40
0.0847
 41
0.0847
 66
1
 10
0
 20
0
 30
0
  0
VERTEX
  8
LAYER_1
 10
99.0541
 20
192.3918
  0
VERTEX
  8
LAYER_1
 10
100.668
 20
194.0057
  0
SEQEND
  0
POLYLINE
  8
LAYER_1
 40
0.0847
 41
0.0847
 66
1
 10
0
 20
0
 30
0
  0
VERTEX
  8
LAYER_1
 10
99.742
 20
192.7357
  0
VERTEX
  8
LAYER_1
 10
100.8268
 20
193.8205
  0
SEQEND
  0
POLYLINE
  8
LAYER_1
 40
0.1693
 41
0.1693
 66
1
 10
0
 20
0
 30
0
  0
VERTEX
  8
LAYER_1
 10
109.9285
 20
193.847
  0
VERTEX
  8
LAYER_1
 10
111.0397
 20
194.8788
  0
SEQEND
  0
POLYLINE
  8
LAYER_1
 40
0.1693
 41
0.1693
 66
1
 10
0
 20
0
 30
0
  0
VERTEX
  8
LAYER_1
 10
109.9285
 20
193.847
 42
0.2090812846
  0
VERTEX
  8
LAYER_1
 10
109.8755
 20
193.6617
 42
0.2702171528
  0
VERTEX
  8
LAYER_1
 10
109.9549
 20
193.503
  0
SEQEND
  0
POLYLINE
  8
LAYER_1
 40
0.1693
 41
0.1693
 66
1
 10
0
 20
0
 30
0
  0
VERTEX
  8
LAYER_1
 10
109.9549
 20
193.4765
  0
VERTEX
  8
LAYER_1
 10
111.4895
 20
192.3917
  0
SEQEND
  0
POLYLINE
  8
LAYER_1
 40
0.0847
 41
0.0847
 66
1
 10
0
 20
0
 30
0
  0
VERTEX
  8
LAYER_1
 10
109.9814
 20
193.4501
  0
VERTEX
  8
LAYER_1
 10
111.4101
 20
194.8788
  0
SEQEND
  0
POLYLINE
  8
LAYER_1
 40
0.0847
 41
0.0847
 66
1
 10
0
 20
0
 30
0
  0
VERTEX
  8
LAYER_1
 10
110.4047
 20
193.1591
  0
VERTEX
  8
LAYER_1
 10
112.1245
 20
194.8788
  0
SEQEND
  0
POLYLINE
  8
LAYER_1
 40
0.0847
 41
0.0847
 66
1
 10
0
 20
0
 30
0
  0
VERTEX
  8
LAYER_1
 10
110.1931
 20
193.3178
  0
VERTEX
  8
LAYER_1
 10
111.7805
 20
194.8788
  0
SEQEND
  0
POLYLINE
  8
LAYER_1
 40
0.0847
 41
0.0847
 66
1
 10
0
 20
0
 30
0
  0
VERTEX
  8
LAYER_1
 10
110.6164
 20
193.0268
  0
VERTEX
  8
LAYER_1
 10
112.4685
 20
194.8788
  0
SEQEND
  0
POLYLINE
  8
LAYER_1
 40
0.0847
 41
0.0847
 66
1
 10
0
 20
0
 30
0
  0
VERTEX
  8
LAYER_1
 10
110.8016
 20
192.868
  0
VERTEX
  8
LAYER_1
 10
112.8389
 20
194.8789
  0
SEQEND
  0
POLYLINE
  8
LAYER_1
 40
0.0847
 41
0.0847
 66
1
 10
0
 20
0
 30
0
  0
VERTEX
  8
LAYER_1
 10
109.8491
 20
193.6882
  0
VERTEX
  8
LAYER_1
 10
111.0662
 20
194.8788
  0
SEQEND
  0
POLYLINE
  8
LAYER_1
 40
0.0847
 41
0.0847
 66
1
 10
0
 20
0
 30
0
  0
VERTEX
  8
LAYER_1
 10
111.2249
 20
192.577
  0
VERTEX
  8
LAYER_1
 10
113.1035
 20
194.4555
  0
SEQEND
  0
POLYLINE
  8
LAYER_1
 40
0.0847
 41
0.0847
 66
1
 10
0
 20
0
 30
0
  0
VERTEX
  8
LAYER_1
 10
111.4366
 20
192.4447
  0
VERTEX
  8
LAYER_1
 10
113.1035
 20
194.1115
  0
SEQEND
  0
POLYLINE
  8
LAYER_1
 40
0.0847
 41
0.0847
 66
1
 10
0
 20
0
 30
0
  0
VERTEX
  8
LAYER_1
 10
99.2129
 20
194.5084
  0
VERTEX
  8
LAYER_1
 10
99.2129
 20
194.5878
  0
SEQEND
  0
POLYLINE
  8
LAYER_1
 40
0.0847
 41
0.0847
 66
1
 10
0
 20
0
 30
0
  0
VERTEX
  8
LAYER_1
 10
99.2129
 20
194.773
  0
VERTEX
  8
LAYER_1
 10
99.2129
 20
194.8788
  0
SEQEND
  0
POLYLINE
  8
LAYER_1
 40
0.0847
 41
0.0847
 66
1
 10
0
 20
0
 30
0
  0
VERTEX
  8
LAYER_1
 10
98.7101
 20
194.5084
  0
VERTEX
  8
LAYER_1
 10
98.7101
 20
194.5878
  0
SEQEND
  0
POLYLINE
  8
LAYER_1
 40
0.0847
 41
0.0847
 66
1
 10
0
 20
0
 30
0
  0
VERTEX
  8
LAYER_1
 10
98.7101
 20
194.773
  0
VERTEX
  8
LAYER_1
 10
98.7101
 20
194.8788
  0
SEQEND
  0
POLYLINE
  8
LAYER_1
 40
0.0847
 41
0.0847
 66
1
 10
0
 20
0
 30
0
  0
VERTEX
  8
LAYER_1
 10
98.7101
 20
194.5084
  0
VERTEX
  8
LAYER_1
 10
98.816
 20
194.5084
  0
SEQEND
  0
POLYLINE
  8
LAYER_1
 40
0.0847
 41
0.0847
 66
1
 10
0
 20
0
 30
0
  0
VERTEX
  8
LAYER_1
 10
99.0806
 20
194.5084
  0
VERTEX
  8
LAYER_1
 10
99.2128
 20
194.5084
  0
SEQEND
  0
POLYLINE
  8
LAYER_1
 40
0.0847
 41
0.0847
 66
1
 10
0
 20
0
 30
0
  0
VERTEX
  8
LAYER_1
 10
95.2705
 20
192.3918
  0
VERTEX
  8
LAYER_1
 10
95.2705
 20
192.4711
  0
SEQEND
  0
POLYLINE
  8
LAYER_1
 40
0.0847
 41
0.0847
 66
1
 10
0
 20
0
 30
0
  0
VERTEX
  8
LAYER_1
 10
95.2705
 20
192.6563
  0
VERTEX
  8
LAYER_1
 10
95.2705
 20
192.7622
  0
VERTEX
  8
LAYER_1
 10
95.3764
 20
192.7622
  0
SEQEND
  0
POLYLINE
  8
LAYER_1
 40
0.0847
 41
0.0847
 66
1
 10
0
 20
0
 30
0
  0
VERTEX
  8
LAYER_1
 10
95.641
 20
192.7622
  0
VERTEX
  8
LAYER_1
 10
95.7732
 20
192.7622
  0
SEQEND
  0
POLYLINE
  8
LAYER_1
 40
0.0847
 41
0.0847
 66
1
 10
0
 20
0
 30
0
  0
VERTEX
  8
LAYER_1
 10
95.7732
 20
192.3917
  0
VERTEX
  8
LAYER_1
 10
95.7732
 20
192.4711
  0
SEQEND
  0
POLYLINE
  8
LAYER_1
 40
0.0847
 41
0.0847
 66
1
 10
0
 20
0
 30
0
  0
VERTEX
  8
LAYER_1
 10
95.7732
 20
192.6563
  0
VERTEX
  8
LAYER_1
 10
95.7732
 20
192.7621
  0
SEQEND
  0
POLYLINE
  8
LAYER_1
 40
0.0847
 41
0.0847
 66
1
 10
0
 20
0
 30
0
  0
VERTEX
  8
LAYER_1
 10
111.5424
 20
194.5084
  0
VERTEX
  8
LAYER_1
 10
111.5424
 20
194.5878
  0
SEQEND
  0
POLYLINE
  8
LAYER_1
 40
0.0847
 41
0.0847
 66
1
 10
0
 20
0
 30
0
  0
VERTEX
  8
LAYER_1
 10
111.5424
 20
194.773
  0
VERTEX
  8
LAYER_1
 10
111.5424
 20
194.8788
  0
SEQEND
  0
POLYLINE
  8
LAYER_1
 40
0.0847
 41
0.0847
 66
1
 10
0
 20
0
 30
0
  0
VERTEX
  8
LAYER_1
 10
111.5424
 20
194.5084
  0
VERTEX
  8
LAYER_1
 10
111.6482
 20
194.5084
  0
SEQEND
  0
POLYLINE
  8
LAYER_1
 40
0.0847
 41
0.0847
 66
1
 10
0
 20
0
 30
0
  0
VERTEX
  8
LAYER_1
 10
111.9128
 20
194.5084
  0
VERTEX
  8
LAYER_1
 10
112.0451
 20
194.5084
  0
VERTEX
  8
LAYER_1
 10
112.0451
 20
194.5878
  0
SEQEND
  0
POLYLINE
  8
LAYER_1
 40
0.0847
 41
0.0847
 66
1
 10
0
 20
0
 30
0
  0
VERTEX
  8
LAYER_1
 10
112.0451
 20
194.773
  0
VERTEX
  8
LAYER_1
 10
112.0451
 20
194.8788
  0
SEQEND
  0
POLYLINE
  8
LAYER_1
 40
0.0847
 41
0.0847
 66
1
 10
0
 20
0
 30
0
  0
VERTEX
  8
LAYER_1
 10
114.982
 20
192.3917
  0
VERTEX
  8
LAYER_1
 10
114.982
 20
192.4711
  0
SEQEND
  0
POLYLINE
  8
LAYER_1
 40
0.0847
 41
0.0847
 66
1
 10
0
 20
0
 30
0
  0
VERTEX
  8
LAYER_1
 10
114.982
 20
192.6563
  0
VERTEX
  8
LAYER_1
 10
114.982
 20
192.7621
  0
VERTEX
  8
LAYER_1
 10
115.0878
 20
192.7621
  0
SEQEND
  0
POLYLINE
  8
LAYER_1
 40
0.0847
 41
0.0847
 66
1
 10
0
 20
0
 30
0
  0
VERTEX
  8
LAYER_1
 10
115.3524
 20
192.7621
  0
VERTEX
  8
LAYER_1
 10
115.4847
 20
192.7621
  0
SEQEND
  0
POLYLINE
  8
LAYER_1
 40
0.0847
 41
0.0847
 66
1
 10
0
 20
0
 30
0
  0
VERTEX
  8
LAYER_1
 10
115.4847
 20
192.3917
  0
VERTEX
  8
LAYER_1
 10
115.4847
 20
192.4711
  0
SEQEND
  0
POLYLINE
  8
LAYER_1
 40
0.0847
 41
0.0847
 66
1
 10
0
 20
0
 30
0
  0
VERTEX
  8
LAYER_1
 10
115.4847
 20
192.6563
  0
VERTEX
  8
LAYER_1
 10
115.4847
 20
192.7621
  0
SEQEND
  0
POLYLINE
  8
LAYER_1
 40
0.1693
 41
0.1693
 66
1
 10
0
 20
0
 30
0
  0
VERTEX
  8
LAYER_1
 10
97.6518
 20
194.8788
  0
VERTEX
  8
LAYER_1
 10
101.0914
 20
194.8788
  0
SEQEND
  0
POLYLINE
  8
LAYER_1
 40
0.1693
 41
0.1693
 66
1
 10
0
 20
0
 30
0
  0
VERTEX
  8
LAYER_1
 10
109.6639
 20
194.8788
  0
VERTEX
  8
LAYER_1
 10
113.1035
 20
194.8788
  0
SEQEND
  0
POLYLINE
  8
LAYER_1
 40
0.1693
 41
0.1693
 66
1
 10
0
 20
0
 30
0
  0
VERTEX
  8
LAYER_1
 10
92.8893
 20
192.3917
  0
VERTEX
  8
LAYER_1
 10
99.4245
 20
192.3917
  0
SEQEND
  0
POLYLINE
  8
LAYER_1
 40
0.1693
 41
0.1693
 66
1
 10
0
 20
0
 30
0
  0
VERTEX
  8
LAYER_1
 10
111.3308
 20
192.3917
  0
VERTEX
  8
LAYER_1
 10
117.866
 20
192.3917
  0
SEQEND
  0
POLYLINE
  8
LAYER_1
 40
0.0847
 41
0.0847
 66
1
 10
0
 20
0
 30
0
  0
VERTEX
  8
LAYER_1
 10
101.5941
 20
193.2913
  0
VERTEX
  8
LAYER_1
 10
101.5676
 20
193.3178
  0
SEQEND
  0
POLYLINE
  8
LAYER_1
 40
0.0847
 41
0.0847
 66
1
 10
0
 20
0
 30
0
  0
VERTEX
  8
LAYER_1
 10
101.4618
 20
193.4236
  0
VERTEX
  8
LAYER_1
 10
101.4089
 20
193.4765
  0
SEQEND
  0
POLYLINE
  8
LAYER_1
 40
0.0847
 41
0.0847
 66
1
 10
0
 20
0
 30
0
  0
VERTEX
  8
LAYER_1
 10
109.1612
 20
193.2913
  0
VERTEX
  8
LAYER_1
 10
109.1876
 20
193.3178
  0
SEQEND
  0
POLYLINE
  8
LAYER_1
 40
0.0847
 41
0.0847
 66
1
 10
0
 20
0
 30
0
  0
VERTEX
  8
LAYER_1
 10
109.2935
 20
193.4236
  0
VERTEX
  8
LAYER_1
 10
109.3464
 20
193.4765
  0
SEQEND
  0
POLYLINE
  8
LAYER_1
 40
0.0847
 41
0.0847
 66
1
 10
0
 20
0
 30
0
  0
VERTEX
  8
LAYER_1
 10
105.3776
 20
189.4813
  0
VERTEX
  8
LAYER_1
 10
105.3776
 20
190.963
  0
SEQEND
  0
POLYLINE
  8
LAYER_1
 40
0.0847
 41
0.0847
 66
1
 10
0
 20
0
 30
0
  0
VERTEX
  8
LAYER_1
 10
105.3776
 20
175.8024
  0
VERTEX
  8
LAYER_1
 10
105.3776
 20
177.284
  0
SEQEND
  0
POLYLINE
  8
LAYER_1
 40
0.0847
 41
0.0847
 66
1
 10
0
 20
0
 30
0
  0
VERTEX
  8
LAYER_1
 10
101.5941
 20
193.2913
  0
VERTEX
  8
LAYER_1
 10
102.2026
 20
193.2913
  0
SEQEND
  0
POLYLINE
  8
LAYER_1
 40
0.0847
 41
0.0847
 66
1
 10
0
 20
0
 30
0
  0
VERTEX
  8
LAYER_1
 10
103.4726
 20
193.2913
  0
VERTEX
  8
LAYER_1
 10
104.7426
 20
193.2913
  0
SEQEND
  0
POLYLINE
  8
LAYER_1
 40
0.0847
 41
0.0847
 66
1
 10
0
 20
0
 30
0
  0
VERTEX
  8
LAYER_1
 10
105.9862
 20
193.2913
  0
VERTEX
  8
LAYER_1
 10
107.2562
 20
193.2913
  0
SEQEND
  0
POLYLINE
  8
LAYER_1
 40
0.0847
 41
0.0847
 66
1
 10
0
 20
0
 30
0
  0
VERTEX
  8
LAYER_1
 10
108.5262
 20
193.2913
  0
VERTEX
  8
LAYER_1
 10
109.1612
 20
193.2913
  0
SEQEND
  0
POLYLINE
  8
LAYER_1
 40
0.0847
 41
0.0847
 66
1
 10
0
 20
0
 30
0
  0
VERTEX
  8
LAYER_1
 10
101.4089
 20
193.4765
  0
VERTEX
  8
LAYER_1
 10
102.0704
 20
193.4765
  0
SEQEND
  0
POLYLINE
  8
LAYER_1
 40
0.0847
 41
0.0847
 66
1
 10
0
 20
0
 30
0
  0
VERTEX
  8
LAYER_1
 10
103.3933
 20
193.4765
  0
VERTEX
  8
LAYER_1
 10
104.7162
 20
193.4765
  0
SEQEND
  0
POLYLINE
  8
LAYER_1
 40
0.0847
 41
0.0847
 66
1
 10
0
 20
0
 30
0
  0
VERTEX
  8
LAYER_1
 10
106.0391
 20
193.4765
  0
VERTEX
  8
LAYER_1
 10
107.362
 20
193.4765
  0
SEQEND
  0
POLYLINE
  8
LAYER_1
 40
0.0847
 41
0.0847
 66
1
 10
0
 20
0
 30
0
  0
VERTEX
  8
LAYER_1
 10
108.685
 20
193.4765
  0
VERTEX
  8
LAYER_1
 10
109.3464
 20
193.4765
  0
SEQEND
  0
POLYLINE
  8
LAYER_1
 40
0.1693
 41
0.1693
 66
1
 10
0
 20
0
 30
0
  0
VERTEX
  8
LAYER_1
 10
101.5941
 20
193.2913
  0
VERTEX
  8
LAYER_1
 10
101.4089
 20
193.4765
  0
SEQEND
  0
POLYLINE
  8
LAYER_1
 40
0.1693
 41
0.1693
 66
1
 10
0
 20
0
 30
0
  0
VERTEX
  8
LAYER_1
 10
109.1612
 20
193.2913
  0
VERTEX
  8
LAYER_1
 10
109.3464
 20
193.4765
  0
SEQEND
  0
POLYLINE
  8
LAYER_1
 40
0.1693
 41
0.1693
 66
1
 10
0
 20
0
 30
0
  0
VERTEX
  8
LAYER_1
 10
98.816
 20
197.7363
 42
0.390056353
  0
VERTEX
  8
LAYER_1
 10
98.6837
 20
197.6305
  0
SEQEND
  0
POLYLINE
  8
LAYER_1
 40
0.1693
 41
0.1693
 66
1
 10
0
 20
0
 30
0
  0
VERTEX
  8
LAYER_1
 10
98.6837
 20
197.5776
  0
VERTEX
  8
LAYER_1
 10
98.6837
 20
197.5511
 42
0.2987960569
  0
VERTEX
  8
LAYER_1
 10
98.7631
 20
197.4453
  0
SEQEND
  0
POLYLINE
  8
LAYER_1
 40
0.1693
 41
0.1693
 66
1
 10
0
 20
0
 30
0
  0
VERTEX
  8
LAYER_1
 10
98.6837
 20
197.5511
  0
VERTEX
  8
LAYER_1
 10
98.6837
 20
197.6041
  0
SEQEND
  0
POLYLINE
  8
LAYER_1
 40
0.1693
 41
0.1693
 66
1
 10
0
 20
0
 30
0
  0
VERTEX
  8
LAYER_1
 10
98.7895
 20
197.4453
  0
VERTEX
  8
LAYER_1
 10
100.0066
 20
197.022
  0
SEQEND
  0
POLYLINE
  8
LAYER_1
 40
0.1693
 41
0.1693
 66
1
 10
0
 20
0
 30
0
  0
VERTEX
  8
LAYER_1
 10
100.7739
 20
196.0959
 42
0.2767774771
  0
VERTEX
  8
LAYER_1
 10
99.9537
 20
197.022
  0
SEQEND
  0
POLYLINE
  8
LAYER_1
 40
0.1693
 41
0.1693
 66
1
 10
0
 20
0
 30
0
  0
VERTEX
  8
LAYER_1
 10
98.8424
 20
197.7363
  0
VERTEX
  8
LAYER_1
 10
111.9128
 20
197.7363
  0
SEQEND
  0
POLYLINE
  8
LAYER_1
 40
0.1693
 41
0.1693
 66
1
 10
0
 20
0
 30
0
  0
VERTEX
  8
LAYER_1
 10
112.0451
 20
197.6305
 42
0.4415047716
  0
VERTEX
  8
LAYER_1
 10
111.9393
 20
197.7363
  0
VERTEX
  8
LAYER_1
 10
111.8864
 20
197.7363
  0
SEQEND
  0
POLYLINE
  8
LAYER_1
 40
0.1693
 41
0.1693
 66
1
 10
0
 20
0
 30
0
  0
VERTEX
  8
LAYER_1
 10
111.9393
 20
197.4453
 42
0.390056353
  0
VERTEX
  8
LAYER_1
 10
112.0716
 20
197.5511
 42
0.5037895123
  0
VERTEX
  8
LAYER_1
 10
112.0451
 20
197.5776
  0
SEQEND
  0
POLYLINE
  8
LAYER_1
 40
0.1693
 41
0.1693
 66
1
 10
0
 20
0
 30
0
  0
VERTEX
  8
LAYER_1
 10
112.0716
 20
197.5511
  0
VERTEX
  8
LAYER_1
 10
112.0716
 20
197.6041
  0
SEQEND
  0
POLYLINE
  8
LAYER_1
 40
0.1693
 41
0.1693
 66
1
 10
0
 20
0
 30
0
  0
VERTEX
  8
LAYER_1
 10
111.9658
 20
197.4453
  0
VERTEX
  8
LAYER_1
 10
110.7487
 20
197.022
 42
0.2568190919
  0
VERTEX
  8
LAYER_1
 10
109.9549
 20
196.0959
  0
SEQEND
  0
POLYLINE
  8
LAYER_1
 40
0.1693
 41
0.1693
 66
1
 10
0
 20
0
 30
0
  0
VERTEX
  8
LAYER_1
 10
101.4089
 20
193.4766
  0
VERTEX
  8
LAYER_1
 10
100.8268
 20
196.0959
  0
SEQEND
  0
POLYLINE
  8
LAYER_1
 40
0.1693
 41
0.1693
 66
1
 10
0
 20
0
 30
0
  0
VERTEX
  8
LAYER_1
 10
109.3464
 20
193.4766
  0
VERTEX
  8
LAYER_1
 10
109.9285
 20
196.0959
  0
SEQEND
  0
POLYLINE
  8
LAYER_1
 40
0.0847
 41
0.0847
 66
1
 10
0
 20
0
 30
0
  0
VERTEX
  8
LAYER_1
 10
100.0066
 20
197.022
  0
VERTEX
  8
LAYER_1
 10
110.7487
 20
197.022
  0
SEQEND
  0
POLYLINE
  8
LAYER_1
 40
0.0847
 41
0.0847
 66
1
 10
0
 20
0
 30
0
  0
VERTEX
  8
LAYER_1
 10
98.7895
 20
197.4453
  0
VERTEX
  8
LAYER_1
 10
111.9657
 20
197.4453
  0
SEQEND
  0
POLYLINE
  8
LAYER_1
 40
0.1693
 41
0.1693
 66
1
 10
0
 20
0
 30
0
  0
VERTEX
  8
LAYER_1
 10
101.7264
 20
189.3755
  0
VERTEX
  8
LAYER_1
 10
101.4089
 20
189.1109
  0
VERTEX
  8
LAYER_1
 10
101.7264
 20
188.8728
  0
VERTEX
  8
LAYER_1
 10
101.4089
 20
188.6082
  0
VERTEX
  8
LAYER_1
 10
101.7264
 20
188.3701
  0
VERTEX
  8
LAYER_1
 10
101.4089
 20
188.1055
  0
VERTEX
  8
LAYER_1
 10
101.7264
 20
187.8674
  0
VERTEX
  8
LAYER_1
 10
101.4089
 20
187.6028
  0
VERTEX
  8
LAYER_1
 10
101.7264
 20
187.3646
  0
VERTEX
  8
LAYER_1
 10
101.4089
 20
187.1001
  0
VERTEX
  8
LAYER_1
 10
101.7264
 20
186.862
  0
VERTEX
  8
LAYER_1
 10
101.4089
 20
186.6238
  0
VERTEX
  8
LAYER_1
 10
101.7264
 20
186.3592
  0
VERTEX
  8
LAYER_1
 10
101.4089
 20
186.1211
  0
VERTEX
  8
LAYER_1
 10
101.7264
 20
185.883
  0
VERTEX
  8
LAYER_1
 10
101.4089
 20
185.6184
  0
VERTEX
  8
LAYER_1
 10
101.7264
 20
185.3803
  0
VERTEX
  8
LAYER_1
 10
101.4089
 20
185.1157
  0
VERTEX
  8
LAYER_1
 10
101.7264
 20
184.8776
  0
VERTEX
  8
LAYER_1
 10
101.4089
 20
184.613
  0
VERTEX
  8
LAYER_1
 10
101.7264
 20
184.3749
  0
VERTEX
  8
LAYER_1
 10
101.4089
 20
184.1103
  0
VERTEX
  8
LAYER_1
 10
101.7264
 20
183.8721
  0
VERTEX
  8
LAYER_1
 10
101.4089
 20
183.6076
  0
VERTEX
  8
LAYER_1
 10
101.7264
 20
183.3694
  0
VERTEX
  8
LAYER_1
 10
101.4089
 20
183.1049
  0
VERTEX
  8
LAYER_1
 10
101.7264
 20
182.8667
  0
VERTEX
  8
LAYER_1
 10
101.4089
 20
182.6021
  0
VERTEX
  8
LAYER_1
 10
101.7264
 20
182.364
  0
VERTEX
  8
LAYER_1
 10
101.4089
 20
182.1259
  0
VERTEX
  8
LAYER_1
 10
101.7264
 20
181.8613
  0
VERTEX
  8
LAYER_1
 10
101.4089
 20
181.6232
  0
VERTEX
  8
LAYER_1
 10
101.7264
 20
181.3586
  0
VERTEX
  8
LAYER_1
 10
101.4089
 20
181.1205
  0
VERTEX
  8
LAYER_1
 10
101.7264
 20
180.8824
  0
VERTEX
  8
LAYER_1
 10
101.4089
 20
180.6178
  0
VERTEX
  8
LAYER_1
 10
101.7264
 20
180.3797
  0
VERTEX
  8
LAYER_1
 10
101.4089
 20
180.1151
  0
VERTEX
  8
LAYER_1
 10
101.7264
 20
179.8769
  0
VERTEX
  8
LAYER_1
 10
101.4089
 20
179.6124
  0
VERTEX
  8
LAYER_1
 10
101.7264
 20
179.3742
  0
VERTEX
  8
LAYER_1
 10
101.4089
 20
179.1097
  0
VERTEX
  8
LAYER_1
 10
101.7264
 20
178.8715
  0
SEQEND
  0
POLYLINE
  8
LAYER_1
 40
0.1693
 41
0.1693
 66
1
 10
0
 20
0
 30
0
  0
VERTEX
  8
LAYER_1
 10
101.4089
 20
175.6172
  0
VERTEX
  8
LAYER_1
 10
101.7264
 20
175.379
  0
VERTEX
  8
LAYER_1
 10
101.4089
 20
175.1144
  0
VERTEX
  8
LAYER_1
 10
101.7264
 20
174.8763
  0
VERTEX
  8
LAYER_1
 10
101.4089
 20
174.6117
  0
VERTEX
  8
LAYER_1
 10
101.7264
 20
174.3736
  0
VERTEX
  8
LAYER_1
 10
101.4089
 20
174.109
  0
VERTEX
  8
LAYER_1
 10
101.7264
 20
173.8709
  0
VERTEX
  8
LAYER_1
 10
101.4089
 20
173.6063
  0
VERTEX
  8
LAYER_1
 10
101.7264
 20
173.3682
  0
SEQEND
  0
POLYLINE
  8
LAYER_1
 40
0.1693
 41
0.1693
 66
1
 10
0
 20
0
 30
0
  0
VERTEX
  8
LAYER_1
 10
109.3464
 20
189.3226
  0
VERTEX
  8
LAYER_1
 10
109.0289
 20
189.058
  0
VERTEX
  8
LAYER_1
 10
109.3464
 20
188.8199
  0
VERTEX
  8
LAYER_1
 10
109.0289
 20
188.5553
  0
VERTEX
  8
LAYER_1
 10
109.3464
 20
188.3172
  0
VERTEX
  8
LAYER_1
 10
109.0289
 20
188.0526
  0
VERTEX
  8
LAYER_1
 10
109.3464
 20
187.8144
  0
VERTEX
  8
LAYER_1
 10
109.0289
 20
187.5499
  0
VERTEX
  8
LAYER_1
 10
109.3464
 20
187.3117
  0
VERTEX
  8
LAYER_1
 10
109.0289
 20
187.0736
  0
VERTEX
  8
LAYER_1
 10
109.3464
 20
186.809
  0
VERTEX
  8
LAYER_1
 10
109.0289
 20
186.5709
  0
VERTEX
  8
LAYER_1
 10
109.3464
 20
186.3328
  0
VERTEX
  8
LAYER_1
 10
109.0289
 20
186.0682
  0
VERTEX
  8
LAYER_1
 10
109.3464
 20
185.8301
  0
VERTEX
  8
LAYER_1
 10
109.0289
 20
185.5655
  0
VERTEX
  8
LAYER_1
 10
109.3464
 20
185.3274
  0
VERTEX
  8
LAYER_1
 10
109.0289
 20
185.0628
  0
VERTEX
  8
LAYER_1
 10
109.3464
 20
184.8247
  0
VERTEX
  8
LAYER_1
 10
109.0289
 20
184.5601
  0
VERTEX
  8
LAYER_1
 10
109.3464
 20
184.3219
  0
VERTEX
  8
LAYER_1
 10
109.0289
 20
184.0574
  0
VERTEX
  8
LAYER_1
 10
109.3464
 20
183.8192
  0
VERTEX
  8
LAYER_1
 10
109.0289
 20
183.5547
  0
VERTEX
  8
LAYER_1
 10
109.3464
 20
183.3165
  0
VERTEX
  8
LAYER_1
 10
109.0289
 20
183.0519
  0
VERTEX
  8
LAYER_1
 10
109.3464
 20
182.8138
  0
VERTEX
  8
LAYER_1
 10
109.0289
 20
182.5757
  0
VERTEX
  8
LAYER_1
 10
109.3464
 20
182.3111
  0
VERTEX
  8
LAYER_1
 10
109.0289
 20
182.073
  0
VERTEX
  8
LAYER_1
 10
109.3464
 20
181.8084
  0
VERTEX
  8
LAYER_1
 10
109.0289
 20
181.5703
  0
VERTEX
  8
LAYER_1
 10
109.3464
 20
181.3321
  0
VERTEX
  8
LAYER_1
 10
109.0289
 20
181.0676
  0
VERTEX
  8
LAYER_1
 10
109.3464
 20
180.8295
  0
VERTEX
  8
LAYER_1
 10
109.0289
 20
180.5649
  0
VERTEX
  8
LAYER_1
 10
109.3464
 20
180.3267
  0
VERTEX
  8
LAYER_1
 10
109.0289
 20
180.0622
  0
VERTEX
  8
LAYER_1
 10
109.3464
 20
179.824
  0
VERTEX
  8
LAYER_1
 10
109.0289
 20
179.5595
  0
VERTEX
  8
LAYER_1
 10
109.3464
 20
179.3213
  0
VERTEX
  8
LAYER_1
 10
109.0289
 20
179.0567
  0
VERTEX
  8
LAYER_1
 10
109.3464
 20
178.8186
  0
SEQEND
  0
POLYLINE
  8
LAYER_1
 40
0.1693
 41
0.1693
 66
1
 10
0
 20
0
 30
0
  0
VERTEX
  8
LAYER_1
 10
109.0289
 20
175.5642
  0
VERTEX
  8
LAYER_1
 10
109.3464
 20
175.3261
  0
VERTEX
  8
LAYER_1
 10
109.0289
 20
175.0615
  0
VERTEX
  8
LAYER_1
 10
109.3464
 20
174.8234
  0
VERTEX
  8
LAYER_1
 10
109.0289
 20
174.5588
  0
VERTEX
  8
LAYER_1
 10
109.3464
 20
174.3207
  0
VERTEX
  8
LAYER_1
 10
109.0289
 20
174.0561
  0
VERTEX
  8
LAYER_1
 10
109.3464
 20
173.818
  0
VERTEX
  8
LAYER_1
 10
109.0289
 20
173.5534
  0
VERTEX
  8
LAYER_1
 10
109.3464
 20
173.3153
  0
SEQEND
  0
POLYLINE
  8
LAYER_1
 40
0.1693
 41
0.1693
 66
1
 10
0
 20
0
 30
0
  0
VERTEX
  8
LAYER_1
 10
109.0024
 20
173.0242
  0
VERTEX
  8
LAYER_1
 10
108.8701
 20
172.7332
  0
SEQEND
  0
POLYLINE
  8
LAYER_1
 40
0.1693
 41
0.1693
 66
1
 10
0
 20
0
 30
0
  0
VERTEX
  8
LAYER_1
 10
109.3464
 20
173.3153
  0
VERTEX
  8
LAYER_1
 10
109.0024
 20
173.0242
  0
SEQEND
  0
POLYLINE
  8
LAYER_1
 40
0.1693
 41
0.1693
 66
1
 10
0
 20
0
 30
0
  0
VERTEX
  8
LAYER_1
 10
101.7264
 20
173.3682
  0
VERTEX
  8
LAYER_1
 10
101.4089
 20
173.1036
  0
VERTEX
  8
LAYER_1
 10
109.0818
 20
173.1036
  0
SEQEND
  0
POLYLINE
  8
LAYER_1
 40
0.1693
 41
0.1693
 66
1
 10
0
 20
0
 30
0
  0
VERTEX
  8
LAYER_1
 10
101.7264
 20
173.1036
  0
VERTEX
  8
LAYER_1
 10
101.8851
 20
172.7332
  0
VERTEX
  8
LAYER_1
 10
108.8701
 20
172.7332
  0
SEQEND
  0
POLYLINE
  8
LAYER_1
 40
0.1693
 41
0.1693
 66
1
 10
0
 20
0
 30
0
  0
VERTEX
  8
LAYER_1
 10
109.1347
 20
189.4813
  0
VERTEX
  8
LAYER_1
 10
109.3464
 20
189.3226
  0
SEQEND
  0
POLYLINE
  8
LAYER_1
 40
0.1693
 41
0.1693
 66
1
 10
0
 20
0
 30
0
  0
VERTEX
  8
LAYER_1
 10
101.5676
 20
189.4813
  0
VERTEX
  8
LAYER_1
 10
101.7264
 20
189.3755
  0
SEQEND
  0
POLYLINE
  8
LAYER_1
 40
0.1693
 41
0.1693
 66
1
 10
0
 20
0
 30
0
  0
VERTEX
  8
LAYER_1
 10
101.647
 20
175.8024
  0
VERTEX
  8
LAYER_1
 10
101.4089
 20
175.6171
  0
SEQEND
  0
POLYLINE
  8
LAYER_1
 40
0.1693
 41
0.1693
 66
1
 10
0
 20
0
 30
0
  0
VERTEX
  8
LAYER_1
 10
109.3199
 20
175.8024
  0
VERTEX
  8
LAYER_1
 10
109.0289
 20
175.5642
  0
SEQEND
  0
POLYLINE
  8
LAYER_1
 40
0.1693
 41
0.1693
 66
1
 10
0
 20
0
 30
0
  0
VERTEX
  8
LAYER_1
 10
101.7264
 20
178.8715
  0
VERTEX
  8
LAYER_1
 10
101.4618
 20
178.6599
  0
SEQEND
  0
POLYLINE
  8
LAYER_1
 40
0.1693
 41
0.1693
 66
1
 10
0
 20
0
 30
0
  0
VERTEX
  8
LAYER_1
 10
109.3464
 20
178.8186
  0
VERTEX
  8
LAYER_1
 10
109.1347
 20
178.6599
  0
SEQEND
  0
POLYLINE
  8
LAYER_1
 40
0.1693
 41
0.1693
 66
1
 10
0
 20
0
 30
0
  0
VERTEX
  8
LAYER_1
 10
101.1443
 20
199.4826
  0
VERTEX
  8
LAYER_1
 10
104.0282
 20
199.4826
  0
SEQEND
  0
POLYLINE
  8
LAYER_1
 40
0.1693
 41
0.1693
 66
1
 10
0
 20
0
 30
0
  0
VERTEX
  8
LAYER_1
 10
106.727
 20
199.4826
  0
VERTEX
  8
LAYER_1
 10
109.611
 20
199.4826
  0
SEQEND
  0
POLYLINE
  8
LAYER_1
 40
0.1693
 41
0.1693
 66
1
 10
0
 20
0
 30
0
  0
VERTEX
  8
LAYER_1
 10
98.6308
 20
199.4826
  0
VERTEX
  8
LAYER_1
 10
112.1245
 20
199.4826
  0
SEQEND
  0
POLYLINE
  8
LAYER_1
 40
0.1693
 41
0.1693
 66
1
 10
0
 20
0
 30
0
  0
VERTEX
  8
LAYER_1
 10
98.6308
 20
199.9853
  0
VERTEX
  8
LAYER_1
 10
112.1245
 20
199.9853
  0
SEQEND
  0
POLYLINE
  8
LAYER_1
 40
0.1693
 41
0.1693
 66
1
 10
0
 20
0
 30
0
  0
VERTEX
  8
LAYER_1
 10
98.6308
 20
199.4826
  0
VERTEX
  8
LAYER_1
 10
98.6308
 20
200.0382
  0
SEQEND
  0
POLYLINE
  8
LAYER_1
 40
0.1693
 41
0.1693
 66
1
 10
0
 20
0
 30
0
  0
VERTEX
  8
LAYER_1
 10
98.816
 20
200.2763
 42
0.375013771
  0
VERTEX
  8
LAYER_1
 10
98.6572
 20
200.0646
  0
SEQEND
  0
POLYLINE
  8
LAYER_1
 40
0.1693
 41
0.1693
 66
1
 10
0
 20
0
 30
0
  0
VERTEX
  8
LAYER_1
 10
112.1245
 20
199.4826
  0
VERTEX
  8
LAYER_1
 10
112.1245
 20
200.0382
  0
SEQEND
  0
POLYLINE
  8
LAYER_1
 40
0.1693
 41
0.1693
 66
1
 10
0
 20
0
 30
0
  0
VERTEX
  8
LAYER_1
 10
111.9128
 20
200.2763
 42
0.06274937182
  0
VERTEX
  8
LAYER_1
 10
107.0943
 20
201.2656
 42
0.020133
  0
VERTEX
  8
LAYER_1
 10
105.3776
 20
201.3346
 42
0.06028261293
  0
VERTEX
  8
LAYER_1
 10
100.3449
 20
200.7305
 42
0.02064739994
  0
VERTEX
  8
LAYER_1
 10
98.7895
 20
200.2763
  0
SEQEND
  0
POLYLINE
  8
LAYER_1
 40
0.1693
 41
0.1693
 66
1
 10
0
 20
0
 30
0
  0
VERTEX
  8
LAYER_1
 10
112.0981
 20
200.0647
 42
0.3286963177
  0
VERTEX
  8
LAYER_1
 10
111.8864
 20
200.2763
  0
SEQEND
  0
POLYLINE
  8
LAYER_1
 40
0.0847
 41
0.0847
 66
1
 10
0
 20
0
 30
0
  0
VERTEX
  8
LAYER_1
 10
98.7101
 20
200.2234
  0
VERTEX
  8
LAYER_1
 10
112.0451
 20
200.2234
  0
SEQEND
  0
POLYLINE
  8
LAYER_1
 40
0.1693
 41
0.1693
 66
1
 10
0
 20
0
 30
0
  0
VERTEX
  8
LAYER_1
 10
101.1443
 20
197.7363
  0
VERTEX
  8
LAYER_1
 10
101.1443
 20
199.4826
  0
SEQEND
  0
POLYLINE
  8
LAYER_1
 40
0.1693
 41
0.1693
 66
1
 10
0
 20
0
 30
0
  0
VERTEX
  8
LAYER_1
 10
104.0283
 20
197.7363
  0
VERTEX
  8
LAYER_1
 10
104.0283
 20
199.4826
  0
SEQEND
  0
POLYLINE
  8
LAYER_1
 40
0.1693
 41
0.1693
 66
1
 10
0
 20
0
 30
0
  0
VERTEX
  8
LAYER_1
 10
106.727
 20
197.7363
  0
VERTEX
  8
LAYER_1
 10
106.727
 20
199.4826
  0
SEQEND
  0
POLYLINE
  8
LAYER_1
 40
0.1693
 41
0.1693
 66
1
 10
0
 20
0
 30
0
  0
VERTEX
  8
LAYER_1
 10
109.611
 20
197.7363
  0
VERTEX
  8
LAYER_1
 10
109.611
 20
199.4826
  0
SEQEND
  0
TEXT
  8
LAYER_1
 10
157.7384
 20
210.5426
 11
157.7384
 21
210.5426
 40
3.2224
 41
0.5
  1
örÉàû┌ÄM
  0
POLYLINE
  8
LAYER_1
 40
0.1693
 41
0.1693
 66
1
 10
0
 20
0
 30
0
  0
VERTEX
  8
LAYER_1
 10
99.1335
 20
197.4453
  0
VERTEX
  8
LAYER_1
 10
111.6218
 20
197.4453
  0
SEQEND
  0
POLYLINE
  8
LAYER_1
 40
0.1693
 41
0.1693
 66
1
 10
0
 20
0
 30
0
  0
VERTEX
  8
LAYER_1
 10
99.1335
 20
197.1807
  0
VERTEX
  8
LAYER_1
 10
99.1335
 20
197.4453
  0
SEQEND
  0
POLYLINE
  8
LAYER_1
 40
0.1693
 41
0.1693
 66
1
 10
0
 20
0
 30
0
  0
VERTEX
  8
LAYER_1
 10
99.1335
 20
197.1807
  0
VERTEX
  8
LAYER_1
 10
111.6218
 20
197.1807
  0
VERTEX
  8
LAYER_1
 10
111.6218
 20
197.4453
  0
SEQEND
  0
POLYLINE
  8
LAYER_1
 40
0.0847
 41
0.0847
 66
1
 10
0
 20
0
 30
0
  0
VERTEX
  8
LAYER_1
 10
99.3451
 20
197.4453
  0
VERTEX
  8
LAYER_1
 10
99.5833
 20
197.1807
  0
SEQEND
  0
POLYLINE
  8
LAYER_1
 40
0.0847
 41
0.0847
 66
1
 10
0
 20
0
 30
0
  0
VERTEX
  8
LAYER_1
 10
100.4035
 20
197.4453
  0
VERTEX
  8
LAYER_1
 10
100.6416
 20
197.1807
  0
SEQEND
  0
POLYLINE
  8
LAYER_1
 40
0.0847
 41
0.0847
 66
1
 10
0
 20
0
 30
0
  0
VERTEX
  8
LAYER_1
 10
101.4618
 20
197.4453
  0
VERTEX
  8
LAYER_1
 10
101.6999
 20
197.1807
  0
SEQEND
  0
POLYLINE
  8
LAYER_1
 40
0.0847
 41
0.0847
 66
1
 10
0
 20
0
 30
0
  0
VERTEX
  8
LAYER_1
 10
102.5201
 20
197.4453
  0
VERTEX
  8
LAYER_1
 10
102.7582
 20
197.1807
  0
SEQEND
  0
POLYLINE
  8
LAYER_1
 40
0.0847
 41
0.0847
 66
1
 10
0
 20
0
 30
0
  0
VERTEX
  8
LAYER_1
 10
103.5785
 20
197.4453
  0
VERTEX
  8
LAYER_1
 10
103.8166
 20
197.1807
  0
SEQEND
  0
POLYLINE
  8
LAYER_1
 40
0.0847
 41
0.0847
 66
1
 10
0
 20
0
 30
0
  0
VERTEX
  8
LAYER_1
 10
104.6368
 20
197.4453
  0
VERTEX
  8
LAYER_1
 10
104.8749
 20
197.1807
  0
SEQEND
  0
POLYLINE
  8
LAYER_1
 40
0.0847
 41
0.0847
 66
1
 10
0
 20
0
 30
0
  0
VERTEX
  8
LAYER_1
 10
105.6687
 20
197.4453
  0
VERTEX
  8
LAYER_1
 10
105.9068
 20
197.1807
  0
SEQEND
  0
POLYLINE
  8
LAYER_1
 40
0.0847
 41
0.0847
 66
1
 10
0
 20
0
 30
0
  0
VERTEX
  8
LAYER_1
 10
106.727
 20
197.4453
  0
VERTEX
  8
LAYER_1
 10
106.9916
 20
197.1807
  0
SEQEND
  0
POLYLINE
  8
LAYER_1
 40
0.0847
 41
0.0847
 66
1
 10
0
 20
0
 30
0
  0
VERTEX
  8
LAYER_1
 10
107.7853
 20
197.4453
  0
VERTEX
  8
LAYER_1
 10
108.0499
 20
197.1807
  0
SEQEND
  0
POLYLINE
  8
LAYER_1
 40
0.0847
 41
0.0847
 66
1
 10
0
 20
0
 30
0
  0
VERTEX
  8
LAYER_1
 10
108.8437
 20
197.4453
  0
VERTEX
  8
LAYER_1
 10
109.1082
 20
197.1807
  0
SEQEND
  0
POLYLINE
  8
LAYER_1
 40
0.0847
 41
0.0847
 66
1
 10
0
 20
0
 30
0
  0
VERTEX
  8
LAYER_1
 10
109.902
 20
197.4453
  0
VERTEX
  8
LAYER_1
 10
110.1666
 20
197.1807
  0
SEQEND
  0
POLYLINE
  8
LAYER_1
 40
0.0847
 41
0.0847
 66
1
 10
0
 20
0
 30
0
  0
VERTEX
  8
LAYER_1
 10
110.9603
 20
197.4453
  0
VERTEX
  8
LAYER_1
 10
111.2249
 20
197.1807
  0
SEQEND
  0
POLYLINE
  8
LAYER_1
 40
0.1693
 41
0.1693
 66
1
 10
0
 20
0
 30
0
  0
VERTEX
  8
LAYER_1
 10
112.151
 20
195.1434
  0
VERTEX
  8
LAYER_1
 10
111.516
 20
195.0376
  0
SEQEND
  0
POLYLINE
  8
LAYER_1
 40
0.1693
 41
0.1693
 66
1
 10
0
 20
0
 30
0
  0
VERTEX
  8
LAYER_1
 10
112.8389
 20
198.0803
  0
VERTEX
  8
LAYER_1
 10
112.8389
 20
198.0273
  0
SEQEND
  0
POLYLINE
  8
LAYER_1
 40
0.1693
 41
0.1693
 66
1
 10
0
 20
0
 30
0
  0
VERTEX
  8
LAYER_1
 10
112.8124
 20
197.9745
  0
VERTEX
  8
LAYER_1
 10
112.786
 20
197.8951
  0
VERTEX
  8
LAYER_1
 10
112.7595
 20
197.8421
  0
SEQEND
  0
POLYLINE
  8
LAYER_1
 40
0.1693
 41
0.1693
 66
1
 10
0
 20
0
 30
0
  0
VERTEX
  8
LAYER_1
 10
112.7331
 20
197.8157
  0
VERTEX
  8
LAYER_1
 10
112.6801
 20
197.7363
  0
VERTEX
  8
LAYER_1
 10
112.6537
 20
197.6834
  0
SEQEND
  0
POLYLINE
  8
LAYER_1
 40
0.1693
 41
0.1693
 66
1
 10
0
 20
0
 30
0
  0
VERTEX
  8
LAYER_1
 10
112.6272
 20
197.657
  0
VERTEX
  8
LAYER_1
 10
112.5743
 20
197.5776
  0
VERTEX
  8
LAYER_1
 10
112.5478
 20
197.5247
  0
SEQEND
  0
POLYLINE
  8
LAYER_1
 40
0.1693
 41
0.1693
 66
1
 10
0
 20
0
 30
0
  0
VERTEX
  8
LAYER_1
 10
112.5214
 20
197.4982
  0
VERTEX
  8
LAYER_1
 10
112.4685
 20
197.4188
  0
VERTEX
  8
LAYER_1
 10
112.4156
 20
197.3924
  0
SEQEND
  0
POLYLINE
  8
LAYER_1
 40
0.1693
 41
0.1693
 66
1
 10
0
 20
0
 30
0
  0
VERTEX
  8
LAYER_1
 10
112.3891
 20
197.3395
  0
VERTEX
  8
LAYER_1
 10
112.3097
 20
197.2865
  0
VERTEX
  8
LAYER_1
 10
112.2568
 20
197.2601
  0
SEQEND
  0
POLYLINE
  8
LAYER_1
 40
0.1693
 41
0.1693
 66
1
 10
0
 20
0
 30
0
  0
VERTEX
  8
LAYER_1
 10
112.2304
 20
197.2337
  0
VERTEX
  8
LAYER_1
 10
112.151
 20
197.1807
  0
VERTEX
  8
LAYER_1
 10
112.0981
 20
197.1543
  0
SEQEND
  0
POLYLINE
  8
LAYER_1
 40
0.1693
 41
0.1693
 66
1
 10
0
 20
0
 30
0
  0
VERTEX
  8
LAYER_1
 10
112.0452
 20
197.1278
  0
VERTEX
  8
LAYER_1
 10
111.9658
 20
197.0749
  0
VERTEX
  8
LAYER_1
 10
111.9129
 20
197.0484
  0
SEQEND
  0
POLYLINE
  8
LAYER_1
 40
0.1693
 41
0.1693
 66
1
 10
0
 20
0
 30
0
  0
VERTEX
  8
LAYER_1
 10
111.8599
 20
197.022
  0
VERTEX
  8
LAYER_1
 10
111.7806
 20
196.9691
  0
VERTEX
  8
LAYER_1
 10
111.7012
 20
196.9426
  0
SEQEND
  0
POLYLINE
  8
LAYER_1
 40
0.1693
 41
0.1693
 66
1
 10
0
 20
0
 30
0
  0
VERTEX
  8
LAYER_1
 10
111.6483
 20
196.9426
  0
VERTEX
  8
LAYER_1
 10
111.5689
 20
196.8897
  0
VERTEX
  8
LAYER_1
 10
111.4895
 20
196.8632
  0
SEQEND
  0
POLYLINE
  8
LAYER_1
 40
0.1693
 41
0.1693
 66
1
 10
0
 20
0
 30
0
  0
VERTEX
  8
LAYER_1
 10
111.4366
 20
196.8633
  0
VERTEX
  8
LAYER_1
 10
111.3308
 20
196.8103
  0
VERTEX
  8
LAYER_1
 10
111.2514
 20
196.7839
  0
SEQEND
  0
POLYLINE
  8
LAYER_1
 40
0.1693
 41
0.1693
 66
1
 10
0
 20
0
 30
0
  0
VERTEX
  8
LAYER_1
 10
111.172
 20
196.7839
  0
VERTEX
  8
LAYER_1
 10
111.0662
 20
196.7309
  0
VERTEX
  8
LAYER_1
 10
110.9603
 20
196.7309
  0
SEQEND
  0
POLYLINE
  8
LAYER_1
 40
0.1693
 41
0.1693
 66
1
 10
0
 20
0
 30
0
  0
VERTEX
  8
LAYER_1
 10
110.9074
 20
196.7045
  0
VERTEX
  8
LAYER_1
 10
110.7751
 20
196.678
  0
VERTEX
  8
LAYER_1
 10
110.6693
 20
196.678
  0
SEQEND
  0
POLYLINE
  8
LAYER_1
 40
0.1693
 41
0.1693
 66
1
 10
0
 20
0
 30
0
  0
VERTEX
  8
LAYER_1
 10
110.6164
 20
196.6781
  0
VERTEX
  8
LAYER_1
 10
110.4841
 20
196.6516
  0
VERTEX
  8
LAYER_1
 10
110.4841
 20
195.9901
  0
SEQEND
  0
POLYLINE
  8
LAYER_1
 40
0.1693
 41
0.1693
 66
1
 10
0
 20
0
 30
0
  0
VERTEX
  8
LAYER_1
 10
110.4841
 20
195.5668
  0
VERTEX
  8
LAYER_1
 10
110.4841
 20
194.8789
  0
SEQEND
  0
POLYLINE
  8
LAYER_1
 40
0.1693
 41
0.1693
 66
1
 10
0
 20
0
 30
0
  0
VERTEX
  8
LAYER_1
 10
100.2712
 20
194.8789
  0
VERTEX
  8
LAYER_1
 10
110.4841
 20
194.8789
  0
SEQEND
  0
POLYLINE
  8
LAYER_1
 40
0.1693
 41
0.1693
 66
1
 10
0
 20
0
 30
0
  0
VERTEX
  8
LAYER_1
 10
97.9164
 20
198.0803
  0
VERTEX
  8
LAYER_1
 10
97.9164
 20
198.0274
  0
SEQEND
  0
POLYLINE
  8
LAYER_1
 40
0.1693
 41
0.1693
 66
1
 10
0
 20
0
 30
0
  0
VERTEX
  8
LAYER_1
 10
97.9428
 20
197.9745
  0
VERTEX
  8
LAYER_1
 10
97.9693
 20
197.8951
  0
VERTEX
  8
LAYER_1
 10
97.9958
 20
197.8422
  0
SEQEND
  0
POLYLINE
  8
LAYER_1
 40
0.1693
 41
0.1693
 66
1
 10
0
 20
0
 30
0
  0
VERTEX
  8
LAYER_1
 10
98.0222
 20
197.8158
  0
VERTEX
  8
LAYER_1
 10
98.0751
 20
197.7364
  0
VERTEX
  8
LAYER_1
 10
98.1016
 20
197.6835
  0
SEQEND
  0
POLYLINE
  8
LAYER_1
 40
0.1693
 41
0.1693
 66
1
 10
0
 20
0
 30
0
  0
VERTEX
  8
LAYER_1
 10
98.1281
 20
197.657
  0
VERTEX
  8
LAYER_1
 10
98.181
 20
197.5776
  0
VERTEX
  8
LAYER_1
 10
98.2074
 20
197.5247
  0
SEQEND
  0
POLYLINE
  8
LAYER_1
 40
0.1693
 41
0.1693
 66
1
 10
0
 20
0
 30
0
  0
VERTEX
  8
LAYER_1
 10
98.2339
 20
197.4983
  0
VERTEX
  8
LAYER_1
 10
98.2868
 20
197.4189
  0
VERTEX
  8
LAYER_1
 10
98.3397
 20
197.3924
  0
SEQEND
  0
POLYLINE
  8
LAYER_1
 40
0.1693
 41
0.1693
 66
1
 10
0
 20
0
 30
0
  0
VERTEX
  8
LAYER_1
 10
98.3662
 20
197.3395
  0
VERTEX
  8
LAYER_1
 10
98.4455
 20
197.2866
  0
VERTEX
  8
LAYER_1
 10
98.4985
 20
197.2601
  0
SEQEND
  0
POLYLINE
  8
LAYER_1
 40
0.1693
 41
0.1693
 66
1
 10
0
 20
0
 30
0
  0
VERTEX
  8
LAYER_1
 10
98.5249
 20
197.2337
  0
VERTEX
  8
LAYER_1
 10
98.6043
 20
197.1808
  0
VERTEX
  8
LAYER_1
 10
98.6572
 20
197.1543
  0
SEQEND
  0
POLYLINE
  8
LAYER_1
 40
0.1693
 41
0.1693
 66
1
 10
0
 20
0
 30
0
  0
VERTEX
  8
LAYER_1
 10
98.7101
 20
197.1279
  0
VERTEX
  8
LAYER_1
 10
98.7895
 20
197.0749
  0
VERTEX
  8
LAYER_1
 10
98.8424
 20
197.0485
  0
SEQEND
  0
POLYLINE
  8
LAYER_1
 40
0.1693
 41
0.1693
 66
1
 10
0
 20
0
 30
0
  0
VERTEX
  8
LAYER_1
 10
98.8953
 20
197.0221
  0
VERTEX
  8
LAYER_1
 10
98.9747
 20
196.9691
  0
VERTEX
  8
LAYER_1
 10
99.0541
 20
196.9427
  0
SEQEND
  0
POLYLINE
  8
LAYER_1
 40
0.1693
 41
0.1693
 66
1
 10
0
 20
0
 30
0
  0
VERTEX
  8
LAYER_1
 10
99.107
 20
196.9427
  0
VERTEX
  8
LAYER_1
 10
99.1864
 20
196.8897
  0
VERTEX
  8
LAYER_1
 10
99.2658
 20
196.8633
  0
SEQEND
  0
POLYLINE
  8
LAYER_1
 40
0.1693
 41
0.1693
 66
1
 10
0
 20
0
 30
0
  0
VERTEX
  8
LAYER_1
 10
99.3187
 20
196.8633
  0
VERTEX
  8
LAYER_1
 10
99.4245
 20
196.8104
  0
VERTEX
  8
LAYER_1
 10
99.5039
 20
196.7839
  0
SEQEND
  0
POLYLINE
  8
LAYER_1
 40
0.1693
 41
0.1693
 66
1
 10
0
 20
0
 30
0
  0
VERTEX
  8
LAYER_1
 10
99.5833
 20
196.7839
  0
VERTEX
  8
LAYER_1
 10
99.6891
 20
196.731
  0
VERTEX
  8
LAYER_1
 10
99.7949
 20
196.731
  0
SEQEND
  0
POLYLINE
  8
LAYER_1
 40
0.1693
 41
0.1693
 66
1
 10
0
 20
0
 30
0
  0
VERTEX
  8
LAYER_1
 10
99.8479
 20
196.7046
  0
VERTEX
  8
LAYER_1
 10
99.9801
 20
196.6781
  0
VERTEX
  8
LAYER_1
 10
100.086
 20
196.6781
  0
SEQEND
  0
POLYLINE
  8
LAYER_1
 40
0.1693
 41
0.1693
 66
1
 10
0
 20
0
 30
0
  0
VERTEX
  8
LAYER_1
 10
100.1389
 20
196.6781
  0
VERTEX
  8
LAYER_1
 10
100.2712
 20
196.6516
  0
SEQEND
  0
POLYLINE
  8
LAYER_1
 40
0.1693
 41
0.1693
 66
1
 10
0
 20
0
 30
0
  0
VERTEX
  8
LAYER_1
 10
100.2712
 20
194.8789
  0
VERTEX
  8
LAYER_1
 10
100.2712
 20
195.5404
  0
SEQEND
  0
POLYLINE
  8
LAYER_1
 40
0.1693
 41
0.1693
 66
1
 10
0
 20
0
 30
0
  0
VERTEX
  8
LAYER_1
 10
100.2712
 20
195.9637
  0
VERTEX
  8
LAYER_1
 10
100.2712
 20
196.6517
  0
SEQEND
  0
POLYLINE
  8
LAYER_1
 40
0.1693
 41
0.1693
 66
1
 10
0
 20
0
 30
0
  0
VERTEX
  8
LAYER_1
 10
79.1839
 20
218.9031
  0
VERTEX
  8
LAYER_1
 10
79.2897
 20
217.2098
  0
VERTEX
  8
LAYER_1
 10
79.422
 20
215.5429
  0
VERTEX
  8
LAYER_1
 10
79.6072
 20
213.9025
  0
VERTEX
  8
LAYER_1
 10
79.8983
 20
212.2621
  0
VERTEX
  8
LAYER_1
 10
80.2951
 20
210.6746
  0
VERTEX
  8
LAYER_1
 10
80.5862
 20
209.7485
  0
VERTEX
  8
LAYER_1
 10
80.7185
 20
209.3781
  0
VERTEX
  8
LAYER_1
 10
80.983
 20
208.7166
  0
VERTEX
  8
LAYER_1
 10
81.2741
 20
208.0552
  0
VERTEX
  8
LAYER_1
 10
81.5916
 20
207.4202
  0
VERTEX
  8
LAYER_1
 10
81.9356
 20
206.7852
  0
VERTEX
  8
LAYER_1
 10
82.2795
 20
206.1766
  0
VERTEX
  8
LAYER_1
 10
82.4912
 20
205.8327
  0
VERTEX
  8
LAYER_1
 10
82.8881
 20
205.2242
  0
VERTEX
  8
LAYER_1
 10
83.6289
 20
204.1923
  0
VERTEX
  8
LAYER_1
 10
84.4226
 20
203.2133
  0
VERTEX
  8
LAYER_1
 10
85.2428
 20
202.2873
  0
VERTEX
  8
LAYER_1
 10
86.116
 20
201.3612
  0
VERTEX
  8
LAYER_1
 10
87.0156
 20
200.4881
  0
VERTEX
  8
LAYER_1
 10
87.5447
 20
199.9854
  0
VERTEX
  8
LAYER_1
 10
87.8358
 20
199.7473
  0
VERTEX
  8
LAYER_1
 10
88.2855
 20
199.3239
  0
VERTEX
  8
LAYER_1
 10
88.7883
 20
198.9006
  0
VERTEX
  8
LAYER_1
 10
89.2645
 20
198.5037
  0
VERTEX
  8
LAYER_1
 10
89.7672
 20
198.1333
  0
VERTEX
  8
LAYER_1
 10
90.2964
 20
197.7629
  0
VERTEX
  8
LAYER_1
 10
90.5874
 20
197.5777
  0
VERTEX
  8
LAYER_1
 10
91.0901
 20
197.3131
  0
VERTEX
  8
LAYER_1
 10
91.9633
 20
196.8633
  0
VERTEX
  8
LAYER_1
 10
92.8893
 20
196.4929
  0
VERTEX
  8
LAYER_1
 10
93.8153
 20
196.2019
  0
VERTEX
  8
LAYER_1
 10
94.7678
 20
195.9108
  0
VERTEX
  8
LAYER_1
 10
95.7203
 20
195.6991
  0
VERTEX
  8
LAYER_1
 10
96.3024
 20
195.5668
  0
VERTEX
  8
LAYER_1
 10
96.6728
 20
195.4875
  0
VERTEX
  8
LAYER_1
 10
97.3078
 20
195.3816
  0
VERTEX
  8
LAYER_1
 10
97.9693
 20
195.2494
  0
VERTEX
  8
LAYER_1
 10
98.6043
 20
195.1435
  0
VERTEX
  8
LAYER_1
 10
99.2393
 20
195.0377
  0
VERTEX
  8
LAYER_1
 10
99.9008
 20
194.9583
  0
VERTEX
  8
LAYER_1
 10
100.2712
 20
194.8789
  0
SEQEND
  0
POLYLINE
  8
LAYER_1
 40
0.1693
 41
0.1693
 66
1
 10
0
 20
0
 30
0
  0
VERTEX
  8
LAYER_1
 10
131.5714
 20
218.9031
  0
VERTEX
  8
LAYER_1
 10
131.4656
 20
217.2098
  0
VERTEX
  8
LAYER_1
 10
131.3333
 20
215.5429
  0
VERTEX
  8
LAYER_1
 10
131.1481
 20
213.9025
  0
VERTEX
  8
LAYER_1
 10
130.857
 20
212.2621
  0
VERTEX
  8
LAYER_1
 10
130.4601
 20
210.6746
  0
VERTEX
  8
LAYER_1
 10
130.1691
 20
209.7485
  0
VERTEX
  8
LAYER_1
 10
130.0368
 20
209.3781
  0
VERTEX
  8
LAYER_1
 10
129.7722
 20
208.7166
  0
VERTEX
  8
LAYER_1
 10
129.4812
 20
208.0552
  0
VERTEX
  8
LAYER_1
 10
129.1637
 20
207.4202
  0
VERTEX
  8
LAYER_1
 10
128.8197
 20
206.7852
  0
VERTEX
  8
LAYER_1
 10
128.4758
 20
206.1766
  0
VERTEX
  8
LAYER_1
 10
128.2641
 20
205.8327
  0
VERTEX
  8
LAYER_1
 10
127.8672
 20
205.2242
  0
VERTEX
  8
LAYER_1
 10
127.1264
 20
204.1923
  0
VERTEX
  8
LAYER_1
 10
126.3326
 20
203.2133
  0
VERTEX
  8
LAYER_1
 10
125.5124
 20
202.2873
  0
VERTEX
  8
LAYER_1
 10
124.6393
 20
201.3612
  0
VERTEX
  8
LAYER_1
 10
123.7397
 20
200.4881
  0
VERTEX
  8
LAYER_1
 10
123.2106
 20
199.9854
  0
VERTEX
  8
LAYER_1
 10
122.9195
 20
199.7473
  0
VERTEX
  8
LAYER_1
 10
122.4697
 20
199.3239
  0
VERTEX
  8
LAYER_1
 10
121.967
 20
198.9006
  0
VERTEX
  8
LAYER_1
 10
121.4908
 20
198.5037
  0
VERTEX
  8
LAYER_1
 10
120.9881
 20
198.1333
  0
VERTEX
  8
LAYER_1
 10
120.4589
 20
197.7629
  0
VERTEX
  8
LAYER_1
 10
120.1678
 20
197.5777
  0
VERTEX
  8
LAYER_1
 10
119.6651
 20
197.3131
  0
VERTEX
  8
LAYER_1
 10
118.792
 20
196.8633
  0
VERTEX
  8
LAYER_1
 10
117.866
 20
196.4929
  0
VERTEX
  8
LAYER_1
 10
116.9399
 20
196.2019
  0
VERTEX
  8
LAYER_1
 10
115.9874
 20
195.9108
  0
VERTEX
  8
LAYER_1
 10
115.0349
 20
195.6991
  0
VERTEX
  8
LAYER_1
 10
114.4529
 20
195.5668
  0
VERTEX
  8
LAYER_1
 10
114.0824
 20
195.4875
  0
VERTEX
  8
LAYER_1
 10
113.4474
 20
195.3816
  0
VERTEX
  8
LAYER_1
 10
112.786
 20
195.2494
  0
VERTEX
  8
LAYER_1
 10
112.151
 20
195.1435
  0
SEQEND
  0
POLYLINE
  8
LAYER_1
 40
0.1693
 41
0.1693
 66
1
 10
0
 20
0
 30
0
  0
VERTEX
  8
LAYER_1
 10
111.516
 20
195.0377
  0
VERTEX
  8
LAYER_1
 10
110.8545
 20
194.9583
  0
VERTEX
  8
LAYER_1
 10
110.4841
 20
194.8789
  0
SEQEND
  0
POLYLINE
  8
LAYER_1
 40
0.1693
 41
0.1693
 66
1
 10
0
 20
0
 30
0
  0
VERTEX
  8
LAYER_1
 10
79.1574
 20
219.8821
  0
VERTEX
  8
LAYER_1
 10
79.1839
 20
218.9031
  0
SEQEND
  0
POLYLINE
  8
LAYER_1
 40
0.1693
 41
0.1693
 66
1
 10
0
 20
0
 30
0
  0
VERTEX
  8
LAYER_1
 10
79.1574
 20
219.8821
  0
VERTEX
  8
LAYER_1
 10
131.5978
 20
219.8821
  0
VERTEX
  8
LAYER_1
 10
131.5714
 20
218.9031
  0
SEQEND
  0
POLYLINE
  8
LAYER_1
 40
0.1693
 41
0.1693
 66
1
 10
0
 20
0
 30
0
  0
VERTEX
  8
LAYER_1
 10
89.7143
 20
201.3877
  0
VERTEX
  8
LAYER_1
 10
89.3703
 20
201.7052
  0
SEQEND
  0
POLYLINE
  8
LAYER_1
 40
0.1693
 41
0.1693
 66
1
 10
0
 20
0
 30
0
  0
VERTEX
  8
LAYER_1
 10
89.1322
 20
201.9433
  0
VERTEX
  8
LAYER_1
 10
88.7618
 20
202.2873
  0
VERTEX
  8
LAYER_1
 10
88.4443
 20
202.6048
  0
SEQEND
  0
POLYLINE
  8
LAYER_1
 40
0.1693
 41
0.1693
 66
1
 10
0
 20
0
 30
0
  0
VERTEX
  8
LAYER_1
 10
88.2326
 20
202.8165
  0
VERTEX
  8
LAYER_1
 10
87.9151
 20
203.1339
  0
VERTEX
  8
LAYER_1
 10
87.6241
 20
203.4514
  0
SEQEND
  0
POLYLINE
  8
LAYER_1
 40
0.1693
 41
0.1693
 66
1
 10
0
 20
0
 30
0
  0
VERTEX
  8
LAYER_1
 10
87.4124
 20
203.6631
  0
VERTEX
  8
LAYER_1
 10
87.0949
 20
203.9806
  0
VERTEX
  8
LAYER_1
 10
86.8303
 20
204.2981
  0
SEQEND
  0
POLYLINE
  8
LAYER_1
 40
0.1693
 41
0.1693
 66
1
 10
0
 20
0
 30
0
  0
VERTEX
  8
LAYER_1
 10
86.6187
 20
204.5098
  0
VERTEX
  8
LAYER_1
 10
86.3276
 20
204.8273
  0
VERTEX
  8
LAYER_1
 10
86.0631
 20
205.1448
  0
SEQEND
  0
POLYLINE
  8
LAYER_1
 40
0.1693
 41
0.1693
 66
1
 10
0
 20
0
 30
0
  0
VERTEX
  8
LAYER_1
 10
85.9043
 20
205.3829
  0
VERTEX
  8
LAYER_1
 10
85.6133
 20
205.7268
  0
VERTEX
  8
LAYER_1
 10
85.3751
 20
206.0444
  0
SEQEND
  0
POLYLINE
  8
LAYER_1
 40
0.1693
 41
0.1693
 66
1
 10
0
 20
0
 30
0
  0
VERTEX
  8
LAYER_1
 10
85.2164
 20
206.2825
  0
VERTEX
  8
LAYER_1
 10
84.9518
 20
206.6264
  0
VERTEX
  8
LAYER_1
 10
84.846
 20
206.8116
  0
SEQEND
  0
POLYLINE
  8
LAYER_1
 40
0.1693
 41
0.1693
 66
1
 10
0
 20
0
 30
0
  0
VERTEX
  8
LAYER_1
 10
84.7401
 20
206.9704
  0
VERTEX
  8
LAYER_1
 10
84.6078
 20
207.182
  0
VERTEX
  8
LAYER_1
 10
84.5549
 20
207.2879
  0
SEQEND
  0
POLYLINE
  8
LAYER_1
 40
0.1693
 41
0.1693
 66
1
 10
0
 20
0
 30
0
  0
VERTEX
  8
LAYER_1
 10
84.502
 20
207.3408
  0
VERTEX
  8
LAYER_1
 10
84.4226
 20
207.4731
  0
VERTEX
  8
LAYER_1
 10
84.3168
 20
207.6583
  0
SEQEND
  0
POLYLINE
  8
LAYER_1
 40
0.1693
 41
0.1693
 66
1
 10
0
 20
0
 30
0
  0
VERTEX
  8
LAYER_1
 10
84.2374
 20
207.7906
  0
VERTEX
  8
LAYER_1
 10
84.1051
 20
208.0023
  0
VERTEX
  8
LAYER_1
 10
83.9993
 20
208.1875
  0
SEQEND
  0
POLYLINE
  8
LAYER_1
 40
0.1693
 41
0.1693
 66
1
 10
0
 20
0
 30
0
  0
VERTEX
  8
LAYER_1
 10
83.9464
 20
208.3462
  0
VERTEX
  8
LAYER_1
 10
83.8141
 20
208.5579
  0
SEQEND
  0
POLYLINE
  8
LAYER_1
 40
0.1693
 41
0.1693
 66
1
 10
0
 20
0
 30
0
  0
VERTEX
  8
LAYER_1
 10
83.8141
 20
208.5578
  0
VERTEX
  8
LAYER_1
 10
83.7347
 20
208.743
  0
SEQEND
  0
POLYLINE
  8
LAYER_1
 40
0.1693
 41
0.1693
 66
1
 10
0
 20
0
 30
0
  0
VERTEX
  8
LAYER_1
 10
83.6554
 20
208.9018
  0
VERTEX
  8
LAYER_1
 10
83.5495
 20
209.1134
  0
VERTEX
  8
LAYER_1
 10
83.4701
 20
209.2986
  0
SEQEND
  0
POLYLINE
  8
LAYER_1
 40
0.1693
 41
0.1693
 66
1
 10
0
 20
0
 30
0
  0
VERTEX
  8
LAYER_1
 10
83.3908
 20
209.4574
  0
VERTEX
  8
LAYER_1
 10
83.2849
 20
209.6691
  0
VERTEX
  8
LAYER_1
 10
83.2056
 20
209.8807
  0
SEQEND
  0
POLYLINE
  8
LAYER_1
 40
0.1693
 41
0.1693
 66
1
 10
0
 20
0
 30
0
  0
VERTEX
  8
LAYER_1
 10
83.1526
 20
210.013
  0
VERTEX
  8
LAYER_1
 10
83.0733
 20
210.2511
  0
VERTEX
  8
LAYER_1
 10
83.0468
 20
210.357
  0
SEQEND
  0
POLYLINE
  8
LAYER_1
 40
0.1693
 41
0.1693
 66
1
 10
0
 20
0
 30
0
  0
VERTEX
  8
LAYER_1
 10
82.9939
 20
210.4364
  0
VERTEX
  8
LAYER_1
 10
82.941
 20
210.5687
  0
VERTEX
  8
LAYER_1
 10
82.8616
 20
210.8332
  0
SEQEND
  0
POLYLINE
  8
LAYER_1
 40
0.1693
 41
0.1693
 66
1
 10
0
 20
0
 30
0
  0
VERTEX
  8
LAYER_1
 10
82.8087
 20
211.0449
  0
VERTEX
  8
LAYER_1
 10
82.7029
 20
211.3359
  0
VERTEX
  8
LAYER_1
 10
82.5706
 20
211.8651
  0
SEQEND
  0
POLYLINE
  8
LAYER_1
 40
0.1693
 41
0.1693
 66
1
 10
0
 20
0
 30
0
  0
VERTEX
  8
LAYER_1
 10
82.4912
 20
212.2355
  0
VERTEX
  8
LAYER_1
 10
82.3324
 20
212.7911
  0
VERTEX
  8
LAYER_1
 10
82.2531
 20
213.3203
  0
SEQEND
  0
POLYLINE
  8
LAYER_1
 40
0.1693
 41
0.1693
 66
1
 10
0
 20
0
 30
0
  0
VERTEX
  8
LAYER_1
 10
82.2001
 20
213.6907
  0
VERTEX
  8
LAYER_1
 10
82.0943
 20
214.2463
  0
VERTEX
  8
LAYER_1
 10
82.0414
 20
214.802
  0
SEQEND
  0
POLYLINE
  8
LAYER_1
 40
0.1693
 41
0.1693
 66
1
 10
0
 20
0
 30
0
  0
VERTEX
  8
LAYER_1
 10
81.9885
 20
215.1989
  0
VERTEX
  8
LAYER_1
 10
81.9091
 20
215.7809
  0
VERTEX
  8
LAYER_1
 10
81.8826
 20
216.363
  0
SEQEND
  0
POLYLINE
  8
LAYER_1
 40
0.1693
 41
0.1693
 66
1
 10
0
 20
0
 30
0
  0
VERTEX
  8
LAYER_1
 10
81.8297
 20
216.7863
  0
VERTEX
  8
LAYER_1
 10
81.7768
 20
217.3949
  0
VERTEX
  8
LAYER_1
 10
81.7503
 20
218.0034
  0
SEQEND
  0
POLYLINE
  8
LAYER_1
 40
0.1693
 41
0.1693
 66
1
 10
0
 20
0
 30
0
  0
VERTEX
  8
LAYER_1
 10
81.7504
 20
218.4003
  0
VERTEX
  8
LAYER_1
 10
81.6974
 20
219.0353
  0
SEQEND
  0
POLYLINE
  8
LAYER_1
 40
0.1693
 41
0.1693
 66
1
 10
0
 20
0
 30
0
  0
VERTEX
  8
LAYER_1
 10
97.9164
 20
198.0803
  0
VERTEX
  8
LAYER_1
 10
97.7576
 20
198.0803
  0
SEQEND
  0
POLYLINE
  8
LAYER_1
 40
0.1693
 41
0.1693
 66
1
 10
0
 20
0
 30
0
  0
VERTEX
  8
LAYER_1
 10
97.6518
 20
198.0803
  0
VERTEX
  8
LAYER_1
 10
97.4666
 20
198.1067
  0
VERTEX
  8
LAYER_1
 10
97.1755
 20
198.1332
  0
SEQEND
  0
POLYLINE
  8
LAYER_1
 40
0.1693
 41
0.1693
 66
1
 10
0
 20
0
 30
0
  0
VERTEX
  8
LAYER_1
 10
96.9903
 20
198.1597
  0
VERTEX
  8
LAYER_1
 10
96.6728
 20
198.2126
  0
VERTEX
  8
LAYER_1
 10
96.3818
 20
198.239
  0
SEQEND
  0
POLYLINE
  8
LAYER_1
 40
0.1693
 41
0.1693
 66
1
 10
0
 20
0
 30
0
  0
VERTEX
  8
LAYER_1
 10
96.1966
 20
198.239
  0
VERTEX
  8
LAYER_1
 10
95.8791
 20
198.2919
  0
VERTEX
  8
LAYER_1
 10
95.6145
 20
198.3184
  0
SEQEND
  0
POLYLINE
  8
LAYER_1
 40
0.1693
 41
0.1693
 66
1
 10
0
 20
0
 30
0
  0
VERTEX
  8
LAYER_1
 10
95.4029
 20
198.3713
  0
VERTEX
  8
LAYER_1
 10
95.1118
 20
198.4242
  0
VERTEX
  8
LAYER_1
 10
94.8472
 20
198.4771
  0
SEQEND
  0
POLYLINE
  8
LAYER_1
 40
0.1693
 41
0.1693
 66
1
 10
0
 20
0
 30
0
  0
VERTEX
  8
LAYER_1
 10
94.6356
 20
198.5301
  0
VERTEX
  8
LAYER_1
 10
94.3445
 20
198.6094
  0
VERTEX
  8
LAYER_1
 10
94.0799
 20
198.6888
  0
SEQEND
  0
POLYLINE
  8
LAYER_1
 40
0.1693
 41
0.1693
 66
1
 10
0
 20
0
 30
0
  0
VERTEX
  8
LAYER_1
 10
93.8947
 20
198.7417
  0
VERTEX
  8
LAYER_1
 10
93.6037
 20
198.8211
  0
VERTEX
  8
LAYER_1
 10
93.4449
 20
198.874
  0
SEQEND
  0
POLYLINE
  8
LAYER_1
 40
0.1693
 41
0.1693
 66
1
 10
0
 20
0
 30
0
  0
VERTEX
  8
LAYER_1
 10
93.3391
 20
198.9005
  0
VERTEX
  8
LAYER_1
 10
93.1804
 20
198.9798
  0
VERTEX
  8
LAYER_1
 10
93.1274
 20
199.0063
  0
SEQEND
  0
POLYLINE
  8
LAYER_1
 40
0.1693
 41
0.1693
 66
1
 10
0
 20
0
 30
0
  0
VERTEX
  8
LAYER_1
 10
93.101
 20
199.0063
  0
VERTEX
  8
LAYER_1
 10
93.0216
 20
199.0592
  0
VERTEX
  8
LAYER_1
 10
92.9158
 20
199.0857
  0
SEQEND
  0
POLYLINE
  8
LAYER_1
 40
0.1693
 41
0.1693
 66
1
 10
0
 20
0
 30
0
  0
VERTEX
  8
LAYER_1
 10
92.8364
 20
199.1386
  0
VERTEX
  8
LAYER_1
 10
92.7041
 20
199.1915
  0
VERTEX
  8
LAYER_1
 10
92.5983
 20
199.218
  0
SEQEND
  0
POLYLINE
  8
LAYER_1
 40
0.1693
 41
0.1693
 66
1
 10
0
 20
0
 30
0
  0
VERTEX
  8
LAYER_1
 10
92.5454
 20
199.2709
  0
VERTEX
  8
LAYER_1
 10
92.4131
 20
199.3238
  0
VERTEX
  8
LAYER_1
 10
92.3337
 20
199.3767
  0
SEQEND
  0
POLYLINE
  8
LAYER_1
 40
0.1693
 41
0.1693
 66
1
 10
0
 20
0
 30
0
  0
VERTEX
  8
LAYER_1
 10
92.2543
 20
199.4032
  0
VERTEX
  8
LAYER_1
 10
92.1485
 20
199.4825
  0
VERTEX
  8
LAYER_1
 10
92.0426
 20
199.5354
  0
SEQEND
  0
POLYLINE
  8
LAYER_1
 40
0.1693
 41
0.1693
 66
1
 10
0
 20
0
 30
0
  0
VERTEX
  8
LAYER_1
 10
91.9897
 20
199.5619
  0
VERTEX
  8
LAYER_1
 10
91.8574
 20
199.6413
  0
VERTEX
  8
LAYER_1
 10
91.7781
 20
199.6942
  0
SEQEND
  0
POLYLINE
  8
LAYER_1
 40
0.1693
 41
0.1693
 66
1
 10
0
 20
0
 30
0
  0
VERTEX
  8
LAYER_1
 10
91.6987
 20
199.7471
  0
VERTEX
  8
LAYER_1
 10
91.5928
 20
199.8265
  0
VERTEX
  8
LAYER_1
 10
91.5399
 20
199.8529
  0
SEQEND
  0
POLYLINE
  8
LAYER_1
 40
0.1693
 41
0.1693
 66
1
 10
0
 20
0
 30
0
  0
VERTEX
  8
LAYER_1
 10
91.5135
 20
199.8794
  0
VERTEX
  8
LAYER_1
 10
91.4341
 20
199.9323
  0
VERTEX
  8
LAYER_1
 10
91.3812
 20
199.9588
  0
SEQEND
  0
POLYLINE
  8
LAYER_1
 40
0.1693
 41
0.1693
 66
1
 10
0
 20
0
 30
0
  0
VERTEX
  8
LAYER_1
 10
91.3283
 20
200.0117
  0
VERTEX
  8
LAYER_1
 10
91.2489
 20
200.0646
  0
VERTEX
  8
LAYER_1
 10
91.143
 20
200.144
  0
SEQEND
  0
POLYLINE
  8
LAYER_1
 40
0.1693
 41
0.1693
 66
1
 10
0
 20
0
 30
0
  0
VERTEX
  8
LAYER_1
 10
91.0901
 20
200.1969
  0
VERTEX
  8
LAYER_1
 10
90.9578
 20
200.2762
  0
VERTEX
  8
LAYER_1
 10
90.8785
 20
200.3556
  0
SEQEND
  0
POLYLINE
  8
LAYER_1
 40
0.1693
 41
0.1693
 66
1
 10
0
 20
0
 30
0
  0
VERTEX
  8
LAYER_1
 10
90.7991
 20
200.4085
  0
VERTEX
  8
LAYER_1
 10
90.6932
 20
200.5144
  0
VERTEX
  8
LAYER_1
 10
90.5874
 20
200.5937
  0
SEQEND
  0
POLYLINE
  8
LAYER_1
 40
0.1693
 41
0.1693
 66
1
 10
0
 20
0
 30
0
  0
VERTEX
  8
LAYER_1
 10
90.5345
 20
200.6466
  0
VERTEX
  8
LAYER_1
 10
90.4022
 20
200.7525
  0
VERTEX
  8
LAYER_1
 10
90.3228
 20
200.8318
  0
SEQEND
  0
POLYLINE
  8
LAYER_1
 40
0.1693
 41
0.1693
 66
1
 10
0
 20
0
 30
0
  0
VERTEX
  8
LAYER_1
 10
90.2435
 20
200.8848
  0
VERTEX
  8
LAYER_1
 10
90.1376
 20
200.9906
  0
VERTEX
  8
LAYER_1
 10
90.0582
 20
201.07
  0
SEQEND
  0
POLYLINE
  8
LAYER_1
 40
0.1693
 41
0.1693
 66
1
 10
0
 20
0
 30
0
  0
VERTEX
  8
LAYER_1
 10
89.9789
 20
201.1493
  0
VERTEX
  8
LAYER_1
 10
89.873
 20
201.2552
  0
VERTEX
  8
LAYER_1
 10
89.8201
 20
201.2816
  0
SEQEND
  0
POLYLINE
  8
LAYER_1
 40
0.1693
 41
0.1693
 66
1
 10
0
 20
0
 30
0
  0
VERTEX
  8
LAYER_1
 10
89.7937
 20
201.3345
  0
VERTEX
  8
LAYER_1
 10
89.7143
 20
201.3874
  0
SEQEND
  0
POLYLINE
  8
LAYER_1
 40
0.1693
 41
0.1693
 66
1
 10
0
 20
0
 30
0
  0
VERTEX
  8
LAYER_1
 10
128.9785
 20
217.3947
  0
VERTEX
  8
LAYER_1
 10
129.0049
 20
218.0032
  0
SEQEND
  0
POLYLINE
  8
LAYER_1
 40
0.1693
 41
0.1693
 66
1
 10
0
 20
0
 30
0
  0
VERTEX
  8
LAYER_1
 10
129.0049
 20
218.4002
  0
VERTEX
  8
LAYER_1
 10
129.0578
 20
219.0351
  0
SEQEND
  0
POLYLINE
  8
LAYER_1
 40
0.1693
 41
0.1693
 66
1
 10
0
 20
0
 30
0
  0
VERTEX
  8
LAYER_1
 10
128.8462
 20
215.7808
  0
VERTEX
  8
LAYER_1
 10
128.8726
 20
216.3628
  0
SEQEND
  0
POLYLINE
  8
LAYER_1
 40
0.1693
 41
0.1693
 66
1
 10
0
 20
0
 30
0
  0
VERTEX
  8
LAYER_1
 10
128.9255
 20
216.7862
  0
VERTEX
  8
LAYER_1
 10
128.9785
 20
217.3947
  0
SEQEND
  0
POLYLINE
  8
LAYER_1
 40
0.1693
 41
0.1693
 66
1
 10
0
 20
0
 30
0
  0
VERTEX
  8
LAYER_1
 10
128.6609
 20
214.2462
  0
VERTEX
  8
LAYER_1
 10
128.7139
 20
214.8018
  0
SEQEND
  0
POLYLINE
  8
LAYER_1
 40
0.1693
 41
0.1693
 66
1
 10
0
 20
0
 30
0
  0
VERTEX
  8
LAYER_1
 10
128.7668
 20
215.1987
  0
VERTEX
  8
LAYER_1
 10
128.8462
 20
215.7808
  0
SEQEND
  0
POLYLINE
  8
LAYER_1
 40
0.1693
 41
0.1693
 66
1
 10
0
 20
0
 30
0
  0
VERTEX
  8
LAYER_1
 10
128.4228
 20
212.791
  0
VERTEX
  8
LAYER_1
 10
128.5022
 20
213.3201
  0
SEQEND
  0
POLYLINE
  8
LAYER_1
 40
0.1693
 41
0.1693
 66
1
 10
0
 20
0
 30
0
  0
VERTEX
  8
LAYER_1
 10
128.5551
 20
213.6906
  0
VERTEX
  8
LAYER_1
 10
128.6609
 20
214.2462
  0
SEQEND
  0
POLYLINE
  8
LAYER_1
 40
0.1693
 41
0.1693
 66
1
 10
0
 20
0
 30
0
  0
VERTEX
  8
LAYER_1
 10
128.0524
 20
211.3358
  0
VERTEX
  8
LAYER_1
 10
128.1847
 20
211.8649
  0
SEQEND
  0
POLYLINE
  8
LAYER_1
 40
0.1693
 41
0.1693
 66
1
 10
0
 20
0
 30
0
  0
VERTEX
  8
LAYER_1
 10
128.2641
 20
212.2353
  0
VERTEX
  8
LAYER_1
 10
128.4228
 20
212.7909
  0
SEQEND
  0
POLYLINE
  8
LAYER_1
 40
0.1693
 41
0.1693
 66
1
 10
0
 20
0
 30
0
  0
VERTEX
  8
LAYER_1
 10
127.8143
 20
210.5684
  0
VERTEX
  8
LAYER_1
 10
127.8936
 20
210.833
  0
SEQEND
  0
POLYLINE
  8
LAYER_1
 40
0.1693
 41
0.1693
 66
1
 10
0
 20
0
 30
0
  0
VERTEX
  8
LAYER_1
 10
127.9466
 20
211.0447
  0
VERTEX
  8
LAYER_1
 10
128.0524
 20
211.3357
  0
SEQEND
  0
POLYLINE
  8
LAYER_1
 40
0.1693
 41
0.1693
 66
1
 10
0
 20
0
 30
0
  0
VERTEX
  8
LAYER_1
 10
127.682
 20
210.2509
  0
VERTEX
  8
LAYER_1
 10
127.7084
 20
210.3568
  0
SEQEND
  0
POLYLINE
  8
LAYER_1
 40
0.1693
 41
0.1693
 66
1
 10
0
 20
0
 30
0
  0
VERTEX
  8
LAYER_1
 10
127.7613
 20
210.4362
  0
VERTEX
  8
LAYER_1
 10
127.8143
 20
210.5684
  0
SEQEND
  0
POLYLINE
  8
LAYER_1
 40
0.1693
 41
0.1693
 66
1
 10
0
 20
0
 30
0
  0
VERTEX
  8
LAYER_1
 10
127.4703
 20
209.6689
  0
VERTEX
  8
LAYER_1
 10
127.5497
 20
209.8805
  0
SEQEND
  0
POLYLINE
  8
LAYER_1
 40
0.1693
 41
0.1693
 66
1
 10
0
 20
0
 30
0
  0
VERTEX
  8
LAYER_1
 10
127.6026
 20
210.0128
  0
VERTEX
  8
LAYER_1
 10
127.682
 20
210.2509
  0
SEQEND
  0
POLYLINE
  8
LAYER_1
 40
0.1693
 41
0.1693
 66
1
 10
0
 20
0
 30
0
  0
VERTEX
  8
LAYER_1
 10
127.2057
 20
209.1133
  0
VERTEX
  8
LAYER_1
 10
127.2851
 20
209.2985
  0
SEQEND
  0
POLYLINE
  8
LAYER_1
 40
0.1693
 41
0.1693
 66
1
 10
0
 20
0
 30
0
  0
VERTEX
  8
LAYER_1
 10
127.3645
 20
209.4572
  0
VERTEX
  8
LAYER_1
 10
127.4703
 20
209.6689
  0
SEQEND
  0
POLYLINE
  8
LAYER_1
 40
0.1693
 41
0.1693
 66
1
 10
0
 20
0
 30
0
  0
VERTEX
  8
LAYER_1
 10
126.9411
 20
208.5577
  0
VERTEX
  8
LAYER_1
 10
127.0205
 20
208.7429
  0
SEQEND
  0
POLYLINE
  8
LAYER_1
 40
0.1693
 41
0.1693
 66
1
 10
0
 20
0
 30
0
  0
VERTEX
  8
LAYER_1
 10
127.0999
 20
208.9016
  0
VERTEX
  8
LAYER_1
 10
127.2057
 20
209.1133
  0
SEQEND
  0
POLYLINE
  8
LAYER_1
 40
0.1693
 41
0.1693
 66
1
 10
0
 20
0
 30
0
  0
VERTEX
  8
LAYER_1
 10
126.6501
 20
208.0021
  0
VERTEX
  8
LAYER_1
 10
126.7559
 20
208.1873
  0
SEQEND
  0
POLYLINE
  8
LAYER_1
 40
0.1693
 41
0.1693
 66
1
 10
0
 20
0
 30
0
  0
VERTEX
  8
LAYER_1
 10
126.8088
 20
208.346
  0
VERTEX
  8
LAYER_1
 10
126.9411
 20
208.5577
  0
SEQEND
  0
POLYLINE
  8
LAYER_1
 40
0.1693
 41
0.1693
 66
1
 10
0
 20
0
 30
0
  0
VERTEX
  8
LAYER_1
 10
126.3326
 20
207.4729
  0
VERTEX
  8
LAYER_1
 10
126.4384
 20
207.6581
  0
SEQEND
  0
POLYLINE
  8
LAYER_1
 40
0.1693
 41
0.1693
 66
1
 10
0
 20
0
 30
0
  0
VERTEX
  8
LAYER_1
 10
126.5178
 20
207.7904
  0
VERTEX
  8
LAYER_1
 10
126.6501
 20
208.0021
  0
SEQEND
  0
POLYLINE
  8
LAYER_1
 40
0.1693
 41
0.1693
 66
1
 10
0
 20
0
 30
0
  0
VERTEX
  8
LAYER_1
 10
126.1474
 20
207.1819
  0
VERTEX
  8
LAYER_1
 10
126.2003
 20
207.2877
  0
SEQEND
  0
POLYLINE
  8
LAYER_1
 40
0.1693
 41
0.1693
 66
1
 10
0
 20
0
 30
0
  0
VERTEX
  8
LAYER_1
 10
126.2532
 20
207.3406
  0
VERTEX
  8
LAYER_1
 10
126.3326
 20
207.4729
  0
SEQEND
  0
POLYLINE
  8
LAYER_1
 40
0.1693
 41
0.1693
 66
1
 10
0
 20
0
 30
0
  0
VERTEX
  8
LAYER_1
 10
125.8034
 20
206.6262
  0
VERTEX
  8
LAYER_1
 10
125.9093
 20
206.8114
  0
SEQEND
  0
POLYLINE
  8
LAYER_1
 40
0.1693
 41
0.1693
 66
1
 10
0
 20
0
 30
0
  0
VERTEX
  8
LAYER_1
 10
126.0151
 20
206.9702
  0
VERTEX
  8
LAYER_1
 10
126.1474
 20
207.1819
  0
SEQEND
  0
POLYLINE
  8
LAYER_1
 40
0.1693
 41
0.1693
 66
1
 10
0
 20
0
 30
0
  0
VERTEX
  8
LAYER_1
 10
125.142
 20
205.7267
  0
VERTEX
  8
LAYER_1
 10
125.3801
 20
206.0441
  0
SEQEND
  0
POLYLINE
  8
LAYER_1
 40
0.1693
 41
0.1693
 66
1
 10
0
 20
0
 30
0
  0
VERTEX
  8
LAYER_1
 10
125.5388
 20
206.2823
  0
VERTEX
  8
LAYER_1
 10
125.8034
 20
206.6262
  0
SEQEND
  0
POLYLINE
  8
LAYER_1
 40
0.1693
 41
0.1693
 66
1
 10
0
 20
0
 30
0
  0
VERTEX
  8
LAYER_1
 10
124.4276
 20
204.8271
  0
VERTEX
  8
LAYER_1
 10
124.6922
 20
205.1446
  0
SEQEND
  0
POLYLINE
  8
LAYER_1
 40
0.1693
 41
0.1693
 66
1
 10
0
 20
0
 30
0
  0
VERTEX
  8
LAYER_1
 10
124.8509
 20
205.3827
  0
VERTEX
  8
LAYER_1
 10
125.142
 20
205.7267
  0
SEQEND
  0
POLYLINE
  8
LAYER_1
 40
0.1693
 41
0.1693
 66
1
 10
0
 20
0
 30
0
  0
VERTEX
  8
LAYER_1
 10
123.6603
 20
203.9804
  0
VERTEX
  8
LAYER_1
 10
123.9249
 20
204.2979
  0
SEQEND
  0
POLYLINE
  8
LAYER_1
 40
0.1693
 41
0.1693
 66
1
 10
0
 20
0
 30
0
  0
VERTEX
  8
LAYER_1
 10
124.1365
 20
204.5096
  0
VERTEX
  8
LAYER_1
 10
124.4276
 20
204.8271
  0
SEQEND
  0
POLYLINE
  8
LAYER_1
 40
0.1693
 41
0.1693
 66
1
 10
0
 20
0
 30
0
  0
VERTEX
  8
LAYER_1
 10
122.8401
 20
203.1338
  0
VERTEX
  8
LAYER_1
 10
123.1311
 20
203.4512
  0
SEQEND
  0
POLYLINE
  8
LAYER_1
 40
0.1693
 41
0.1693
 66
1
 10
0
 20
0
 30
0
  0
VERTEX
  8
LAYER_1
 10
123.3428
 20
203.6629
  0
VERTEX
  8
LAYER_1
 10
123.6603
 20
203.9804
  0
SEQEND
  0
POLYLINE
  8
LAYER_1
 40
0.1693
 41
0.1693
 66
1
 10
0
 20
0
 30
0
  0
VERTEX
  8
LAYER_1
 10
121.9934
 20
202.2871
  0
VERTEX
  8
LAYER_1
 10
122.3109
 20
202.6046
  0
SEQEND
  0
POLYLINE
  8
LAYER_1
 40
0.1693
 41
0.1693
 66
1
 10
0
 20
0
 30
0
  0
VERTEX
  8
LAYER_1
 10
122.5226
 20
202.8163
  0
VERTEX
  8
LAYER_1
 10
122.8401
 20
203.1338
  0
SEQEND
  0
POLYLINE
  8
LAYER_1
 40
0.1693
 41
0.1693
 66
1
 10
0
 20
0
 30
0
  0
VERTEX
  8
LAYER_1
 10
121.0409
 20
201.3875
  0
VERTEX
  8
LAYER_1
 10
121.3849
 20
201.705
  0
SEQEND
  0
POLYLINE
  8
LAYER_1
 40
0.1693
 41
0.1693
 66
1
 10
0
 20
0
 30
0
  0
VERTEX
  8
LAYER_1
 10
121.623
 20
201.9432
  0
VERTEX
  8
LAYER_1
 10
121.9934
 20
202.2871
  0
SEQEND
  0
POLYLINE
  8
LAYER_1
 40
0.1693
 41
0.1693
 66
1
 10
0
 20
0
 30
0
  0
VERTEX
  8
LAYER_1
 10
120.8822
 20
201.2552
  0
VERTEX
  8
LAYER_1
 10
120.9351
 20
201.2817
  0
SEQEND
  0
POLYLINE
  8
LAYER_1
 40
0.1693
 41
0.1693
 66
1
 10
0
 20
0
 30
0
  0
VERTEX
  8
LAYER_1
 10
120.9616
 20
201.3346
  0
VERTEX
  8
LAYER_1
 10
121.0409
 20
201.3875
  0
SEQEND
  0
POLYLINE
  8
LAYER_1
 40
0.1693
 41
0.1693
 66
1
 10
0
 20
0
 30
0
  0
VERTEX
  8
LAYER_1
 10
120.6176
 20
200.9906
  0
VERTEX
  8
LAYER_1
 10
120.697
 20
201.07
  0
SEQEND
  0
POLYLINE
  8
LAYER_1
 40
0.1693
 41
0.1693
 66
1
 10
0
 20
0
 30
0
  0
VERTEX
  8
LAYER_1
 10
120.7764
 20
201.1494
  0
VERTEX
  8
LAYER_1
 10
120.8822
 20
201.2552
  0
SEQEND
  0
POLYLINE
  8
LAYER_1
 40
0.1693
 41
0.1693
 66
1
 10
0
 20
0
 30
0
  0
VERTEX
  8
LAYER_1
 10
120.353
 20
200.7525
  0
VERTEX
  8
LAYER_1
 10
120.4324
 20
200.8319
  0
SEQEND
  0
POLYLINE
  8
LAYER_1
 40
0.1693
 41
0.1693
 66
1
 10
0
 20
0
 30
0
  0
VERTEX
  8
LAYER_1
 10
120.5118
 20
200.8848
  0
VERTEX
  8
LAYER_1
 10
120.6176
 20
200.9906
  0
SEQEND
  0
POLYLINE
  8
LAYER_1
 40
0.1693
 41
0.1693
 66
1
 10
0
 20
0
 30
0
  0
VERTEX
  8
LAYER_1
 10
120.062
 20
200.5144
  0
VERTEX
  8
LAYER_1
 10
120.1678
 20
200.5937
  0
SEQEND
  0
POLYLINE
  8
LAYER_1
 40
0.1693
 41
0.1693
 66
1
 10
0
 20
0
 30
0
  0
VERTEX
  8
LAYER_1
 10
120.2207
 20
200.6466
  0
VERTEX
  8
LAYER_1
 10
120.353
 20
200.7525
  0
SEQEND
  0
POLYLINE
  8
LAYER_1
 40
0.1693
 41
0.1693
 66
1
 10
0
 20
0
 30
0
  0
VERTEX
  8
LAYER_1
 10
119.7974
 20
200.2762
  0
VERTEX
  8
LAYER_1
 10
119.8768
 20
200.3556
  0
SEQEND
  0
POLYLINE
  8
LAYER_1
 40
0.1693
 41
0.1693
 66
1
 10
0
 20
0
 30
0
  0
VERTEX
  8
LAYER_1
 10
119.9561
 20
200.4085
  0
VERTEX
  8
LAYER_1
 10
120.062
 20
200.5143
  0
SEQEND
  0
POLYLINE
  8
LAYER_1
 40
0.1693
 41
0.1693
 66
1
 10
0
 20
0
 30
0
  0
VERTEX
  8
LAYER_1
 10
119.5063
 20
200.0645
  0
VERTEX
  8
LAYER_1
 10
119.6122
 20
200.1439
  0
SEQEND
  0
POLYLINE
  8
LAYER_1
 40
0.1693
 41
0.1693
 66
1
 10
0
 20
0
 30
0
  0
VERTEX
  8
LAYER_1
 10
119.6651
 20
200.1968
  0
VERTEX
  8
LAYER_1
 10
119.7974
 20
200.2762
  0
SEQEND
  0
POLYLINE
  8
LAYER_1
 40
0.1693
 41
0.1693
 66
1
 10
0
 20
0
 30
0
  0
VERTEX
  8
LAYER_1
 10
119.3211
 20
199.9322
  0
VERTEX
  8
LAYER_1
 10
119.374
 20
199.9587
  0
SEQEND
  0
POLYLINE
  8
LAYER_1
 40
0.1693
 41
0.1693
 66
1
 10
0
 20
0
 30
0
  0
VERTEX
  8
LAYER_1
 10
119.427
 20
200.0116
  0
VERTEX
  8
LAYER_1
 10
119.5063
 20
200.0645
  0
SEQEND
  0
POLYLINE
  8
LAYER_1
 40
0.1693
 41
0.1693
 66
1
 10
0
 20
0
 30
0
  0
VERTEX
  8
LAYER_1
 10
119.1624
 20
199.8264
  0
VERTEX
  8
LAYER_1
 10
119.2153
 20
199.8529
  0
SEQEND
  0
POLYLINE
  8
LAYER_1
 40
0.1693
 41
0.1693
 66
1
 10
0
 20
0
 30
0
  0
VERTEX
  8
LAYER_1
 10
119.2417
 20
199.8793
  0
VERTEX
  8
LAYER_1
 10
119.3211
 20
199.9322
  0
SEQEND
  0
POLYLINE
  8
LAYER_1
 40
0.1693
 41
0.1693
 66
1
 10
0
 20
0
 30
0
  0
VERTEX
  8
LAYER_1
 10
118.8978
 20
199.6412
  0
VERTEX
  8
LAYER_1
 10
118.9772
 20
199.6941
  0
SEQEND
  0
POLYLINE
  8
LAYER_1
 40
0.1693
 41
0.1693
 66
1
 10
0
 20
0
 30
0
  0
VERTEX
  8
LAYER_1
 10
119.0565
 20
199.747
  0
VERTEX
  8
LAYER_1
 10
119.1624
 20
199.8264
  0
SEQEND
  0
POLYLINE
  8
LAYER_1
 40
0.1693
 41
0.1693
 66
1
 10
0
 20
0
 30
0
  0
VERTEX
  8
LAYER_1
 10
118.6067
 20
199.4825
  0
VERTEX
  8
LAYER_1
 10
118.7126
 20
199.5354
  0
SEQEND
  0
POLYLINE
  8
LAYER_1
 40
0.1693
 41
0.1693
 66
1
 10
0
 20
0
 30
0
  0
VERTEX
  8
LAYER_1
 10
118.7655
 20
199.5618
  0
VERTEX
  8
LAYER_1
 10
118.8978
 20
199.6412
  0
SEQEND
  0
POLYLINE
  8
LAYER_1
 40
0.1693
 41
0.1693
 66
1
 10
0
 20
0
 30
0
  0
VERTEX
  8
LAYER_1
 10
118.3422
 20
199.3237
  0
VERTEX
  8
LAYER_1
 10
118.4215
 20
199.3766
  0
SEQEND
  0
POLYLINE
  8
LAYER_1
 40
0.1693
 41
0.1693
 66
1
 10
0
 20
0
 30
0
  0
VERTEX
  8
LAYER_1
 10
118.5009
 20
199.4031
  0
VERTEX
  8
LAYER_1
 10
118.6067
 20
199.4825
  0
SEQEND
  0
POLYLINE
  8
LAYER_1
 40
0.1693
 41
0.1693
 66
1
 10
0
 20
0
 30
0
  0
VERTEX
  8
LAYER_1
 10
118.0511
 20
199.1914
  0
VERTEX
  8
LAYER_1
 10
118.1569
 20
199.2179
  0
SEQEND
  0
POLYLINE
  8
LAYER_1
 40
0.1693
 41
0.1693
 66
1
 10
0
 20
0
 30
0
  0
VERTEX
  8
LAYER_1
 10
118.2099
 20
199.2708
  0
VERTEX
  8
LAYER_1
 10
118.3421
 20
199.3237
  0
SEQEND
  0
POLYLINE
  8
LAYER_1
 40
0.1693
 41
0.1693
 66
1
 10
0
 20
0
 30
0
  0
VERTEX
  8
LAYER_1
 10
117.7336
 20
199.0592
  0
VERTEX
  8
LAYER_1
 10
117.8394
 20
199.0856
  0
SEQEND
  0
POLYLINE
  8
LAYER_1
 40
0.1693
 41
0.1693
 66
1
 10
0
 20
0
 30
0
  0
VERTEX
  8
LAYER_1
 10
117.9188
 20
199.1385
  0
VERTEX
  8
LAYER_1
 10
118.0511
 20
199.1914
  0
SEQEND
  0
POLYLINE
  8
LAYER_1
 40
0.1693
 41
0.1693
 66
1
 10
0
 20
0
 30
0
  0
VERTEX
  8
LAYER_1
 10
117.5749
 20
198.9798
  0
VERTEX
  8
LAYER_1
 10
117.6278
 20
199.0062
  0
SEQEND
  0
POLYLINE
  8
LAYER_1
 40
0.1693
 41
0.1693
 66
1
 10
0
 20
0
 30
0
  0
VERTEX
  8
LAYER_1
 10
117.6542
 20
199.0062
  0
VERTEX
  8
LAYER_1
 10
117.7336
 20
199.0592
  0
SEQEND
  0
POLYLINE
  8
LAYER_1
 40
0.1693
 41
0.1693
 66
1
 10
0
 20
0
 30
0
  0
VERTEX
  8
LAYER_1
 10
117.1515
 20
198.821
  0
VERTEX
  8
LAYER_1
 10
117.3103
 20
198.874
  0
SEQEND
  0
POLYLINE
  8
LAYER_1
 40
0.1693
 41
0.1693
 66
1
 10
0
 20
0
 30
0
  0
VERTEX
  8
LAYER_1
 10
117.4161
 20
198.9004
  0
VERTEX
  8
LAYER_1
 10
117.5749
 20
198.9798
  0
SEQEND
  0
POLYLINE
  8
LAYER_1
 40
0.1693
 41
0.1693
 66
1
 10
0
 20
0
 30
0
  0
VERTEX
  8
LAYER_1
 10
116.4107
 20
198.6094
  0
VERTEX
  8
LAYER_1
 10
116.6753
 20
198.6888
  0
SEQEND
  0
POLYLINE
  8
LAYER_1
 40
0.1693
 41
0.1693
 66
1
 10
0
 20
0
 30
0
  0
VERTEX
  8
LAYER_1
 10
116.8605
 20
198.7417
  0
VERTEX
  8
LAYER_1
 10
117.1515
 20
198.821
  0
SEQEND
  0
POLYLINE
  8
LAYER_1
 40
0.1693
 41
0.1693
 66
1
 10
0
 20
0
 30
0
  0
VERTEX
  8
LAYER_1
 10
117.1516
 20
198.8211
  0
SEQEND
  0
POLYLINE
  8
LAYER_1
 40
0.1693
 41
0.1693
 66
1
 10
0
 20
0
 30
0
  0
VERTEX
  8
LAYER_1
 10
115.6435
 20
198.4242
  0
VERTEX
  8
LAYER_1
 10
115.908
 20
198.4771
  0
SEQEND
  0
POLYLINE
  8
LAYER_1
 40
0.1693
 41
0.1693
 66
1
 10
0
 20
0
 30
0
  0
VERTEX
  8
LAYER_1
 10
116.1197
 20
198.5301
  0
VERTEX
  8
LAYER_1
 10
116.4107
 20
198.6094
  0
SEQEND
  0
POLYLINE
  8
LAYER_1
 40
0.1693
 41
0.1693
 66
1
 10
0
 20
0
 30
0
  0
VERTEX
  8
LAYER_1
 10
114.8762
 20
198.2919
  0
VERTEX
  8
LAYER_1
 10
115.1407
 20
198.3184
  0
SEQEND
  0
POLYLINE
  8
LAYER_1
 40
0.1693
 41
0.1693
 66
1
 10
0
 20
0
 30
0
  0
VERTEX
  8
LAYER_1
 10
115.3524
 20
198.3713
  0
VERTEX
  8
LAYER_1
 10
115.6434
 20
198.4242
  0
SEQEND
  0
POLYLINE
  8
LAYER_1
 40
0.1693
 41
0.1693
 66
1
 10
0
 20
0
 30
0
  0
VERTEX
  8
LAYER_1
 10
114.0824
 20
198.2126
  0
VERTEX
  8
LAYER_1
 10
114.3734
 20
198.239
  0
SEQEND
  0
POLYLINE
  8
LAYER_1
 40
0.1693
 41
0.1693
 66
1
 10
0
 20
0
 30
0
  0
VERTEX
  8
LAYER_1
 10
114.5587
 20
198.239
  0
VERTEX
  8
LAYER_1
 10
114.8761
 20
198.2919
  0
SEQEND
  0
POLYLINE
  8
LAYER_1
 40
0.1693
 41
0.1693
 66
1
 10
0
 20
0
 30
0
  0
VERTEX
  8
LAYER_1
 10
113.2887
 20
198.1067
  0
VERTEX
  8
LAYER_1
 10
113.5797
 20
198.1332
  0
SEQEND
  0
POLYLINE
  8
LAYER_1
 40
0.1693
 41
0.1693
 66
1
 10
0
 20
0
 30
0
  0
VERTEX
  8
LAYER_1
 10
113.7649
 20
198.1597
  0
VERTEX
  8
LAYER_1
 10
114.0824
 20
198.2126
  0
SEQEND
  0
POLYLINE
  8
LAYER_1
 40
0.1693
 41
0.1693
 66
1
 10
0
 20
0
 30
0
  0
VERTEX
  8
LAYER_1
 10
112.8389
 20
198.0803
  0
VERTEX
  8
LAYER_1
 10
112.9976
 20
198.0803
  0
SEQEND
  0
POLYLINE
  8
LAYER_1
 40
0.1693
 41
0.1693
 66
1
 10
0
 20
0
 30
0
  0
VERTEX
  8
LAYER_1
 10
113.1034
 20
198.0803
  0
VERTEX
  8
LAYER_1
 10
113.2886
 20
198.1067
  0
SEQEND
  0
POLYLINE
  8
LAYER_1
 40
0.1693
 41
0.1693
 66
1
 10
0
 20
0
 30
0
  0
VERTEX
  8
LAYER_1
 10
81.6974
 20
219.0353
  0
VERTEX
  8
LAYER_1
 10
81.6974
 20
219.3528
  0
SEQEND
  0
POLYLINE
  8
LAYER_1
 40
0.1693
 41
0.1693
 66
1
 10
0
 20
0
 30
0
  0
VERTEX
  8
LAYER_1
 10
81.6709
 20
219.5645
  0
VERTEX
  8
LAYER_1
 10
81.6445
 20
219.882
  0
SEQEND
  0
POLYLINE
  8
LAYER_1
 40
0.1693
 41
0.1693
 66
1
 10
0
 20
0
 30
0
  0
VERTEX
  8
LAYER_1
 10
129.0578
 20
219.0353
  0
VERTEX
  8
LAYER_1
 10
129.0578
 20
219.3528
  0
SEQEND
  0
POLYLINE
  8
LAYER_1
 40
0.1693
 41
0.1693
 66
1
 10
0
 20
0
 30
0
  0
VERTEX
  8
LAYER_1
 10
129.0843
 20
219.5645
  0
VERTEX
  8
LAYER_1
 10
129.1107
 20
219.882
  0
SEQEND
  0
POLYLINE
  8
LAYER_1
 40
0.0847
 41
0.0847
 66
1
 10
0
 20
0
 30
0
  0
VERTEX
  8
LAYER_1
 10
109.6639
 20
197.5776
  0
VERTEX
  8
LAYER_1
 10
157.0243
 20
211.1242
  0
SEQEND
  0
POLYLINE
  8
LAYER_1
 40
0.0847
 41
0.0847
 66
1
 10
0
 20
0
 30
0
  0
VERTEX
  8
LAYER_1
 10
110.7222
 20
197.2865
  0
VERTEX
  8
LAYER_1
 10
157.6858
 20
206.3617
  0
SEQEND
  0
TEXT
  8
LAYER_1
 10
150.092
 20
143.6292
 11
150.092
 21
143.6292
 40
3.8024
 41
0.5
  1
örÉàâgâëâbâv%%c25
  0
TEXT
  8
LAYER_1
 10
24.0446
 20
148.2064
 11
24.0446
 21
148.2064
 40
3.2224
 41
0.5
  1
â{âEâïî┼ÆÞö┬üiâoâbâOâvâîü[âgüj
  0
TEXT
  8
LAYER_1
 10
31.6913
 20
158.6312
 11
31.6913
 21
158.6312
 40
3.2224
 41
0.5
  1
örÉàû┌ÄMùpâiâbâg
  0
TEXT
  8
LAYER_1
 10
48.4069
 20
87.8013
 11
48.4069
 21
87.8013
 40
3.1022
 41
0.5
  1
üEörÉàâpâbâLâôüiâXâ|âôâWâpâbâLâôüEÄOèpâpâbâLâôüEâXâèâbâvâpâbâLâôüj
  0
TEXT
  8
LAYER_1
 10
48.4069
 20
82.806
 11
48.4069
 21
82.806
 40
3.6606
 41
0.5
  1
üEörÉàû┌ÄMùpâiâbâgü~2
  0
TEXT
  8
LAYER_1
 10
48.4069
 20
77.8106
 11
48.4069
 21
77.8106
 40
3.1022
 41
0.5
  1
üEâ{âEâïî┼ÆÞö┬üiâoâbâNâvâîü[âgüj
  0
TEXT
  8
LAYER_1
 10
186.826
 20
54.0008
 11
186.826
 21
54.0008
 40
3.3848
 41
0.5
  1
ü£TEL 0120-65-1232ü£FAX 06-6532-1580
  0
TEXT
  8
LAYER_1
 10
186.826
 20
50.4861
 11
186.826
 21
50.4861
 40
3.3848
 41
0.5
  1
hits@hiratatile.co.jp
  0
INSERT
  8
LAYER_1
  2
AIGNBL0101000C
 10
0
 20
0
 30
0
  0
ENDSEC
  0
EOF
