  0
SECTION
  2
HEADER
  9
$ACADVER
  1
AC1009
  9
$LUNITS
 70
2
  9
$LUPREC
 70
4
  9
$LTSCALE
 40
1.0
  9
$EXTMIN
 10
-33.2277
 20
49.7179
 30
0
  9
$EXTMAX
 10
245.4165
 20
241.0004
 30
0
  0
ENDSEC
  0
SECTION
  2
TABLES
  0
TABLE
  2
LTYPE
 70
256
  0
ENDTAB
  0
TABLE
  2
LAYER
 70
1
  0
LAYER
  2
LAYER_1
 70
64
 62
7
  6
CONTINUOUS
  0
ENDTAB
  0
TABLE
  2
STYLE
 70
6
  0
STYLE
  2
STANDARD
 70
0
 40
0
 50
0
 71
0
 41
0
 42
0
  3
TXT
  4
BIGFONT
  0
ENDTAB
  0
ENDSEC
  0
SECTION
  2
BLOCKS
  0
BLOCK
  8
LAYER_1
  2
AIGNBL01040005
 70
64
 10
0
 20
0
 30
0
  3
AIGNBL01040005
  0
POLYLINE
  8
LAYER_1
 40
0.05
 41
0.05
 66
1
 10
0
 20
0
 30
0
 70
1
  0
VERTEX
  8
LAYER_1
 10
157.5551
 20
53.6067
  0
VERTEX
  8
LAYER_1
 10
157.0662
 20
52.4216
  0
VERTEX
  8
LAYER_1
 10
156.4382
 20
52.4216
  0
VERTEX
  8
LAYER_1
 10
158.0377
 20
56.1874
  0
VERTEX
  8
LAYER_1
 10
158.7709
 20
56.1874
  0
VERTEX
  8
LAYER_1
 10
160.3773
 20
52.4216
  0
VERTEX
  8
LAYER_1
 10
159.7272
 20
52.4216
  0
VERTEX
  8
LAYER_1
 10
159.2246
 20
53.6067
  0
SEQEND
  0
POLYLINE
  8
LAYER_1
 40
0.05
 41
0.05
 66
1
 10
0
 20
0
 30
0
 70
1
  0
VERTEX
  8
LAYER_1
 10
159.0988
 20
53.9856
  0
VERTEX
  8
LAYER_1
 10
158.6379
 20
55.0705
  0
VERTEX
  8
LAYER_1
 10
158.3933
 20
55.7575
  0
VERTEX
  8
LAYER_1
 10
158.3795
 20
55.7575
  0
VERTEX
  8
LAYER_1
 10
158.1418
 20
55.075
  0
VERTEX
  8
LAYER_1
 10
157.6812
 20
53.9856
  0
SEQEND
  0
ENDBLK
  0
BLOCK
  8
LAYER_1
  2
AIGNBL01040006
 70
64
 10
0
 20
0
 30
0
  3
AIGNBL01040006
  0
POLYLINE
  8
LAYER_1
 40
0.05
 41
0.05
 66
1
 10
0
 20
0
 30
0
 70
1
  0
VERTEX
  8
LAYER_1
 10
164.7426
 20
51.8683
 42
-0.01559967508
  0
VERTEX
  8
LAYER_1
 10
162.9405
 20
52.3044
  0
VERTEX
  8
LAYER_1
 10
162.6538
 20
52.3599
 42
-0.08356944747
  0
VERTEX
  8
LAYER_1
 10
161.7898
 20
52.5261
 42
-0.0975043791
  0
VERTEX
  8
LAYER_1
 10
161.1286
 20
52.932
 42
-0.2129077902
  0
VERTEX
  8
LAYER_1
 10
160.5799
 20
54.2647
 42
-0.09684612991
  0
VERTEX
  8
LAYER_1
 10
160.7245
 20
55.0381
 42
-0.2046351071
  0
VERTEX
  8
LAYER_1
 10
161.772
 20
56.0624
 42
-0.09825619238
  0
VERTEX
  8
LAYER_1
 10
162.773
 20
56.2488
 42
-0.08554836282
  0
VERTEX
  8
LAYER_1
 10
163.6416
 20
56.1075
 42
-0.1004347897
  0
VERTEX
  8
LAYER_1
 10
164.3067
 20
55.7132
 42
-0.2140895568
  0
VERTEX
  8
LAYER_1
 10
164.8821
 20
54.3433
 42
-0.09539620281
  0
VERTEX
  8
LAYER_1
 10
164.7432
 20
53.5755
 42
-0.2143310008
  0
VERTEX
  8
LAYER_1
 10
163.7204
 20
52.597
 42
-0.02339132607
  0
VERTEX
  8
LAYER_1
 10
163.5413
 20
52.5387
  0
VERTEX
  8
LAYER_1
 10
163.5413
 20
52.5163
 42
0.01711831943
  0
VERTEX
  8
LAYER_1
 10
164.9176
 20
52.2762
  0
SEQEND
  0
POLYLINE
  8
LAYER_1
 40
0.05
 41
0.05
 66
1
 10
0
 20
0
 30
0
 70
1
  0
VERTEX
  8
LAYER_1
 10
164.2399
 20
54.3219
 42
0.1071511414
  0
VERTEX
  8
LAYER_1
 10
164.0886
 20
55.0267
 42
0.2976450246
  0
VERTEX
  8
LAYER_1
 10
162.7517
 20
55.8522
 42
0.1072291499
  0
VERTEX
  8
LAYER_1
 10
162.0618
 20
55.7127
 42
0.2386106109
  0
VERTEX
  8
LAYER_1
 10
161.2749
 20
54.7071
 42
0.05752849981
  0
VERTEX
  8
LAYER_1
 10
161.2293
 20
54.2771
 42
0.218096749
  0
VERTEX
  8
LAYER_1
 10
161.7599
 20
53.0817
 42
0.1772796408
  0
VERTEX
  8
LAYER_1
 10
162.7237
 20
52.7561
 42
0.1075185771
  0
VERTEX
  8
LAYER_1
 10
163.4051
 20
52.8951
 42
0.2370926009
  0
VERTEX
  8
LAYER_1
 10
164.1922
 20
53.8947
 42
0.05601310134
  0
SEQEND
  0
ENDBLK
  0
BLOCK
  8
LAYER_1
  2
AIGNBL01040007
 70
64
 10
0
 20
0
 30
0
  3
AIGNBL01040007
  0
POLYLINE
  8
LAYER_1
 40
0.05
 41
0.05
 66
1
 10
0
 20
0
 30
0
 70
1
  0
VERTEX
  8
LAYER_1
 10
166.2095
 20
56.1874
  0
VERTEX
  8
LAYER_1
 10
166.2095
 20
53.9581
 42
0.114533087
  0
VERTEX
  8
LAYER_1
 10
166.3434
 20
53.2923
 42
0.1464774934
  0
VERTEX
  8
LAYER_1
 10
166.6938
 20
52.9071
 42
0.1362552487
  0
VERTEX
  8
LAYER_1
 10
167.3061
 20
52.7561
 42
0.1219300979
  0
VERTEX
  8
LAYER_1
 10
167.9292
 20
52.8908
 42
0.1503016186
  0
VERTEX
  8
LAYER_1
 10
168.301
 20
53.2598
 42
0.1256239276
  0
VERTEX
  8
LAYER_1
 10
168.4516
 20
53.9581
  0
VERTEX
  8
LAYER_1
 10
168.4516
 20
56.1874
  0
VERTEX
  8
LAYER_1
 10
169.0662
 20
56.1874
  0
VERTEX
  8
LAYER_1
 10
169.0662
 20
53.9915
 42
-0.09997505101
  0
VERTEX
  8
LAYER_1
 10
168.9313
 20
53.2488
 42
-0.1214984503
  0
VERTEX
  8
LAYER_1
 10
168.558
 20
52.7421
 42
-0.1106235892
  0
VERTEX
  8
LAYER_1
 10
167.9326
 20
52.4355
 42
-0.06128954947
  0
VERTEX
  8
LAYER_1
 10
167.2851
 20
52.3599
 42
-0.09418508724
  0
VERTEX
  8
LAYER_1
 10
166.4659
 20
52.498
 42
-0.2431728796
  0
VERTEX
  8
LAYER_1
 10
165.6624
 20
53.4087
 42
-0.06320085329
  0
VERTEX
  8
LAYER_1
 10
165.5949
 20
53.9695
  0
VERTEX
  8
LAYER_1
 10
165.5949
 20
56.1874
  0
SEQEND
  0
ENDBLK
  0
BLOCK
  8
LAYER_1
  2
AIGNBL01040008
 70
64
 10
0
 20
0
 30
0
  3
AIGNBL01040008
  0
POLYLINE
  8
LAYER_1
 40
0.05
 41
0.05
 66
1
 10
0
 20
0
 30
0
 70
1
  0
VERTEX
  8
LAYER_1
 10
170.8125
 20
53.6067
  0
VERTEX
  8
LAYER_1
 10
170.3233
 20
52.4216
  0
VERTEX
  8
LAYER_1
 10
169.6953
 20
52.4216
  0
VERTEX
  8
LAYER_1
 10
171.2945
 20
56.1874
  0
VERTEX
  8
LAYER_1
 10
172.0276
 20
56.1874
  0
VERTEX
  8
LAYER_1
 10
173.634
 20
52.4216
  0
VERTEX
  8
LAYER_1
 10
172.9846
 20
52.4216
  0
VERTEX
  8
LAYER_1
 10
172.482
 20
53.6067
  0
SEQEND
  0
POLYLINE
  8
LAYER_1
 40
0.05
 41
0.05
 66
1
 10
0
 20
0
 30
0
 70
1
  0
VERTEX
  8
LAYER_1
 10
172.3559
 20
53.9856
  0
VERTEX
  8
LAYER_1
 10
171.8946
 20
55.0705
  0
VERTEX
  8
LAYER_1
 10
171.65
 20
55.7575
  0
VERTEX
  8
LAYER_1
 10
171.6362
 20
55.7575
  0
VERTEX
  8
LAYER_1
 10
171.3989
 20
55.075
  0
VERTEX
  8
LAYER_1
 10
170.9379
 20
53.9856
  0
SEQEND
  0
ENDBLK
  0
BLOCK
  8
LAYER_1
  2
AIGNBL01040009
 70
64
 10
0
 20
0
 30
0
  3
AIGNBL01040009
  0
POLYLINE
  8
LAYER_1
 40
0.05
 41
0.05
 66
1
 10
0
 20
0
 30
0
 70
1
  0
VERTEX
  8
LAYER_1
 10
174.6748
 20
56.1426
 42
-0.03245981043
  0
VERTEX
  8
LAYER_1
 10
175.8416
 20
56.2157
 42
-0.08081710393
  0
VERTEX
  8
LAYER_1
 10
176.7981
 20
56.0839
 42
-0.07812211839
  0
VERTEX
  8
LAYER_1
 10
177.1615
 20
55.9029
 42
-0.2483368586
  0
VERTEX
  8
LAYER_1
 10
177.5731
 20
55.1146
 42
-0.226147
  0
VERTEX
  8
LAYER_1
 10
177.21
 20
54.3105
 42
-0.1097236176
  0
VERTEX
  8
LAYER_1
 10
176.5818
 20
53.9972
 42
-0.06566039781
  0
VERTEX
  8
LAYER_1
 10
175.7714
 20
53.8968
 42
-0.06232747682
  0
VERTEX
  8
LAYER_1
 10
175.2828
 20
53.9302
  0
VERTEX
  8
LAYER_1
 10
175.2828
 20
52.4216
  0
VERTEX
  8
LAYER_1
 10
174.6748
 20
52.4216
  0
SEQEND
  0
POLYLINE
  8
LAYER_1
 40
0.05
 41
0.05
 66
1
 10
0
 20
0
 30
0
 70
1
  0
VERTEX
  8
LAYER_1
 10
175.2828
 20
54.3271
 42
0.04202445636
  0
VERTEX
  8
LAYER_1
 10
175.7852
 20
54.2878
 42
0.1032333559
  0
VERTEX
  8
LAYER_1
 10
176.5043
 20
54.4151
 42
0.1555698608
  0
VERTEX
  8
LAYER_1
 10
176.8691
 20
54.7196
 42
0.1352698132
  0
VERTEX
  8
LAYER_1
 10
176.9661
 20
55.0922
 42
0.1736824711
  0
VERTEX
  8
LAYER_1
 10
176.8313
 20
55.4995
 42
0.151721714
  0
VERTEX
  8
LAYER_1
 10
176.4102
 20
55.759
 42
0.06880216409
  0
VERTEX
  8
LAYER_1
 10
175.8558
 20
55.8298
 42
0.06336772289
  0
VERTEX
  8
LAYER_1
 10
175.2828
 20
55.7906
  0
SEQEND
  0
ENDBLK
  0
BLOCK
  8
LAYER_1
  2
AIGNBL0104000A
 70
64
 10
0
 20
0
 30
0
  3
AIGNBL0104000A
  0
POLYLINE
  8
LAYER_1
 40
0.05
 41
0.05
 66
1
 10
0
 20
0
 30
0
 70
1
  0
VERTEX
  8
LAYER_1
 10
179.1252
 20
55.8856
 42
-0.276560599
  0
VERTEX
  8
LAYER_1
 10
178.9856
 20
55.6455
 42
-0.1265502936
  0
VERTEX
  8
LAYER_1
 10
178.7335
 20
55.5838
 42
-0.22367962
  0
VERTEX
  8
LAYER_1
 10
178.4232
 20
55.7162
 42
-0.1709078449
  0
VERTEX
  8
LAYER_1
 10
178.3631
 20
55.8856
 42
-0.2643879937
  0
VERTEX
  8
LAYER_1
 10
178.5125
 20
56.1327
 42
-0.1290073663
  0
VERTEX
  8
LAYER_1
 10
178.7472
 20
56.1926
 42
-0.2253241111
  0
VERTEX
  8
LAYER_1
 10
179.0641
 20
56.0619
 42
-0.1691304651
  0
SEQEND
  0
POLYLINE
  8
LAYER_1
 40
0.05
 41
0.05
 66
1
 10
0
 20
0
 30
0
 70
1
  0
VERTEX
  8
LAYER_1
 10
178.4396
 20
52.4216
  0
VERTEX
  8
LAYER_1
 10
178.4396
 20
55.1256
  0
VERTEX
  8
LAYER_1
 10
179.0542
 20
55.1256
  0
VERTEX
  8
LAYER_1
 10
179.0542
 20
52.4216
  0
SEQEND
  0
ENDBLK
  0
BLOCK
  8
LAYER_1
  2
AIGNBL0104000B
 70
64
 10
0
 20
0
 30
0
  3
AIGNBL0104000B
  0
POLYLINE
  8
LAYER_1
 40
0.05
 41
0.05
 66
1
 10
0
 20
0
 30
0
 70
1
  0
VERTEX
  8
LAYER_1
 10
180.9259
 20
53.6067
  0
VERTEX
  8
LAYER_1
 10
180.4377
 20
52.4216
  0
VERTEX
  8
LAYER_1
 10
179.8087
 20
52.4216
  0
VERTEX
  8
LAYER_1
 10
181.4082
 20
56.1874
  0
VERTEX
  8
LAYER_1
 10
182.142
 20
56.1874
  0
VERTEX
  8
LAYER_1
 10
183.7485
 20
52.4216
  0
VERTEX
  8
LAYER_1
 10
183.0987
 20
52.4216
  0
VERTEX
  8
LAYER_1
 10
182.5961
 20
53.6067
  0
SEQEND
  0
POLYLINE
  8
LAYER_1
 40
0.05
 41
0.05
 66
1
 10
0
 20
0
 30
0
 70
1
  0
VERTEX
  8
LAYER_1
 10
182.47
 20
53.9856
  0
VERTEX
  8
LAYER_1
 10
182.009
 20
55.0705
  0
VERTEX
  8
LAYER_1
 10
181.7651
 20
55.7575
  0
VERTEX
  8
LAYER_1
 10
181.7503
 20
55.7575
  0
VERTEX
  8
LAYER_1
 10
181.5133
 20
55.075
  0
VERTEX
  8
LAYER_1
 10
181.0523
 20
53.9856
  0
SEQEND
  0
ENDBLK
  0
BLOCK
  8
LAYER_1
  2
AIGNBL01030004
 70
64
 10
0
 20
0
 30
0
  3
AIGNBL01030004
  0
INSERT
  8
LAYER_1
  2
AIGNBL01040005
 10
0
 20
0
 30
0
  0
INSERT
  8
LAYER_1
  2
AIGNBL01040006
 10
0
 20
0
 30
0
  0
INSERT
  8
LAYER_1
  2
AIGNBL01040007
 10
0
 20
0
 30
0
  0
INSERT
  8
LAYER_1
  2
AIGNBL01040008
 10
0
 20
0
 30
0
  0
INSERT
  8
LAYER_1
  2
AIGNBL01040009
 10
0
 20
0
 30
0
  0
INSERT
  8
LAYER_1
  2
AIGNBL0104000A
 10
0
 20
0
 30
0
  0
INSERT
  8
LAYER_1
  2
AIGNBL0104000B
 10
0
 20
0
 30
0
  0
ENDBLK
  0
BLOCK
  8
LAYER_1
  2
AIGNBL0103000D
 70
64
 10
0
 20
0
 30
0
  3
AIGNBL0103000D
  0
POLYLINE
  8
LAYER_1
 40
0.05
 41
0.05
 66
1
 10
0
 20
0
 30
0
 70
1
  0
VERTEX
  8
LAYER_1
 10
156.5481
 20
50.5223
  0
VERTEX
  8
LAYER_1
 10
157.1013
 20
50.5223
  0
VERTEX
  8
LAYER_1
 10
157.1013
 20
50.4286
  0
VERTEX
  8
LAYER_1
 10
156.443
 20
50.4286
  0
VERTEX
  8
LAYER_1
 10
156.443
 20
51.4618
  0
VERTEX
  8
LAYER_1
 10
157.0838
 20
51.4618
  0
VERTEX
  8
LAYER_1
 10
157.0838
 20
51.3684
  0
VERTEX
  8
LAYER_1
 10
156.5481
 20
51.3684
  0
VERTEX
  8
LAYER_1
 10
156.5481
 20
51.0139
  0
VERTEX
  8
LAYER_1
 10
157.0486
 20
51.0139
  0
VERTEX
  8
LAYER_1
 10
157.0486
 20
50.9206
  0
VERTEX
  8
LAYER_1
 10
156.5481
 20
50.9206
  0
SEQEND
  0
ENDBLK
  0
BLOCK
  8
LAYER_1
  2
AIGNBL0103000E
 70
64
 10
0
 20
0
 30
0
  3
AIGNBL0103000E
  0
POLYLINE
  8
LAYER_1
 40
0.05
 41
0.05
 66
1
 10
0
 20
0
 30
0
 70
1
  0
VERTEX
  8
LAYER_1
 10
158.241
 20
50.5819
  0
VERTEX
  8
LAYER_1
 10
158.2438
 20
50.5819
  0
VERTEX
  8
LAYER_1
 10
158.2438
 20
51.4618
  0
VERTEX
  8
LAYER_1
 10
158.3488
 20
51.4618
  0
VERTEX
  8
LAYER_1
 10
158.3488
 20
50.4286
  0
VERTEX
  8
LAYER_1
 10
158.2179
 20
50.4286
  0
VERTEX
  8
LAYER_1
 10
157.6168
 20
51.3174
  0
VERTEX
  8
LAYER_1
 10
157.6133
 20
51.3174
  0
VERTEX
  8
LAYER_1
 10
157.6133
 20
50.4286
  0
VERTEX
  8
LAYER_1
 10
157.5086
 20
50.4286
  0
VERTEX
  8
LAYER_1
 10
157.5086
 20
51.4618
  0
VERTEX
  8
LAYER_1
 10
157.6398
 20
51.4618
  0
SEQEND
  0
ENDBLK
  0
BLOCK
  8
LAYER_1
  2
AIGNBL0103000F
 70
64
 10
0
 20
0
 30
0
  3
AIGNBL0103000F
  0
POLYLINE
  8
LAYER_1
 40
0.05
 41
0.05
 66
1
 10
0
 20
0
 30
0
 70
1
  0
VERTEX
  8
LAYER_1
 10
158.8218
 20
50.6405
  0
VERTEX
  8
LAYER_1
 10
158.8763
 20
50.5375
 42
0.1809219053
  0
VERTEX
  8
LAYER_1
 10
158.9896
 20
50.4958
  0
VERTEX
  8
LAYER_1
 10
159.0788
 20
50.5154
  0
VERTEX
  8
LAYER_1
 10
159.135
 20
50.5688
  0
VERTEX
  8
LAYER_1
 10
159.1639
 20
50.6453
  0
VERTEX
  8
LAYER_1
 10
159.1722
 20
50.7349
  0
VERTEX
  8
LAYER_1
 10
159.1722
 20
51.4618
  0
VERTEX
  8
LAYER_1
 10
159.2773
 20
51.4618
  0
VERTEX
  8
LAYER_1
 10
159.2773
 20
50.7263
  0
VERTEX
  8
LAYER_1
 10
159.2659
 20
50.6184
  0
VERTEX
  8
LAYER_1
 10
159.2246
 20
50.5134
  0
VERTEX
  8
LAYER_1
 10
159.1398
 20
50.4338
  0
VERTEX
  8
LAYER_1
 10
159.001
 20
50.4024
 42
-0.1846674817
  0
VERTEX
  8
LAYER_1
 10
158.8163
 20
50.4624
 42
-0.1764563828
  0
VERTEX
  8
LAYER_1
 10
158.724
 20
50.6139
  0
SEQEND
  0
ENDBLK
  0
BLOCK
  8
LAYER_1
  2
AIGNBL01030010
 70
64
 10
0
 20
0
 30
0
  3
AIGNBL01030010
  0
POLYLINE
  8
LAYER_1
 40
0.05
 41
0.05
 66
1
 10
0
 20
0
 30
0
 70
1
  0
VERTEX
  8
LAYER_1
 10
160.7656
 20
50.9454
 42
-0.103587114
  0
VERTEX
  8
LAYER_1
 10
160.7246
 20
50.728
 42
-0.1000549391
  0
VERTEX
  8
LAYER_1
 10
160.6119
 20
50.5564
  0
VERTEX
  8
LAYER_1
 10
160.441
 20
50.4434
 42
-0.09506675375
  0
VERTEX
  8
LAYER_1
 10
160.2271
 20
50.4024
 42
-0.1010765979
  0
VERTEX
  8
LAYER_1
 10
160.0135
 20
50.4434
 42
-0.1005668876
  0
VERTEX
  8
LAYER_1
 10
159.8426
 20
50.5564
 42
-0.09506076213
  0
VERTEX
  8
LAYER_1
 10
159.7293
 20
50.728
 42
-0.0931359716
  0
VERTEX
  8
LAYER_1
 10
159.6886
 20
50.9454
 42
-0.1020962526
  0
VERTEX
  8
LAYER_1
 10
159.7293
 20
51.1628
 42
-0.1007559602
  0
VERTEX
  8
LAYER_1
 10
159.8426
 20
51.3343
 42
-0.09625543395
  0
VERTEX
  8
LAYER_1
 10
160.0135
 20
51.4473
 42
-0.0952064105
  0
VERTEX
  8
LAYER_1
 10
160.2271
 20
51.4883
 42
-0.101175466
  0
VERTEX
  8
LAYER_1
 10
160.441
 20
51.4473
 42
-0.09853409661
  0
VERTEX
  8
LAYER_1
 10
160.6119
 20
51.3343
 42
-0.09562840933
  0
VERTEX
  8
LAYER_1
 10
160.7246
 20
51.1628
 42
-0.09393796777
  0
SEQEND
  0
POLYLINE
  8
LAYER_1
 40
0.05
 41
0.05
 66
1
 10
0
 20
0
 30
0
 70
1
  0
VERTEX
  8
LAYER_1
 10
160.6546
 20
50.9447
  0
VERTEX
  8
LAYER_1
 10
160.6257
 20
51.1166
  0
VERTEX
  8
LAYER_1
 10
160.5409
 20
51.2599
  0
VERTEX
  8
LAYER_1
 10
160.4059
 20
51.3581
  0
VERTEX
  8
LAYER_1
 10
160.2271
 20
51.395
  0
VERTEX
  8
LAYER_1
 10
160.0483
 20
51.3581
  0
VERTEX
  8
LAYER_1
 10
159.9136
 20
51.2599
  0
VERTEX
  8
LAYER_1
 10
159.8289
 20
51.1166
  0
VERTEX
  8
LAYER_1
 10
159.7996
 20
50.9447
  0
VERTEX
  8
LAYER_1
 10
159.8289
 20
50.7728
  0
VERTEX
  8
LAYER_1
 10
159.9136
 20
50.6298
  0
VERTEX
  8
LAYER_1
 10
160.0483
 20
50.5323
 42
0.1008257054
  0
VERTEX
  8
LAYER_1
 10
160.2271
 20
50.4958
  0
VERTEX
  8
LAYER_1
 10
160.4059
 20
50.5323
  0
VERTEX
  8
LAYER_1
 10
160.5409
 20
50.6298
  0
VERTEX
  8
LAYER_1
 10
160.6257
 20
50.7728
  0
SEQEND
  0
ENDBLK
  0
BLOCK
  8
LAYER_1
  2
AIGNBL01030011
 70
64
 10
0
 20
0
 30
0
  3
AIGNBL01030011
  0
POLYLINE
  8
LAYER_1
 40
0.05
 41
0.05
 66
1
 10
0
 20
0
 30
0
 70
1
  0
VERTEX
  8
LAYER_1
 10
161.5404
 20
50.4286
  0
VERTEX
  8
LAYER_1
 10
161.4356
 20
50.4286
  0
VERTEX
  8
LAYER_1
 10
161.4356
 20
50.874
  0
VERTEX
  8
LAYER_1
 10
161.0488
 20
51.4618
  0
VERTEX
  8
LAYER_1
 10
161.18
 20
51.4618
  0
VERTEX
  8
LAYER_1
 10
161.4911
 20
50.9616
  0
VERTEX
  8
LAYER_1
 10
161.8046
 20
51.4618
  0
VERTEX
  8
LAYER_1
 10
161.9269
 20
51.4618
  0
VERTEX
  8
LAYER_1
 10
161.5404
 20
50.874
  0
SEQEND
  0
ENDBLK
  0
BLOCK
  8
LAYER_1
  2
AIGNBL01030012
 70
64
 10
0
 20
0
 30
0
  3
AIGNBL01030012
  0
POLYLINE
  8
LAYER_1
 40
0.05
 41
0.05
 66
1
 10
0
 20
0
 30
0
 70
1
  0
VERTEX
  8
LAYER_1
 10
162.8319
 20
51.4618
  0
VERTEX
  8
LAYER_1
 10
163.1396
 20
51.4618
  0
VERTEX
  8
LAYER_1
 10
163.2581
 20
51.4494
  0
VERTEX
  8
LAYER_1
 10
163.3649
 20
51.407
  0
VERTEX
  8
LAYER_1
 10
163.4427
 20
51.3261
  0
VERTEX
  8
LAYER_1
 10
163.4724
 20
51.1979
 42
-0.1787887146
  0
VERTEX
  8
LAYER_1
 10
163.4224
 20
51.0556
 42
-0.1642670326
  0
VERTEX
  8
LAYER_1
 10
163.2891
 20
50.976
  0
VERTEX
  8
LAYER_1
 10
163.2891
 20
50.9733
 42
-0.1734673322
  0
VERTEX
  8
LAYER_1
 10
163.4558
 20
50.8951
 42
-0.1923137572
  0
VERTEX
  8
LAYER_1
 10
163.522
 20
50.7146
  0
VERTEX
  8
LAYER_1
 10
163.4948
 20
50.5974
  0
VERTEX
  8
LAYER_1
 10
163.4186
 20
50.5068
  0
VERTEX
  8
LAYER_1
 10
163.2977
 20
50.4493
  0
VERTEX
  8
LAYER_1
 10
163.1379
 20
50.4286
  0
VERTEX
  8
LAYER_1
 10
162.8319
 20
50.4286
  0
SEQEND
  0
POLYLINE
  8
LAYER_1
 40
0.05
 41
0.05
 66
1
 10
0
 20
0
 30
0
 70
1
  0
VERTEX
  8
LAYER_1
 10
162.937
 20
51.0094
  0
VERTEX
  8
LAYER_1
 10
163.1485
 20
51.0094
  0
VERTEX
  8
LAYER_1
 10
163.2254
 20
51.0184
  0
VERTEX
  8
LAYER_1
 10
163.2956
 20
51.048
  0
VERTEX
  8
LAYER_1
 10
163.3477
 20
51.1045
  0
VERTEX
  8
LAYER_1
 10
163.3673
 20
51.1907
  0
VERTEX
  8
LAYER_1
 10
163.3477
 20
51.2744
  0
VERTEX
  8
LAYER_1
 10
163.2946
 20
51.3305
  0
VERTEX
  8
LAYER_1
 10
163.2157
 20
51.3619
  0
VERTEX
  8
LAYER_1
 10
163.1192
 20
51.3715
  0
VERTEX
  8
LAYER_1
 10
162.937
 20
51.3715
  0
SEQEND
  0
POLYLINE
  8
LAYER_1
 40
0.05
 41
0.05
 66
1
 10
0
 20
0
 30
0
 70
1
  0
VERTEX
  8
LAYER_1
 10
162.937
 20
50.5192
  0
VERTEX
  8
LAYER_1
 10
163.1327
 20
50.5192
  0
VERTEX
  8
LAYER_1
 10
163.2412
 20
50.5302
  0
VERTEX
  8
LAYER_1
 10
163.3318
 20
50.565
  0
VERTEX
  8
LAYER_1
 10
163.3935
 20
50.6281
  0
VERTEX
  8
LAYER_1
 10
163.4169
 20
50.7208
 42
0.2554060681
  0
VERTEX
  8
LAYER_1
 10
163.3477
 20
50.873
 42
0.1380642909
  0
VERTEX
  8
LAYER_1
 10
163.1516
 20
50.9233
  0
VERTEX
  8
LAYER_1
 10
162.937
 20
50.9233
  0
SEQEND
  0
ENDBLK
  0
BLOCK
  8
LAYER_1
  2
AIGNBL01030013
 70
64
 10
0
 20
0
 30
0
  3
AIGNBL01030013
  0
POLYLINE
  8
LAYER_1
 40
0.05
 41
0.05
 66
1
 10
0
 20
0
 30
0
 70
1
  0
VERTEX
  8
LAYER_1
 10
163.954
 20
50.4286
  0
VERTEX
  8
LAYER_1
 10
163.8386
 20
50.4286
  0
VERTEX
  8
LAYER_1
 10
164.2854
 20
51.4618
  0
VERTEX
  8
LAYER_1
 10
164.3877
 20
51.4618
  0
VERTEX
  8
LAYER_1
 10
164.8311
 20
50.4286
  0
VERTEX
  8
LAYER_1
 10
164.7143
 20
50.4286
  0
VERTEX
  8
LAYER_1
 10
164.6003
 20
50.7001
  0
VERTEX
  8
LAYER_1
 10
164.0663
 20
50.7001
  0
SEQEND
  0
POLYLINE
  8
LAYER_1
 40
0.05
 41
0.05
 66
1
 10
0
 20
0
 30
0
 70
1
  0
VERTEX
  8
LAYER_1
 10
164.1056
 20
50.7965
  0
VERTEX
  8
LAYER_1
 10
164.561
 20
50.7965
  0
VERTEX
  8
LAYER_1
 10
164.3333
 20
51.3454
  0
SEQEND
  0
ENDBLK
  0
BLOCK
  8
LAYER_1
  2
AIGNBL01030014
 70
64
 10
0
 20
0
 30
0
  3
AIGNBL01030014
  0
POLYLINE
  8
LAYER_1
 40
0.05
 41
0.05
 66
1
 10
0
 20
0
 30
0
 70
1
  0
VERTEX
  8
LAYER_1
 10
165.5157
 20
50.4286
  0
VERTEX
  8
LAYER_1
 10
165.4106
 20
50.4286
  0
VERTEX
  8
LAYER_1
 10
165.4106
 20
51.3684
  0
VERTEX
  8
LAYER_1
 10
165.0644
 20
51.3684
  0
VERTEX
  8
LAYER_1
 10
165.0644
 20
51.4618
  0
VERTEX
  8
LAYER_1
 10
165.8612
 20
51.4618
  0
VERTEX
  8
LAYER_1
 10
165.8612
 20
51.3684
  0
VERTEX
  8
LAYER_1
 10
165.5157
 20
51.3684
  0
SEQEND
  0
ENDBLK
  0
BLOCK
  8
LAYER_1
  2
AIGNBL01030015
 70
64
 10
0
 20
0
 30
0
  3
AIGNBL01030015
  0
POLYLINE
  8
LAYER_1
 40
0.05
 41
0.05
 66
1
 10
0
 20
0
 30
0
 70
1
  0
VERTEX
  8
LAYER_1
 10
166.2174
 20
51.4618
  0
VERTEX
  8
LAYER_1
 10
166.3221
 20
51.4618
  0
VERTEX
  8
LAYER_1
 10
166.3221
 20
51.0139
  0
VERTEX
  8
LAYER_1
 10
166.8858
 20
51.0139
  0
VERTEX
  8
LAYER_1
 10
166.8858
 20
51.4618
  0
VERTEX
  8
LAYER_1
 10
166.9908
 20
51.4618
  0
VERTEX
  8
LAYER_1
 10
166.9908
 20
50.4286
  0
VERTEX
  8
LAYER_1
 10
166.8858
 20
50.4286
  0
VERTEX
  8
LAYER_1
 10
166.8858
 20
50.9178
  0
VERTEX
  8
LAYER_1
 10
166.3221
 20
50.9178
  0
VERTEX
  8
LAYER_1
 10
166.3221
 20
50.4286
  0
VERTEX
  8
LAYER_1
 10
166.2174
 20
50.4286
  0
SEQEND
  0
ENDBLK
  0
BLOCK
  8
LAYER_1
  2
AIGNBL01030016
 70
64
 10
0
 20
0
 30
0
  3
AIGNBL01030016
  0
POLYLINE
  8
LAYER_1
 40
0.05
 41
0.05
 66
1
 10
0
 20
0
 30
0
 70
1
  0
VERTEX
  8
LAYER_1
 10
167.5713
 20
50.4286
  0
VERTEX
  8
LAYER_1
 10
167.4663
 20
50.4286
  0
VERTEX
  8
LAYER_1
 10
167.4663
 20
51.4618
  0
VERTEX
  8
LAYER_1
 10
167.7701
 20
51.4618
  0
VERTEX
  8
LAYER_1
 10
167.9107
 20
51.4473
  0
VERTEX
  8
LAYER_1
 10
168.0233
 20
51.3998
  0
VERTEX
  8
LAYER_1
 10
168.0967
 20
51.3143
  0
VERTEX
  8
LAYER_1
 10
168.1229
 20
51.1862
  0
VERTEX
  8
LAYER_1
 10
168.1029
 20
51.0825
  0
VERTEX
  8
LAYER_1
 10
168.0475
 20
51.0015
  0
VERTEX
  8
LAYER_1
 10
167.9641
 20
50.9467
  0
VERTEX
  8
LAYER_1
 10
167.859
 20
50.9206
  0
VERTEX
  8
LAYER_1
 10
168.1611
 20
50.4286
  0
VERTEX
  8
LAYER_1
 10
168.0327
 20
50.4286
  0
VERTEX
  8
LAYER_1
 10
167.7467
 20
50.9116
  0
VERTEX
  8
LAYER_1
 10
167.5713
 20
50.9116
  0
SEQEND
  0
POLYLINE
  8
LAYER_1
 40
0.05
 41
0.05
 66
1
 10
0
 20
0
 30
0
 70
1
  0
VERTEX
  8
LAYER_1
 10
167.5713
 20
51.0022
  0
VERTEX
  8
LAYER_1
 10
167.7539
 20
51.0022
 42
0.1657798624
  0
VERTEX
  8
LAYER_1
 10
167.9496
 20
51.048
 42
0.2503949893
  0
VERTEX
  8
LAYER_1
 10
168.0182
 20
51.1862
  0
VERTEX
  8
LAYER_1
 10
167.9989
 20
51.272
  0
VERTEX
  8
LAYER_1
 10
167.9465
 20
51.3292
  0
VERTEX
  8
LAYER_1
 10
167.8649
 20
51.3612
  0
VERTEX
  8
LAYER_1
 10
167.7584
 20
51.3715
  0
VERTEX
  8
LAYER_1
 10
167.5713
 20
51.3715
  0
SEQEND
  0
ENDBLK
  0
BLOCK
  8
LAYER_1
  2
AIGNBL01030017
 70
64
 10
0
 20
0
 30
0
  3
AIGNBL01030017
  0
POLYLINE
  8
LAYER_1
 40
0.05
 41
0.05
 66
1
 10
0
 20
0
 30
0
 70
1
  0
VERTEX
  8
LAYER_1
 10
169.5633
 20
50.9454
 42
-0.1000954639
  0
VERTEX
  8
LAYER_1
 10
169.5227
 20
50.728
 42
-0.1001905425
  0
VERTEX
  8
LAYER_1
 10
169.4093
 20
50.5564
 42
-0.09598116796
  0
VERTEX
  8
LAYER_1
 10
169.2388
 20
50.4434
 42
-0.09506675375
  0
VERTEX
  8
LAYER_1
 10
169.0249
 20
50.4024
 42
-0.1012184087
  0
VERTEX
  8
LAYER_1
 10
168.8109
 20
50.4434
 42
-0.1000476754
  0
VERTEX
  8
LAYER_1
 10
168.6404
 20
50.5564
 42
-0.09638651026
  0
VERTEX
  8
LAYER_1
 10
168.5274
 20
50.728
 42
-0.0931359716
  0
VERTEX
  8
LAYER_1
 10
168.4867
 20
50.9454
 42
-0.1020962526
  0
VERTEX
  8
LAYER_1
 10
168.5274
 20
51.1628
 42
-0.101889112
  0
VERTEX
  8
LAYER_1
 10
168.6404
 20
51.3343
 42
-0.09563682649
  0
VERTEX
  8
LAYER_1
 10
168.8109
 20
51.4473
 42
-0.0950295922
  0
VERTEX
  8
LAYER_1
 10
169.0249
 20
51.4883
 42
-0.101175466
  0
VERTEX
  8
LAYER_1
 10
169.2388
 20
51.4473
 42
-0.101575919
  0
VERTEX
  8
LAYER_1
 10
169.4093
 20
51.3343
 42
-0.09449174073
  0
VERTEX
  8
LAYER_1
 10
169.5227
 20
51.1628
 42
-0.09273041258
  0
SEQEND
  0
POLYLINE
  8
LAYER_1
 40
0.05
 41
0.05
 66
1
 10
0
 20
0
 30
0
 70
1
  0
VERTEX
  8
LAYER_1
 10
169.4524
 20
50.9447
  0
VERTEX
  8
LAYER_1
 10
169.4231
 20
51.1166
  0
VERTEX
  8
LAYER_1
 10
169.3383
 20
51.2599
  0
VERTEX
  8
LAYER_1
 10
169.2036
 20
51.3581
  0
VERTEX
  8
LAYER_1
 10
169.0249
 20
51.395
  0
VERTEX
  8
LAYER_1
 10
168.846
 20
51.3581
  0
VERTEX
  8
LAYER_1
 10
168.711
 20
51.2599
  0
VERTEX
  8
LAYER_1
 10
168.6262
 20
51.1166
  0
VERTEX
  8
LAYER_1
 10
168.5973
 20
50.9447
  0
VERTEX
  8
LAYER_1
 10
168.6262
 20
50.7728
  0
VERTEX
  8
LAYER_1
 10
168.711
 20
50.6298
  0
VERTEX
  8
LAYER_1
 10
168.846
 20
50.5323
  0
VERTEX
  8
LAYER_1
 10
169.0249
 20
50.4958
  0
VERTEX
  8
LAYER_1
 10
169.2036
 20
50.5323
  0
VERTEX
  8
LAYER_1
 10
169.3383
 20
50.6298
  0
VERTEX
  8
LAYER_1
 10
169.4231
 20
50.7728
  0
SEQEND
  0
ENDBLK
  0
BLOCK
  8
LAYER_1
  2
AIGNBL01030018
 70
64
 10
0
 20
0
 30
0
  3
AIGNBL01030018
  0
POLYLINE
  8
LAYER_1
 40
0.05
 41
0.05
 66
1
 10
0
 20
0
 30
0
 70
1
  0
VERTEX
  8
LAYER_1
 10
171.0051
 20
50.9454
 42
-0.1041417444
  0
VERTEX
  8
LAYER_1
 10
170.9641
 20
50.728
 42
-0.1000549391
  0
VERTEX
  8
LAYER_1
 10
170.8514
 20
50.5564
 42
-0.09536478376
  0
VERTEX
  8
LAYER_1
 10
170.6805
 20
50.4434
 42
-0.09507606236
  0
VERTEX
  8
LAYER_1
 10
170.4666
 20
50.4024
 42
-0.101822328
  0
VERTEX
  8
LAYER_1
 10
170.253
 20
50.4434
 42
-0.102112669
  0
VERTEX
  8
LAYER_1
 10
170.0821
 20
50.5564
 42
-0.09442769366
  0
VERTEX
  8
LAYER_1
 10
169.9688
 20
50.728
 42
-0.0931359716
  0
VERTEX
  8
LAYER_1
 10
169.9281
 20
50.9454
 42
-0.1020962526
  0
VERTEX
  8
LAYER_1
 10
169.9688
 20
51.1628
 42
-0.1007688052
  0
VERTEX
  8
LAYER_1
 10
170.0821
 20
51.3343
 42
-0.09625543395
  0
VERTEX
  8
LAYER_1
 10
170.253
 20
51.4473
 42
-0.09528409444
  0
VERTEX
  8
LAYER_1
 10
170.4666
 20
51.4883
 42
-0.101185532
  0
VERTEX
  8
LAYER_1
 10
170.6805
 20
51.4473
 42
-0.09904343471
  0
VERTEX
  8
LAYER_1
 10
170.8514
 20
51.3343
 42
-0.09562840933
  0
VERTEX
  8
LAYER_1
 10
170.9641
 20
51.1628
 42
-0.09397287008
  0
SEQEND
  0
POLYLINE
  8
LAYER_1
 40
0.05
 41
0.05
 66
1
 10
0
 20
0
 30
0
 70
1
  0
VERTEX
  8
LAYER_1
 10
170.8941
 20
50.9447
  0
VERTEX
  8
LAYER_1
 10
170.8652
 20
51.1166
  0
VERTEX
  8
LAYER_1
 10
170.7804
 20
51.2599
  0
VERTEX
  8
LAYER_1
 10
170.6454
 20
51.3581
  0
VERTEX
  8
LAYER_1
 10
170.4666
 20
51.395
  0
VERTEX
  8
LAYER_1
 10
170.2878
 20
51.3581
  0
VERTEX
  8
LAYER_1
 10
170.1531
 20
51.2599
  0
VERTEX
  8
LAYER_1
 10
170.0684
 20
51.1166
  0
VERTEX
  8
LAYER_1
 10
170.0391
 20
50.9447
  0
VERTEX
  8
LAYER_1
 10
170.0684
 20
50.7728
  0
VERTEX
  8
LAYER_1
 10
170.1531
 20
50.6298
  0
VERTEX
  8
LAYER_1
 10
170.2878
 20
50.5323
  0
VERTEX
  8
LAYER_1
 10
170.4666
 20
50.4958
  0
VERTEX
  8
LAYER_1
 10
170.6454
 20
50.5323
  0
VERTEX
  8
LAYER_1
 10
170.7804
 20
50.6298
  0
VERTEX
  8
LAYER_1
 10
170.8652
 20
50.7728
  0
SEQEND
  0
ENDBLK
  0
BLOCK
  8
LAYER_1
  2
AIGNBL01030019
 70
64
 10
0
 20
0
 30
0
  3
AIGNBL01030019
  0
POLYLINE
  8
LAYER_1
 40
0.05
 41
0.05
 66
1
 10
0
 20
0
 30
0
 70
1
  0
VERTEX
  8
LAYER_1
 10
171.9359
 20
50.6067
  0
VERTEX
  8
LAYER_1
 10
171.9377
 20
50.6067
  0
VERTEX
  8
LAYER_1
 10
172.2832
 20
51.4618
  0
VERTEX
  8
LAYER_1
 10
172.4441
 20
51.4618
  0
VERTEX
  8
LAYER_1
 10
172.4441
 20
50.4286
  0
VERTEX
  8
LAYER_1
 10
172.3387
 20
50.4286
  0
VERTEX
  8
LAYER_1
 10
172.3387
 20
51.3261
  0
VERTEX
  8
LAYER_1
 10
172.3359
 20
51.3261
  0
VERTEX
  8
LAYER_1
 10
171.9625
 20
50.4286
  0
VERTEX
  8
LAYER_1
 10
171.907
 20
50.4286
  0
VERTEX
  8
LAYER_1
 10
171.5332
 20
51.3261
  0
VERTEX
  8
LAYER_1
 10
171.5305
 20
51.3261
  0
VERTEX
  8
LAYER_1
 10
171.5305
 20
50.4286
  0
VERTEX
  8
LAYER_1
 10
171.4254
 20
50.4286
  0
VERTEX
  8
LAYER_1
 10
171.4254
 20
51.4618
  0
VERTEX
  8
LAYER_1
 10
171.5859
 20
51.4618
  0
SEQEND
  0
ENDBLK
  0
BLOCK
  8
LAYER_1
  2
AIGNBL0103001A
 70
64
 10
0
 20
0
 30
0
  3
AIGNBL0103001A
  0
POLYLINE
  8
LAYER_1
 40
0.05
 41
0.05
 66
1
 10
0
 20
0
 30
0
 70
1
  0
VERTEX
  8
LAYER_1
 10
173.5906
 20
50.5223
  0
VERTEX
  8
LAYER_1
 10
174.1439
 20
50.5223
  0
VERTEX
  8
LAYER_1
 10
174.1439
 20
50.4286
  0
VERTEX
  8
LAYER_1
 10
173.4855
 20
50.4286
  0
VERTEX
  8
LAYER_1
 10
173.4855
 20
51.4618
  0
VERTEX
  8
LAYER_1
 10
174.1263
 20
51.4618
  0
VERTEX
  8
LAYER_1
 10
174.1263
 20
51.3684
  0
VERTEX
  8
LAYER_1
 10
173.5906
 20
51.3684
  0
VERTEX
  8
LAYER_1
 10
173.5906
 20
51.0139
  0
VERTEX
  8
LAYER_1
 10
174.0912
 20
51.0139
  0
VERTEX
  8
LAYER_1
 10
174.0912
 20
50.9206
  0
VERTEX
  8
LAYER_1
 10
173.5906
 20
50.9206
  0
SEQEND
  0
ENDBLK
  0
BLOCK
  8
LAYER_1
  2
AIGNBL0103001B
 70
64
 10
0
 20
0
 30
0
  3
AIGNBL0103001B
  0
POLYLINE
  8
LAYER_1
 40
0.05
 41
0.05
 66
1
 10
0
 20
0
 30
0
 70
1
  0
VERTEX
  8
LAYER_1
 10
174.8891
 20
51.0446
  0
VERTEX
  8
LAYER_1
 10
175.1712
 20
51.4618
  0
VERTEX
  8
LAYER_1
 10
175.2963
 20
51.4618
  0
VERTEX
  8
LAYER_1
 10
174.9538
 20
50.9702
  0
VERTEX
  8
LAYER_1
 10
175.3332
 20
50.4286
  0
VERTEX
  8
LAYER_1
 10
175.2019
 20
50.4286
  0
VERTEX
  8
LAYER_1
 10
174.8863
 20
50.8944
  0
VERTEX
  8
LAYER_1
 10
174.5728
 20
50.4286
  0
VERTEX
  8
LAYER_1
 10
174.4412
 20
50.4286
  0
VERTEX
  8
LAYER_1
 10
174.8209
 20
50.9715
  0
VERTEX
  8
LAYER_1
 10
174.475
 20
51.4618
  0
VERTEX
  8
LAYER_1
 10
174.6066
 20
51.4618
  0
SEQEND
  0
ENDBLK
  0
BLOCK
  8
LAYER_1
  2
AIGNBL0103001C
 70
64
 10
0
 20
0
 30
0
  3
AIGNBL0103001C
  0
POLYLINE
  8
LAYER_1
 40
0.05
 41
0.05
 66
1
 10
0
 20
0
 30
0
 70
1
  0
VERTEX
  8
LAYER_1
 10
175.6994
 20
51.4618
  0
VERTEX
  8
LAYER_1
 10
175.9915
 20
51.4618
  0
VERTEX
  8
LAYER_1
 10
176.1345
 20
51.4453
  0
VERTEX
  8
LAYER_1
 10
176.2444
 20
51.3939
  0
VERTEX
  8
LAYER_1
 10
176.3154
 20
51.3078
  0
VERTEX
  8
LAYER_1
 10
176.3398
 20
51.1862
  0
VERTEX
  8
LAYER_1
 10
176.3147
 20
51.0642
  0
VERTEX
  8
LAYER_1
 10
176.243
 20
50.9781
  0
VERTEX
  8
LAYER_1
 10
176.1321
 20
50.9264
  0
VERTEX
  8
LAYER_1
 10
175.9884
 20
50.9089
  0
VERTEX
  8
LAYER_1
 10
175.8044
 20
50.9089
  0
VERTEX
  8
LAYER_1
 10
175.8044
 20
50.4286
  0
VERTEX
  8
LAYER_1
 10
175.6994
 20
50.4286
  0
SEQEND
  0
POLYLINE
  8
LAYER_1
 40
0.05
 41
0.05
 66
1
 10
0
 20
0
 30
0
 70
1
  0
VERTEX
  8
LAYER_1
 10
175.8044
 20
50.9977
  0
VERTEX
  8
LAYER_1
 10
175.9822
 20
50.9977
 42
0.1829203509
  0
VERTEX
  8
LAYER_1
 10
176.1706
 20
51.0459
 42
0.2347011275
  0
VERTEX
  8
LAYER_1
 10
176.2351
 20
51.1862
 42
0.26486771
  0
VERTEX
  8
LAYER_1
 10
176.1686
 20
51.3271
 42
0.126412566
  0
VERTEX
  8
LAYER_1
 10
175.9822
 20
51.3715
  0
VERTEX
  8
LAYER_1
 10
175.8044
 20
51.3715
  0
SEQEND
  0
ENDBLK
  0
BLOCK
  8
LAYER_1
  2
AIGNBL0103001D
 70
64
 10
0
 20
0
 30
0
  3
AIGNBL0103001D
  0
POLYLINE
  8
LAYER_1
 40
0.05
 41
0.05
 66
1
 10
0
 20
0
 30
0
 70
1
  0
VERTEX
  8
LAYER_1
 10
176.8521
 20
50.5223
  0
VERTEX
  8
LAYER_1
 10
177.4054
 20
50.5223
  0
VERTEX
  8
LAYER_1
 10
177.4054
 20
50.4286
  0
VERTEX
  8
LAYER_1
 10
176.747
 20
50.4286
  0
VERTEX
  8
LAYER_1
 10
176.747
 20
51.4618
  0
VERTEX
  8
LAYER_1
 10
177.3878
 20
51.4618
  0
VERTEX
  8
LAYER_1
 10
177.3878
 20
51.3684
  0
VERTEX
  8
LAYER_1
 10
176.8521
 20
51.3684
  0
VERTEX
  8
LAYER_1
 10
176.8521
 20
51.0139
  0
VERTEX
  8
LAYER_1
 10
177.3527
 20
51.0139
  0
VERTEX
  8
LAYER_1
 10
177.3527
 20
50.9206
  0
VERTEX
  8
LAYER_1
 10
176.8521
 20
50.9206
  0
SEQEND
  0
ENDBLK
  0
BLOCK
  8
LAYER_1
  2
AIGNBL0103001E
 70
64
 10
0
 20
0
 30
0
  3
AIGNBL0103001E
  0
POLYLINE
  8
LAYER_1
 40
0.05
 41
0.05
 66
1
 10
0
 20
0
 30
0
 70
1
  0
VERTEX
  8
LAYER_1
 10
177.9173
 20
50.4286
  0
VERTEX
  8
LAYER_1
 10
177.8122
 20
50.4286
  0
VERTEX
  8
LAYER_1
 10
177.8122
 20
51.4618
  0
VERTEX
  8
LAYER_1
 10
178.1161
 20
51.4618
  0
VERTEX
  8
LAYER_1
 10
178.2567
 20
51.4473
  0
VERTEX
  8
LAYER_1
 10
178.3693
 20
51.3998
  0
VERTEX
  8
LAYER_1
 10
178.443
 20
51.3143
  0
VERTEX
  8
LAYER_1
 10
178.4689
 20
51.1862
  0
VERTEX
  8
LAYER_1
 10
178.4489
 20
51.0825
  0
VERTEX
  8
LAYER_1
 10
178.3934
 20
51.0015
  0
VERTEX
  8
LAYER_1
 10
178.3101
 20
50.9467
  0
VERTEX
  8
LAYER_1
 10
178.205
 20
50.9206
  0
VERTEX
  8
LAYER_1
 10
178.5071
 20
50.4286
  0
VERTEX
  8
LAYER_1
 10
178.3786
 20
50.4286
  0
VERTEX
  8
LAYER_1
 10
178.0927
 20
50.9116
  0
VERTEX
  8
LAYER_1
 10
177.9173
 20
50.9116
  0
SEQEND
  0
POLYLINE
  8
LAYER_1
 40
0.05
 41
0.05
 66
1
 10
0
 20
0
 30
0
 70
1
  0
VERTEX
  8
LAYER_1
 10
177.9173
 20
51.0022
  0
VERTEX
  8
LAYER_1
 10
178.0999
 20
51.0022
 42
0.1667734107
  0
VERTEX
  8
LAYER_1
 10
178.2956
 20
51.048
 42
0.2503091692
  0
VERTEX
  8
LAYER_1
 10
178.3641
 20
51.1862
  0
VERTEX
  8
LAYER_1
 10
178.3452
 20
51.272
  0
VERTEX
  8
LAYER_1
 10
178.2925
 20
51.3292
  0
VERTEX
  8
LAYER_1
 10
178.2108
 20
51.3612
  0
VERTEX
  8
LAYER_1
 10
178.1044
 20
51.3715
  0
VERTEX
  8
LAYER_1
 10
177.9173
 20
51.3715
  0
SEQEND
  0
ENDBLK
  0
BLOCK
  8
LAYER_1
  2
AIGNBL0103001F
 70
64
 10
0
 20
0
 30
0
  3
AIGNBL0103001F
  0
POLYLINE
  8
LAYER_1
 40
0.05
 41
0.05
 66
1
 10
0
 20
0
 30
0
 70
1
  0
VERTEX
  8
LAYER_1
 10
178.9929
 20
50.4286
  0
VERTEX
  8
LAYER_1
 10
178.8882
 20
50.4286
  0
VERTEX
  8
LAYER_1
 10
178.8882
 20
51.4618
  0
VERTEX
  8
LAYER_1
 10
178.9929
 20
51.4618
  0
SEQEND
  0
ENDBLK
  0
BLOCK
  8
LAYER_1
  2
AIGNBL01030020
 70
64
 10
0
 20
0
 30
0
  3
AIGNBL01030020
  0
POLYLINE
  8
LAYER_1
 40
0.05
 41
0.05
 66
1
 10
0
 20
0
 30
0
 70
1
  0
VERTEX
  8
LAYER_1
 10
179.5737
 20
50.5223
  0
VERTEX
  8
LAYER_1
 10
180.1267
 20
50.5223
  0
VERTEX
  8
LAYER_1
 10
180.1267
 20
50.4286
  0
VERTEX
  8
LAYER_1
 10
179.4687
 20
50.4286
  0
VERTEX
  8
LAYER_1
 10
179.4687
 20
51.4618
  0
VERTEX
  8
LAYER_1
 10
180.1094
 20
51.4618
  0
VERTEX
  8
LAYER_1
 10
180.1094
 20
51.3684
  0
VERTEX
  8
LAYER_1
 10
179.5737
 20
51.3684
  0
VERTEX
  8
LAYER_1
 10
179.5737
 20
51.0139
  0
VERTEX
  8
LAYER_1
 10
180.0743
 20
51.0139
  0
VERTEX
  8
LAYER_1
 10
180.0743
 20
50.9206
  0
VERTEX
  8
LAYER_1
 10
179.5737
 20
50.9206
  0
SEQEND
  0
ENDBLK
  0
BLOCK
  8
LAYER_1
  2
AIGNBL01030021
 70
64
 10
0
 20
0
 30
0
  3
AIGNBL01030021
  0
POLYLINE
  8
LAYER_1
 40
0.05
 41
0.05
 66
1
 10
0
 20
0
 30
0
 70
1
  0
VERTEX
  8
LAYER_1
 10
181.2666
 20
50.5819
  0
VERTEX
  8
LAYER_1
 10
181.2694
 20
50.5819
  0
VERTEX
  8
LAYER_1
 10
181.2694
 20
51.4618
  0
VERTEX
  8
LAYER_1
 10
181.3745
 20
51.4618
  0
VERTEX
  8
LAYER_1
 10
181.3745
 20
50.4286
  0
VERTEX
  8
LAYER_1
 10
181.2432
 20
50.4286
  0
VERTEX
  8
LAYER_1
 10
180.642
 20
51.3174
  0
VERTEX
  8
LAYER_1
 10
180.6389
 20
51.3174
  0
VERTEX
  8
LAYER_1
 10
180.6389
 20
50.4286
  0
VERTEX
  8
LAYER_1
 10
180.5339
 20
50.4286
  0
VERTEX
  8
LAYER_1
 10
180.5339
 20
51.4618
  0
VERTEX
  8
LAYER_1
 10
180.6655
 20
51.4618
  0
SEQEND
  0
ENDBLK
  0
BLOCK
  8
LAYER_1
  2
AIGNBL01030022
 70
64
 10
0
 20
0
 30
0
  3
AIGNBL01030022
  0
POLYLINE
  8
LAYER_1
 40
0.05
 41
0.05
 66
1
 10
0
 20
0
 30
0
 70
1
  0
VERTEX
  8
LAYER_1
 10
182.7201
 20
50.5964
  0
VERTEX
  8
LAYER_1
 10
182.6564
 20
50.522
  0
VERTEX
  8
LAYER_1
 10
182.5703
 20
50.4603
  0
VERTEX
  8
LAYER_1
 10
182.4621
 20
50.4179
  0
VERTEX
  8
LAYER_1
 10
182.3333
 20
50.4024
 42
-0.100982896
  0
VERTEX
  8
LAYER_1
 10
182.1172
 20
50.4434
 42
-0.1036559164
  0
VERTEX
  8
LAYER_1
 10
181.9467
 20
50.5564
 42
-0.09812017057
  0
VERTEX
  8
LAYER_1
 10
181.8351
 20
50.728
 42
-0.09232404316
  0
VERTEX
  8
LAYER_1
 10
181.7948
 20
50.9454
 42
-0.1039024847
  0
VERTEX
  8
LAYER_1
 10
181.8358
 20
51.1628
 42
-0.1006255151
  0
VERTEX
  8
LAYER_1
 10
181.9484
 20
51.3343
 42
-0.09509197705
  0
VERTEX
  8
LAYER_1
 10
182.1193
 20
51.4473
 42
-0.0950295922
  0
VERTEX
  8
LAYER_1
 10
182.3333
 20
51.4883
  0
VERTEX
  8
LAYER_1
 10
182.4449
 20
51.4763
  0
VERTEX
  8
LAYER_1
 10
182.5479
 20
51.4428
  0
VERTEX
  8
LAYER_1
 10
182.6354
 20
51.3912
  0
VERTEX
  8
LAYER_1
 10
182.7012
 20
51.3233
  0
VERTEX
  8
LAYER_1
 10
182.6137
 20
51.2589
  0
VERTEX
  8
LAYER_1
 10
182.5703
 20
51.3088
  0
VERTEX
  8
LAYER_1
 10
182.5069
 20
51.3526
  0
VERTEX
  8
LAYER_1
 10
182.4273
 20
51.3832
  0
VERTEX
  8
LAYER_1
 10
182.3346
 20
51.395
  0
VERTEX
  8
LAYER_1
 10
182.1544
 20
51.3584
  0
VERTEX
  8
LAYER_1
 10
182.0194
 20
51.2603
  0
VERTEX
  8
LAYER_1
 10
181.9346
 20
51.1169
  0
VERTEX
  8
LAYER_1
 10
181.9057
 20
50.9454
  0
VERTEX
  8
LAYER_1
 10
181.9357
 20
50.7738
  0
VERTEX
  8
LAYER_1
 10
182.0211
 20
50.6305
  0
VERTEX
  8
LAYER_1
 10
182.1562
 20
50.5323
 42
0.1010490553
  0
VERTEX
  8
LAYER_1
 10
182.3346
 20
50.4958
  0
VERTEX
  8
LAYER_1
 10
182.5038
 20
50.5323
 42
0.1324826472
  0
VERTEX
  8
LAYER_1
 10
182.6381
 20
50.6491
  0
SEQEND
  0
ENDBLK
  0
BLOCK
  8
LAYER_1
  2
AIGNBL01030023
 70
64
 10
0
 20
0
 30
0
  3
AIGNBL01030023
  0
POLYLINE
  8
LAYER_1
 40
0.05
 41
0.05
 66
1
 10
0
 20
0
 30
0
 70
1
  0
VERTEX
  8
LAYER_1
 10
183.2073
 20
50.5223
  0
VERTEX
  8
LAYER_1
 10
183.7606
 20
50.5223
  0
VERTEX
  8
LAYER_1
 10
183.7606
 20
50.4286
  0
VERTEX
  8
LAYER_1
 10
183.1022
 20
50.4286
  0
VERTEX
  8
LAYER_1
 10
183.1022
 20
51.4618
  0
VERTEX
  8
LAYER_1
 10
183.743
 20
51.4618
  0
VERTEX
  8
LAYER_1
 10
183.743
 20
51.3684
  0
VERTEX
  8
LAYER_1
 10
183.2073
 20
51.3684
  0
VERTEX
  8
LAYER_1
 10
183.2073
 20
51.0139
  0
VERTEX
  8
LAYER_1
 10
183.7078
 20
51.0139
  0
VERTEX
  8
LAYER_1
 10
183.7078
 20
50.9206
  0
VERTEX
  8
LAYER_1
 10
183.2073
 20
50.9206
  0
SEQEND
  0
ENDBLK
  0
BLOCK
  8
LAYER_1
  2
AIGNBL01020003
 70
64
 10
0
 20
0
 30
0
  3
AIGNBL01020003
  0
INSERT
  8
LAYER_1
  2
AIGNBL01030004
 10
0
 20
0
 30
0
  0
ENDBLK
  0
BLOCK
  8
LAYER_1
  2
AIGNBL0102000C
 70
64
 10
0
 20
0
 30
0
  3
AIGNBL0102000C
  0
INSERT
  8
LAYER_1
  2
AIGNBL0103000D
 10
0
 20
0
 30
0
  0
INSERT
  8
LAYER_1
  2
AIGNBL0103000E
 10
0
 20
0
 30
0
  0
INSERT
  8
LAYER_1
  2
AIGNBL0103000F
 10
0
 20
0
 30
0
  0
INSERT
  8
LAYER_1
  2
AIGNBL01030010
 10
0
 20
0
 30
0
  0
INSERT
  8
LAYER_1
  2
AIGNBL01030011
 10
0
 20
0
 30
0
  0
INSERT
  8
LAYER_1
  2
AIGNBL01030012
 10
0
 20
0
 30
0
  0
INSERT
  8
LAYER_1
  2
AIGNBL01030013
 10
0
 20
0
 30
0
  0
INSERT
  8
LAYER_1
  2
AIGNBL01030014
 10
0
 20
0
 30
0
  0
INSERT
  8
LAYER_1
  2
AIGNBL01030015
 10
0
 20
0
 30
0
  0
INSERT
  8
LAYER_1
  2
AIGNBL01030016
 10
0
 20
0
 30
0
  0
INSERT
  8
LAYER_1
  2
AIGNBL01030017
 10
0
 20
0
 30
0
  0
INSERT
  8
LAYER_1
  2
AIGNBL01030018
 10
0
 20
0
 30
0
  0
INSERT
  8
LAYER_1
  2
AIGNBL01030019
 10
0
 20
0
 30
0
  0
INSERT
  8
LAYER_1
  2
AIGNBL0103001A
 10
0
 20
0
 30
0
  0
INSERT
  8
LAYER_1
  2
AIGNBL0103001B
 10
0
 20
0
 30
0
  0
INSERT
  8
LAYER_1
  2
AIGNBL0103001C
 10
0
 20
0
 30
0
  0
INSERT
  8
LAYER_1
  2
AIGNBL0103001D
 10
0
 20
0
 30
0
  0
INSERT
  8
LAYER_1
  2
AIGNBL0103001E
 10
0
 20
0
 30
0
  0
INSERT
  8
LAYER_1
  2
AIGNBL0103001F
 10
0
 20
0
 30
0
  0
INSERT
  8
LAYER_1
  2
AIGNBL01030020
 10
0
 20
0
 30
0
  0
INSERT
  8
LAYER_1
  2
AIGNBL01030021
 10
0
 20
0
 30
0
  0
INSERT
  8
LAYER_1
  2
AIGNBL01030022
 10
0
 20
0
 30
0
  0
INSERT
  8
LAYER_1
  2
AIGNBL01030023
 10
0
 20
0
 30
0
  0
ENDBLK
  0
BLOCK
  8
LAYER_1
  2
AIGNBL01010002
 70
64
 10
0
 20
0
 30
0
  3
AIGNBL01010002
  0
INSERT
  8
LAYER_1
  2
AIGNBL01020003
 10
0
 20
0
 30
0
  0
INSERT
  8
LAYER_1
  2
AIGNBL0102000C
 10
0
 20
0
 30
0
  0
ENDBLK
  0
ENDSEC
  0
SECTION
  2
ENTITIES
  0
POLYLINE
  8
LAYER_1
 40
0.05
 41
0.05
 66
1
 10
0
 20
0
 30
0
 70
1
  0
VERTEX
  8
LAYER_1
 10
98.9646
 20
194.9317
  0
VERTEX
  8
LAYER_1
 10
98.9646
 20
194.5348
  0
VERTEX
  8
LAYER_1
 10
99.4673
 20
194.5348
  0
VERTEX
  8
LAYER_1
 10
99.4673
 20
194.9317
  0
SEQEND
  0
POLYLINE
  8
LAYER_1
 40
0.0847
 41
0.0847
 66
1
 10
0
 20
0
 30
0
 70
1
  0
VERTEX
  8
LAYER_1
 10
98.9646
 20
194.9317
  0
VERTEX
  8
LAYER_1
 10
98.9646
 20
194.5348
  0
VERTEX
  8
LAYER_1
 10
99.4673
 20
194.5348
  0
VERTEX
  8
LAYER_1
 10
99.4673
 20
194.9317
  0
SEQEND
  0
POLYLINE
  8
LAYER_1
 40
0.05
 41
0.05
 66
1
 10
0
 20
0
 30
0
 70
1
  0
VERTEX
  8
LAYER_1
 10
95.525
 20
192.7886
  0
VERTEX
  8
LAYER_1
 10
95.525
 20
192.4182
  0
VERTEX
  8
LAYER_1
 10
96.0277
 20
192.4182
  0
VERTEX
  8
LAYER_1
 10
96.0277
 20
192.7886
  0
SEQEND
  0
POLYLINE
  8
LAYER_1
 40
0.0847
 41
0.0847
 66
1
 10
0
 20
0
 30
0
 70
1
  0
VERTEX
  8
LAYER_1
 10
95.525
 20
192.7886
  0
VERTEX
  8
LAYER_1
 10
95.525
 20
192.4182
  0
VERTEX
  8
LAYER_1
 10
96.0277
 20
192.4182
  0
VERTEX
  8
LAYER_1
 10
96.0277
 20
192.7886
  0
SEQEND
  0
POLYLINE
  8
LAYER_1
 40
0.05
 41
0.05
 66
1
 10
0
 20
0
 30
0
 70
1
  0
VERTEX
  8
LAYER_1
 10
111.7969
 20
194.9317
  0
VERTEX
  8
LAYER_1
 10
111.7969
 20
194.5348
  0
VERTEX
  8
LAYER_1
 10
112.2996
 20
194.5348
  0
VERTEX
  8
LAYER_1
 10
112.2996
 20
194.9317
  0
SEQEND
  0
POLYLINE
  8
LAYER_1
 40
0.0847
 41
0.0847
 66
1
 10
0
 20
0
 30
0
 70
1
  0
VERTEX
  8
LAYER_1
 10
111.7969
 20
194.9317
  0
VERTEX
  8
LAYER_1
 10
111.7969
 20
194.5348
  0
VERTEX
  8
LAYER_1
 10
112.2996
 20
194.5348
  0
VERTEX
  8
LAYER_1
 10
112.2996
 20
194.9317
  0
SEQEND
  0
POLYLINE
  8
LAYER_1
 40
0.05
 41
0.05
 66
1
 10
0
 20
0
 30
0
 70
1
  0
VERTEX
  8
LAYER_1
 10
115.2365
 20
192.7886
  0
VERTEX
  8
LAYER_1
 10
115.2365
 20
192.4182
  0
VERTEX
  8
LAYER_1
 10
115.7392
 20
192.4182
  0
VERTEX
  8
LAYER_1
 10
115.7392
 20
192.7886
  0
SEQEND
  0
POLYLINE
  8
LAYER_1
 40
0.0847
 41
0.0847
 66
1
 10
0
 20
0
 30
0
 70
1
  0
VERTEX
  8
LAYER_1
 10
115.2365
 20
192.7886
  0
VERTEX
  8
LAYER_1
 10
115.2365
 20
192.4182
  0
VERTEX
  8
LAYER_1
 10
115.7392
 20
192.4182
  0
VERTEX
  8
LAYER_1
 10
115.7392
 20
192.7886
  0
SEQEND
  0
POLYLINE
  8
LAYER_1
 40
0.05
 41
0.05
 66
1
 10
0
 20
0
 30
0
 70
1
  0
VERTEX
  8
LAYER_1
 10
99.3879
 20
191.7302
  0
VERTEX
  8
LAYER_1
 10
99.3879
 20
191.6244
  0
VERTEX
  8
LAYER_1
 10
111.8763
 20
191.6244
  0
VERTEX
  8
LAYER_1
 10
111.8763
 20
191.7302
  0
SEQEND
  0
POLYLINE
  8
LAYER_1
 40
0.0847
 41
0.0847
 66
1
 10
0
 20
0
 30
0
 70
1
  0
VERTEX
  8
LAYER_1
 10
99.3879
 20
191.7302
  0
VERTEX
  8
LAYER_1
 10
99.3879
 20
191.6244
  0
VERTEX
  8
LAYER_1
 10
111.8763
 20
191.6244
  0
VERTEX
  8
LAYER_1
 10
111.8763
 20
191.7302
  0
SEQEND
  0
POLYLINE
  8
LAYER_1
 40
0.0847
 41
0.0847
 66
1
 10
0
 20
0
 30
0
  0
VERTEX
  8
LAYER_1
 10
96.0013
 20
192.6563
  0
VERTEX
  8
LAYER_1
 10
47.9
 20
179.0831
  0
SEQEND
  0
TEXT
  8
LAYER_1
 10
26.0449
 20
177.9191
 11
26.0449
 21
177.9191
 40
3.2224
 41
0.5
  1
äOâèâôâOüiìòüj
  0
POLYLINE
  8
LAYER_1
 40
0.0847
 41
0.0847
 66
1
 10
0
 20
0
 30
0
  0
VERTEX
  8
LAYER_1
 10
102.7217
 20
184.1102
  0
VERTEX
  8
LAYER_1
 10
75.6284
 20
159.0013
  0
SEQEND
  0
POLYLINE
  8
LAYER_1
 40
0.0847
 41
0.0847
 66
1
 10
0
 20
0
 30
0
  0
VERTEX
  8
LAYER_1
 10
96.4511
 20
185.9623
  0
VERTEX
  8
LAYER_1
 10
70.9981
 20
169.7434
  0
SEQEND
  0
POLYLINE
  8
LAYER_1
 40
0.0847
 41
0.0847
 66
1
 10
0
 20
0
 30
0
  0
VERTEX
  8
LAYER_1
 10
103.3831
 20
190.2486
  0
VERTEX
  8
LAYER_1
 10
75.6284
 20
159.0013
  0
SEQEND
  0
TEXT
  8
LAYER_1
 10
158.813
 20
167.8911
 11
158.813
 21
167.8911
 40
3.2224
 41
0.5
  1
äOâèâôâOüiô¹öÆüj
  0
POLYLINE
  8
LAYER_1
 40
0.0847
 41
0.0847
 66
1
 10
0
 20
0
 30
0
  0
VERTEX
  8
LAYER_1
 10
112.0086
 20
194.6936
  0
VERTEX
  8
LAYER_1
 10
158.099
 20
170.0609
  0
SEQEND
  0
TEXT
  8
LAYER_1
 10
163.7082
 20
160.2712
 11
163.7082
 21
160.2712
 40
3.2224
 41
0.5
  1
ÄOèpâpâbâLâô
  0
POLYLINE
  8
LAYER_1
 40
0.0847
 41
0.0847
 66
1
 10
0
 20
0
 30
0
  0
VERTEX
  8
LAYER_1
 10
107.4842
 20
192.6298
  0
VERTEX
  8
LAYER_1
 10
163.0996
 20
161.7265
  0
SEQEND
  0
TEXT
  8
LAYER_1
 10
151.8546
 20
154.8209
 11
151.8546
 21
154.8209
 40
3.2224
 41
0.5
  1
âXâèâbâvâpâbâLâô
  0
POLYLINE
  8
LAYER_1
 40
0.0847
 41
0.0847
 66
1
 10
0
 20
0
 30
0
  0
VERTEX
  8
LAYER_1
 10
106.029
 20
191.7038
  0
VERTEX
  8
LAYER_1
 10
151.1669
 20
156.1438
  0
SEQEND
  0
POLYLINE
  8
LAYER_1
 40
0.0847
 41
0.0847
 66
1
 10
0
 20
0
 30
0
  0
VERTEX
  8
LAYER_1
 10
107.8017
 20
157.2021
  0
VERTEX
  8
LAYER_1
 10
107.8811
 20
157.2286
  0
SEQEND
  0
POLYLINE
  8
LAYER_1
 40
0.0847
 41
0.0847
 66
1
 10
0
 20
0
 30
0
  0
VERTEX
  8
LAYER_1
 10
108.0398
 20
157.2815
  0
VERTEX
  8
LAYER_1
 10
108.1192
 20
157.308
  0
SEQEND
  0
POLYLINE
  8
LAYER_1
 40
0.0847
 41
0.0847
 66
1
 10
0
 20
0
 30
0
  0
VERTEX
  8
LAYER_1
 10
107.4313
 20
157.2021
  0
VERTEX
  8
LAYER_1
 10
107.4577
 20
157.2021
  0
SEQEND
  0
POLYLINE
  8
LAYER_1
 40
0.0847
 41
0.0847
 66
1
 10
0
 20
0
 30
0
  0
VERTEX
  8
LAYER_1
 10
107.5636
 20
157.2021
  0
VERTEX
  8
LAYER_1
 10
107.6165
 20
157.2021
  0
VERTEX
  8
LAYER_1
 10
107.6429
 20
157.2021
  0
SEQEND
  0
POLYLINE
  8
LAYER_1
 40
0.0847
 41
0.0847
 66
1
 10
0
 20
0
 30
0
  0
VERTEX
  8
LAYER_1
 10
107.7488
 20
157.2021
  0
VERTEX
  8
LAYER_1
 10
107.8017
 20
157.2021
  0
SEQEND
  0
POLYLINE
  8
LAYER_1
 40
0.0847
 41
0.0847
 66
1
 10
0
 20
0
 30
0
  0
VERTEX
  8
LAYER_1
 10
102.8011
 20
159.4246
  0
VERTEX
  8
LAYER_1
 10
102.8804
 20
159.4511
  0
SEQEND
  0
POLYLINE
  8
LAYER_1
 40
0.0847
 41
0.0847
 66
1
 10
0
 20
0
 30
0
  0
VERTEX
  8
LAYER_1
 10
103.0392
 20
159.5304
  0
VERTEX
  8
LAYER_1
 10
103.145
 20
159.5834
  0
VERTEX
  8
LAYER_1
 10
103.2244
 20
159.6098
  0
SEQEND
  0
POLYLINE
  8
LAYER_1
 40
0.0847
 41
0.0847
 66
1
 10
0
 20
0
 30
0
  0
VERTEX
  8
LAYER_1
 10
103.3831
 20
159.6627
  0
VERTEX
  8
LAYER_1
 10
103.4625
 20
159.6892
  0
VERTEX
  8
LAYER_1
 10
103.489
 20
159.6892
  0
SEQEND
  0
POLYLINE
  8
LAYER_1
 40
0.0847
 41
0.0847
 66
1
 10
0
 20
0
 30
0
  0
VERTEX
  8
LAYER_1
 10
103.5948
 20
159.6892
  0
VERTEX
  8
LAYER_1
 10
103.6477
 20
159.6892
  0
VERTEX
  8
LAYER_1
 10
103.6742
 20
159.6892
  0
SEQEND
  0
POLYLINE
  8
LAYER_1
 40
0.0847
 41
0.0847
 66
1
 10
0
 20
0
 30
0
  0
VERTEX
  8
LAYER_1
 10
103.78
 20
159.6892
  0
VERTEX
  8
LAYER_1
 10
103.8329
 20
159.6892
  0
VERTEX
  8
LAYER_1
 10
103.9123
 20
159.6627
  0
SEQEND
  0
POLYLINE
  8
LAYER_1
 40
0.0847
 41
0.0847
 66
1
 10
0
 20
0
 30
0
  0
VERTEX
  8
LAYER_1
 10
104.0711
 20
159.6098
  0
VERTEX
  8
LAYER_1
 10
104.1504
 20
159.5834
  0
VERTEX
  8
LAYER_1
 10
104.2298
 20
159.5569
  0
SEQEND
  0
POLYLINE
  8
LAYER_1
 40
0.0847
 41
0.0847
 66
1
 10
0
 20
0
 30
0
  0
VERTEX
  8
LAYER_1
 10
104.3886
 20
159.4775
  0
VERTEX
  8
LAYER_1
 10
104.4944
 20
159.4246
  0
VERTEX
  8
LAYER_1
 10
104.5738
 20
159.3717
  0
SEQEND
  0
POLYLINE
  8
LAYER_1
 40
0.0847
 41
0.0847
 66
1
 10
0
 20
0
 30
0
  0
VERTEX
  8
LAYER_1
 10
104.7325
 20
159.2659
  0
VERTEX
  8
LAYER_1
 10
104.8119
 20
159.1865
  0
VERTEX
  8
LAYER_1
 10
104.8913
 20
159.1336
  0
SEQEND
  0
POLYLINE
  8
LAYER_1
 40
0.0847
 41
0.0847
 66
1
 10
0
 20
0
 30
0
  0
VERTEX
  8
LAYER_1
 10
105.05
 20
159.0013
  0
VERTEX
  8
LAYER_1
 10
105.1294
 20
158.9219
  0
VERTEX
  8
LAYER_1
 10
105.2088
 20
158.869
  0
SEQEND
  0
POLYLINE
  8
LAYER_1
 40
0.0847
 41
0.0847
 66
1
 10
0
 20
0
 30
0
  0
VERTEX
  8
LAYER_1
 10
105.3675
 20
158.7102
  0
VERTEX
  8
LAYER_1
 10
105.4469
 20
158.6309
  0
VERTEX
  8
LAYER_1
 10
105.5263
 20
158.5515
  0
SEQEND
  0
POLYLINE
  8
LAYER_1
 40
0.0847
 41
0.0847
 66
1
 10
0
 20
0
 30
0
  0
VERTEX
  8
LAYER_1
 10
105.7115
 20
158.3663
  0
VERTEX
  8
LAYER_1
 10
105.8173
 20
158.2604
  0
VERTEX
  8
LAYER_1
 10
105.8967
 20
158.2075
  0
SEQEND
  0
POLYLINE
  8
LAYER_1
 40
0.0847
 41
0.0847
 66
1
 10
0
 20
0
 30
0
  0
VERTEX
  8
LAYER_1
 10
106.0555
 20
158.0488
  0
VERTEX
  8
LAYER_1
 10
106.1348
 20
157.9694
  0
VERTEX
  8
LAYER_1
 10
106.2142
 20
157.9165
  0
SEQEND
  0
POLYLINE
  8
LAYER_1
 40
0.0847
 41
0.0847
 66
1
 10
0
 20
0
 30
0
  0
VERTEX
  8
LAYER_1
 10
106.373
 20
157.7842
  0
VERTEX
  8
LAYER_1
 10
106.4523
 20
157.7048
  0
VERTEX
  8
LAYER_1
 10
106.5317
 20
157.6519
  0
SEQEND
  0
POLYLINE
  8
LAYER_1
 40
0.0847
 41
0.0847
 66
1
 10
0
 20
0
 30
0
  0
VERTEX
  8
LAYER_1
 10
106.6905
 20
157.5461
  0
VERTEX
  8
LAYER_1
 10
106.7698
 20
157.4667
  0
VERTEX
  8
LAYER_1
 10
106.8492
 20
157.4402
  0
SEQEND
  0
POLYLINE
  8
LAYER_1
 40
0.0847
 41
0.0847
 66
1
 10
0
 20
0
 30
0
  0
VERTEX
  8
LAYER_1
 10
107.008
 20
157.3609
  0
VERTEX
  8
LAYER_1
 10
107.1138
 20
157.3079
  0
VERTEX
  8
LAYER_1
 10
107.1932
 20
157.2815
  0
SEQEND
  0
POLYLINE
  8
LAYER_1
 40
0.0847
 41
0.0847
 66
1
 10
0
 20
0
 30
0
  0
VERTEX
  8
LAYER_1
 10
107.3519
 20
157.2286
  0
VERTEX
  8
LAYER_1
 10
107.4313
 20
157.2021
  0
SEQEND
  0
POLYLINE
  8
LAYER_1
 40
0.0847
 41
0.0847
 66
1
 10
0
 20
0
 30
0
  0
VERTEX
  8
LAYER_1
 10
102.51
 20
159.2129
  0
VERTEX
  8
LAYER_1
 10
102.5629
 20
159.2659
  0
SEQEND
  0
POLYLINE
  8
LAYER_1
 40
0.0847
 41
0.0847
 66
1
 10
0
 20
0
 30
0
  0
VERTEX
  8
LAYER_1
 10
102.7217
 20
159.3717
  0
VERTEX
  8
LAYER_1
 10
102.8011
 20
159.4246
  0
SEQEND
  0
POLYLINE
  8
LAYER_1
 40
0.0847
 41
0.0847
 66
1
 10
0
 20
0
 30
0
  0
VERTEX
  8
LAYER_1
 10
108.1192
 20
157.3079
  0
VERTEX
  8
LAYER_1
 10
108.1986
 20
157.3344
  0
SEQEND
  0
POLYLINE
  8
LAYER_1
 40
0.0847
 41
0.0847
 66
1
 10
0
 20
0
 30
0
  0
VERTEX
  8
LAYER_1
 10
108.3573
 20
157.4138
  0
VERTEX
  8
LAYER_1
 10
108.4632
 20
157.4667
  0
VERTEX
  8
LAYER_1
 10
108.5161
 20
157.5196
  0
SEQEND
  0
POLYLINE
  8
LAYER_1
 40
0.0847
 41
0.0847
 66
1
 10
0
 20
0
 30
0
  0
VERTEX
  8
LAYER_1
 10
108.6748
 20
157.6254
  0
VERTEX
  8
LAYER_1
 10
108.7542
 20
157.6784
  0
SEQEND
  0
POLYLINE
  8
LAYER_1
 40
0.0847
 41
0.0847
 66
1
 10
0
 20
0
 30
0
  0
VERTEX
  8
LAYER_1
 10
206.5706
 20
186.174
  0
VERTEX
  8
LAYER_1
 10
206.5706
 20
192.4181
  0
SEQEND
  0
POLYLINE
  8
LAYER_1
 40
0.1693
 41
0.1693
 66
1
 10
0
 20
0
 30
0
  0
VERTEX
  8
LAYER_1
 10
206.5706
 20
192.4182
  0
VERTEX
  8
LAYER_1
 10
206.0944
 20
194.2438
  0
SEQEND
  0
POLYLINE
  8
LAYER_1
 40
0.1693
 41
0.1693
 66
1
 10
0
 20
0
 30
0
  0
VERTEX
  8
LAYER_1
 10
206.5706
 20
192.4182
  0
VERTEX
  8
LAYER_1
 10
207.0469
 20
194.2438
  0
SEQEND
  0
POLYLINE
  8
LAYER_1
 40
0.1693
 41
0.1693
 66
1
 10
0
 20
0
 30
0
  0
VERTEX
  8
LAYER_1
 10
206.5706
 20
186.174
  0
VERTEX
  8
LAYER_1
 10
207.0469
 20
184.3484
  0
SEQEND
  0
POLYLINE
  8
LAYER_1
 40
0.1693
 41
0.1693
 66
1
 10
0
 20
0
 30
0
  0
VERTEX
  8
LAYER_1
 10
206.5706
 20
186.174
  0
VERTEX
  8
LAYER_1
 10
206.0944
 20
184.3484
  0
SEQEND
  0
POLYLINE
  8
LAYER_1
 40
0.0847
 41
0.0847
 66
1
 10
0
 20
0
 30
0
  0
VERTEX
  8
LAYER_1
 10
199.7704
 20
192.4182
  0
VERTEX
  8
LAYER_1
 10
206.5702
 20
192.4182
  0
SEQEND
  0
POLYLINE
  8
LAYER_1
 40
0.0847
 41
0.0847
 66
1
 10
0
 20
0
 30
0
  0
VERTEX
  8
LAYER_1
 10
199.7704
 20
186.174
  0
VERTEX
  8
LAYER_1
 10
206.5702
 20
186.174
  0
SEQEND
  0
TEXT
  8
LAYER_1
 10
205.6622
 20
187.2587
 11
205.6622
 21
187.2587
 40
4.5757
 41
0.5
 50
89.99999999
  1
25
  0
TEXT
  8
LAYER_1
 10
148.5739
 20
181.1469
 11
148.5739
 21
181.1469
 40
5.3169
 41
0.5
  1
ôVö┬èJî¹Éíû@üF53055
  0
POLYLINE
  8
LAYER_1
 40
0.0847
 41
0.0847
 66
1
 10
0
 20
0
 30
0
  0
VERTEX
  8
LAYER_1
 10
102.51
 20
159.2129
  0
VERTEX
  8
LAYER_1
 10
102.51
 20
160.5094
  0
SEQEND
  0
POLYLINE
  8
LAYER_1
 40
0.0847
 41
0.0847
 66
1
 10
0
 20
0
 30
0
  0
VERTEX
  8
LAYER_1
 10
102.51
 20
163.1552
  0
VERTEX
  8
LAYER_1
 10
102.51
 20
165.7746
  0
SEQEND
  0
POLYLINE
  8
LAYER_1
 40
0.0847
 41
0.0847
 66
1
 10
0
 20
0
 30
0
  0
VERTEX
  8
LAYER_1
 10
102.51
 20
168.394
  0
VERTEX
  8
LAYER_1
 10
102.51
 20
171.0398
  0
SEQEND
  0
POLYLINE
  8
LAYER_1
 40
0.0847
 41
0.0847
 66
1
 10
0
 20
0
 30
0
  0
VERTEX
  8
LAYER_1
 10
102.51
 20
173.6592
  0
VERTEX
  8
LAYER_1
 10
102.51
 20
176.2786
  0
SEQEND
  0
POLYLINE
  8
LAYER_1
 40
0.0847
 41
0.0847
 66
1
 10
0
 20
0
 30
0
  0
VERTEX
  8
LAYER_1
 10
102.51
 20
178.9244
  0
VERTEX
  8
LAYER_1
 10
102.51
 20
180.2473
  0
SEQEND
  0
POLYLINE
  8
LAYER_1
 40
0.0847
 41
0.0847
 66
1
 10
0
 20
0
 30
0
  0
VERTEX
  8
LAYER_1
 10
108.7542
 20
157.6784
  0
VERTEX
  8
LAYER_1
 10
108.7542
 20
158.7896
  0
SEQEND
  0
POLYLINE
  8
LAYER_1
 40
0.0847
 41
0.0847
 66
1
 10
0
 20
0
 30
0
  0
VERTEX
  8
LAYER_1
 10
108.7542
 20
161.0386
  0
VERTEX
  8
LAYER_1
 10
108.7542
 20
163.314
  0
SEQEND
  0
POLYLINE
  8
LAYER_1
 40
0.0847
 41
0.0847
 66
1
 10
0
 20
0
 30
0
  0
VERTEX
  8
LAYER_1
 10
108.7542
 20
165.5629
  0
VERTEX
  8
LAYER_1
 10
108.7542
 20
167.8119
  0
SEQEND
  0
POLYLINE
  8
LAYER_1
 40
0.0847
 41
0.0847
 66
1
 10
0
 20
0
 30
0
  0
VERTEX
  8
LAYER_1
 10
108.7542
 20
170.0873
  0
VERTEX
  8
LAYER_1
 10
108.7542
 20
172.3363
  0
SEQEND
  0
POLYLINE
  8
LAYER_1
 40
0.0847
 41
0.0847
 66
1
 10
0
 20
0
 30
0
  0
VERTEX
  8
LAYER_1
 10
108.7542
 20
174.5852
  0
VERTEX
  8
LAYER_1
 10
108.7542
 20
176.8607
  0
SEQEND
  0
POLYLINE
  8
LAYER_1
 40
0.0847
 41
0.0847
 66
1
 10
0
 20
0
 30
0
  0
VERTEX
  8
LAYER_1
 10
108.7542
 20
179.1096
  0
VERTEX
  8
LAYER_1
 10
108.7542
 20
180.2473
  0
SEQEND
  0
POLYLINE
  8
LAYER_1
 40
0.0847
 41
0.0847
 66
1
 10
0
 20
0
 30
0
  0
VERTEX
  8
LAYER_1
 10
107.1402
 20
201.0965
  0
VERTEX
  8
LAYER_1
 10
127.4073
 20
224.8296
  0
SEQEND
  0
TEXT
  8
LAYER_1
 10
128.2533
 20
225.1208
 11
128.2533
 21
225.1208
 40
3.2224
 41
0.5
  1
ë╗Å¤âLâââbâvâëâEâôâh
  0
TEXT
  8
LAYER_1
 10
157.9659
 20
205.2769
 11
157.9659
 21
205.2769
 40
3.2224
 41
0.5
  1
âXâ|âôâWâpâbâLâô
  0
POLYLINE
  8
LAYER_1
 40
0.0847
 41
0.0847
 66
1
 10
0
 20
0
 30
0
  0
VERTEX
  8
LAYER_1
 10
117.3531
 20
192.8944
  0
VERTEX
  8
LAYER_1
 10
158.5223
 20
201.8373
  0
SEQEND
  0
TEXT
  8
LAYER_1
 10
158.4162
 20
200.8848
 11
158.4162
 21
200.8848
 40
3.2224
 41
0.5
  1
â}âEâôâeâBâôâOâfâBâXâN
  0
POLYLINE
  8
LAYER_1
 40
0.0847
 41
0.0847
 66
1
 10
0
 20
0
 30
0
  0
VERTEX
  8
LAYER_1
 10
105.6321
 20
148.9736
  0
VERTEX
  8
LAYER_1
 10
105.6321
 20
151.8311
  0
SEQEND
  0
POLYLINE
  8
LAYER_1
 40
0.0847
 41
0.0847
 66
1
 10
0
 20
0
 30
0
  0
VERTEX
  8
LAYER_1
 10
105.6321
 20
152.9952
  0
VERTEX
  8
LAYER_1
 10
105.6321
 20
154.1329
  0
SEQEND
  0
POLYLINE
  8
LAYER_1
 40
0.0847
 41
0.0847
 66
1
 10
0
 20
0
 30
0
  0
VERTEX
  8
LAYER_1
 10
105.6321
 20
155.2971
  0
VERTEX
  8
LAYER_1
 10
105.6321
 20
161.065
  0
SEQEND
  0
POLYLINE
  8
LAYER_1
 40
0.0847
 41
0.0847
 66
1
 10
0
 20
0
 30
0
  0
VERTEX
  8
LAYER_1
 10
105.6321
 20
162.2027
  0
VERTEX
  8
LAYER_1
 10
105.6321
 20
163.3669
  0
SEQEND
  0
POLYLINE
  8
LAYER_1
 40
0.0847
 41
0.0847
 66
1
 10
0
 20
0
 30
0
  0
VERTEX
  8
LAYER_1
 10
105.6321
 20
164.5046
  0
VERTEX
  8
LAYER_1
 10
105.6321
 20
170.2725
  0
SEQEND
  0
POLYLINE
  8
LAYER_1
 40
0.0847
 41
0.0847
 66
1
 10
0
 20
0
 30
0
  0
VERTEX
  8
LAYER_1
 10
105.6321
 20
171.4367
  0
VERTEX
  8
LAYER_1
 10
105.6321
 20
172.5744
  0
SEQEND
  0
POLYLINE
  8
LAYER_1
 40
0.0847
 41
0.0847
 66
1
 10
0
 20
0
 30
0
  0
VERTEX
  8
LAYER_1
 10
105.6321
 20
173.7386
  0
VERTEX
  8
LAYER_1
 10
105.6321
 20
179.48
  0
SEQEND
  0
POLYLINE
  8
LAYER_1
 40
0.0847
 41
0.0847
 66
1
 10
0
 20
0
 30
0
  0
VERTEX
  8
LAYER_1
 10
105.6321
 20
180.6442
  0
VERTEX
  8
LAYER_1
 10
105.6321
 20
181.7819
  0
SEQEND
  0
POLYLINE
  8
LAYER_1
 40
0.0847
 41
0.0847
 66
1
 10
0
 20
0
 30
0
  0
VERTEX
  8
LAYER_1
 10
105.6321
 20
182.9461
  0
VERTEX
  8
LAYER_1
 10
105.6321
 20
188.714
  0
SEQEND
  0
POLYLINE
  8
LAYER_1
 40
0.0847
 41
0.0847
 66
1
 10
0
 20
0
 30
0
  0
VERTEX
  8
LAYER_1
 10
105.6321
 20
189.8517
  0
VERTEX
  8
LAYER_1
 10
105.6321
 20
191.0159
  0
SEQEND
  0
POLYLINE
  8
LAYER_1
 40
0.0847
 41
0.0847
 66
1
 10
0
 20
0
 30
0
  0
VERTEX
  8
LAYER_1
 10
105.6321
 20
192.1536
  0
VERTEX
  8
LAYER_1
 10
105.6321
 20
197.9215
  0
SEQEND
  0
POLYLINE
  8
LAYER_1
 40
0.0847
 41
0.0847
 66
1
 10
0
 20
0
 30
0
  0
VERTEX
  8
LAYER_1
 10
105.6321
 20
199.0857
  0
VERTEX
  8
LAYER_1
 10
105.6321
 20
200.2234
  0
SEQEND
  0
POLYLINE
  8
LAYER_1
 40
0.0847
 41
0.0847
 66
1
 10
0
 20
0
 30
0
  0
VERTEX
  8
LAYER_1
 10
105.6321
 20
201.3875
  0
VERTEX
  8
LAYER_1
 10
105.6321
 20
207.129
  0
SEQEND
  0
POLYLINE
  8
LAYER_1
 40
0.0847
 41
0.0847
 66
1
 10
0
 20
0
 30
0
  0
VERTEX
  8
LAYER_1
 10
105.6321
 20
208.2932
  0
VERTEX
  8
LAYER_1
 10
105.6321
 20
209.4309
  0
SEQEND
  0
POLYLINE
  8
LAYER_1
 40
0.0847
 41
0.0847
 66
1
 10
0
 20
0
 30
0
  0
VERTEX
  8
LAYER_1
 10
105.6321
 20
210.595
  0
VERTEX
  8
LAYER_1
 10
105.6321
 20
216.3629
  0
SEQEND
  0
POLYLINE
  8
LAYER_1
 40
0.0847
 41
0.0847
 66
1
 10
0
 20
0
 30
0
  0
VERTEX
  8
LAYER_1
 10
105.6321
 20
217.5007
  0
VERTEX
  8
LAYER_1
 10
105.6321
 20
218.6648
  0
SEQEND
  0
POLYLINE
  8
LAYER_1
 40
0.0847
 41
0.0847
 66
1
 10
0
 20
0
 30
0
  0
VERTEX
  8
LAYER_1
 10
105.6321
 20
219.8025
  0
VERTEX
  8
LAYER_1
 10
105.6321
 20
225.5705
  0
SEQEND
  0
POLYLINE
  8
LAYER_1
 40
0.0847
 41
0.0847
 66
1
 10
0
 20
0
 30
0
  0
VERTEX
  8
LAYER_1
 10
105.6321
 20
226.7346
  0
VERTEX
  8
LAYER_1
 10
105.6321
 20
227.8723
  0
SEQEND
  0
POLYLINE
  8
LAYER_1
 40
0.0847
 41
0.0847
 66
1
 10
0
 20
0
 30
0
  0
VERTEX
  8
LAYER_1
 10
105.6321
 20
229.0365
  0
VERTEX
  8
LAYER_1
 10
105.6321
 20
231.9205
  0
SEQEND
  0
POLYLINE
  8
LAYER_1
 40
0.0847
 41
0.0847
 66
1
 10
0
 20
0
 30
0
  0
VERTEX
  8
LAYER_1
 10
106.664
 20
160.5094
  0
VERTEX
  8
LAYER_1
 10
148.2829
 20
149.6351
  0
SEQEND
  0
POLYLINE
  8
LAYER_1
 40
0.254
 41
0.254
 66
1
 10
0
 20
0
 30
0
  0
VERTEX
  8
LAYER_1
 10
16.7056
 20
192.4182
  0
VERTEX
  8
LAYER_1
 10
97.5094
 20
192.4182
  0
SEQEND
  0
POLYLINE
  8
LAYER_1
 40
0.0847
 41
0.0847
 66
1
 10
0
 20
0
 30
0
  0
VERTEX
  8
LAYER_1
 10
16.7056
 20
192.4182
  0
VERTEX
  8
LAYER_1
 10
16.8908
 20
192.1536
  0
VERTEX
  8
LAYER_1
 10
17.1819
 20
191.7038
  0
VERTEX
  8
LAYER_1
 10
17.4729
 20
191.254
  0
VERTEX
  8
LAYER_1
 10
17.6846
 20
190.7777
  0
VERTEX
  8
LAYER_1
 10
17.8698
 20
190.3279
  0
VERTEX
  8
LAYER_1
 10
17.9756
 20
189.8782
  0
VERTEX
  8
LAYER_1
 10
17.9756
 20
189.6136
  0
VERTEX
  8
LAYER_1
 10
17.9756
 20
189.349
  0
VERTEX
  8
LAYER_1
 10
17.8698
 20
188.8992
  0
VERTEX
  8
LAYER_1
 10
17.6846
 20
188.4229
  0
VERTEX
  8
LAYER_1
 10
17.4729
 20
187.9732
  0
VERTEX
  8
LAYER_1
 10
17.1819
 20
187.5234
  0
VERTEX
  8
LAYER_1
 10
16.8908
 20
187.0471
  0
VERTEX
  8
LAYER_1
 10
16.5204
 20
186.5179
  0
VERTEX
  8
LAYER_1
 10
16.2823
 20
186.174
  0
SEQEND
  0
POLYLINE
  8
LAYER_1
 40
0.254
 41
0.254
 66
1
 10
0
 20
0
 30
0
  0
VERTEX
  8
LAYER_1
 10
16.2823
 20
186.174
  0
VERTEX
  8
LAYER_1
 10
97.5094
 20
186.174
  0
VERTEX
  8
LAYER_1
 10
97.5094
 20
192.4182
  0
SEQEND
  0
POLYLINE
  8
LAYER_1
 40
0.254
 41
0.254
 66
1
 10
0
 20
0
 30
0
  0
VERTEX
  8
LAYER_1
 10
113.7548
 20
192.4182
  0
VERTEX
  8
LAYER_1
 10
194.5585
 20
192.4182
  0
SEQEND
  0
POLYLINE
  8
LAYER_1
 40
0.254
 41
0.254
 66
1
 10
0
 20
0
 30
0
  0
VERTEX
  8
LAYER_1
 10
113.7548
 20
186.174
  0
VERTEX
  8
LAYER_1
 10
113.7548
 20
192.4182
  0
SEQEND
  0
POLYLINE
  8
LAYER_1
 40
0.254
 41
0.254
 66
1
 10
0
 20
0
 30
0
  0
VERTEX
  8
LAYER_1
 10
113.7548
 20
186.174
  0
VERTEX
  8
LAYER_1
 10
194.9819
 20
186.174
  0
SEQEND
  0
POLYLINE
  8
LAYER_1
 40
0.0847
 41
0.0847
 66
1
 10
0
 20
0
 30
0
  0
VERTEX
  8
LAYER_1
 10
194.7438
 20
186.5179
  0
VERTEX
  8
LAYER_1
 10
194.9819
 20
186.174
  0
SEQEND
  0
POLYLINE
  8
LAYER_1
 40
0.0847
 41
0.0847
 66
1
 10
0
 20
0
 30
0
  0
VERTEX
  8
LAYER_1
 10
194.3733
 20
187.0471
  0
VERTEX
  8
LAYER_1
 10
194.7437
 20
186.5179
  0
SEQEND
  0
POLYLINE
  8
LAYER_1
 40
0.0847
 41
0.0847
 66
1
 10
0
 20
0
 30
0
  0
VERTEX
  8
LAYER_1
 10
194.0823
 20
187.5234
  0
VERTEX
  8
LAYER_1
 10
194.3733
 20
187.0471
  0
SEQEND
  0
POLYLINE
  8
LAYER_1
 40
0.0847
 41
0.0847
 66
1
 10
0
 20
0
 30
0
  0
VERTEX
  8
LAYER_1
 10
193.7913
 20
187.9731
  0
VERTEX
  8
LAYER_1
 10
194.0823
 20
187.5234
  0
SEQEND
  0
POLYLINE
  8
LAYER_1
 40
0.0847
 41
0.0847
 66
1
 10
0
 20
0
 30
0
  0
VERTEX
  8
LAYER_1
 10
193.5796
 20
188.4229
  0
VERTEX
  8
LAYER_1
 10
193.7913
 20
187.9732
  0
SEQEND
  0
POLYLINE
  8
LAYER_1
 40
0.0847
 41
0.0847
 66
1
 10
0
 20
0
 30
0
  0
VERTEX
  8
LAYER_1
 10
193.3944
 20
188.8992
  0
VERTEX
  8
LAYER_1
 10
193.5796
 20
188.4229
  0
SEQEND
  0
POLYLINE
  8
LAYER_1
 40
0.0847
 41
0.0847
 66
1
 10
0
 20
0
 30
0
  0
VERTEX
  8
LAYER_1
 10
193.2886
 20
189.349
  0
VERTEX
  8
LAYER_1
 10
193.3944
 20
188.8992
  0
SEQEND
  0
POLYLINE
  8
LAYER_1
 40
0.0847
 41
0.0847
 66
1
 10
0
 20
0
 30
0
  0
VERTEX
  8
LAYER_1
 10
193.2886
 20
189.6136
  0
VERTEX
  8
LAYER_1
 10
193.2886
 20
189.349
  0
SEQEND
  0
POLYLINE
  8
LAYER_1
 40
0.0847
 41
0.0847
 66
1
 10
0
 20
0
 30
0
  0
VERTEX
  8
LAYER_1
 10
193.2886
 20
189.8782
  0
VERTEX
  8
LAYER_1
 10
193.2886
 20
189.6136
  0
SEQEND
  0
POLYLINE
  8
LAYER_1
 40
0.0847
 41
0.0847
 66
1
 10
0
 20
0
 30
0
  0
VERTEX
  8
LAYER_1
 10
193.3944
 20
190.328
  0
VERTEX
  8
LAYER_1
 10
193.2886
 20
189.8782
  0
SEQEND
  0
POLYLINE
  8
LAYER_1
 40
0.0847
 41
0.0847
 66
1
 10
0
 20
0
 30
0
  0
VERTEX
  8
LAYER_1
 10
193.5796
 20
190.7777
  0
VERTEX
  8
LAYER_1
 10
193.3944
 20
190.328
  0
SEQEND
  0
POLYLINE
  8
LAYER_1
 40
0.0847
 41
0.0847
 66
1
 10
0
 20
0
 30
0
  0
VERTEX
  8
LAYER_1
 10
193.7913
 20
191.254
  0
VERTEX
  8
LAYER_1
 10
193.5796
 20
190.7778
  0
SEQEND
  0
POLYLINE
  8
LAYER_1
 40
0.0847
 41
0.0847
 66
1
 10
0
 20
0
 30
0
  0
VERTEX
  8
LAYER_1
 10
194.0823
 20
191.7038
  0
VERTEX
  8
LAYER_1
 10
193.7913
 20
191.254
  0
SEQEND
  0
POLYLINE
  8
LAYER_1
 40
0.0847
 41
0.0847
 66
1
 10
0
 20
0
 30
0
  0
VERTEX
  8
LAYER_1
 10
194.3733
 20
192.1536
  0
VERTEX
  8
LAYER_1
 10
194.0823
 20
191.7038
  0
SEQEND
  0
POLYLINE
  8
LAYER_1
 40
0.0847
 41
0.0847
 66
1
 10
0
 20
0
 30
0
  0
VERTEX
  8
LAYER_1
 10
194.5585
 20
192.4182
  0
VERTEX
  8
LAYER_1
 10
194.3733
 20
192.1536
  0
SEQEND
  0
POLYLINE
  8
LAYER_1
 40
0.0847
 41
0.0847
 66
1
 10
0
 20
0
 30
0
  0
VERTEX
  8
LAYER_1
 10
17.6581
 20
188.37
  0
VERTEX
  8
LAYER_1
 10
21.7062
 20
192.4182
  0
SEQEND
  0
POLYLINE
  8
LAYER_1
 40
0.0847
 41
0.0847
 66
1
 10
0
 20
0
 30
0
  0
VERTEX
  8
LAYER_1
 10
17.2877
 20
191.5186
  0
VERTEX
  8
LAYER_1
 10
18.1873
 20
192.4182
  0
SEQEND
  0
POLYLINE
  8
LAYER_1
 40
0.0847
 41
0.0847
 66
1
 10
0
 20
0
 30
0
  0
VERTEX
  8
LAYER_1
 10
19.0075
 20
186.174
  0
VERTEX
  8
LAYER_1
 10
25.2517
 20
192.4182
  0
SEQEND
  0
POLYLINE
  8
LAYER_1
 40
0.0847
 41
0.0847
 66
1
 10
0
 20
0
 30
0
  0
VERTEX
  8
LAYER_1
 10
40.2006
 20
186.174
  0
VERTEX
  8
LAYER_1
 10
46.4712
 20
192.4182
  0
SEQEND
  0
POLYLINE
  8
LAYER_1
 40
0.0847
 41
0.0847
 66
1
 10
0
 20
0
 30
0
  0
VERTEX
  8
LAYER_1
 10
36.6817
 20
186.174
  0
VERTEX
  8
LAYER_1
 10
42.9258
 20
192.4182
  0
SEQEND
  0
POLYLINE
  8
LAYER_1
 40
0.0847
 41
0.0847
 66
1
 10
0
 20
0
 30
0
  0
VERTEX
  8
LAYER_1
 10
33.1362
 20
186.174
  0
VERTEX
  8
LAYER_1
 10
39.3804
 20
192.4182
  0
SEQEND
  0
POLYLINE
  8
LAYER_1
 40
0.0847
 41
0.0847
 66
1
 10
0
 20
0
 30
0
  0
VERTEX
  8
LAYER_1
 10
29.5908
 20
186.174
  0
VERTEX
  8
LAYER_1
 10
35.8614
 20
192.4182
  0
SEQEND
  0
POLYLINE
  8
LAYER_1
 40
0.0847
 41
0.0847
 66
1
 10
0
 20
0
 30
0
  0
VERTEX
  8
LAYER_1
 10
26.0719
 20
186.174
  0
VERTEX
  8
LAYER_1
 10
32.316
 20
192.4182
  0
SEQEND
  0
POLYLINE
  8
LAYER_1
 40
0.0847
 41
0.0847
 66
1
 10
0
 20
0
 30
0
  0
VERTEX
  8
LAYER_1
 10
22.5265
 20
186.174
  0
VERTEX
  8
LAYER_1
 10
28.7706
 20
192.4182
  0
SEQEND
  0
POLYLINE
  8
LAYER_1
 40
0.0847
 41
0.0847
 66
1
 10
0
 20
0
 30
0
  0
VERTEX
  8
LAYER_1
 10
113.7548
 20
189.0315
  0
VERTEX
  8
LAYER_1
 10
117.1415
 20
192.4182
  0
SEQEND
  0
POLYLINE
  8
LAYER_1
 40
0.0847
 41
0.0847
 66
1
 10
0
 20
0
 30
0
  0
VERTEX
  8
LAYER_1
 10
72.03
 20
186.174
  0
VERTEX
  8
LAYER_1
 10
78.2742
 20
192.4182
  0
SEQEND
  0
POLYLINE
  8
LAYER_1
 40
0.0847
 41
0.0847
 66
1
 10
0
 20
0
 30
0
  0
VERTEX
  8
LAYER_1
 10
68.4846
 20
186.174
  0
VERTEX
  8
LAYER_1
 10
74.7552
 20
192.4182
  0
SEQEND
  0
POLYLINE
  8
LAYER_1
 40
0.0847
 41
0.0847
 66
1
 10
0
 20
0
 30
0
  0
VERTEX
  8
LAYER_1
 10
64.9656
 20
186.174
  0
VERTEX
  8
LAYER_1
 10
71.2098
 20
192.4182
  0
SEQEND
  0
POLYLINE
  8
LAYER_1
 40
0.0847
 41
0.0847
 66
1
 10
0
 20
0
 30
0
  0
VERTEX
  8
LAYER_1
 10
61.4202
 20
186.174
  0
VERTEX
  8
LAYER_1
 10
67.6644
 20
192.4182
  0
SEQEND
  0
POLYLINE
  8
LAYER_1
 40
0.0847
 41
0.0847
 66
1
 10
0
 20
0
 30
0
  0
VERTEX
  8
LAYER_1
 10
57.8748
 20
186.174
  0
VERTEX
  8
LAYER_1
 10
64.1454
 20
192.4182
  0
SEQEND
  0
POLYLINE
  8
LAYER_1
 40
0.0847
 41
0.0847
 66
1
 10
0
 20
0
 30
0
  0
VERTEX
  8
LAYER_1
 10
54.3558
 20
186.174
  0
VERTEX
  8
LAYER_1
 10
60.6
 20
192.4182
  0
SEQEND
  0
POLYLINE
  8
LAYER_1
 40
0.0847
 41
0.0847
 66
1
 10
0
 20
0
 30
0
  0
VERTEX
  8
LAYER_1
 10
50.8104
 20
186.174
  0
VERTEX
  8
LAYER_1
 10
57.0546
 20
192.4182
  0
SEQEND
  0
POLYLINE
  8
LAYER_1
 40
0.0847
 41
0.0847
 66
1
 10
0
 20
0
 30
0
  0
VERTEX
  8
LAYER_1
 10
47.2914
 20
186.174
  0
VERTEX
  8
LAYER_1
 10
53.5356
 20
192.4182
  0
SEQEND
  0
POLYLINE
  8
LAYER_1
 40
0.0847
 41
0.0847
 66
1
 10
0
 20
0
 30
0
  0
VERTEX
  8
LAYER_1
 10
43.746
 20
186.174
  0
VERTEX
  8
LAYER_1
 10
49.9902
 20
192.4182
  0
SEQEND
  0
POLYLINE
  8
LAYER_1
 40
0.0847
 41
0.0847
 66
1
 10
0
 20
0
 30
0
  0
VERTEX
  8
LAYER_1
 10
114.4162
 20
186.174
  0
VERTEX
  8
LAYER_1
 10
120.6868
 20
192.4182
  0
SEQEND
  0
POLYLINE
  8
LAYER_1
 40
0.0847
 41
0.0847
 66
1
 10
0
 20
0
 30
0
  0
VERTEX
  8
LAYER_1
 10
117.9616
 20
186.174
  0
VERTEX
  8
LAYER_1
 10
124.2058
 20
192.4182
  0
SEQEND
  0
POLYLINE
  8
LAYER_1
 40
0.0847
 41
0.0847
 66
1
 10
0
 20
0
 30
0
  0
VERTEX
  8
LAYER_1
 10
121.5071
 20
186.174
  0
VERTEX
  8
LAYER_1
 10
127.7512
 20
192.4182
  0
SEQEND
  0
POLYLINE
  8
LAYER_1
 40
0.0847
 41
0.0847
 66
1
 10
0
 20
0
 30
0
  0
VERTEX
  8
LAYER_1
 10
125.026
 20
186.174
  0
VERTEX
  8
LAYER_1
 10
131.2702
 20
192.4182
  0
SEQEND
  0
POLYLINE
  8
LAYER_1
 40
0.0847
 41
0.0847
 66
1
 10
0
 20
0
 30
0
  0
VERTEX
  8
LAYER_1
 10
128.5715
 20
186.174
  0
VERTEX
  8
LAYER_1
 10
134.8156
 20
192.4182
  0
SEQEND
  0
POLYLINE
  8
LAYER_1
 40
0.0847
 41
0.0847
 66
1
 10
0
 20
0
 30
0
  0
VERTEX
  8
LAYER_1
 10
132.1169
 20
186.174
  0
VERTEX
  8
LAYER_1
 10
138.361
 20
192.4182
  0
SEQEND
  0
POLYLINE
  8
LAYER_1
 40
0.0847
 41
0.0847
 66
1
 10
0
 20
0
 30
0
  0
VERTEX
  8
LAYER_1
 10
135.6358
 20
186.174
  0
VERTEX
  8
LAYER_1
 10
141.88
 20
192.4182
  0
SEQEND
  0
POLYLINE
  8
LAYER_1
 40
0.0847
 41
0.0847
 66
1
 10
0
 20
0
 30
0
  0
VERTEX
  8
LAYER_1
 10
139.1813
 20
186.174
  0
VERTEX
  8
LAYER_1
 10
145.4254
 20
192.4182
  0
SEQEND
  0
POLYLINE
  8
LAYER_1
 40
0.0847
 41
0.0847
 66
1
 10
0
 20
0
 30
0
  0
VERTEX
  8
LAYER_1
 10
142.7002
 20
186.174
  0
VERTEX
  8
LAYER_1
 10
148.9708
 20
192.4182
  0
SEQEND
  0
POLYLINE
  8
LAYER_1
 40
0.0847
 41
0.0847
 66
1
 10
0
 20
0
 30
0
  0
VERTEX
  8
LAYER_1
 10
146.2456
 20
186.174
  0
VERTEX
  8
LAYER_1
 10
152.4898
 20
192.4182
  0
SEQEND
  0
POLYLINE
  8
LAYER_1
 40
0.0847
 41
0.0847
 66
1
 10
0
 20
0
 30
0
  0
VERTEX
  8
LAYER_1
 10
149.791
 20
186.174
  0
VERTEX
  8
LAYER_1
 10
156.0352
 20
192.4182
  0
SEQEND
  0
POLYLINE
  8
LAYER_1
 40
0.0847
 41
0.0847
 66
1
 10
0
 20
0
 30
0
  0
VERTEX
  8
LAYER_1
 10
153.31
 20
186.174
  0
VERTEX
  8
LAYER_1
 10
159.5541
 20
192.4182
  0
SEQEND
  0
POLYLINE
  8
LAYER_1
 40
0.0847
 41
0.0847
 66
1
 10
0
 20
0
 30
0
  0
VERTEX
  8
LAYER_1
 10
156.8554
 20
186.174
  0
VERTEX
  8
LAYER_1
 10
163.0995
 20
192.4182
  0
SEQEND
  0
POLYLINE
  8
LAYER_1
 40
0.0847
 41
0.0847
 66
1
 10
0
 20
0
 30
0
  0
VERTEX
  8
LAYER_1
 10
160.3743
 20
186.174
  0
VERTEX
  8
LAYER_1
 10
166.645
 20
192.4182
  0
SEQEND
  0
POLYLINE
  8
LAYER_1
 40
0.0847
 41
0.0847
 66
1
 10
0
 20
0
 30
0
  0
VERTEX
  8
LAYER_1
 10
163.9197
 20
186.174
  0
VERTEX
  8
LAYER_1
 10
170.1639
 20
192.4182
  0
SEQEND
  0
POLYLINE
  8
LAYER_1
 40
0.0847
 41
0.0847
 66
1
 10
0
 20
0
 30
0
  0
VERTEX
  8
LAYER_1
 10
167.4652
 20
186.174
  0
VERTEX
  8
LAYER_1
 10
173.7093
 20
192.4182
  0
SEQEND
  0
POLYLINE
  8
LAYER_1
 40
0.0847
 41
0.0847
 66
1
 10
0
 20
0
 30
0
  0
VERTEX
  8
LAYER_1
 10
170.9841
 20
186.174
  0
VERTEX
  8
LAYER_1
 10
177.2547
 20
192.4182
  0
SEQEND
  0
POLYLINE
  8
LAYER_1
 40
0.0847
 41
0.0847
 66
1
 10
0
 20
0
 30
0
  0
VERTEX
  8
LAYER_1
 10
174.5295
 20
186.174
  0
VERTEX
  8
LAYER_1
 10
180.7737
 20
192.4182
  0
SEQEND
  0
POLYLINE
  8
LAYER_1
 40
0.0847
 41
0.0847
 66
1
 10
0
 20
0
 30
0
  0
VERTEX
  8
LAYER_1
 10
178.0749
 20
186.174
  0
VERTEX
  8
LAYER_1
 10
184.3191
 20
192.4182
  0
SEQEND
  0
POLYLINE
  8
LAYER_1
 40
0.0847
 41
0.0847
 66
1
 10
0
 20
0
 30
0
  0
VERTEX
  8
LAYER_1
 10
181.5939
 20
186.174
  0
VERTEX
  8
LAYER_1
 10
187.838
 20
192.4182
  0
SEQEND
  0
POLYLINE
  8
LAYER_1
 40
0.0847
 41
0.0847
 66
1
 10
0
 20
0
 30
0
  0
VERTEX
  8
LAYER_1
 10
185.1393
 20
186.174
  0
VERTEX
  8
LAYER_1
 10
191.3834
 20
192.4182
  0
SEQEND
  0
POLYLINE
  8
LAYER_1
 40
0.0847
 41
0.0847
 66
1
 10
0
 20
0
 30
0
  0
VERTEX
  8
LAYER_1
 10
188.6582
 20
186.174
  0
VERTEX
  8
LAYER_1
 10
193.8969
 20
191.3863
  0
SEQEND
  0
POLYLINE
  8
LAYER_1
 40
0.0847
 41
0.0847
 66
1
 10
0
 20
0
 30
0
  0
VERTEX
  8
LAYER_1
 10
192.2036
 20
186.174
  0
VERTEX
  8
LAYER_1
 10
193.8705
 20
187.8409
  0
SEQEND
  0
POLYLINE
  8
LAYER_1
 40
0.0847
 41
0.0847
 66
1
 10
0
 20
0
 30
0
  0
VERTEX
  8
LAYER_1
 10
75.5753
 20
186.174
  0
VERTEX
  8
LAYER_1
 10
81.8194
 20
192.4182
  0
SEQEND
  0
POLYLINE
  8
LAYER_1
 40
0.0847
 41
0.0847
 66
1
 10
0
 20
0
 30
0
  0
VERTEX
  8
LAYER_1
 10
79.0943
 20
186.174
  0
VERTEX
  8
LAYER_1
 10
85.3384
 20
192.4182
  0
SEQEND
  0
POLYLINE
  8
LAYER_1
 40
0.0847
 41
0.0847
 66
1
 10
0
 20
0
 30
0
  0
VERTEX
  8
LAYER_1
 10
82.6397
 20
186.174
  0
VERTEX
  8
LAYER_1
 10
88.8838
 20
192.4182
  0
SEQEND
  0
POLYLINE
  8
LAYER_1
 40
0.0847
 41
0.0847
 66
1
 10
0
 20
0
 30
0
  0
VERTEX
  8
LAYER_1
 10
86.1586
 20
186.174
  0
VERTEX
  8
LAYER_1
 10
92.4293
 20
192.4182
  0
SEQEND
  0
POLYLINE
  8
LAYER_1
 40
0.0847
 41
0.0847
 66
1
 10
0
 20
0
 30
0
  0
VERTEX
  8
LAYER_1
 10
93.2495
 20
186.174
  0
VERTEX
  8
LAYER_1
 10
97.5092
 20
190.4603
  0
SEQEND
  0
POLYLINE
  8
LAYER_1
 40
0.0847
 41
0.0847
 66
1
 10
0
 20
0
 30
0
  0
VERTEX
  8
LAYER_1
 10
89.704
 20
186.174
  0
VERTEX
  8
LAYER_1
 10
95.9482
 20
192.4182
  0
SEQEND
  0
POLYLINE
  8
LAYER_1
 40
0.0847
 41
0.0847
 66
1
 10
0
 20
0
 30
0
  0
VERTEX
  8
LAYER_1
 10
96.7684
 20
186.174
  0
VERTEX
  8
LAYER_1
 10
97.5092
 20
186.9148
  0
SEQEND
  0
POLYLINE
  8
LAYER_1
 40
0.1693
 41
0.1693
 66
1
 10
0
 20
0
 30
0
  0
VERTEX
  8
LAYER_1
 10
95.6573
 20
185.4332
  0
VERTEX
  8
LAYER_1
 10
115.6069
 20
185.4332
  0
VERTEX
  8
LAYER_1
 10
115.6069
 20
186.174
  0
SEQEND
  0
POLYLINE
  8
LAYER_1
 40
0.1693
 41
0.1693
 66
1
 10
0
 20
0
 30
0
  0
VERTEX
  8
LAYER_1
 10
95.6573
 20
186.174
  0
VERTEX
  8
LAYER_1
 10
115.6069
 20
186.174
  0
SEQEND
  0
POLYLINE
  8
LAYER_1
 40
0.1693
 41
0.1693
 66
1
 10
0
 20
0
 30
0
  0
VERTEX
  8
LAYER_1
 10
95.6573
 20
185.4332
  0
VERTEX
  8
LAYER_1
 10
95.6573
 20
186.174
  0
SEQEND
  0
POLYLINE
  8
LAYER_1
 40
0.0847
 41
0.0847
 66
1
 10
0
 20
0
 30
0
  0
VERTEX
  8
LAYER_1
 10
101.5311
 20
185.4332
  0
VERTEX
  8
LAYER_1
 10
101.5311
 20
185.6184
  0
SEQEND
  0
POLYLINE
  8
LAYER_1
 40
0.0847
 41
0.0847
 66
1
 10
0
 20
0
 30
0
  0
VERTEX
  8
LAYER_1
 10
101.5311
 20
185.9888
  0
VERTEX
  8
LAYER_1
 10
101.5311
 20
186.174
  0
SEQEND
  0
POLYLINE
  8
LAYER_1
 40
0.0847
 41
0.0847
 66
1
 10
0
 20
0
 30
0
  0
VERTEX
  8
LAYER_1
 10
109.7331
 20
185.4332
  0
VERTEX
  8
LAYER_1
 10
109.7331
 20
185.6184
  0
SEQEND
  0
POLYLINE
  8
LAYER_1
 40
0.0847
 41
0.0847
 66
1
 10
0
 20
0
 30
0
  0
VERTEX
  8
LAYER_1
 10
109.7331
 20
185.9888
  0
VERTEX
  8
LAYER_1
 10
109.7331
 20
186.174
  0
SEQEND
  0
POLYLINE
  8
LAYER_1
 40
0.1693
 41
0.1693
 66
1
 10
0
 20
0
 30
0
  0
VERTEX
  8
LAYER_1
 10
99.5202
 20
190.9894
  0
VERTEX
  8
LAYER_1
 10
111.744
 20
190.9894
  0
VERTEX
  8
LAYER_1
 10
111.744
 20
191.6244
  0
SEQEND
  0
POLYLINE
  8
LAYER_1
 40
0.1693
 41
0.1693
 66
1
 10
0
 20
0
 30
0
  0
VERTEX
  8
LAYER_1
 10
99.5202
 20
191.6244
  0
VERTEX
  8
LAYER_1
 10
111.744
 20
191.6244
  0
SEQEND
  0
POLYLINE
  8
LAYER_1
 40
0.1693
 41
0.1693
 66
1
 10
0
 20
0
 30
0
  0
VERTEX
  8
LAYER_1
 10
99.5202
 20
190.9894
  0
VERTEX
  8
LAYER_1
 10
99.5202
 20
191.6244
  0
SEQEND
  0
POLYLINE
  8
LAYER_1
 40
0.1693
 41
0.1693
 66
1
 10
0
 20
0
 30
0
  0
VERTEX
  8
LAYER_1
 10
100.8961
 20
189.5077
  0
VERTEX
  8
LAYER_1
 10
100.8961
 20
190.9894
  0
SEQEND
  0
POLYLINE
  8
LAYER_1
 40
0.1693
 41
0.1693
 66
1
 10
0
 20
0
 30
0
  0
VERTEX
  8
LAYER_1
 10
100.8961
 20
189.5077
  0
VERTEX
  8
LAYER_1
 10
110.3681
 20
189.5077
  0
VERTEX
  8
LAYER_1
 10
110.3681
 20
190.9894
  0
SEQEND
  0
POLYLINE
  8
LAYER_1
 40
0.1693
 41
0.1693
 66
1
 10
0
 20
0
 30
0
  0
VERTEX
  8
LAYER_1
 10
99.5202
 20
185.4331
  0
VERTEX
  8
LAYER_1
 10
111.744
 20
185.4331
  0
SEQEND
  0
POLYLINE
  8
LAYER_1
 40
0.1693
 41
0.1693
 66
1
 10
0
 20
0
 30
0
  0
VERTEX
  8
LAYER_1
 10
111.744
 20
184.7981
  0
VERTEX
  8
LAYER_1
 10
111.744
 20
185.4331
  0
SEQEND
  0
POLYLINE
  8
LAYER_1
 40
0.1693
 41
0.1693
 66
1
 10
0
 20
0
 30
0
  0
VERTEX
  8
LAYER_1
 10
99.5202
 20
184.7981
  0
VERTEX
  8
LAYER_1
 10
111.744
 20
184.7981
  0
SEQEND
  0
POLYLINE
  8
LAYER_1
 40
0.1693
 41
0.1693
 66
1
 10
0
 20
0
 30
0
  0
VERTEX
  8
LAYER_1
 10
110.3681
 20
183.3165
  0
VERTEX
  8
LAYER_1
 10
110.3681
 20
184.7981
  0
SEQEND
  0
POLYLINE
  8
LAYER_1
 40
0.1693
 41
0.1693
 66
1
 10
0
 20
0
 30
0
  0
VERTEX
  8
LAYER_1
 10
100.8961
 20
183.3165
  0
VERTEX
  8
LAYER_1
 10
110.3681
 20
183.3165
  0
SEQEND
  0
POLYLINE
  8
LAYER_1
 40
0.1693
 41
0.1693
 66
1
 10
0
 20
0
 30
0
  0
VERTEX
  8
LAYER_1
 10
100.8961
 20
183.3165
  0
VERTEX
  8
LAYER_1
 10
100.8961
 20
184.7981
  0
SEQEND
  0
POLYLINE
  8
LAYER_1
 40
0.1693
 41
0.1693
 66
1
 10
0
 20
0
 30
0
  0
VERTEX
  8
LAYER_1
 10
99.5202
 20
184.7981
  0
VERTEX
  8
LAYER_1
 10
99.5202
 20
185.4331
  0
SEQEND
  0
POLYLINE
  8
LAYER_1
 40
0.1693
 41
0.1693
 66
1
 10
0
 20
0
 30
0
  0
VERTEX
  8
LAYER_1
 10
101.7163
 20
193.6088
  0
VERTEX
  8
LAYER_1
 10
99.1498
 20
192.1006
  0
SEQEND
  0
POLYLINE
  8
LAYER_1
 40
0.1693
 41
0.1693
 66
1
 10
0
 20
0
 30
0
  0
VERTEX
  8
LAYER_1
 10
99.1498
 20
191.7302
  0
VERTEX
  8
LAYER_1
 10
99.1498
 20
192.1006
  0
SEQEND
  0
POLYLINE
  8
LAYER_1
 40
0.1693
 41
0.1693
 66
1
 10
0
 20
0
 30
0
  0
VERTEX
  8
LAYER_1
 10
99.1498
 20
191.7302
  0
VERTEX
  8
LAYER_1
 10
112.1144
 20
191.7302
  0
VERTEX
  8
LAYER_1
 10
112.1144
 20
192.1006
  0
SEQEND
  0
POLYLINE
  8
LAYER_1
 40
0.1693
 41
0.1693
 66
1
 10
0
 20
0
 30
0
  0
VERTEX
  8
LAYER_1
 10
109.5479
 20
193.6088
  0
VERTEX
  8
LAYER_1
 10
112.1144
 20
192.1006
  0
SEQEND
  0
POLYLINE
  8
LAYER_1
 40
0.1693
 41
0.1693
 66
1
 10
0
 20
0
 30
0
  0
VERTEX
  8
LAYER_1
 10
101.7163
 20
193.6088
  0
VERTEX
  8
LAYER_1
 10
109.5479
 20
193.6088
  0
SEQEND
  0
POLYLINE
  8
LAYER_1
 40
0.0847
 41
0.0847
 66
1
 10
0
 20
0
 30
0
  0
VERTEX
  8
LAYER_1
 10
99.1498
 20
192.1006
  0
VERTEX
  8
LAYER_1
 10
112.1144
 20
192.1006
  0
SEQEND
  0
POLYLINE
  8
LAYER_1
 40
0.1693
 41
0.1693
 66
1
 10
0
 20
0
 30
0
  0
VERTEX
  8
LAYER_1
 10
99.3879
 20
191.6244
  0
VERTEX
  8
LAYER_1
 10
99.3879
 20
191.7302
  0
SEQEND
  0
POLYLINE
  8
LAYER_1
 40
0.1693
 41
0.1693
 66
1
 10
0
 20
0
 30
0
  0
VERTEX
  8
LAYER_1
 10
99.3879
 20
191.6244
  0
VERTEX
  8
LAYER_1
 10
111.8763
 20
191.6244
  0
VERTEX
  8
LAYER_1
 10
111.8763
 20
191.7302
  0
SEQEND
  0
POLYLINE
  8
LAYER_1
 40
0.1693
 41
0.1693
 66
1
 10
0
 20
0
 30
0
  0
VERTEX
  8
LAYER_1
 10
99.3879
 20
191.7302
  0
VERTEX
  8
LAYER_1
 10
111.8763
 20
191.7302
  0
SEQEND
  0
POLYLINE
  8
LAYER_1
 40
0.1693
 41
0.1693
 66
1
 10
0
 20
0
 30
0
  0
VERTEX
  8
LAYER_1
 10
97.9063
 20
193.6617
  0
VERTEX
  8
LAYER_1
 10
97.9063
 20
194.9317
  0
SEQEND
  0
POLYLINE
  8
LAYER_1
 40
0.1693
 41
0.1693
 66
1
 10
0
 20
0
 30
0
  0
VERTEX
  8
LAYER_1
 10
113.358
 20
193.6617
  0
VERTEX
  8
LAYER_1
 10
113.358
 20
194.9317
  0
SEQEND
  0
POLYLINE
  8
LAYER_1
 40
0.1693
 41
0.1693
 66
1
 10
0
 20
0
 30
0
  0
VERTEX
  8
LAYER_1
 10
94.3873
 20
193.6617
  0
VERTEX
  8
LAYER_1
 10
97.9063
 20
193.6617
  0
SEQEND
  0
POLYLINE
  8
LAYER_1
 40
0.1693
 41
0.1693
 66
1
 10
0
 20
0
 30
0
  0
VERTEX
  8
LAYER_1
 10
113.358
 20
193.6617
  0
VERTEX
  8
LAYER_1
 10
116.8769
 20
193.6617
  0
SEQEND
  0
POLYLINE
  8
LAYER_1
 40
0.1693
 41
0.1693
 66
1
 10
0
 20
0
 30
0
  0
VERTEX
  8
LAYER_1
 10
94.3609
 20
193.6617
 42
0.4239263064
  0
VERTEX
  8
LAYER_1
 10
93.1438
 20
192.4446
  0
SEQEND
  0
POLYLINE
  8
LAYER_1
 40
0.1693
 41
0.1693
 66
1
 10
0
 20
0
 30
0
  0
VERTEX
  8
LAYER_1
 10
118.1205
 20
192.4446
 42
0.3809946571
  0
VERTEX
  8
LAYER_1
 10
116.8769
 20
193.6617
  0
VERTEX
  8
LAYER_1
 10
116.8505
 20
193.6617
  0
SEQEND
  0
POLYLINE
  8
LAYER_1
 40
0.0847
 41
0.0847
 66
1
 10
0
 20
0
 30
0
  0
VERTEX
  8
LAYER_1
 10
118.0146
 20
192.4182
  0
VERTEX
  8
LAYER_1
 10
118.1204
 20
192.524
  0
SEQEND
  0
POLYLINE
  8
LAYER_1
 40
0.0847
 41
0.0847
 66
1
 10
0
 20
0
 30
0
  0
VERTEX
  8
LAYER_1
 10
117.6706
 20
192.4182
  0
VERTEX
  8
LAYER_1
 10
118.0411
 20
192.815
  0
SEQEND
  0
POLYLINE
  8
LAYER_1
 40
0.0847
 41
0.0847
 66
1
 10
0
 20
0
 30
0
  0
VERTEX
  8
LAYER_1
 10
117.3002
 20
192.4182
  0
VERTEX
  8
LAYER_1
 10
117.9352
 20
193.0532
  0
SEQEND
  0
POLYLINE
  8
LAYER_1
 40
0.0847
 41
0.0847
 66
1
 10
0
 20
0
 30
0
  0
VERTEX
  8
LAYER_1
 10
116.9563
 20
192.4182
  0
VERTEX
  8
LAYER_1
 10
117.8029
 20
193.2648
  0
SEQEND
  0
POLYLINE
  8
LAYER_1
 40
0.0847
 41
0.0847
 66
1
 10
0
 20
0
 30
0
  0
VERTEX
  8
LAYER_1
 10
116.5859
 20
192.4182
  0
VERTEX
  8
LAYER_1
 10
117.6177
 20
193.4236
  0
SEQEND
  0
POLYLINE
  8
LAYER_1
 40
0.0847
 41
0.0847
 66
1
 10
0
 20
0
 30
0
  0
VERTEX
  8
LAYER_1
 10
116.2419
 20
192.4182
  0
VERTEX
  8
LAYER_1
 10
117.3796
 20
193.5559
  0
SEQEND
  0
POLYLINE
  8
LAYER_1
 40
0.0847
 41
0.0847
 66
1
 10
0
 20
0
 30
0
  0
VERTEX
  8
LAYER_1
 10
115.8979
 20
192.4182
  0
VERTEX
  8
LAYER_1
 10
117.115
 20
193.6352
  0
SEQEND
  0
POLYLINE
  8
LAYER_1
 40
0.0847
 41
0.0847
 66
1
 10
0
 20
0
 30
0
  0
VERTEX
  8
LAYER_1
 10
115.5275
 20
192.4182
  0
VERTEX
  8
LAYER_1
 10
116.7975
 20
193.6617
  0
SEQEND
  0
POLYLINE
  8
LAYER_1
 40
0.0847
 41
0.0847
 66
1
 10
0
 20
0
 30
0
  0
VERTEX
  8
LAYER_1
 10
115.1836
 20
192.4182
  0
VERTEX
  8
LAYER_1
 10
116.4271
 20
193.6617
  0
SEQEND
  0
POLYLINE
  8
LAYER_1
 40
0.0847
 41
0.0847
 66
1
 10
0
 20
0
 30
0
  0
VERTEX
  8
LAYER_1
 10
114.8396
 20
192.4182
  0
VERTEX
  8
LAYER_1
 10
116.0831
 20
193.6617
  0
SEQEND
  0
POLYLINE
  8
LAYER_1
 40
0.0847
 41
0.0847
 66
1
 10
0
 20
0
 30
0
  0
VERTEX
  8
LAYER_1
 10
114.4692
 20
192.4182
  0
VERTEX
  8
LAYER_1
 10
115.7392
 20
193.6617
  0
SEQEND
  0
POLYLINE
  8
LAYER_1
 40
0.0847
 41
0.0847
 66
1
 10
0
 20
0
 30
0
  0
VERTEX
  8
LAYER_1
 10
114.1252
 20
192.4182
  0
VERTEX
  8
LAYER_1
 10
115.3688
 20
193.6617
  0
SEQEND
  0
POLYLINE
  8
LAYER_1
 40
0.0847
 41
0.0847
 66
1
 10
0
 20
0
 30
0
  0
VERTEX
  8
LAYER_1
 10
113.7813
 20
192.4182
  0
VERTEX
  8
LAYER_1
 10
115.0248
 20
193.6617
  0
SEQEND
  0
POLYLINE
  8
LAYER_1
 40
0.0847
 41
0.0847
 66
1
 10
0
 20
0
 30
0
  0
VERTEX
  8
LAYER_1
 10
113.4109
 20
192.4182
  0
VERTEX
  8
LAYER_1
 10
114.6544
 20
193.6617
  0
SEQEND
  0
POLYLINE
  8
LAYER_1
 40
0.0847
 41
0.0847
 66
1
 10
0
 20
0
 30
0
  0
VERTEX
  8
LAYER_1
 10
113.0669
 20
192.4182
  0
VERTEX
  8
LAYER_1
 10
114.3104
 20
193.6617
  0
SEQEND
  0
POLYLINE
  8
LAYER_1
 40
0.0847
 41
0.0847
 66
1
 10
0
 20
0
 30
0
  0
VERTEX
  8
LAYER_1
 10
112.6965
 20
192.4182
  0
VERTEX
  8
LAYER_1
 10
113.9665
 20
193.6617
  0
SEQEND
  0
POLYLINE
  8
LAYER_1
 40
0.0847
 41
0.0847
 66
1
 10
0
 20
0
 30
0
  0
VERTEX
  8
LAYER_1
 10
112.3525
 20
192.4182
  0
VERTEX
  8
LAYER_1
 10
113.5961
 20
193.6617
  0
SEQEND
  0
POLYLINE
  8
LAYER_1
 40
0.0847
 41
0.0847
 66
1
 10
0
 20
0
 30
0
  0
VERTEX
  8
LAYER_1
 10
112.0086
 20
192.4182
  0
VERTEX
  8
LAYER_1
 10
113.358
 20
193.794
  0
SEQEND
  0
POLYLINE
  8
LAYER_1
 40
0.0847
 41
0.0847
 66
1
 10
0
 20
0
 30
0
  0
VERTEX
  8
LAYER_1
 10
97.1919
 20
192.4182
  0
VERTEX
  8
LAYER_1
 10
99.679
 20
194.9317
  0
SEQEND
  0
POLYLINE
  8
LAYER_1
 40
0.0847
 41
0.0847
 66
1
 10
0
 20
0
 30
0
  0
VERTEX
  8
LAYER_1
 10
96.8215
 20
192.4182
  0
VERTEX
  8
LAYER_1
 10
99.335
 20
194.9317
  0
SEQEND
  0
POLYLINE
  8
LAYER_1
 40
0.0847
 41
0.0847
 66
1
 10
0
 20
0
 30
0
  0
VERTEX
  8
LAYER_1
 10
96.4775
 20
192.4182
  0
VERTEX
  8
LAYER_1
 10
97.7211
 20
193.6617
  0
SEQEND
  0
POLYLINE
  8
LAYER_1
 40
0.0847
 41
0.0847
 66
1
 10
0
 20
0
 30
0
  0
VERTEX
  8
LAYER_1
 10
97.9063
 20
193.8469
  0
VERTEX
  8
LAYER_1
 10
98.9646
 20
194.9317
  0
SEQEND
  0
POLYLINE
  8
LAYER_1
 40
0.0847
 41
0.0847
 66
1
 10
0
 20
0
 30
0
  0
VERTEX
  8
LAYER_1
 10
96.1071
 20
192.4182
  0
VERTEX
  8
LAYER_1
 10
97.3771
 20
193.6617
  0
SEQEND
  0
POLYLINE
  8
LAYER_1
 40
0.0847
 41
0.0847
 66
1
 10
0
 20
0
 30
0
  0
VERTEX
  8
LAYER_1
 10
97.9063
 20
194.1909
  0
VERTEX
  8
LAYER_1
 10
98.6207
 20
194.9317
  0
SEQEND
  0
POLYLINE
  8
LAYER_1
 40
0.0847
 41
0.0847
 66
1
 10
0
 20
0
 30
0
  0
VERTEX
  8
LAYER_1
 10
95.7632
 20
192.4182
  0
VERTEX
  8
LAYER_1
 10
97.0067
 20
193.6617
  0
SEQEND
  0
POLYLINE
  8
LAYER_1
 40
0.0847
 41
0.0847
 66
1
 10
0
 20
0
 30
0
  0
VERTEX
  8
LAYER_1
 10
97.9063
 20
194.5613
  0
VERTEX
  8
LAYER_1
 10
98.2767
 20
194.9317
  0
SEQEND
  0
POLYLINE
  8
LAYER_1
 40
0.0847
 41
0.0847
 66
1
 10
0
 20
0
 30
0
  0
VERTEX
  8
LAYER_1
 10
95.4192
 20
192.4182
  0
VERTEX
  8
LAYER_1
 10
96.6627
 20
193.6617
  0
SEQEND
  0
POLYLINE
  8
LAYER_1
 40
0.0847
 41
0.0847
 66
1
 10
0
 20
0
 30
0
  0
VERTEX
  8
LAYER_1
 10
97.9063
 20
194.9052
  0
VERTEX
  8
LAYER_1
 10
97.9063
 20
194.9317
  0
SEQEND
  0
POLYLINE
  8
LAYER_1
 40
0.0847
 41
0.0847
 66
1
 10
0
 20
0
 30
0
  0
VERTEX
  8
LAYER_1
 10
95.0488
 20
192.4182
  0
VERTEX
  8
LAYER_1
 10
96.3188
 20
193.6617
  0
SEQEND
  0
POLYLINE
  8
LAYER_1
 40
0.0847
 41
0.0847
 66
1
 10
0
 20
0
 30
0
  0
VERTEX
  8
LAYER_1
 10
94.7048
 20
192.4182
  0
VERTEX
  8
LAYER_1
 10
95.9483
 20
193.6617
  0
SEQEND
  0
POLYLINE
  8
LAYER_1
 40
0.0847
 41
0.0847
 66
1
 10
0
 20
0
 30
0
  0
VERTEX
  8
LAYER_1
 10
94.3609
 20
192.4182
  0
VERTEX
  8
LAYER_1
 10
95.6044
 20
193.6617
  0
SEQEND
  0
POLYLINE
  8
LAYER_1
 40
0.0847
 41
0.0847
 66
1
 10
0
 20
0
 30
0
  0
VERTEX
  8
LAYER_1
 10
93.9904
 20
192.4182
  0
VERTEX
  8
LAYER_1
 10
95.2604
 20
193.6617
  0
SEQEND
  0
POLYLINE
  8
LAYER_1
 40
0.0847
 41
0.0847
 66
1
 10
0
 20
0
 30
0
  0
VERTEX
  8
LAYER_1
 10
93.6465
 20
192.4182
  0
VERTEX
  8
LAYER_1
 10
94.89
 20
193.6617
  0
SEQEND
  0
POLYLINE
  8
LAYER_1
 40
0.0847
 41
0.0847
 66
1
 10
0
 20
0
 30
0
  0
VERTEX
  8
LAYER_1
 10
93.3025
 20
192.4182
  0
VERTEX
  8
LAYER_1
 10
94.5461
 20
193.6617
  0
SEQEND
  0
POLYLINE
  8
LAYER_1
 40
0.0847
 41
0.0847
 66
1
 10
0
 20
0
 30
0
  0
VERTEX
  8
LAYER_1
 10
93.1702
 20
192.6563
  0
VERTEX
  8
LAYER_1
 10
94.1757
 20
193.6352
  0
SEQEND
  0
POLYLINE
  8
LAYER_1
 40
0.0847
 41
0.0847
 66
1
 10
0
 20
0
 30
0
  0
VERTEX
  8
LAYER_1
 10
111.2942
 20
192.7621
  0
VERTEX
  8
LAYER_1
 10
113.358
 20
194.8523
  0
SEQEND
  0
POLYLINE
  8
LAYER_1
 40
0.1693
 41
0.1693
 66
1
 10
0
 20
0
 30
0
  0
VERTEX
  8
LAYER_1
 10
101.0548
 20
193.5029
  0
VERTEX
  8
LAYER_1
 10
99.5202
 20
192.4182
  0
SEQEND
  0
POLYLINE
  8
LAYER_1
 40
0.1693
 41
0.1693
 66
1
 10
0
 20
0
 30
0
  0
VERTEX
  8
LAYER_1
 10
101.0284
 20
193.5029
 42
0.2069372035
  0
VERTEX
  8
LAYER_1
 10
101.1342
 20
193.6882
 42
0.2516645356
  0
VERTEX
  8
LAYER_1
 10
101.0284
 20
193.8734
  0
SEQEND
  0
POLYLINE
  8
LAYER_1
 40
0.1693
 41
0.1693
 66
1
 10
0
 20
0
 30
0
  0
VERTEX
  8
LAYER_1
 10
101.0813
 20
193.8734
  0
VERTEX
  8
LAYER_1
 10
99.97
 20
194.9317
  0
SEQEND
  0
POLYLINE
  8
LAYER_1
 40
0.0847
 41
0.0847
 66
1
 10
0
 20
0
 30
0
  0
VERTEX
  8
LAYER_1
 10
97.8798
 20
192.4182
  0
VERTEX
  8
LAYER_1
 10
100.1817
 20
194.72
  0
SEQEND
  0
POLYLINE
  8
LAYER_1
 40
0.0847
 41
0.0847
 66
1
 10
0
 20
0
 30
0
  0
VERTEX
  8
LAYER_1
 10
97.5359
 20
192.4182
  0
VERTEX
  8
LAYER_1
 10
99.9965
 20
194.8788
  0
SEQEND
  0
POLYLINE
  8
LAYER_1
 40
0.0847
 41
0.0847
 66
1
 10
0
 20
0
 30
0
  0
VERTEX
  8
LAYER_1
 10
98.2502
 20
192.4182
  0
VERTEX
  8
LAYER_1
 10
100.3669
 20
194.5348
  0
SEQEND
  0
POLYLINE
  8
LAYER_1
 40
0.0847
 41
0.0847
 66
1
 10
0
 20
0
 30
0
  0
VERTEX
  8
LAYER_1
 10
98.5942
 20
192.4182
  0
VERTEX
  8
LAYER_1
 10
100.5521
 20
194.3761
  0
SEQEND
  0
POLYLINE
  8
LAYER_1
 40
0.0847
 41
0.0847
 66
1
 10
0
 20
0
 30
0
  0
VERTEX
  8
LAYER_1
 10
98.9381
 20
192.4182
  0
VERTEX
  8
LAYER_1
 10
100.7373
 20
194.1909
  0
SEQEND
  0
POLYLINE
  8
LAYER_1
 40
0.0847
 41
0.0847
 66
1
 10
0
 20
0
 30
0
  0
VERTEX
  8
LAYER_1
 10
99.3086
 20
192.4182
  0
VERTEX
  8
LAYER_1
 10
100.9225
 20
194.0321
  0
SEQEND
  0
POLYLINE
  8
LAYER_1
 40
0.0847
 41
0.0847
 66
1
 10
0
 20
0
 30
0
  0
VERTEX
  8
LAYER_1
 10
99.9965
 20
192.7621
  0
VERTEX
  8
LAYER_1
 10
101.0813
 20
193.8469
  0
SEQEND
  0
POLYLINE
  8
LAYER_1
 40
0.1693
 41
0.1693
 66
1
 10
0
 20
0
 30
0
  0
VERTEX
  8
LAYER_1
 10
110.1829
 20
193.8734
  0
VERTEX
  8
LAYER_1
 10
111.2942
 20
194.9317
  0
SEQEND
  0
POLYLINE
  8
LAYER_1
 40
0.1693
 41
0.1693
 66
1
 10
0
 20
0
 30
0
  0
VERTEX
  8
LAYER_1
 10
110.1829
 20
193.8734
 42
0.2087676211
  0
VERTEX
  8
LAYER_1
 10
110.13
 20
193.6882
 42
0.2703142701
  0
VERTEX
  8
LAYER_1
 10
110.2094
 20
193.5294
  0
SEQEND
  0
POLYLINE
  8
LAYER_1
 40
0.1693
 41
0.1693
 66
1
 10
0
 20
0
 30
0
  0
VERTEX
  8
LAYER_1
 10
110.2094
 20
193.5029
  0
VERTEX
  8
LAYER_1
 10
111.744
 20
192.4182
  0
SEQEND
  0
POLYLINE
  8
LAYER_1
 40
0.0847
 41
0.0847
 66
1
 10
0
 20
0
 30
0
  0
VERTEX
  8
LAYER_1
 10
110.2358
 20
193.4765
  0
VERTEX
  8
LAYER_1
 10
111.6646
 20
194.9317
  0
SEQEND
  0
POLYLINE
  8
LAYER_1
 40
0.0847
 41
0.0847
 66
1
 10
0
 20
0
 30
0
  0
VERTEX
  8
LAYER_1
 10
110.6592
 20
193.1854
  0
VERTEX
  8
LAYER_1
 10
112.379
 20
194.9317
  0
SEQEND
  0
POLYLINE
  8
LAYER_1
 40
0.0847
 41
0.0847
 66
1
 10
0
 20
0
 30
0
  0
VERTEX
  8
LAYER_1
 10
110.4475
 20
193.3442
  0
VERTEX
  8
LAYER_1
 10
112.035
 20
194.9317
  0
SEQEND
  0
POLYLINE
  8
LAYER_1
 40
0.0847
 41
0.0847
 66
1
 10
0
 20
0
 30
0
  0
VERTEX
  8
LAYER_1
 10
110.8708
 20
193.0531
  0
VERTEX
  8
LAYER_1
 10
112.7229
 20
194.9317
  0
SEQEND
  0
POLYLINE
  8
LAYER_1
 40
0.0847
 41
0.0847
 66
1
 10
0
 20
0
 30
0
  0
VERTEX
  8
LAYER_1
 10
111.056
 20
192.8944
  0
VERTEX
  8
LAYER_1
 10
113.0933
 20
194.9317
  0
SEQEND
  0
POLYLINE
  8
LAYER_1
 40
0.0847
 41
0.0847
 66
1
 10
0
 20
0
 30
0
  0
VERTEX
  8
LAYER_1
 10
110.13
 20
193.7146
  0
VERTEX
  8
LAYER_1
 10
111.3206
 20
194.9317
  0
SEQEND
  0
POLYLINE
  8
LAYER_1
 40
0.0847
 41
0.0847
 66
1
 10
0
 20
0
 30
0
  0
VERTEX
  8
LAYER_1
 10
111.4794
 20
192.6034
  0
VERTEX
  8
LAYER_1
 10
113.3579
 20
194.4819
  0
SEQEND
  0
POLYLINE
  8
LAYER_1
 40
0.0847
 41
0.0847
 66
1
 10
0
 20
0
 30
0
  0
VERTEX
  8
LAYER_1
 10
111.691
 20
192.4711
  0
VERTEX
  8
LAYER_1
 10
113.3579
 20
194.1379
  0
SEQEND
  0
POLYLINE
  8
LAYER_1
 40
0.0847
 41
0.0847
 66
1
 10
0
 20
0
 30
0
  0
VERTEX
  8
LAYER_1
 10
99.4673
 20
194.5348
  0
VERTEX
  8
LAYER_1
 10
99.4673
 20
194.6142
  0
SEQEND
  0
POLYLINE
  8
LAYER_1
 40
0.0847
 41
0.0847
 66
1
 10
0
 20
0
 30
0
  0
VERTEX
  8
LAYER_1
 10
99.4673
 20
194.8258
  0
VERTEX
  8
LAYER_1
 10
99.4673
 20
194.9317
  0
SEQEND
  0
POLYLINE
  8
LAYER_1
 40
0.0847
 41
0.0847
 66
1
 10
0
 20
0
 30
0
  0
VERTEX
  8
LAYER_1
 10
98.9646
 20
194.5348
  0
VERTEX
  8
LAYER_1
 10
98.9646
 20
194.6142
  0
SEQEND
  0
POLYLINE
  8
LAYER_1
 40
0.0847
 41
0.0847
 66
1
 10
0
 20
0
 30
0
  0
VERTEX
  8
LAYER_1
 10
98.9646
 20
194.8258
  0
VERTEX
  8
LAYER_1
 10
98.9646
 20
194.9317
  0
SEQEND
  0
POLYLINE
  8
LAYER_1
 40
0.0847
 41
0.0847
 66
1
 10
0
 20
0
 30
0
  0
VERTEX
  8
LAYER_1
 10
98.9646
 20
194.5348
  0
VERTEX
  8
LAYER_1
 10
99.0704
 20
194.5348
  0
SEQEND
  0
POLYLINE
  8
LAYER_1
 40
0.0847
 41
0.0847
 66
1
 10
0
 20
0
 30
0
  0
VERTEX
  8
LAYER_1
 10
99.335
 20
194.5348
  0
VERTEX
  8
LAYER_1
 10
99.4673
 20
194.5348
  0
SEQEND
  0
POLYLINE
  8
LAYER_1
 40
0.0847
 41
0.0847
 66
1
 10
0
 20
0
 30
0
  0
VERTEX
  8
LAYER_1
 10
95.525
 20
192.4181
  0
VERTEX
  8
LAYER_1
 10
95.525
 20
192.4975
  0
SEQEND
  0
POLYLINE
  8
LAYER_1
 40
0.0847
 41
0.0847
 66
1
 10
0
 20
0
 30
0
  0
VERTEX
  8
LAYER_1
 10
95.525
 20
192.6827
  0
VERTEX
  8
LAYER_1
 10
95.525
 20
192.7886
  0
VERTEX
  8
LAYER_1
 10
95.6308
 20
192.7886
  0
SEQEND
  0
POLYLINE
  8
LAYER_1
 40
0.0847
 41
0.0847
 66
1
 10
0
 20
0
 30
0
  0
VERTEX
  8
LAYER_1
 10
95.8954
 20
192.7886
  0
VERTEX
  8
LAYER_1
 10
96.0277
 20
192.7886
  0
SEQEND
  0
POLYLINE
  8
LAYER_1
 40
0.0847
 41
0.0847
 66
1
 10
0
 20
0
 30
0
  0
VERTEX
  8
LAYER_1
 10
96.0277
 20
192.4181
  0
VERTEX
  8
LAYER_1
 10
96.0277
 20
192.4975
  0
SEQEND
  0
POLYLINE
  8
LAYER_1
 40
0.0847
 41
0.0847
 66
1
 10
0
 20
0
 30
0
  0
VERTEX
  8
LAYER_1
 10
96.0277
 20
192.6827
  0
VERTEX
  8
LAYER_1
 10
96.0277
 20
192.7886
  0
SEQEND
  0
POLYLINE
  8
LAYER_1
 40
0.0847
 41
0.0847
 66
1
 10
0
 20
0
 30
0
  0
VERTEX
  8
LAYER_1
 10
111.7969
 20
194.5348
  0
VERTEX
  8
LAYER_1
 10
111.7969
 20
194.6142
  0
SEQEND
  0
POLYLINE
  8
LAYER_1
 40
0.0847
 41
0.0847
 66
1
 10
0
 20
0
 30
0
  0
VERTEX
  8
LAYER_1
 10
111.7969
 20
194.8259
  0
VERTEX
  8
LAYER_1
 10
111.7969
 20
194.9317
  0
SEQEND
  0
POLYLINE
  8
LAYER_1
 40
0.0847
 41
0.0847
 66
1
 10
0
 20
0
 30
0
  0
VERTEX
  8
LAYER_1
 10
111.7969
 20
194.5348
  0
VERTEX
  8
LAYER_1
 10
111.9027
 20
194.5348
  0
SEQEND
  0
POLYLINE
  8
LAYER_1
 40
0.0847
 41
0.0847
 66
1
 10
0
 20
0
 30
0
  0
VERTEX
  8
LAYER_1
 10
112.1673
 20
194.5348
  0
VERTEX
  8
LAYER_1
 10
112.2996
 20
194.5348
  0
VERTEX
  8
LAYER_1
 10
112.2996
 20
194.6142
  0
SEQEND
  0
POLYLINE
  8
LAYER_1
 40
0.0847
 41
0.0847
 66
1
 10
0
 20
0
 30
0
  0
VERTEX
  8
LAYER_1
 10
112.2996
 20
194.8259
  0
VERTEX
  8
LAYER_1
 10
112.2996
 20
194.9317
  0
SEQEND
  0
POLYLINE
  8
LAYER_1
 40
0.0847
 41
0.0847
 66
1
 10
0
 20
0
 30
0
  0
VERTEX
  8
LAYER_1
 10
115.2364
 20
192.4181
  0
VERTEX
  8
LAYER_1
 10
115.2364
 20
192.4975
  0
SEQEND
  0
POLYLINE
  8
LAYER_1
 40
0.0847
 41
0.0847
 66
1
 10
0
 20
0
 30
0
  0
VERTEX
  8
LAYER_1
 10
115.2364
 20
192.6827
  0
VERTEX
  8
LAYER_1
 10
115.2364
 20
192.7886
  0
VERTEX
  8
LAYER_1
 10
115.3423
 20
192.7886
  0
SEQEND
  0
POLYLINE
  8
LAYER_1
 40
0.0847
 41
0.0847
 66
1
 10
0
 20
0
 30
0
  0
VERTEX
  8
LAYER_1
 10
115.6069
 20
192.7886
  0
VERTEX
  8
LAYER_1
 10
115.7391
 20
192.7886
  0
SEQEND
  0
POLYLINE
  8
LAYER_1
 40
0.0847
 41
0.0847
 66
1
 10
0
 20
0
 30
0
  0
VERTEX
  8
LAYER_1
 10
115.7391
 20
192.4182
  0
VERTEX
  8
LAYER_1
 10
115.7391
 20
192.4975
  0
SEQEND
  0
POLYLINE
  8
LAYER_1
 40
0.0847
 41
0.0847
 66
1
 10
0
 20
0
 30
0
  0
VERTEX
  8
LAYER_1
 10
115.7391
 20
192.6827
  0
VERTEX
  8
LAYER_1
 10
115.7391
 20
192.7886
  0
SEQEND
  0
POLYLINE
  8
LAYER_1
 40
0.1693
 41
0.1693
 66
1
 10
0
 20
0
 30
0
  0
VERTEX
  8
LAYER_1
 10
97.9063
 20
194.9317
  0
VERTEX
  8
LAYER_1
 10
101.3458
 20
194.9317
  0
SEQEND
  0
POLYLINE
  8
LAYER_1
 40
0.1693
 41
0.1693
 66
1
 10
0
 20
0
 30
0
  0
VERTEX
  8
LAYER_1
 10
109.9183
 20
194.9317
  0
VERTEX
  8
LAYER_1
 10
113.3579
 20
194.9317
  0
SEQEND
  0
POLYLINE
  8
LAYER_1
 40
0.1693
 41
0.1693
 66
1
 10
0
 20
0
 30
0
  0
VERTEX
  8
LAYER_1
 10
93.1438
 20
192.4182
  0
VERTEX
  8
LAYER_1
 10
99.679
 20
192.4182
  0
SEQEND
  0
POLYLINE
  8
LAYER_1
 40
0.1693
 41
0.1693
 66
1
 10
0
 20
0
 30
0
  0
VERTEX
  8
LAYER_1
 10
111.5852
 20
192.4182
  0
VERTEX
  8
LAYER_1
 10
118.1204
 20
192.4182
  0
SEQEND
  0
POLYLINE
  8
LAYER_1
 40
0.0847
 41
0.0847
 66
1
 10
0
 20
0
 30
0
  0
VERTEX
  8
LAYER_1
 10
105.6321
 20
183.3165
  0
VERTEX
  8
LAYER_1
 10
105.6321
 20
184.7982
  0
SEQEND
  0
POLYLINE
  8
LAYER_1
 40
0.0847
 41
0.0847
 66
1
 10
0
 20
0
 30
0
  0
VERTEX
  8
LAYER_1
 10
105.6321
 20
189.5077
  0
VERTEX
  8
LAYER_1
 10
105.6321
 20
190.9894
  0
SEQEND
  0
POLYLINE
  8
LAYER_1
 40
0.1693
 41
0.1693
 66
1
 10
0
 20
0
 30
0
  0
VERTEX
  8
LAYER_1
 10
99.0969
 20
197.7627
  0
VERTEX
  8
LAYER_1
 10
112.1673
 20
197.7627
  0
SEQEND
  0
POLYLINE
  8
LAYER_1
 40
0.1693
 41
0.1693
 66
1
 10
0
 20
0
 30
0
  0
VERTEX
  8
LAYER_1
 10
99.0704
 20
197.7627
 42
0.3897906016
  0
VERTEX
  8
LAYER_1
 10
98.9381
 20
197.6569
  0
SEQEND
  0
POLYLINE
  8
LAYER_1
 40
0.1693
 41
0.1693
 66
1
 10
0
 20
0
 30
0
  0
VERTEX
  8
LAYER_1
 10
98.9382
 20
197.604
  0
VERTEX
  8
LAYER_1
 10
98.9382
 20
197.5775
 42
0.2985987633
  0
VERTEX
  8
LAYER_1
 10
99.0175
 20
197.4717
  0
SEQEND
  0
POLYLINE
  8
LAYER_1
 40
0.1693
 41
0.1693
 66
1
 10
0
 20
0
 30
0
  0
VERTEX
  8
LAYER_1
 10
98.9382
 20
197.5775
  0
VERTEX
  8
LAYER_1
 10
98.9382
 20
197.6304
  0
SEQEND
  0
POLYLINE
  8
LAYER_1
 40
0.1693
 41
0.1693
 66
1
 10
0
 20
0
 30
0
  0
VERTEX
  8
LAYER_1
 10
99.0175
 20
197.4717
  0
VERTEX
  8
LAYER_1
 10
100.2611
 20
197.0484
  0
SEQEND
  0
POLYLINE
  8
LAYER_1
 40
0.1693
 41
0.1693
 66
1
 10
0
 20
0
 30
0
  0
VERTEX
  8
LAYER_1
 10
101.0284
 20
196.1223
 42
0.2768091182
  0
VERTEX
  8
LAYER_1
 10
100.2081
 20
197.0484
  0
SEQEND
  0
POLYLINE
  8
LAYER_1
 40
0.1693
 41
0.1693
 66
1
 10
0
 20
0
 30
0
  0
VERTEX
  8
LAYER_1
 10
99.0969
 20
197.7627
  0
VERTEX
  8
LAYER_1
 10
112.1673
 20
197.7627
  0
SEQEND
  0
POLYLINE
  8
LAYER_1
 40
0.1693
 41
0.1693
 66
1
 10
0
 20
0
 30
0
  0
VERTEX
  8
LAYER_1
 10
112.2996
 20
197.6569
 42
0.4415047716
  0
VERTEX
  8
LAYER_1
 10
112.1938
 20
197.7627
  0
VERTEX
  8
LAYER_1
 10
112.1408
 20
197.7627
  0
SEQEND
  0
POLYLINE
  8
LAYER_1
 40
0.1693
 41
0.1693
 66
1
 10
0
 20
0
 30
0
  0
VERTEX
  8
LAYER_1
 10
112.1938
 20
197.4717
 42
0.3897906016
  0
VERTEX
  8
LAYER_1
 10
112.3261
 20
197.5775
 42
0.5037895123
  0
VERTEX
  8
LAYER_1
 10
112.2996
 20
197.604
  0
SEQEND
  0
POLYLINE
  8
LAYER_1
 40
0.1693
 41
0.1693
 66
1
 10
0
 20
0
 30
0
  0
VERTEX
  8
LAYER_1
 10
112.3261
 20
197.5775
  0
VERTEX
  8
LAYER_1
 10
112.3261
 20
197.6304
  0
SEQEND
  0
POLYLINE
  8
LAYER_1
 40
0.1693
 41
0.1693
 66
1
 10
0
 20
0
 30
0
  0
VERTEX
  8
LAYER_1
 10
112.2467
 20
197.4717
  0
VERTEX
  8
LAYER_1
 10
111.0031
 20
197.0484
 42
0.2568467192
  0
VERTEX
  8
LAYER_1
 10
110.2094
 20
196.1223
  0
SEQEND
  0
POLYLINE
  8
LAYER_1
 40
0.1693
 41
0.1693
 66
1
 10
0
 20
0
 30
0
  0
VERTEX
  8
LAYER_1
 10
101.6634
 20
193.5029
  0
VERTEX
  8
LAYER_1
 10
101.0813
 20
196.1223
  0
SEQEND
  0
POLYLINE
  8
LAYER_1
 40
0.1693
 41
0.1693
 66
1
 10
0
 20
0
 30
0
  0
VERTEX
  8
LAYER_1
 10
109.6009
 20
193.5029
  0
VERTEX
  8
LAYER_1
 10
110.1829
 20
196.1223
  0
SEQEND
  0
POLYLINE
  8
LAYER_1
 40
0.0847
 41
0.0847
 66
1
 10
0
 20
0
 30
0
  0
VERTEX
  8
LAYER_1
 10
100.2611
 20
197.0484
  0
VERTEX
  8
LAYER_1
 10
111.0031
 20
197.0484
  0
SEQEND
  0
POLYLINE
  8
LAYER_1
 40
0.0847
 41
0.0847
 66
1
 10
0
 20
0
 30
0
  0
VERTEX
  8
LAYER_1
 10
99.0175
 20
197.4717
  0
VERTEX
  8
LAYER_1
 10
112.2467
 20
197.4717
  0
SEQEND
  0
POLYLINE
  8
LAYER_1
 40
0.1693
 41
0.1693
 66
1
 10
0
 20
0
 30
0
  0
VERTEX
  8
LAYER_1
 10
101.6633
 20
188.1319
  0
VERTEX
  8
LAYER_1
 10
101.9808
 20
187.8938
  0
VERTEX
  8
LAYER_1
 10
101.6633
 20
187.6292
  0
VERTEX
  8
LAYER_1
 10
101.9808
 20
187.3911
  0
VERTEX
  8
LAYER_1
 10
101.6633
 20
187.1265
  0
VERTEX
  8
LAYER_1
 10
101.9808
 20
186.8884
  0
VERTEX
  8
LAYER_1
 10
101.6633
 20
186.6502
  0
VERTEX
  8
LAYER_1
 10
101.9808
 20
186.3857
  0
SEQEND
  0
POLYLINE
  8
LAYER_1
 40
0.1693
 41
0.1693
 66
1
 10
0
 20
0
 30
0
  0
VERTEX
  8
LAYER_1
 10
101.6633
 20
183.1313
  0
VERTEX
  8
LAYER_1
 10
101.9808
 20
182.8932
  0
VERTEX
  8
LAYER_1
 10
101.6633
 20
182.6286
  0
VERTEX
  8
LAYER_1
 10
101.9808
 20
182.3904
  0
VERTEX
  8
LAYER_1
 10
101.6633
 20
182.1259
  0
VERTEX
  8
LAYER_1
 10
101.9808
 20
181.8877
  0
VERTEX
  8
LAYER_1
 10
101.6633
 20
181.6496
  0
VERTEX
  8
LAYER_1
 10
101.9808
 20
181.385
  0
VERTEX
  8
LAYER_1
 10
101.6633
 20
181.1469
  0
VERTEX
  8
LAYER_1
 10
101.9808
 20
180.8823
  0
VERTEX
  8
LAYER_1
 10
101.6633
 20
180.6442
  0
SEQEND
  0
POLYLINE
  8
LAYER_1
 40
0.1693
 41
0.1693
 66
1
 10
0
 20
0
 30
0
  0
VERTEX
  8
LAYER_1
 10
109.2833
 20
188.079
  0
VERTEX
  8
LAYER_1
 10
109.6008
 20
187.8409
  0
VERTEX
  8
LAYER_1
 10
109.2833
 20
187.5763
  0
VERTEX
  8
LAYER_1
 10
109.6008
 20
187.3382
  0
VERTEX
  8
LAYER_1
 10
109.2833
 20
187.1
  0
VERTEX
  8
LAYER_1
 10
109.6008
 20
186.8354
  0
VERTEX
  8
LAYER_1
 10
109.2833
 20
186.5973
  0
VERTEX
  8
LAYER_1
 10
109.6008
 20
186.3592
  0
SEQEND
  0
POLYLINE
  8
LAYER_1
 40
0.1693
 41
0.1693
 66
1
 10
0
 20
0
 30
0
  0
VERTEX
  8
LAYER_1
 10
109.2833
 20
183.0784
  0
VERTEX
  8
LAYER_1
 10
109.6008
 20
182.8402
  0
VERTEX
  8
LAYER_1
 10
109.2833
 20
182.5757
  0
VERTEX
  8
LAYER_1
 10
109.6008
 20
182.3375
  0
VERTEX
  8
LAYER_1
 10
109.2833
 20
182.0994
  0
VERTEX
  8
LAYER_1
 10
109.6008
 20
181.8348
  0
VERTEX
  8
LAYER_1
 10
109.2833
 20
181.5967
  0
VERTEX
  8
LAYER_1
 10
109.6008
 20
181.3586
  0
VERTEX
  8
LAYER_1
 10
109.2833
 20
181.094
  0
VERTEX
  8
LAYER_1
 10
109.6008
 20
180.8559
  0
SEQEND
  0
POLYLINE
  8
LAYER_1
 40
0.1693
 41
0.1693
 66
1
 10
0
 20
0
 30
0
  0
VERTEX
  8
LAYER_1
 10
102.0073
 20
180.5648
  0
VERTEX
  8
LAYER_1
 10
102.1396
 20
180.2473
  0
SEQEND
  0
POLYLINE
  8
LAYER_1
 40
0.1693
 41
0.1693
 66
1
 10
0
 20
0
 30
0
  0
VERTEX
  8
LAYER_1
 10
109.2569
 20
180.5648
  0
VERTEX
  8
LAYER_1
 10
109.1246
 20
180.2473
  0
SEQEND
  0
POLYLINE
  8
LAYER_1
 40
0.1693
 41
0.1693
 66
1
 10
0
 20
0
 30
0
  0
VERTEX
  8
LAYER_1
 10
102.1396
 20
180.2473
  0
VERTEX
  8
LAYER_1
 10
109.1246
 20
180.2473
  0
SEQEND
  0
POLYLINE
  8
LAYER_1
 40
0.1693
 41
0.1693
 66
1
 10
0
 20
0
 30
0
  0
VERTEX
  8
LAYER_1
 10
109.6009
 20
180.8559
  0
VERTEX
  8
LAYER_1
 10
109.2304
 20
180.5648
  0
SEQEND
  0
POLYLINE
  8
LAYER_1
 40
0.1693
 41
0.1693
 66
1
 10
0
 20
0
 30
0
  0
VERTEX
  8
LAYER_1
 10
101.6634
 20
180.6442
  0
VERTEX
  8
LAYER_1
 10
101.7692
 20
180.5648
  0
VERTEX
  8
LAYER_1
 10
109.2304
 20
180.5648
  0
SEQEND
  0
POLYLINE
  8
LAYER_1
 40
0.1693
 41
0.1693
 66
1
 10
0
 20
0
 30
0
  0
VERTEX
  8
LAYER_1
 10
101.9015
 20
188.3171
  0
VERTEX
  8
LAYER_1
 10
101.6634
 20
188.1319
  0
SEQEND
  0
POLYLINE
  8
LAYER_1
 40
0.1693
 41
0.1693
 66
1
 10
0
 20
0
 30
0
  0
VERTEX
  8
LAYER_1
 10
109.5479
 20
188.3171
  0
VERTEX
  8
LAYER_1
 10
109.2834
 20
188.079
  0
SEQEND
  0
POLYLINE
  8
LAYER_1
 40
0.1693
 41
0.1693
 66
1
 10
0
 20
0
 30
0
  0
VERTEX
  8
LAYER_1
 10
101.9809
 20
186.3857
  0
VERTEX
  8
LAYER_1
 10
101.7163
 20
186.174
  0
SEQEND
  0
POLYLINE
  8
LAYER_1
 40
0.1693
 41
0.1693
 66
1
 10
0
 20
0
 30
0
  0
VERTEX
  8
LAYER_1
 10
109.6009
 20
186.3592
  0
VERTEX
  8
LAYER_1
 10
109.3892
 20
186.174
  0
SEQEND
  0
POLYLINE
  8
LAYER_1
 40
0.1693
 41
0.1693
 66
1
 10
0
 20
0
 30
0
  0
VERTEX
  8
LAYER_1
 10
109.5744
 20
183.3165
  0
VERTEX
  8
LAYER_1
 10
109.2834
 20
183.0784
  0
SEQEND
  0
POLYLINE
  8
LAYER_1
 40
0.1693
 41
0.1693
 66
1
 10
0
 20
0
 30
0
  0
VERTEX
  8
LAYER_1
 10
101.9015
 20
183.3165
  0
VERTEX
  8
LAYER_1
 10
101.6634
 20
183.1313
  0
SEQEND
  0
POLYLINE
  8
LAYER_1
 40
0.1693
 41
0.1693
 66
1
 10
0
 20
0
 30
0
  0
VERTEX
  8
LAYER_1
 10
101.9809
 20
189.4019
  0
VERTEX
  8
LAYER_1
 10
101.6634
 20
189.1373
  0
VERTEX
  8
LAYER_1
 10
101.9809
 20
188.8992
  0
VERTEX
  8
LAYER_1
 10
101.6634
 20
188.6346
  0
VERTEX
  8
LAYER_1
 10
101.9809
 20
188.3965
  0
VERTEX
  8
LAYER_1
 10
101.6634
 20
188.1319
  0
VERTEX
  8
LAYER_1
 10
101.9809
 20
187.8938
  0
SEQEND
  0
POLYLINE
  8
LAYER_1
 40
0.1693
 41
0.1693
 66
1
 10
0
 20
0
 30
0
  0
VERTEX
  8
LAYER_1
 10
109.6009
 20
189.349
  0
VERTEX
  8
LAYER_1
 10
109.2834
 20
189.0844
  0
VERTEX
  8
LAYER_1
 10
109.6009
 20
188.8463
  0
VERTEX
  8
LAYER_1
 10
109.2834
 20
188.5817
  0
VERTEX
  8
LAYER_1
 10
109.6009
 20
188.3436
  0
VERTEX
  8
LAYER_1
 10
109.2834
 20
188.079
  0
VERTEX
  8
LAYER_1
 10
109.6009
 20
187.8409
  0
SEQEND
  0
POLYLINE
  8
LAYER_1
 40
0.1693
 41
0.1693
 66
1
 10
0
 20
0
 30
0
  0
VERTEX
  8
LAYER_1
 10
101.9809
 20
187.8938
  0
VERTEX
  8
LAYER_1
 10
101.7163
 20
187.6821
  0
SEQEND
  0
POLYLINE
  8
LAYER_1
 40
0.1693
 41
0.1693
 66
1
 10
0
 20
0
 30
0
  0
VERTEX
  8
LAYER_1
 10
109.6009
 20
187.8409
  0
VERTEX
  8
LAYER_1
 10
109.3892
 20
187.6821
  0
SEQEND
  0
POLYLINE
  8
LAYER_1
 40
0.1693
 41
0.1693
 66
1
 10
0
 20
0
 30
0
  0
VERTEX
  8
LAYER_1
 10
101.8221
 20
189.5077
  0
VERTEX
  8
LAYER_1
 10
101.9809
 20
189.4019
  0
SEQEND
  0
POLYLINE
  8
LAYER_1
 40
0.1693
 41
0.1693
 66
1
 10
0
 20
0
 30
0
  0
VERTEX
  8
LAYER_1
 10
109.3892
 20
189.5077
  0
VERTEX
  8
LAYER_1
 10
109.6009
 20
189.349
  0
SEQEND
  0
POLYLINE
  8
LAYER_1
 40
0.0847
 41
0.0847
 66
1
 10
0
 20
0
 30
0
  0
VERTEX
  8
LAYER_1
 10
101.8486
 20
193.3177
  0
VERTEX
  8
LAYER_1
 10
102.4571
 20
193.3177
  0
SEQEND
  0
POLYLINE
  8
LAYER_1
 40
0.0847
 41
0.0847
 66
1
 10
0
 20
0
 30
0
  0
VERTEX
  8
LAYER_1
 10
103.7271
 20
193.3177
  0
VERTEX
  8
LAYER_1
 10
104.9971
 20
193.3177
  0
SEQEND
  0
POLYLINE
  8
LAYER_1
 40
0.0847
 41
0.0847
 66
1
 10
0
 20
0
 30
0
  0
VERTEX
  8
LAYER_1
 10
106.2407
 20
193.3177
  0
VERTEX
  8
LAYER_1
 10
107.5106
 20
193.3177
  0
SEQEND
  0
POLYLINE
  8
LAYER_1
 40
0.0847
 41
0.0847
 66
1
 10
0
 20
0
 30
0
  0
VERTEX
  8
LAYER_1
 10
108.7807
 20
193.3177
  0
VERTEX
  8
LAYER_1
 10
109.4156
 20
193.3177
  0
SEQEND
  0
POLYLINE
  8
LAYER_1
 40
0.0847
 41
0.0847
 66
1
 10
0
 20
0
 30
0
  0
VERTEX
  8
LAYER_1
 10
101.6634
 20
193.5029
  0
VERTEX
  8
LAYER_1
 10
102.3248
 20
193.5029
  0
SEQEND
  0
POLYLINE
  8
LAYER_1
 40
0.0847
 41
0.0847
 66
1
 10
0
 20
0
 30
0
  0
VERTEX
  8
LAYER_1
 10
103.6477
 20
193.5029
  0
VERTEX
  8
LAYER_1
 10
104.9707
 20
193.5029
  0
SEQEND
  0
POLYLINE
  8
LAYER_1
 40
0.0847
 41
0.0847
 66
1
 10
0
 20
0
 30
0
  0
VERTEX
  8
LAYER_1
 10
106.2936
 20
193.5029
  0
VERTEX
  8
LAYER_1
 10
107.6165
 20
193.5029
  0
SEQEND
  0
POLYLINE
  8
LAYER_1
 40
0.0847
 41
0.0847
 66
1
 10
0
 20
0
 30
0
  0
VERTEX
  8
LAYER_1
 10
108.9394
 20
193.5029
  0
VERTEX
  8
LAYER_1
 10
109.6009
 20
193.5029
  0
SEQEND
  0
POLYLINE
  8
LAYER_1
 40
0.0847
 41
0.0847
 66
1
 10
0
 20
0
 30
0
  0
VERTEX
  8
LAYER_1
 10
101.8486
 20
193.3177
  0
VERTEX
  8
LAYER_1
 10
101.8221
 20
193.3442
  0
SEQEND
  0
POLYLINE
  8
LAYER_1
 40
0.0847
 41
0.0847
 66
1
 10
0
 20
0
 30
0
  0
VERTEX
  8
LAYER_1
 10
101.7163
 20
193.45
  0
VERTEX
  8
LAYER_1
 10
101.6634
 20
193.5029
  0
SEQEND
  0
POLYLINE
  8
LAYER_1
 40
0.0847
 41
0.0847
 66
1
 10
0
 20
0
 30
0
  0
VERTEX
  8
LAYER_1
 10
109.4157
 20
193.3177
  0
VERTEX
  8
LAYER_1
 10
109.4421
 20
193.3442
  0
SEQEND
  0
POLYLINE
  8
LAYER_1
 40
0.0847
 41
0.0847
 66
1
 10
0
 20
0
 30
0
  0
VERTEX
  8
LAYER_1
 10
109.548
 20
193.45
  0
VERTEX
  8
LAYER_1
 10
109.6009
 20
193.5029
  0
SEQEND
  0
POLYLINE
  8
LAYER_1
 40
0.1693
 41
0.1693
 66
1
 10
0
 20
0
 30
0
  0
VERTEX
  8
LAYER_1
 10
101.3988
 20
199.509
  0
VERTEX
  8
LAYER_1
 10
104.2827
 20
199.509
  0
SEQEND
  0
POLYLINE
  8
LAYER_1
 40
0.1693
 41
0.1693
 66
1
 10
0
 20
0
 30
0
  0
VERTEX
  8
LAYER_1
 10
106.9815
 20
199.509
  0
VERTEX
  8
LAYER_1
 10
109.8654
 20
199.509
  0
SEQEND
  0
POLYLINE
  8
LAYER_1
 40
0.1693
 41
0.1693
 66
1
 10
0
 20
0
 30
0
  0
VERTEX
  8
LAYER_1
 10
98.8852
 20
199.509
  0
VERTEX
  8
LAYER_1
 10
112.379
 20
199.509
  0
SEQEND
  0
POLYLINE
  8
LAYER_1
 40
0.1693
 41
0.1693
 66
1
 10
0
 20
0
 30
0
  0
VERTEX
  8
LAYER_1
 10
98.8852
 20
200.0117
  0
VERTEX
  8
LAYER_1
 10
112.379
 20
200.0117
  0
SEQEND
  0
POLYLINE
  8
LAYER_1
 40
0.1693
 41
0.1693
 66
1
 10
0
 20
0
 30
0
  0
VERTEX
  8
LAYER_1
 10
98.8852
 20
199.509
  0
VERTEX
  8
LAYER_1
 10
98.8852
 20
200.0911
  0
SEQEND
  0
POLYLINE
  8
LAYER_1
 40
0.1693
 41
0.1693
 66
1
 10
0
 20
0
 30
0
  0
VERTEX
  8
LAYER_1
 10
99.0704
 20
200.3292
 42
0.3750111819
  0
VERTEX
  8
LAYER_1
 10
98.9117
 20
200.1175
  0
SEQEND
  0
POLYLINE
  8
LAYER_1
 40
0.1693
 41
0.1693
 66
1
 10
0
 20
0
 30
0
  0
VERTEX
  8
LAYER_1
 10
112.379
 20
199.509
  0
VERTEX
  8
LAYER_1
 10
112.379
 20
200.0911
  0
SEQEND
  0
POLYLINE
  8
LAYER_1
 40
0.1693
 41
0.1693
 66
1
 10
0
 20
0
 30
0
  0
VERTEX
  8
LAYER_1
 10
112.1673
 20
200.3292
 42
0.06274937182
  0
VERTEX
  8
LAYER_1
 10
107.3488
 20
201.3185
 42
0.020133
  0
VERTEX
  8
LAYER_1
 10
105.6321
 20
201.3875
 42
0.06028299458
  0
VERTEX
  8
LAYER_1
 10
100.5993
 20
200.7834
 42
0.02064970151
  0
VERTEX
  8
LAYER_1
 10
99.044
 20
200.3292
  0
SEQEND
  0
POLYLINE
  8
LAYER_1
 40
0.1693
 41
0.1693
 66
1
 10
0
 20
0
 30
0
  0
VERTEX
  8
LAYER_1
 10
112.3525
 20
200.1175
 42
0.3288262625
  0
VERTEX
  8
LAYER_1
 10
112.1408
 20
200.3292
  0
SEQEND
  0
POLYLINE
  8
LAYER_1
 40
0.0847
 41
0.0847
 66
1
 10
0
 20
0
 30
0
  0
VERTEX
  8
LAYER_1
 10
98.9646
 20
200.2498
  0
VERTEX
  8
LAYER_1
 10
112.2996
 20
200.2498
  0
SEQEND
  0
POLYLINE
  8
LAYER_1
 40
0.1693
 41
0.1693
 66
1
 10
0
 20
0
 30
0
  0
VERTEX
  8
LAYER_1
 10
101.3988
 20
197.7627
  0
VERTEX
  8
LAYER_1
 10
101.3988
 20
199.509
  0
SEQEND
  0
POLYLINE
  8
LAYER_1
 40
0.1693
 41
0.1693
 66
1
 10
0
 20
0
 30
0
  0
VERTEX
  8
LAYER_1
 10
104.2827
 20
197.7627
  0
VERTEX
  8
LAYER_1
 10
104.2827
 20
199.509
  0
SEQEND
  0
POLYLINE
  8
LAYER_1
 40
0.1693
 41
0.1693
 66
1
 10
0
 20
0
 30
0
  0
VERTEX
  8
LAYER_1
 10
106.9815
 20
197.7627
  0
VERTEX
  8
LAYER_1
 10
106.9815
 20
199.509
  0
SEQEND
  0
POLYLINE
  8
LAYER_1
 40
0.1693
 41
0.1693
 66
1
 10
0
 20
0
 30
0
  0
VERTEX
  8
LAYER_1
 10
109.8654
 20
197.7627
  0
VERTEX
  8
LAYER_1
 10
109.8654
 20
199.509
  0
SEQEND
  0
TEXT
  8
LAYER_1
 10
158.019
 20
210.5688
 11
158.019
 21
210.5688
 40
3.2224
 41
0.5
  1
örÉàû┌ÄM
  0
POLYLINE
  8
LAYER_1
 40
0.1693
 41
0.1693
 66
1
 10
0
 20
0
 30
0
  0
VERTEX
  8
LAYER_1
 10
99.3879
 20
197.4717
  0
VERTEX
  8
LAYER_1
 10
111.8763
 20
197.4717
  0
SEQEND
  0
POLYLINE
  8
LAYER_1
 40
0.1693
 41
0.1693
 66
1
 10
0
 20
0
 30
0
  0
VERTEX
  8
LAYER_1
 10
99.3879
 20
197.2071
  0
VERTEX
  8
LAYER_1
 10
99.3879
 20
197.4717
  0
SEQEND
  0
POLYLINE
  8
LAYER_1
 40
0.1693
 41
0.1693
 66
1
 10
0
 20
0
 30
0
  0
VERTEX
  8
LAYER_1
 10
111.8763
 20
197.2071
  0
VERTEX
  8
LAYER_1
 10
111.8763
 20
197.4717
  0
SEQEND
  0
POLYLINE
  8
LAYER_1
 40
0.0847
 41
0.0847
 66
1
 10
0
 20
0
 30
0
  0
VERTEX
  8
LAYER_1
 10
99.5996
 20
197.4717
  0
VERTEX
  8
LAYER_1
 10
99.8377
 20
197.2071
  0
SEQEND
  0
POLYLINE
  8
LAYER_1
 40
0.0847
 41
0.0847
 66
1
 10
0
 20
0
 30
0
  0
VERTEX
  8
LAYER_1
 10
100.6579
 20
197.4717
  0
VERTEX
  8
LAYER_1
 10
100.896
 20
197.2071
  0
SEQEND
  0
POLYLINE
  8
LAYER_1
 40
0.0847
 41
0.0847
 66
1
 10
0
 20
0
 30
0
  0
VERTEX
  8
LAYER_1
 10
101.7163
 20
197.4717
  0
VERTEX
  8
LAYER_1
 10
101.9544
 20
197.2071
  0
SEQEND
  0
POLYLINE
  8
LAYER_1
 40
0.0847
 41
0.0847
 66
1
 10
0
 20
0
 30
0
  0
VERTEX
  8
LAYER_1
 10
102.7746
 20
197.4717
  0
VERTEX
  8
LAYER_1
 10
103.0127
 20
197.2071
  0
SEQEND
  0
POLYLINE
  8
LAYER_1
 40
0.0847
 41
0.0847
 66
1
 10
0
 20
0
 30
0
  0
VERTEX
  8
LAYER_1
 10
103.8329
 20
197.4717
  0
VERTEX
  8
LAYER_1
 10
104.071
 20
197.2071
  0
SEQEND
  0
POLYLINE
  8
LAYER_1
 40
0.0847
 41
0.0847
 66
1
 10
0
 20
0
 30
0
  0
VERTEX
  8
LAYER_1
 10
104.8913
 20
197.4717
  0
VERTEX
  8
LAYER_1
 10
105.1294
 20
197.2071
  0
SEQEND
  0
POLYLINE
  8
LAYER_1
 40
0.0847
 41
0.0847
 66
1
 10
0
 20
0
 30
0
  0
VERTEX
  8
LAYER_1
 10
105.9231
 20
197.4717
  0
VERTEX
  8
LAYER_1
 10
106.1612
 20
197.2071
  0
SEQEND
  0
POLYLINE
  8
LAYER_1
 40
0.0847
 41
0.0847
 66
1
 10
0
 20
0
 30
0
  0
VERTEX
  8
LAYER_1
 10
106.9815
 20
197.4717
  0
VERTEX
  8
LAYER_1
 10
107.246
 20
197.2071
  0
SEQEND
  0
POLYLINE
  8
LAYER_1
 40
0.0847
 41
0.0847
 66
1
 10
0
 20
0
 30
0
  0
VERTEX
  8
LAYER_1
 10
108.0398
 20
197.4717
  0
VERTEX
  8
LAYER_1
 10
108.3044
 20
197.2071
  0
SEQEND
  0
POLYLINE
  8
LAYER_1
 40
0.1693
 41
0.1693
 66
1
 10
0
 20
0
 30
0
  0
VERTEX
  8
LAYER_1
 10
99.3879
 20
197.2071
  0
VERTEX
  8
LAYER_1
 10
111.8763
 20
197.2071
  0
SEQEND
  0
POLYLINE
  8
LAYER_1
 40
0.0847
 41
0.0847
 66
1
 10
0
 20
0
 30
0
  0
VERTEX
  8
LAYER_1
 10
109.0981
 20
197.4717
  0
VERTEX
  8
LAYER_1
 10
109.3627
 20
197.2071
  0
SEQEND
  0
POLYLINE
  8
LAYER_1
 40
0.0847
 41
0.0847
 66
1
 10
0
 20
0
 30
0
  0
VERTEX
  8
LAYER_1
 10
110.1565
 20
197.4717
  0
VERTEX
  8
LAYER_1
 10
110.421
 20
197.2071
  0
SEQEND
  0
POLYLINE
  8
LAYER_1
 40
0.0847
 41
0.0847
 66
1
 10
0
 20
0
 30
0
  0
VERTEX
  8
LAYER_1
 10
111.2148
 20
197.4717
  0
VERTEX
  8
LAYER_1
 10
111.4794
 20
197.2071
  0
SEQEND
  0
POLYLINE
  8
LAYER_1
 40
0.1693
 41
0.1693
 66
1
 10
0
 20
0
 30
0
  0
VERTEX
  8
LAYER_1
 10
112.4054
 20
195.1698
  0
VERTEX
  8
LAYER_1
 10
111.7704
 20
195.064
  0
SEQEND
  0
POLYLINE
  8
LAYER_1
 40
0.1693
 41
0.1693
 66
1
 10
0
 20
0
 30
0
  0
VERTEX
  8
LAYER_1
 10
113.0934
 20
198.1067
  0
VERTEX
  8
LAYER_1
 10
113.0934
 20
198.0538
  0
SEQEND
  0
POLYLINE
  8
LAYER_1
 40
0.1693
 41
0.1693
 66
1
 10
0
 20
0
 30
0
  0
VERTEX
  8
LAYER_1
 10
113.0669
 20
198.0009
  0
VERTEX
  8
LAYER_1
 10
113.0404
 20
197.9215
  0
VERTEX
  8
LAYER_1
 10
113.014
 20
197.8686
  0
SEQEND
  0
POLYLINE
  8
LAYER_1
 40
0.1693
 41
0.1693
 66
1
 10
0
 20
0
 30
0
  0
VERTEX
  8
LAYER_1
 10
113.014
 20
197.8421
  0
VERTEX
  8
LAYER_1
 10
112.9611
 20
197.7627
  0
VERTEX
  8
LAYER_1
 10
112.9346
 20
197.7098
  0
SEQEND
  0
POLYLINE
  8
LAYER_1
 40
0.1693
 41
0.1693
 66
1
 10
0
 20
0
 30
0
  0
VERTEX
  8
LAYER_1
 10
112.9082
 20
197.6834
  0
VERTEX
  8
LAYER_1
 10
112.8552
 20
197.604
  0
VERTEX
  8
LAYER_1
 10
112.8288
 20
197.5775
  0
SEQEND
  0
POLYLINE
  8
LAYER_1
 40
0.1693
 41
0.1693
 66
1
 10
0
 20
0
 30
0
  0
VERTEX
  8
LAYER_1
 10
112.7759
 20
197.5246
  0
VERTEX
  8
LAYER_1
 10
112.7229
 20
197.4717
  0
VERTEX
  8
LAYER_1
 10
112.67
 20
197.4452
  0
SEQEND
  0
POLYLINE
  8
LAYER_1
 40
0.1693
 41
0.1693
 66
1
 10
0
 20
0
 30
0
  0
VERTEX
  8
LAYER_1
 10
112.6436
 20
197.3923
  0
VERTEX
  8
LAYER_1
 10
112.5642
 20
197.3394
  0
VERTEX
  8
LAYER_1
 10
112.5113
 20
197.3129
  0
SEQEND
  0
POLYLINE
  8
LAYER_1
 40
0.1693
 41
0.1693
 66
1
 10
0
 20
0
 30
0
  0
VERTEX
  8
LAYER_1
 10
112.4848
 20
197.26
  0
VERTEX
  8
LAYER_1
 10
112.4054
 20
197.2071
  0
VERTEX
  8
LAYER_1
 10
112.3525
 20
197.1807
  0
SEQEND
  0
POLYLINE
  8
LAYER_1
 40
0.1693
 41
0.1693
 66
1
 10
0
 20
0
 30
0
  0
VERTEX
  8
LAYER_1
 10
112.3261
 20
197.1542
  0
VERTEX
  8
LAYER_1
 10
112.2467
 20
197.1013
  0
VERTEX
  8
LAYER_1
 10
112.1673
 20
197.0748
  0
SEQEND
  0
POLYLINE
  8
LAYER_1
 40
0.1693
 41
0.1693
 66
1
 10
0
 20
0
 30
0
  0
VERTEX
  8
LAYER_1
 10
112.1144
 20
197.0484
  0
VERTEX
  8
LAYER_1
 10
112.035
 20
196.9954
  0
VERTEX
  8
LAYER_1
 10
111.9557
 20
196.969
  0
SEQEND
  0
POLYLINE
  8
LAYER_1
 40
0.1693
 41
0.1693
 66
1
 10
0
 20
0
 30
0
  0
VERTEX
  8
LAYER_1
 10
111.9027
 20
196.969
  0
VERTEX
  8
LAYER_1
 10
111.8234
 20
196.9161
  0
VERTEX
  8
LAYER_1
 10
111.744
 20
196.8896
  0
SEQEND
  0
POLYLINE
  8
LAYER_1
 40
0.1693
 41
0.1693
 66
1
 10
0
 20
0
 30
0
  0
VERTEX
  8
LAYER_1
 10
111.6911
 20
196.8896
  0
VERTEX
  8
LAYER_1
 10
111.5852
 20
196.8367
  0
VERTEX
  8
LAYER_1
 10
111.5059
 20
196.8102
  0
SEQEND
  0
POLYLINE
  8
LAYER_1
 40
0.1693
 41
0.1693
 66
1
 10
0
 20
0
 30
0
  0
VERTEX
  8
LAYER_1
 10
111.4265
 20
196.8102
  0
VERTEX
  8
LAYER_1
 10
111.3206
 20
196.7573
  0
VERTEX
  8
LAYER_1
 10
111.2148
 20
196.7573
  0
SEQEND
  0
POLYLINE
  8
LAYER_1
 40
0.1693
 41
0.1693
 66
1
 10
0
 20
0
 30
0
  0
VERTEX
  8
LAYER_1
 10
111.1619
 20
196.7309
  0
VERTEX
  8
LAYER_1
 10
111.0296
 20
196.7044
  0
VERTEX
  8
LAYER_1
 10
110.9238
 20
196.7044
  0
SEQEND
  0
POLYLINE
  8
LAYER_1
 40
0.1693
 41
0.1693
 66
1
 10
0
 20
0
 30
0
  0
VERTEX
  8
LAYER_1
 10
110.8709
 20
196.7044
  0
VERTEX
  8
LAYER_1
 10
110.7386
 20
196.678
  0
VERTEX
  8
LAYER_1
 10
110.7386
 20
196.0429
  0
SEQEND
  0
POLYLINE
  8
LAYER_1
 40
0.1693
 41
0.1693
 66
1
 10
0
 20
0
 30
0
  0
VERTEX
  8
LAYER_1
 10
110.7386
 20
195.5932
  0
VERTEX
  8
LAYER_1
 10
110.7386
 20
194.9317
  0
SEQEND
  0
POLYLINE
  8
LAYER_1
 40
0.1693
 41
0.1693
 66
1
 10
0
 20
0
 30
0
  0
VERTEX
  8
LAYER_1
 10
100.5257
 20
194.9317
  0
VERTEX
  8
LAYER_1
 10
110.7386
 20
194.9317
  0
SEQEND
  0
POLYLINE
  8
LAYER_1
 40
0.1693
 41
0.1693
 66
1
 10
0
 20
0
 30
0
  0
VERTEX
  8
LAYER_1
 10
98.1709
 20
198.1067
  0
VERTEX
  8
LAYER_1
 10
98.1709
 20
198.0538
  0
SEQEND
  0
POLYLINE
  8
LAYER_1
 40
0.1693
 41
0.1693
 66
1
 10
0
 20
0
 30
0
  0
VERTEX
  8
LAYER_1
 10
98.1973
 20
198.0009
  0
VERTEX
  8
LAYER_1
 10
98.2238
 20
197.9215
  0
VERTEX
  8
LAYER_1
 10
98.2502
 20
197.8686
  0
SEQEND
  0
POLYLINE
  8
LAYER_1
 40
0.1693
 41
0.1693
 66
1
 10
0
 20
0
 30
0
  0
VERTEX
  8
LAYER_1
 10
98.2502
 20
197.8421
  0
VERTEX
  8
LAYER_1
 10
98.3032
 20
197.7627
  0
VERTEX
  8
LAYER_1
 10
98.3296
 20
197.7098
  0
SEQEND
  0
POLYLINE
  8
LAYER_1
 40
0.1693
 41
0.1693
 66
1
 10
0
 20
0
 30
0
  0
VERTEX
  8
LAYER_1
 10
98.3561
 20
197.6834
  0
VERTEX
  8
LAYER_1
 10
98.409
 20
197.604
  0
VERTEX
  8
LAYER_1
 10
98.4354
 20
197.5775
  0
SEQEND
  0
POLYLINE
  8
LAYER_1
 40
0.1693
 41
0.1693
 66
1
 10
0
 20
0
 30
0
  0
VERTEX
  8
LAYER_1
 10
98.4884
 20
197.5246
  0
VERTEX
  8
LAYER_1
 10
98.5413
 20
197.4717
  0
VERTEX
  8
LAYER_1
 10
98.5942
 20
197.4452
  0
SEQEND
  0
POLYLINE
  8
LAYER_1
 40
0.1693
 41
0.1693
 66
1
 10
0
 20
0
 30
0
  0
VERTEX
  8
LAYER_1
 10
98.6206
 20
197.3923
  0
VERTEX
  8
LAYER_1
 10
98.7
 20
197.3394
  0
VERTEX
  8
LAYER_1
 10
98.7529
 20
197.3129
  0
SEQEND
  0
POLYLINE
  8
LAYER_1
 40
0.1693
 41
0.1693
 66
1
 10
0
 20
0
 30
0
  0
VERTEX
  8
LAYER_1
 10
98.7794
 20
197.26
  0
VERTEX
  8
LAYER_1
 10
98.8588
 20
197.2071
  0
VERTEX
  8
LAYER_1
 10
98.9117
 20
197.1807
  0
SEQEND
  0
POLYLINE
  8
LAYER_1
 40
0.1693
 41
0.1693
 66
1
 10
0
 20
0
 30
0
  0
VERTEX
  8
LAYER_1
 10
98.9381
 20
197.1542
  0
VERTEX
  8
LAYER_1
 10
99.0175
 20
197.1013
  0
VERTEX
  8
LAYER_1
 10
99.0969
 20
197.0748
  0
SEQEND
  0
POLYLINE
  8
LAYER_1
 40
0.1693
 41
0.1693
 66
1
 10
0
 20
0
 30
0
  0
VERTEX
  8
LAYER_1
 10
99.1498
 20
197.0484
  0
VERTEX
  8
LAYER_1
 10
99.2292
 20
196.9954
  0
VERTEX
  8
LAYER_1
 10
99.3085
 20
196.969
  0
SEQEND
  0
POLYLINE
  8
LAYER_1
 40
0.1693
 41
0.1693
 66
1
 10
0
 20
0
 30
0
  0
VERTEX
  8
LAYER_1
 10
99.3615
 20
196.969
  0
VERTEX
  8
LAYER_1
 10
99.4408
 20
196.9161
  0
VERTEX
  8
LAYER_1
 10
99.5202
 20
196.8896
  0
SEQEND
  0
POLYLINE
  8
LAYER_1
 40
0.1693
 41
0.1693
 66
1
 10
0
 20
0
 30
0
  0
VERTEX
  8
LAYER_1
 10
99.5731
 20
196.8896
  0
VERTEX
  8
LAYER_1
 10
99.679
 20
196.8367
  0
VERTEX
  8
LAYER_1
 10
99.7583
 20
196.8102
  0
SEQEND
  0
POLYLINE
  8
LAYER_1
 40
0.1693
 41
0.1693
 66
1
 10
0
 20
0
 30
0
  0
VERTEX
  8
LAYER_1
 10
99.8377
 20
196.8102
  0
VERTEX
  8
LAYER_1
 10
99.9436
 20
196.7573
  0
VERTEX
  8
LAYER_1
 10
100.0494
 20
196.7573
  0
SEQEND
  0
POLYLINE
  8
LAYER_1
 40
0.1693
 41
0.1693
 66
1
 10
0
 20
0
 30
0
  0
VERTEX
  8
LAYER_1
 10
100.1023
 20
196.7309
  0
VERTEX
  8
LAYER_1
 10
100.2346
 20
196.7044
  0
VERTEX
  8
LAYER_1
 10
100.3404
 20
196.7044
  0
SEQEND
  0
POLYLINE
  8
LAYER_1
 40
0.1693
 41
0.1693
 66
1
 10
0
 20
0
 30
0
  0
VERTEX
  8
LAYER_1
 10
100.3934
 20
196.7044
  0
VERTEX
  8
LAYER_1
 10
100.5256
 20
196.678
  0
SEQEND
  0
POLYLINE
  8
LAYER_1
 40
0.1693
 41
0.1693
 66
1
 10
0
 20
0
 30
0
  0
VERTEX
  8
LAYER_1
 10
100.5256
 20
194.9317
  0
VERTEX
  8
LAYER_1
 10
100.5256
 20
195.5667
  0
SEQEND
  0
POLYLINE
  8
LAYER_1
 40
0.1693
 41
0.1693
 66
1
 10
0
 20
0
 30
0
  0
VERTEX
  8
LAYER_1
 10
100.5256
 20
196.0165
  0
VERTEX
  8
LAYER_1
 10
100.5256
 20
196.678
  0
SEQEND
  0
POLYLINE
  8
LAYER_1
 40
0.1693
 41
0.1693
 66
1
 10
0
 20
0
 30
0
  0
VERTEX
  8
LAYER_1
 10
79.4383
 20
218.9294
  0
VERTEX
  8
LAYER_1
 10
79.5442
 20
217.2625
  0
VERTEX
  8
LAYER_1
 10
79.6765
 20
215.5957
  0
VERTEX
  8
LAYER_1
 10
79.8617
 20
213.9288
  0
VERTEX
  8
LAYER_1
 10
80.1527
 20
212.2884
  0
VERTEX
  8
LAYER_1
 10
80.5496
 20
210.7009
  0
VERTEX
  8
LAYER_1
 10
80.8406
 20
209.7748
  0
VERTEX
  8
LAYER_1
 10
80.9729
 20
209.4044
  0
VERTEX
  8
LAYER_1
 10
81.2375
 20
208.743
  0
VERTEX
  8
LAYER_1
 10
81.5286
 20
208.0815
  0
VERTEX
  8
LAYER_1
 10
81.8461
 20
207.4465
  0
VERTEX
  8
LAYER_1
 10
82.1636
 20
206.838
  0
VERTEX
  8
LAYER_1
 10
82.534
 20
206.203
  0
VERTEX
  8
LAYER_1
 10
82.7456
 20
205.859
  0
VERTEX
  8
LAYER_1
 10
83.1425
 20
205.2505
  0
VERTEX
  8
LAYER_1
 10
83.8833
 20
204.245
  0
VERTEX
  8
LAYER_1
 10
84.6771
 20
203.2661
  0
VERTEX
  8
LAYER_1
 10
85.4973
 20
202.3136
  0
VERTEX
  8
LAYER_1
 10
86.3704
 20
201.414
  0
VERTEX
  8
LAYER_1
 10
87.27
 20
200.5144
  0
VERTEX
  8
LAYER_1
 10
87.7992
 20
200.0117
  0
VERTEX
  8
LAYER_1
 10
88.0638
 20
199.7736
  0
VERTEX
  8
LAYER_1
 10
88.54
 20
199.3502
  0
VERTEX
  8
LAYER_1
 10
89.0163
 20
198.9269
  0
VERTEX
  8
LAYER_1
 10
89.519
 20
198.53
  0
VERTEX
  8
LAYER_1
 10
90.0217
 20
198.1596
  0
VERTEX
  8
LAYER_1
 10
90.5508
 20
197.8157
  0
VERTEX
  8
LAYER_1
 10
90.8419
 20
197.604
  0
VERTEX
  8
LAYER_1
 10
91.3446
 20
197.3394
  0
VERTEX
  8
LAYER_1
 10
92.2177
 20
196.8896
  0
VERTEX
  8
LAYER_1
 10
93.1173
 20
196.5457
  0
VERTEX
  8
LAYER_1
 10
94.0698
 20
196.2282
  0
VERTEX
  8
LAYER_1
 10
95.0223
 20
195.9371
  0
VERTEX
  8
LAYER_1
 10
95.9748
 20
195.7255
  0
VERTEX
  8
LAYER_1
 10
96.5304
 20
195.5932
  0
VERTEX
  8
LAYER_1
 10
96.9273
 20
195.5138
  0
VERTEX
  8
LAYER_1
 10
97.5623
 20
195.408
  0
VERTEX
  8
LAYER_1
 10
98.1973
 20
195.2757
  0
VERTEX
  8
LAYER_1
 10
98.8588
 20
195.1698
  0
VERTEX
  8
LAYER_1
 10
99.4938
 20
195.064
  0
VERTEX
  8
LAYER_1
 10
100.1552
 20
194.9846
  0
VERTEX
  8
LAYER_1
 10
100.5256
 20
194.9317
  0
SEQEND
  0
POLYLINE
  8
LAYER_1
 40
0.1693
 41
0.1693
 66
1
 10
0
 20
0
 30
0
  0
VERTEX
  8
LAYER_1
 10
131.8259
 20
218.9294
  0
VERTEX
  8
LAYER_1
 10
131.72
 20
217.2625
  0
VERTEX
  8
LAYER_1
 10
131.5877
 20
215.5957
  0
VERTEX
  8
LAYER_1
 10
131.4025
 20
213.9288
  0
VERTEX
  8
LAYER_1
 10
131.1115
 20
212.2884
  0
VERTEX
  8
LAYER_1
 10
130.7146
 20
210.7009
  0
VERTEX
  8
LAYER_1
 10
130.4236
 20
209.7748
  0
VERTEX
  8
LAYER_1
 10
130.2913
 20
209.4044
  0
VERTEX
  8
LAYER_1
 10
130.0267
 20
208.743
  0
VERTEX
  8
LAYER_1
 10
129.7356
 20
208.0815
  0
VERTEX
  8
LAYER_1
 10
129.4181
 20
207.4465
  0
VERTEX
  8
LAYER_1
 10
129.1006
 20
206.838
  0
VERTEX
  8
LAYER_1
 10
128.7302
 20
206.203
  0
VERTEX
  8
LAYER_1
 10
128.5186
 20
205.859
  0
VERTEX
  8
LAYER_1
 10
128.1217
 20
205.2505
  0
VERTEX
  8
LAYER_1
 10
127.3808
 20
204.245
  0
VERTEX
  8
LAYER_1
 10
126.5871
 20
203.2661
  0
VERTEX
  8
LAYER_1
 10
125.7669
 20
202.3136
  0
VERTEX
  8
LAYER_1
 10
124.8938
 20
201.414
  0
VERTEX
  8
LAYER_1
 10
123.9942
 20
200.5144
  0
VERTEX
  8
LAYER_1
 10
123.465
 20
200.0117
  0
VERTEX
  8
LAYER_1
 10
123.2004
 20
199.7736
  0
VERTEX
  8
LAYER_1
 10
122.7242
 20
199.3502
  0
VERTEX
  8
LAYER_1
 10
122.2479
 20
198.9269
  0
VERTEX
  8
LAYER_1
 10
121.7452
 20
198.53
  0
VERTEX
  8
LAYER_1
 10
121.2425
 20
198.1596
  0
VERTEX
  8
LAYER_1
 10
120.7134
 20
197.8157
  0
VERTEX
  8
LAYER_1
 10
120.4223
 20
197.604
  0
VERTEX
  8
LAYER_1
 10
119.9196
 20
197.3394
  0
VERTEX
  8
LAYER_1
 10
119.0465
 20
196.8896
  0
VERTEX
  8
LAYER_1
 10
118.1469
 20
196.5457
  0
VERTEX
  8
LAYER_1
 10
117.1944
 20
196.2282
  0
VERTEX
  8
LAYER_1
 10
116.2419
 20
195.9371
  0
VERTEX
  8
LAYER_1
 10
115.2894
 20
195.7255
  0
VERTEX
  8
LAYER_1
 10
114.7338
 20
195.5932
  0
VERTEX
  8
LAYER_1
 10
114.3369
 20
195.5138
  0
VERTEX
  8
LAYER_1
 10
113.7019
 20
195.408
  0
VERTEX
  8
LAYER_1
 10
113.0669
 20
195.2757
  0
VERTEX
  8
LAYER_1
 10
112.4054
 20
195.1698
  0
SEQEND
  0
POLYLINE
  8
LAYER_1
 40
0.1693
 41
0.1693
 66
1
 10
0
 20
0
 30
0
  0
VERTEX
  8
LAYER_1
 10
111.7704
 20
195.064
  0
VERTEX
  8
LAYER_1
 10
111.109
 20
194.9846
  0
VERTEX
  8
LAYER_1
 10
110.7385
 20
194.9317
  0
SEQEND
  0
POLYLINE
  8
LAYER_1
 40
0.1693
 41
0.1693
 66
1
 10
0
 20
0
 30
0
  0
VERTEX
  8
LAYER_1
 10
79.3854
 20
219.9084
  0
VERTEX
  8
LAYER_1
 10
79.4383
 20
218.9294
  0
SEQEND
  0
POLYLINE
  8
LAYER_1
 40
0.1693
 41
0.1693
 66
1
 10
0
 20
0
 30
0
  0
VERTEX
  8
LAYER_1
 10
79.3854
 20
219.9084
  0
VERTEX
  8
LAYER_1
 10
131.8788
 20
219.9084
  0
VERTEX
  8
LAYER_1
 10
131.8258
 20
218.9294
  0
SEQEND
  0
POLYLINE
  8
LAYER_1
 40
0.1693
 41
0.1693
 66
1
 10
0
 20
0
 30
0
  0
VERTEX
  8
LAYER_1
 10
89.9423
 20
201.414
  0
VERTEX
  8
LAYER_1
 10
89.5983
 20
201.7315
  0
SEQEND
  0
POLYLINE
  8
LAYER_1
 40
0.1693
 41
0.1693
 66
1
 10
0
 20
0
 30
0
  0
VERTEX
  8
LAYER_1
 10
89.3602
 20
201.9696
  0
VERTEX
  8
LAYER_1
 10
88.9898
 20
202.3136
  0
VERTEX
  8
LAYER_1
 10
88.6723
 20
202.6311
  0
SEQEND
  0
POLYLINE
  8
LAYER_1
 40
0.1693
 41
0.1693
 66
1
 10
0
 20
0
 30
0
  0
VERTEX
  8
LAYER_1
 10
88.4606
 20
202.8427
  0
VERTEX
  8
LAYER_1
 10
88.1431
 20
203.1602
  0
VERTEX
  8
LAYER_1
 10
87.8521
 20
203.4777
  0
SEQEND
  0
POLYLINE
  8
LAYER_1
 40
0.1693
 41
0.1693
 66
1
 10
0
 20
0
 30
0
  0
VERTEX
  8
LAYER_1
 10
87.6669
 20
203.6894
  0
VERTEX
  8
LAYER_1
 10
87.3494
 20
204.0069
  0
VERTEX
  8
LAYER_1
 10
87.0848
 20
204.3244
  0
SEQEND
  0
POLYLINE
  8
LAYER_1
 40
0.1693
 41
0.1693
 66
1
 10
0
 20
0
 30
0
  0
VERTEX
  8
LAYER_1
 10
86.8731
 20
204.5361
  0
VERTEX
  8
LAYER_1
 10
86.5821
 20
204.88
  0
VERTEX
  8
LAYER_1
 10
86.3175
 20
205.1975
  0
SEQEND
  0
POLYLINE
  8
LAYER_1
 40
0.1693
 41
0.1693
 66
1
 10
0
 20
0
 30
0
  0
VERTEX
  8
LAYER_1
 10
86.1588
 20
205.4092
  0
VERTEX
  8
LAYER_1
 10
85.8677
 20
205.7532
  0
VERTEX
  8
LAYER_1
 10
85.6296
 20
206.0971
  0
SEQEND
  0
POLYLINE
  8
LAYER_1
 40
0.1693
 41
0.1693
 66
1
 10
0
 20
0
 30
0
  0
VERTEX
  8
LAYER_1
 10
85.4709
 20
206.3088
  0
VERTEX
  8
LAYER_1
 10
85.2063
 20
206.6792
  0
VERTEX
  8
LAYER_1
 10
85.1004
 20
206.8644
  0
SEQEND
  0
POLYLINE
  8
LAYER_1
 40
0.1693
 41
0.1693
 66
1
 10
0
 20
0
 30
0
  0
VERTEX
  8
LAYER_1
 10
84.9946
 20
206.9967
  0
VERTEX
  8
LAYER_1
 10
84.8623
 20
207.2084
  0
VERTEX
  8
LAYER_1
 10
84.8094
 20
207.3142
  0
SEQEND
  0
POLYLINE
  8
LAYER_1
 40
0.1693
 41
0.1693
 66
1
 10
0
 20
0
 30
0
  0
VERTEX
  8
LAYER_1
 10
84.7565
 20
207.3671
  0
VERTEX
  8
LAYER_1
 10
84.6771
 20
207.4994
  0
VERTEX
  8
LAYER_1
 10
84.5713
 20
207.6846
  0
SEQEND
  0
POLYLINE
  8
LAYER_1
 40
0.1693
 41
0.1693
 66
1
 10
0
 20
0
 30
0
  0
VERTEX
  8
LAYER_1
 10
84.4919
 20
207.8433
  0
VERTEX
  8
LAYER_1
 10
84.3596
 20
208.055
  0
VERTEX
  8
LAYER_1
 10
84.2538
 20
208.2402
  0
SEQEND
  0
POLYLINE
  8
LAYER_1
 40
0.1693
 41
0.1693
 66
1
 10
0
 20
0
 30
0
  0
VERTEX
  8
LAYER_1
 10
84.2009
 20
208.3725
  0
VERTEX
  8
LAYER_1
 10
84.0686
 20
208.5842
  0
SEQEND
  0
POLYLINE
  8
LAYER_1
 40
0.1693
 41
0.1693
 66
1
 10
0
 20
0
 30
0
  0
VERTEX
  8
LAYER_1
 10
84.0686
 20
208.5842
  0
VERTEX
  8
LAYER_1
 10
83.9627
 20
208.7694
  0
SEQEND
  0
POLYLINE
  8
LAYER_1
 40
0.1693
 41
0.1693
 66
1
 10
0
 20
0
 30
0
  0
VERTEX
  8
LAYER_1
 10
83.9098
 20
208.9282
  0
VERTEX
  8
LAYER_1
 10
83.7775
 20
209.1398
  0
VERTEX
  8
LAYER_1
 10
83.6981
 20
209.3515
  0
SEQEND
  0
POLYLINE
  8
LAYER_1
 40
0.1693
 41
0.1693
 66
1
 10
0
 20
0
 30
0
  0
VERTEX
  8
LAYER_1
 10
83.6452
 20
209.4838
  0
VERTEX
  8
LAYER_1
 10
83.5394
 20
209.7219
  0
VERTEX
  8
LAYER_1
 10
83.46
 20
209.9071
  0
SEQEND
  0
POLYLINE
  8
LAYER_1
 40
0.1693
 41
0.1693
 66
1
 10
0
 20
0
 30
0
  0
VERTEX
  8
LAYER_1
 10
83.4071
 20
210.0659
  0
VERTEX
  8
LAYER_1
 10
83.3013
 20
210.2775
  0
VERTEX
  8
LAYER_1
 10
83.2748
 20
210.3834
  0
SEQEND
  0
POLYLINE
  8
LAYER_1
 40
0.1693
 41
0.1693
 66
1
 10
0
 20
0
 30
0
  0
VERTEX
  8
LAYER_1
 10
83.2484
 20
210.4627
  0
VERTEX
  8
LAYER_1
 10
83.1954
 20
210.595
  0
VERTEX
  8
LAYER_1
 10
83.1161
 20
210.8861
  0
SEQEND
  0
POLYLINE
  8
LAYER_1
 40
0.1693
 41
0.1693
 66
1
 10
0
 20
0
 30
0
  0
VERTEX
  8
LAYER_1
 10
83.0631
 20
211.0713
  0
VERTEX
  8
LAYER_1
 10
82.9573
 20
211.3888
  0
VERTEX
  8
LAYER_1
 10
82.825
 20
211.9179
  0
SEQEND
  0
POLYLINE
  8
LAYER_1
 40
0.1693
 41
0.1693
 66
1
 10
0
 20
0
 30
0
  0
VERTEX
  8
LAYER_1
 10
82.7456
 20
212.2619
  0
VERTEX
  8
LAYER_1
 10
82.5869
 20
212.8175
  0
VERTEX
  8
LAYER_1
 10
82.5075
 20
213.3732
  0
SEQEND
  0
POLYLINE
  8
LAYER_1
 40
0.1693
 41
0.1693
 66
1
 10
0
 20
0
 30
0
  0
VERTEX
  8
LAYER_1
 10
82.4281
 20
213.7436
  0
VERTEX
  8
LAYER_1
 10
82.3223
 20
214.2992
  0
VERTEX
  8
LAYER_1
 10
82.2694
 20
214.8548
  0
SEQEND
  0
POLYLINE
  8
LAYER_1
 40
0.1693
 41
0.1693
 66
1
 10
0
 20
0
 30
0
  0
VERTEX
  8
LAYER_1
 10
82.2429
 20
215.2517
  0
VERTEX
  8
LAYER_1
 10
82.1635
 20
215.8338
  0
VERTEX
  8
LAYER_1
 10
82.1371
 20
216.4159
  0
SEQEND
  0
POLYLINE
  8
LAYER_1
 40
0.1693
 41
0.1693
 66
1
 10
0
 20
0
 30
0
  0
VERTEX
  8
LAYER_1
 10
82.0842
 20
216.8127
  0
VERTEX
  8
LAYER_1
 10
82.0313
 20
217.4213
  0
VERTEX
  8
LAYER_1
 10
82.0048
 20
218.0298
  0
SEQEND
  0
POLYLINE
  8
LAYER_1
 40
0.1693
 41
0.1693
 66
1
 10
0
 20
0
 30
0
  0
VERTEX
  8
LAYER_1
 10
81.9784
 20
218.4267
  0
VERTEX
  8
LAYER_1
 10
81.9254
 20
219.0617
  0
SEQEND
  0
POLYLINE
  8
LAYER_1
 40
0.1693
 41
0.1693
 66
1
 10
0
 20
0
 30
0
  0
VERTEX
  8
LAYER_1
 10
98.1709
 20
198.1067
  0
VERTEX
  8
LAYER_1
 10
98.0121
 20
198.1067
  0
SEQEND
  0
POLYLINE
  8
LAYER_1
 40
0.1693
 41
0.1693
 66
1
 10
0
 20
0
 30
0
  0
VERTEX
  8
LAYER_1
 10
97.8798
 20
198.1332
  0
VERTEX
  8
LAYER_1
 10
97.6946
 20
198.1596
  0
VERTEX
  8
LAYER_1
 10
97.43
 20
198.1861
  0
SEQEND
  0
POLYLINE
  8
LAYER_1
 40
0.1693
 41
0.1693
 66
1
 10
0
 20
0
 30
0
  0
VERTEX
  8
LAYER_1
 10
97.2184
 20
198.1861
  0
VERTEX
  8
LAYER_1
 10
96.9273
 20
198.239
  0
VERTEX
  8
LAYER_1
 10
96.6363
 20
198.2654
  0
SEQEND
  0
POLYLINE
  8
LAYER_1
 40
0.1693
 41
0.1693
 66
1
 10
0
 20
0
 30
0
  0
VERTEX
  8
LAYER_1
 10
96.4511
 20
198.2919
  0
VERTEX
  8
LAYER_1
 10
96.1336
 20
198.3448
  0
VERTEX
  8
LAYER_1
 10
95.869
 20
198.3713
  0
SEQEND
  0
POLYLINE
  8
LAYER_1
 40
0.1693
 41
0.1693
 66
1
 10
0
 20
0
 30
0
  0
VERTEX
  8
LAYER_1
 10
95.6573
 20
198.4242
  0
VERTEX
  8
LAYER_1
 10
95.3663
 20
198.4771
  0
VERTEX
  8
LAYER_1
 10
95.1017
 20
198.53
  0
SEQEND
  0
POLYLINE
  8
LAYER_1
 40
0.1693
 41
0.1693
 66
1
 10
0
 20
0
 30
0
  0
VERTEX
  8
LAYER_1
 10
94.89
 20
198.5565
  0
VERTEX
  8
LAYER_1
 10
94.599
 20
198.6359
  0
VERTEX
  8
LAYER_1
 10
94.3344
 20
198.7152
  0
SEQEND
  0
POLYLINE
  8
LAYER_1
 40
0.1693
 41
0.1693
 66
1
 10
0
 20
0
 30
0
  0
VERTEX
  8
LAYER_1
 10
94.1492
 20
198.7682
  0
VERTEX
  8
LAYER_1
 10
93.8582
 20
198.8475
  0
VERTEX
  8
LAYER_1
 10
93.6994
 20
198.9004
  0
SEQEND
  0
POLYLINE
  8
LAYER_1
 40
0.1693
 41
0.1693
 66
1
 10
0
 20
0
 30
0
  0
VERTEX
  8
LAYER_1
 10
93.5936
 20
198.9269
  0
VERTEX
  8
LAYER_1
 10
93.4348
 20
199.0063
  0
VERTEX
  8
LAYER_1
 10
93.3819
 20
199.0327
  0
SEQEND
  0
POLYLINE
  8
LAYER_1
 40
0.1693
 41
0.1693
 66
1
 10
0
 20
0
 30
0
  0
VERTEX
  8
LAYER_1
 10
93.329
 20
199.0327
  0
VERTEX
  8
LAYER_1
 10
93.2496
 20
199.0857
  0
VERTEX
  8
LAYER_1
 10
93.1438
 20
199.1121
  0
SEQEND
  0
POLYLINE
  8
LAYER_1
 40
0.1693
 41
0.1693
 66
1
 10
0
 20
0
 30
0
  0
VERTEX
  8
LAYER_1
 10
93.0909
 20
199.165
  0
VERTEX
  8
LAYER_1
 10
92.9586
 20
199.218
  0
VERTEX
  8
LAYER_1
 10
92.8527
 20
199.2709
  0
SEQEND
  0
POLYLINE
  8
LAYER_1
 40
0.1693
 41
0.1693
 66
1
 10
0
 20
0
 30
0
  0
VERTEX
  8
LAYER_1
 10
92.7998
 20
199.2973
  0
VERTEX
  8
LAYER_1
 10
92.6675
 20
199.3767
  0
VERTEX
  8
LAYER_1
 10
92.5617
 20
199.4032
  0
SEQEND
  0
POLYLINE
  8
LAYER_1
 40
0.1693
 41
0.1693
 66
1
 10
0
 20
0
 30
0
  0
VERTEX
  8
LAYER_1
 10
92.5088
 20
199.4561
  0
VERTEX
  8
LAYER_1
 10
92.3765
 20
199.509
  0
VERTEX
  8
LAYER_1
 10
92.2971
 20
199.5619
  0
SEQEND
  0
POLYLINE
  8
LAYER_1
 40
0.1693
 41
0.1693
 66
1
 10
0
 20
0
 30
0
  0
VERTEX
  8
LAYER_1
 10
92.2177
 20
199.6148
  0
VERTEX
  8
LAYER_1
 10
92.1119
 20
199.6942
  0
VERTEX
  8
LAYER_1
 10
92.0325
 20
199.7471
  0
SEQEND
  0
POLYLINE
  8
LAYER_1
 40
0.1693
 41
0.1693
 66
1
 10
0
 20
0
 30
0
  0
VERTEX
  8
LAYER_1
 10
91.9531
 20
199.7736
  0
VERTEX
  8
LAYER_1
 10
91.8473
 20
199.853
  0
VERTEX
  8
LAYER_1
 10
91.7944
 20
199.8794
  0
SEQEND
  0
POLYLINE
  8
LAYER_1
 40
0.1693
 41
0.1693
 66
1
 10
0
 20
0
 30
0
  0
VERTEX
  8
LAYER_1
 10
91.7679
 20
199.9059
  0
VERTEX
  8
LAYER_1
 10
91.6885
 20
199.9588
  0
VERTEX
  8
LAYER_1
 10
91.6356
 20
199.9852
  0
SEQEND
  0
POLYLINE
  8
LAYER_1
 40
0.1693
 41
0.1693
 66
1
 10
0
 20
0
 30
0
  0
VERTEX
  8
LAYER_1
 10
91.5827
 20
200.0382
  0
VERTEX
  8
LAYER_1
 10
91.5033
 20
200.0911
  0
VERTEX
  8
LAYER_1
 10
91.3975
 20
200.1705
  0
SEQEND
  0
POLYLINE
  8
LAYER_1
 40
0.1693
 41
0.1693
 66
1
 10
0
 20
0
 30
0
  0
VERTEX
  8
LAYER_1
 10
91.3446
 20
200.2234
  0
VERTEX
  8
LAYER_1
 10
91.2123
 20
200.3027
  0
VERTEX
  8
LAYER_1
 10
91.1065
 20
200.3821
  0
SEQEND
  0
POLYLINE
  8
LAYER_1
 40
0.1693
 41
0.1693
 66
1
 10
0
 20
0
 30
0
  0
VERTEX
  8
LAYER_1
 10
91.0535
 20
200.435
  0
VERTEX
  8
LAYER_1
 10
90.9212
 20
200.5409
  0
VERTEX
  8
LAYER_1
 10
90.8419
 20
200.6202
  0
SEQEND
  0
POLYLINE
  8
LAYER_1
 40
0.1693
 41
0.1693
 66
1
 10
0
 20
0
 30
0
  0
VERTEX
  8
LAYER_1
 10
90.7625
 20
200.6732
  0
VERTEX
  8
LAYER_1
 10
90.6567
 20
200.779
  0
VERTEX
  8
LAYER_1
 10
90.5773
 20
200.8584
  0
SEQEND
  0
POLYLINE
  8
LAYER_1
 40
0.1693
 41
0.1693
 66
1
 10
0
 20
0
 30
0
  0
VERTEX
  8
LAYER_1
 10
90.4979
 20
200.9377
  0
VERTEX
  8
LAYER_1
 10
90.3921
 20
201.0436
  0
VERTEX
  8
LAYER_1
 10
90.2862
 20
201.123
  0
SEQEND
  0
POLYLINE
  8
LAYER_1
 40
0.1693
 41
0.1693
 66
1
 10
0
 20
0
 30
0
  0
VERTEX
  8
LAYER_1
 10
90.2333
 20
201.1759
  0
VERTEX
  8
LAYER_1
 10
90.101
 20
201.2817
  0
VERTEX
  8
LAYER_1
 10
90.0481
 20
201.3082
  0
SEQEND
  0
POLYLINE
  8
LAYER_1
 40
0.1693
 41
0.1693
 66
1
 10
0
 20
0
 30
0
  0
VERTEX
  8
LAYER_1
 10
90.0217
 20
201.3611
  0
VERTEX
  8
LAYER_1
 10
89.9423
 20
201.414
  0
SEQEND
  0
POLYLINE
  8
LAYER_1
 40
0.1693
 41
0.1693
 66
1
 10
0
 20
0
 30
0
  0
VERTEX
  8
LAYER_1
 10
129.2329
 20
217.4213
  0
VERTEX
  8
LAYER_1
 10
129.2594
 20
218.0298
  0
SEQEND
  0
POLYLINE
  8
LAYER_1
 40
0.1693
 41
0.1693
 66
1
 10
0
 20
0
 30
0
  0
VERTEX
  8
LAYER_1
 10
129.2858
 20
218.4267
  0
VERTEX
  8
LAYER_1
 10
129.3387
 20
219.0617
  0
SEQEND
  0
POLYLINE
  8
LAYER_1
 40
0.1693
 41
0.1693
 66
1
 10
0
 20
0
 30
0
  0
VERTEX
  8
LAYER_1
 10
129.1006
 20
215.8338
  0
VERTEX
  8
LAYER_1
 10
129.1271
 20
216.4159
  0
SEQEND
  0
POLYLINE
  8
LAYER_1
 40
0.1693
 41
0.1693
 66
1
 10
0
 20
0
 30
0
  0
VERTEX
  8
LAYER_1
 10
129.18
 20
216.8127
  0
VERTEX
  8
LAYER_1
 10
129.2329
 20
217.4213
  0
SEQEND
  0
POLYLINE
  8
LAYER_1
 40
0.1693
 41
0.1693
 66
1
 10
0
 20
0
 30
0
  0
VERTEX
  8
LAYER_1
 10
128.9419
 20
214.2992
  0
VERTEX
  8
LAYER_1
 10
128.9948
 20
214.8548
  0
SEQEND
  0
POLYLINE
  8
LAYER_1
 40
0.1693
 41
0.1693
 66
1
 10
0
 20
0
 30
0
  0
VERTEX
  8
LAYER_1
 10
129.0212
 20
215.2517
  0
VERTEX
  8
LAYER_1
 10
129.1006
 20
215.8338
  0
SEQEND
  0
POLYLINE
  8
LAYER_1
 40
0.1693
 41
0.1693
 66
1
 10
0
 20
0
 30
0
  0
VERTEX
  8
LAYER_1
 10
128.6773
 20
212.8175
  0
VERTEX
  8
LAYER_1
 10
128.7566
 20
213.3732
  0
SEQEND
  0
POLYLINE
  8
LAYER_1
 40
0.1693
 41
0.1693
 66
1
 10
0
 20
0
 30
0
  0
VERTEX
  8
LAYER_1
 10
128.836
 20
213.7436
  0
VERTEX
  8
LAYER_1
 10
128.9418
 20
214.2992
  0
SEQEND
  0
POLYLINE
  8
LAYER_1
 40
0.1693
 41
0.1693
 66
1
 10
0
 20
0
 30
0
  0
VERTEX
  8
LAYER_1
 10
128.3068
 20
211.3888
  0
VERTEX
  8
LAYER_1
 10
128.4391
 20
211.918
  0
SEQEND
  0
POLYLINE
  8
LAYER_1
 40
0.1693
 41
0.1693
 66
1
 10
0
 20
0
 30
0
  0
VERTEX
  8
LAYER_1
 10
128.5185
 20
212.2619
  0
VERTEX
  8
LAYER_1
 10
128.6773
 20
212.8175
  0
SEQEND
  0
POLYLINE
  8
LAYER_1
 40
0.1693
 41
0.1693
 66
1
 10
0
 20
0
 30
0
  0
VERTEX
  8
LAYER_1
 10
128.0687
 20
210.595
  0
VERTEX
  8
LAYER_1
 10
128.1481
 20
210.8861
  0
SEQEND
  0
POLYLINE
  8
LAYER_1
 40
0.1693
 41
0.1693
 66
1
 10
0
 20
0
 30
0
  0
VERTEX
  8
LAYER_1
 10
128.201
 20
211.0713
  0
VERTEX
  8
LAYER_1
 10
128.3068
 20
211.3888
  0
SEQEND
  0
POLYLINE
  8
LAYER_1
 40
0.1693
 41
0.1693
 66
1
 10
0
 20
0
 30
0
  0
VERTEX
  8
LAYER_1
 10
127.9629
 20
210.2775
  0
VERTEX
  8
LAYER_1
 10
127.9893
 20
210.3834
  0
SEQEND
  0
POLYLINE
  8
LAYER_1
 40
0.1693
 41
0.1693
 66
1
 10
0
 20
0
 30
0
  0
VERTEX
  8
LAYER_1
 10
128.0158
 20
210.4627
  0
VERTEX
  8
LAYER_1
 10
128.0687
 20
210.595
  0
SEQEND
  0
POLYLINE
  8
LAYER_1
 40
0.1693
 41
0.1693
 66
1
 10
0
 20
0
 30
0
  0
VERTEX
  8
LAYER_1
 10
127.7248
 20
209.7219
  0
VERTEX
  8
LAYER_1
 10
127.8041
 20
209.9071
  0
SEQEND
  0
POLYLINE
  8
LAYER_1
 40
0.1693
 41
0.1693
 66
1
 10
0
 20
0
 30
0
  0
VERTEX
  8
LAYER_1
 10
127.857
 20
210.0659
  0
VERTEX
  8
LAYER_1
 10
127.9629
 20
210.2775
  0
SEQEND
  0
POLYLINE
  8
LAYER_1
 40
0.1693
 41
0.1693
 66
1
 10
0
 20
0
 30
0
  0
VERTEX
  8
LAYER_1
 10
127.4866
 20
209.1398
  0
VERTEX
  8
LAYER_1
 10
127.566
 20
209.3515
  0
SEQEND
  0
POLYLINE
  8
LAYER_1
 40
0.1693
 41
0.1693
 66
1
 10
0
 20
0
 30
0
  0
VERTEX
  8
LAYER_1
 10
127.6189
 20
209.4838
  0
VERTEX
  8
LAYER_1
 10
127.7247
 20
209.7219
  0
SEQEND
  0
POLYLINE
  8
LAYER_1
 40
0.1693
 41
0.1693
 66
1
 10
0
 20
0
 30
0
  0
VERTEX
  8
LAYER_1
 10
127.1956
 20
208.5842
  0
VERTEX
  8
LAYER_1
 10
127.3014
 20
208.7694
  0
SEQEND
  0
POLYLINE
  8
LAYER_1
 40
0.1693
 41
0.1693
 66
1
 10
0
 20
0
 30
0
  0
VERTEX
  8
LAYER_1
 10
127.3543
 20
208.9282
  0
VERTEX
  8
LAYER_1
 10
127.4866
 20
209.1398
  0
SEQEND
  0
POLYLINE
  8
LAYER_1
 40
0.1693
 41
0.1693
 66
1
 10
0
 20
0
 30
0
  0
VERTEX
  8
LAYER_1
 10
126.9045
 20
208.055
  0
VERTEX
  8
LAYER_1
 10
127.0104
 20
208.2402
  0
SEQEND
  0
POLYLINE
  8
LAYER_1
 40
0.1693
 41
0.1693
 66
1
 10
0
 20
0
 30
0
  0
VERTEX
  8
LAYER_1
 10
127.0633
 20
208.3725
  0
VERTEX
  8
LAYER_1
 10
127.1956
 20
208.5842
  0
SEQEND
  0
POLYLINE
  8
LAYER_1
 40
0.1693
 41
0.1693
 66
1
 10
0
 20
0
 30
0
  0
VERTEX
  8
LAYER_1
 10
126.587
 20
207.4994
  0
VERTEX
  8
LAYER_1
 10
126.6929
 20
207.6846
  0
SEQEND
  0
POLYLINE
  8
LAYER_1
 40
0.1693
 41
0.1693
 66
1
 10
0
 20
0
 30
0
  0
VERTEX
  8
LAYER_1
 10
126.7723
 20
207.8434
  0
VERTEX
  8
LAYER_1
 10
126.9045
 20
208.055
  0
SEQEND
  0
POLYLINE
  8
LAYER_1
 40
0.1693
 41
0.1693
 66
1
 10
0
 20
0
 30
0
  0
VERTEX
  8
LAYER_1
 10
126.4018
 20
207.2084
  0
VERTEX
  8
LAYER_1
 10
126.4548
 20
207.3142
  0
SEQEND
  0
POLYLINE
  8
LAYER_1
 40
0.1693
 41
0.1693
 66
1
 10
0
 20
0
 30
0
  0
VERTEX
  8
LAYER_1
 10
126.5077
 20
207.3671
  0
VERTEX
  8
LAYER_1
 10
126.587
 20
207.4994
  0
SEQEND
  0
POLYLINE
  8
LAYER_1
 40
0.1693
 41
0.1693
 66
1
 10
0
 20
0
 30
0
  0
VERTEX
  8
LAYER_1
 10
126.0579
 20
206.6792
  0
VERTEX
  8
LAYER_1
 10
126.1637
 20
206.8644
  0
SEQEND
  0
POLYLINE
  8
LAYER_1
 40
0.1693
 41
0.1693
 66
1
 10
0
 20
0
 30
0
  0
VERTEX
  8
LAYER_1
 10
126.2695
 20
206.9967
  0
VERTEX
  8
LAYER_1
 10
126.4018
 20
207.2084
  0
SEQEND
  0
POLYLINE
  8
LAYER_1
 40
0.1693
 41
0.1693
 66
1
 10
0
 20
0
 30
0
  0
VERTEX
  8
LAYER_1
 10
125.3964
 20
205.7532
  0
VERTEX
  8
LAYER_1
 10
125.6345
 20
206.0971
  0
SEQEND
  0
POLYLINE
  8
LAYER_1
 40
0.1693
 41
0.1693
 66
1
 10
0
 20
0
 30
0
  0
VERTEX
  8
LAYER_1
 10
125.7933
 20
206.3088
  0
VERTEX
  8
LAYER_1
 10
126.0579
 20
206.6792
  0
SEQEND
  0
POLYLINE
  8
LAYER_1
 40
0.1693
 41
0.1693
 66
1
 10
0
 20
0
 30
0
  0
VERTEX
  8
LAYER_1
 10
124.682
 20
204.88
  0
VERTEX
  8
LAYER_1
 10
124.9466
 20
205.1975
  0
SEQEND
  0
POLYLINE
  8
LAYER_1
 40
0.1693
 41
0.1693
 66
1
 10
0
 20
0
 30
0
  0
VERTEX
  8
LAYER_1
 10
125.1054
 20
205.4092
  0
VERTEX
  8
LAYER_1
 10
125.3964
 20
205.7532
  0
SEQEND
  0
POLYLINE
  8
LAYER_1
 40
0.1693
 41
0.1693
 66
1
 10
0
 20
0
 30
0
  0
VERTEX
  8
LAYER_1
 10
123.9147
 20
204.0069
  0
VERTEX
  8
LAYER_1
 10
124.1793
 20
204.3244
  0
SEQEND
  0
POLYLINE
  8
LAYER_1
 40
0.1693
 41
0.1693
 66
1
 10
0
 20
0
 30
0
  0
VERTEX
  8
LAYER_1
 10
124.391
 20
204.5361
  0
VERTEX
  8
LAYER_1
 10
124.682
 20
204.88
  0
SEQEND
  0
POLYLINE
  8
LAYER_1
 40
0.1693
 41
0.1693
 66
1
 10
0
 20
0
 30
0
  0
VERTEX
  8
LAYER_1
 10
123.121
 20
203.1602
  0
VERTEX
  8
LAYER_1
 10
123.412
 20
203.4777
  0
SEQEND
  0
POLYLINE
  8
LAYER_1
 40
0.1693
 41
0.1693
 66
1
 10
0
 20
0
 30
0
  0
VERTEX
  8
LAYER_1
 10
123.5972
 20
203.6894
  0
VERTEX
  8
LAYER_1
 10
123.9147
 20
204.0069
  0
SEQEND
  0
POLYLINE
  8
LAYER_1
 40
0.1693
 41
0.1693
 66
1
 10
0
 20
0
 30
0
  0
VERTEX
  8
LAYER_1
 10
122.2743
 20
202.3136
  0
VERTEX
  8
LAYER_1
 10
122.5918
 20
202.6311
  0
SEQEND
  0
POLYLINE
  8
LAYER_1
 40
0.1693
 41
0.1693
 66
1
 10
0
 20
0
 30
0
  0
VERTEX
  8
LAYER_1
 10
122.8035
 20
202.8427
  0
VERTEX
  8
LAYER_1
 10
123.121
 20
203.1602
  0
SEQEND
  0
POLYLINE
  8
LAYER_1
 40
0.1693
 41
0.1693
 66
1
 10
0
 20
0
 30
0
  0
VERTEX
  8
LAYER_1
 10
121.3218
 20
201.414
  0
VERTEX
  8
LAYER_1
 10
121.6658
 20
201.7315
  0
SEQEND
  0
POLYLINE
  8
LAYER_1
 40
0.1693
 41
0.1693
 66
1
 10
0
 20
0
 30
0
  0
VERTEX
  8
LAYER_1
 10
121.9039
 20
201.9696
  0
VERTEX
  8
LAYER_1
 10
122.2743
 20
202.3136
  0
SEQEND
  0
POLYLINE
  8
LAYER_1
 40
0.1693
 41
0.1693
 66
1
 10
0
 20
0
 30
0
  0
VERTEX
  8
LAYER_1
 10
121.1631
 20
201.2817
  0
VERTEX
  8
LAYER_1
 10
121.216
 20
201.3082
  0
SEQEND
  0
POLYLINE
  8
LAYER_1
 40
0.1693
 41
0.1693
 66
1
 10
0
 20
0
 30
0
  0
VERTEX
  8
LAYER_1
 10
121.2425
 20
201.3611
  0
VERTEX
  8
LAYER_1
 10
121.3218
 20
201.414
  0
SEQEND
  0
POLYLINE
  8
LAYER_1
 40
0.1693
 41
0.1693
 66
1
 10
0
 20
0
 30
0
  0
VERTEX
  8
LAYER_1
 10
120.872
 20
201.0436
  0
VERTEX
  8
LAYER_1
 10
120.9779
 20
201.1229
  0
SEQEND
  0
POLYLINE
  8
LAYER_1
 40
0.1693
 41
0.1693
 66
1
 10
0
 20
0
 30
0
  0
VERTEX
  8
LAYER_1
 10
121.0308
 20
201.1759
  0
VERTEX
  8
LAYER_1
 10
121.1631
 20
201.2817
  0
SEQEND
  0
POLYLINE
  8
LAYER_1
 40
0.1693
 41
0.1693
 66
1
 10
0
 20
0
 30
0
  0
VERTEX
  8
LAYER_1
 10
120.6075
 20
200.779
  0
VERTEX
  8
LAYER_1
 10
120.6868
 20
200.8584
  0
SEQEND
  0
POLYLINE
  8
LAYER_1
 40
0.1693
 41
0.1693
 66
1
 10
0
 20
0
 30
0
  0
VERTEX
  8
LAYER_1
 10
120.7662
 20
200.9377
  0
VERTEX
  8
LAYER_1
 10
120.872
 20
201.0436
  0
SEQEND
  0
POLYLINE
  8
LAYER_1
 40
0.1693
 41
0.1693
 66
1
 10
0
 20
0
 30
0
  0
VERTEX
  8
LAYER_1
 10
120.3429
 20
200.5409
  0
VERTEX
  8
LAYER_1
 10
120.4222
 20
200.6202
  0
SEQEND
  0
POLYLINE
  8
LAYER_1
 40
0.1693
 41
0.1693
 66
1
 10
0
 20
0
 30
0
  0
VERTEX
  8
LAYER_1
 10
120.5016
 20
200.6732
  0
VERTEX
  8
LAYER_1
 10
120.6074
 20
200.779
  0
SEQEND
  0
POLYLINE
  8
LAYER_1
 40
0.1693
 41
0.1693
 66
1
 10
0
 20
0
 30
0
  0
VERTEX
  8
LAYER_1
 10
120.0518
 20
200.3027
  0
VERTEX
  8
LAYER_1
 10
120.1577
 20
200.3821
  0
SEQEND
  0
POLYLINE
  8
LAYER_1
 40
0.1693
 41
0.1693
 66
1
 10
0
 20
0
 30
0
  0
VERTEX
  8
LAYER_1
 10
120.2106
 20
200.435
  0
VERTEX
  8
LAYER_1
 10
120.3429
 20
200.5409
  0
SEQEND
  0
POLYLINE
  8
LAYER_1
 40
0.1693
 41
0.1693
 66
1
 10
0
 20
0
 30
0
  0
VERTEX
  8
LAYER_1
 10
119.7608
 20
200.0911
  0
VERTEX
  8
LAYER_1
 10
119.8666
 20
200.1705
  0
SEQEND
  0
POLYLINE
  8
LAYER_1
 40
0.1693
 41
0.1693
 66
1
 10
0
 20
0
 30
0
  0
VERTEX
  8
LAYER_1
 10
119.9195
 20
200.2234
  0
VERTEX
  8
LAYER_1
 10
120.0518
 20
200.3027
  0
SEQEND
  0
POLYLINE
  8
LAYER_1
 40
0.1693
 41
0.1693
 66
1
 10
0
 20
0
 30
0
  0
VERTEX
  8
LAYER_1
 10
119.5756
 20
199.9588
  0
VERTEX
  8
LAYER_1
 10
119.6285
 20
199.9852
  0
SEQEND
  0
POLYLINE
  8
LAYER_1
 40
0.1693
 41
0.1693
 66
1
 10
0
 20
0
 30
0
  0
VERTEX
  8
LAYER_1
 10
119.6814
 20
200.0382
  0
VERTEX
  8
LAYER_1
 10
119.7608
 20
200.0911
  0
SEQEND
  0
POLYLINE
  8
LAYER_1
 40
0.1693
 41
0.1693
 66
1
 10
0
 20
0
 30
0
  0
VERTEX
  8
LAYER_1
 10
119.4168
 20
199.8529
  0
VERTEX
  8
LAYER_1
 10
119.4697
 20
199.8794
  0
SEQEND
  0
POLYLINE
  8
LAYER_1
 40
0.1693
 41
0.1693
 66
1
 10
0
 20
0
 30
0
  0
VERTEX
  8
LAYER_1
 10
119.4962
 20
199.9059
  0
VERTEX
  8
LAYER_1
 10
119.5756
 20
199.9588
  0
SEQEND
  0
POLYLINE
  8
LAYER_1
 40
0.1693
 41
0.1693
 66
1
 10
0
 20
0
 30
0
  0
VERTEX
  8
LAYER_1
 10
119.1522
 20
199.6942
  0
VERTEX
  8
LAYER_1
 10
119.2316
 20
199.7471
  0
SEQEND
  0
POLYLINE
  8
LAYER_1
 40
0.1693
 41
0.1693
 66
1
 10
0
 20
0
 30
0
  0
VERTEX
  8
LAYER_1
 10
119.311
 20
199.7736
  0
VERTEX
  8
LAYER_1
 10
119.4168
 20
199.8529
  0
SEQEND
  0
POLYLINE
  8
LAYER_1
 40
0.1693
 41
0.1693
 66
1
 10
0
 20
0
 30
0
  0
VERTEX
  8
LAYER_1
 10
118.8876
 20
199.509
  0
VERTEX
  8
LAYER_1
 10
118.967
 20
199.5619
  0
SEQEND
  0
POLYLINE
  8
LAYER_1
 40
0.1693
 41
0.1693
 66
1
 10
0
 20
0
 30
0
  0
VERTEX
  8
LAYER_1
 10
119.0464
 20
199.6148
  0
VERTEX
  8
LAYER_1
 10
119.1522
 20
199.6942
  0
SEQEND
  0
POLYLINE
  8
LAYER_1
 40
0.1693
 41
0.1693
 66
1
 10
0
 20
0
 30
0
  0
VERTEX
  8
LAYER_1
 10
118.5966
 20
199.3767
  0
VERTEX
  8
LAYER_1
 10
118.7024
 20
199.4032
  0
SEQEND
  0
POLYLINE
  8
LAYER_1
 40
0.1693
 41
0.1693
 66
1
 10
0
 20
0
 30
0
  0
VERTEX
  8
LAYER_1
 10
118.7553
 20
199.4561
  0
VERTEX
  8
LAYER_1
 10
118.8876
 20
199.509
  0
SEQEND
  0
POLYLINE
  8
LAYER_1
 40
0.1693
 41
0.1693
 66
1
 10
0
 20
0
 30
0
  0
VERTEX
  8
LAYER_1
 10
118.3056
 20
199.2179
  0
VERTEX
  8
LAYER_1
 10
118.4114
 20
199.2709
  0
SEQEND
  0
POLYLINE
  8
LAYER_1
 40
0.1693
 41
0.1693
 66
1
 10
0
 20
0
 30
0
  0
VERTEX
  8
LAYER_1
 10
118.4643
 20
199.2973
  0
VERTEX
  8
LAYER_1
 10
118.5966
 20
199.3767
  0
SEQEND
  0
POLYLINE
  8
LAYER_1
 40
0.1693
 41
0.1693
 66
1
 10
0
 20
0
 30
0
  0
VERTEX
  8
LAYER_1
 10
118.0145
 20
199.0857
  0
VERTEX
  8
LAYER_1
 10
118.1203
 20
199.1121
  0
SEQEND
  0
POLYLINE
  8
LAYER_1
 40
0.1693
 41
0.1693
 66
1
 10
0
 20
0
 30
0
  0
VERTEX
  8
LAYER_1
 10
118.1733
 20
199.165
  0
VERTEX
  8
LAYER_1
 10
118.3055
 20
199.2179
  0
SEQEND
  0
POLYLINE
  8
LAYER_1
 40
0.1693
 41
0.1693
 66
1
 10
0
 20
0
 30
0
  0
VERTEX
  8
LAYER_1
 10
117.8293
 20
199.0063
  0
VERTEX
  8
LAYER_1
 10
117.8822
 20
199.0327
  0
SEQEND
  0
POLYLINE
  8
LAYER_1
 40
0.1693
 41
0.1693
 66
1
 10
0
 20
0
 30
0
  0
VERTEX
  8
LAYER_1
 10
117.9351
 20
199.0327
  0
VERTEX
  8
LAYER_1
 10
118.0145
 20
199.0857
  0
SEQEND
  0
POLYLINE
  8
LAYER_1
 40
0.1693
 41
0.1693
 66
1
 10
0
 20
0
 30
0
  0
VERTEX
  8
LAYER_1
 10
117.406
 20
198.8475
  0
VERTEX
  8
LAYER_1
 10
117.5647
 20
198.9004
  0
SEQEND
  0
POLYLINE
  8
LAYER_1
 40
0.1693
 41
0.1693
 66
1
 10
0
 20
0
 30
0
  0
VERTEX
  8
LAYER_1
 10
117.6705
 20
198.9269
  0
VERTEX
  8
LAYER_1
 10
117.8293
 20
199.0063
  0
SEQEND
  0
POLYLINE
  8
LAYER_1
 40
0.1693
 41
0.1693
 66
1
 10
0
 20
0
 30
0
  0
VERTEX
  8
LAYER_1
 10
116.6651
 20
198.6359
  0
VERTEX
  8
LAYER_1
 10
116.9297
 20
198.7152
  0
SEQEND
  0
POLYLINE
  8
LAYER_1
 40
0.1693
 41
0.1693
 66
1
 10
0
 20
0
 30
0
  0
VERTEX
  8
LAYER_1
 10
117.1149
 20
198.7681
  0
VERTEX
  8
LAYER_1
 10
117.4059
 20
198.8475
  0
SEQEND
  0
POLYLINE
  8
LAYER_1
 40
0.1693
 41
0.1693
 66
1
 10
0
 20
0
 30
0
  0
VERTEX
  8
LAYER_1
 10
117.4061
 20
198.8475
  0
SEQEND
  0
POLYLINE
  8
LAYER_1
 40
0.1693
 41
0.1693
 66
1
 10
0
 20
0
 30
0
  0
VERTEX
  8
LAYER_1
 10
115.8979
 20
198.4771
  0
VERTEX
  8
LAYER_1
 10
116.1625
 20
198.53
  0
SEQEND
  0
POLYLINE
  8
LAYER_1
 40
0.1693
 41
0.1693
 66
1
 10
0
 20
0
 30
0
  0
VERTEX
  8
LAYER_1
 10
116.3742
 20
198.5565
  0
VERTEX
  8
LAYER_1
 10
116.6652
 20
198.6359
  0
SEQEND
  0
POLYLINE
  8
LAYER_1
 40
0.1693
 41
0.1693
 66
1
 10
0
 20
0
 30
0
  0
VERTEX
  8
LAYER_1
 10
115.1306
 20
198.3448
  0
VERTEX
  8
LAYER_1
 10
115.3952
 20
198.3713
  0
SEQEND
  0
POLYLINE
  8
LAYER_1
 40
0.1693
 41
0.1693
 66
1
 10
0
 20
0
 30
0
  0
VERTEX
  8
LAYER_1
 10
115.6069
 20
198.4242
  0
VERTEX
  8
LAYER_1
 10
115.8979
 20
198.4771
  0
SEQEND
  0
POLYLINE
  8
LAYER_1
 40
0.1693
 41
0.1693
 66
1
 10
0
 20
0
 30
0
  0
VERTEX
  8
LAYER_1
 10
114.3369
 20
198.239
  0
VERTEX
  8
LAYER_1
 10
114.6279
 20
198.2654
  0
SEQEND
  0
POLYLINE
  8
LAYER_1
 40
0.1693
 41
0.1693
 66
1
 10
0
 20
0
 30
0
  0
VERTEX
  8
LAYER_1
 10
114.8131
 20
198.2919
  0
VERTEX
  8
LAYER_1
 10
115.1306
 20
198.3448
  0
SEQEND
  0
POLYLINE
  8
LAYER_1
 40
0.1693
 41
0.1693
 66
1
 10
0
 20
0
 30
0
  0
VERTEX
  8
LAYER_1
 10
113.5696
 20
198.1596
  0
VERTEX
  8
LAYER_1
 10
113.8341
 20
198.1861
  0
SEQEND
  0
POLYLINE
  8
LAYER_1
 40
0.1693
 41
0.1693
 66
1
 10
0
 20
0
 30
0
  0
VERTEX
  8
LAYER_1
 10
114.0458
 20
198.1861
  0
VERTEX
  8
LAYER_1
 10
114.3368
 20
198.239
  0
SEQEND
  0
POLYLINE
  8
LAYER_1
 40
0.1693
 41
0.1693
 66
1
 10
0
 20
0
 30
0
  0
VERTEX
  8
LAYER_1
 10
113.0933
 20
198.1067
  0
VERTEX
  8
LAYER_1
 10
113.2521
 20
198.1067
  0
SEQEND
  0
POLYLINE
  8
LAYER_1
 40
0.1693
 41
0.1693
 66
1
 10
0
 20
0
 30
0
  0
VERTEX
  8
LAYER_1
 10
113.3844
 20
198.1331
  0
VERTEX
  8
LAYER_1
 10
113.5696
 20
198.1596
  0
SEQEND
  0
POLYLINE
  8
LAYER_1
 40
0.1693
 41
0.1693
 66
1
 10
0
 20
0
 30
0
  0
VERTEX
  8
LAYER_1
 10
81.9254
 20
219.0617
  0
VERTEX
  8
LAYER_1
 10
81.9254
 20
219.3792
  0
SEQEND
  0
POLYLINE
  8
LAYER_1
 40
0.1693
 41
0.1693
 66
1
 10
0
 20
0
 30
0
  0
VERTEX
  8
LAYER_1
 10
81.9254
 20
219.5909
  0
VERTEX
  8
LAYER_1
 10
81.8989
 20
219.9084
  0
SEQEND
  0
POLYLINE
  8
LAYER_1
 40
0.1693
 41
0.1693
 66
1
 10
0
 20
0
 30
0
  0
VERTEX
  8
LAYER_1
 10
129.3387
 20
219.0617
  0
VERTEX
  8
LAYER_1
 10
129.3387
 20
219.3792
  0
SEQEND
  0
POLYLINE
  8
LAYER_1
 40
0.1693
 41
0.1693
 66
1
 10
0
 20
0
 30
0
  0
VERTEX
  8
LAYER_1
 10
129.3387
 20
219.5909
  0
VERTEX
  8
LAYER_1
 10
129.3652
 20
219.9084
  0
SEQEND
  0
POLYLINE
  8
LAYER_1
 40
0.0847
 41
0.0847
 66
1
 10
0
 20
0
 30
0
  0
VERTEX
  8
LAYER_1
 10
157.3048
 20
211.1506
  0
VERTEX
  8
LAYER_1
 10
109.8121
 20
197.6569
  0
SEQEND
  0
POLYLINE
  8
LAYER_1
 40
0.0847
 41
0.0847
 66
1
 10
0
 20
0
 30
0
  0
VERTEX
  8
LAYER_1
 10
110.7117
 20
197.3129
  0
VERTEX
  8
LAYER_1
 10
157.9662
 20
206.3881
  0
SEQEND
  0
TEXT
  8
LAYER_1
 10
150.3729
 20
147.9416
 11
150.3729
 21
147.9416
 40
3.8024
 41
0.5
  1
örÉàâgâëâbâv%%c25
  0
TEXT
  8
LAYER_1
 10
50.308
 20
157.255
 11
50.308
 21
157.255
 40
3.2224
 41
0.5
  1
örÉàû┌ÄMùpâiâbâg
  0
TEXT
  8
LAYER_1
 10
22.6587
 20
167.6007
 11
22.6587
 21
167.6007
 40
3.2224
 41
0.5
  1
â{âEâïî┼ÆÞö┬üiâoâbâNâvâîü[âgüj
  0
POLYLINE
  8
LAYER_1
 40
0.1693
 41
0.1693
 66
1
 10
0
 20
0
 30
0
  0
VERTEX
  8
LAYER_1
 10
30.1094
 20
114.2344
  0
VERTEX
  8
LAYER_1
 10
183.5678
 20
114.2344
  0
SEQEND
  0
TEXT
  8
LAYER_1
 10
49.519
 20
72.917
 11
49.519
 21
72.917
 40
3.1022
 41
0.5
  1
üEörÉàâgâëâbâv
  0
TEXT
  8
LAYER_1
 10
49.519
 20
92.9194
 11
49.519
 21
92.9194
 40
3.6606
 41
0.5
  1
üEMimi âVâèü[âYü@örÉàÉ­üiörÉàû┌ÄMüjüi70å@üj
  0
TEXT
  8
LAYER_1
 10
49.519
 20
97.9148
 11
49.519
 21
97.9148
 40
3.6606
 41
0.5
  1
üEäOâèâôâOü~2üiô¹öÆüEìò èe1üj
  0
TEXT
  8
LAYER_1
 10
49.5187
 20
102.9103
 11
49.5187
 21
102.9103
 40
3.6606
 41
0.5
  1
üESUS304 Mimi â}âEâôâeâBâôâOâfâBâXâN
  0
TEXT
  8
LAYER_1
 10
49.8577
 20
107.7574
 11
49.8577
 21
107.7574
 40
3.1022
 41
0.5
  1
üyâZâbâgôÓùeüz
  0
TEXT
  8
LAYER_1
 10
144.7694
 20
115.8646
 11
144.7694
 21
115.8646
 40
3.6606
 41
0.5
  1
üªôVö┬î·ü@15025å@æ╬ë×
  0
TEXT
  8
LAYER_1
 10
49.5194
 20
67.9219
 11
49.5194
 21
67.9219
 40
3.1022
 41
0.5
  1
üEë╗Å¤âLâââbâvâëâEâôâhüiâNâìâÇüj
  0
TEXT
  8
LAYER_1
 10
49.5194
 20
62.9265
 11
49.5194
 21
62.9265
 40
3.6606
 41
0.5
  1
üEörÉàâgâëâbâvüiSâgâëâbâvé▄é¢é═Pâgâëâbâvé▄é¢é═â{âgâïâëâbâvüj
  0
TEXT
  8
LAYER_1
 10
49.5187
 20
87.9242
 11
49.5187
 21
87.9242
 40
3.1022
 41
0.5
  1
üEörÉàâpâbâLâôüiâXâ|âôâWâpâbâLâôüEÄOèpâpâbâLâôüEâXâèâbâvâpâbâLâôüj
  0
TEXT
  8
LAYER_1
 10
49.519
 20
82.9077
 11
49.519
 21
82.9077
 40
3.6606
 41
0.5
  1
üEörÉàû┌ÄMùpâiâbâgü~2
  0
TEXT
  8
LAYER_1
 10
49.5194
 20
77.9123
 11
49.5194
 21
77.9123
 40
3.1022
 41
0.5
  1
üEâ{âEâïî┼ÆÞö┬üiâoâbâNâvâîü[âgüj
  0
TEXT
  8
LAYER_1
 10
69.0271
 20
237.1057
 11
69.0271
 21
237.1057
 40
5.1558
 41
0.5
  1
Mimiüiâ~â~üj210É¶û╩â{âEâï ÄµéÞòté»É}
  0
TEXT
  8
LAYER_1
 10
46.4327
 20
139.4081
 11
46.4327
 21
139.4081
 40
3.6606
 41
0.5
  1
üªÅÒïLÄµéÞòté»É}é═üASLAVIA CRYSTAL MimiâRâôâvâèü[âgâZâbâgé­ùpéóé¢éÓé╠éãé╚éÞé▄éÀüB
  0
TEXT
  8
LAYER_1
 10
186.826
 20
54.0008
 11
186.826
 21
54.0008
 40
3.3848
 41
0.5
  1
ü£TEL 0120-65-1232ü£FAX 06-6532-1580
  0
TEXT
  8
LAYER_1
 10
186.826
 20
50.4861
 11
186.826
 21
50.4861
 40
3.3848
 41
0.5
  1
hits@hiratatile.co.jp
  0
INSERT
  8
LAYER_1
  2
AIGNBL01010002
 10
0
 20
0
 30
0
  0
ENDSEC
  0
EOF
