  0
SECTION
  2
HEADER
  9
$ACADVER
  1
AC1009
  9
$LUNITS
 70
2
  9
$LUPREC
 70
4
  9
$LTSCALE
 40
1.0
  9
$EXTMIN
 10
-33.2277
 20
49.7179
 30
0
  9
$EXTMAX
 10
245.4165
 20
241.3791
 30
0
  0
ENDSEC
  0
SECTION
  2
TABLES
  0
TABLE
  2
LTYPE
 70
256
  0
ENDTAB
  0
TABLE
  2
LAYER
 70
1
  0
LAYER
  2
LAYER_1
 70
64
 62
7
  6
CONTINUOUS
  0
ENDTAB
  0
TABLE
  2
STYLE
 70
6
  0
STYLE
  2
STANDARD
 70
0
 40
0
 50
0
 71
0
 41
0
 42
0
  3
TXT
  4
BIGFONT
  0
ENDTAB
  0
ENDSEC
  0
SECTION
  2
BLOCKS
  0
BLOCK
  8
LAYER_1
  2
AIGNBL01040011
 70
64
 10
0
 20
0
 30
0
  3
AIGNBL01040011
  0
POLYLINE
  8
LAYER_1
 40
0.05
 41
0.05
 66
1
 10
0
 20
0
 30
0
 70
1
  0
VERTEX
  8
LAYER_1
 10
157.5551
 20
53.6067
  0
VERTEX
  8
LAYER_1
 10
157.0662
 20
52.4216
  0
VERTEX
  8
LAYER_1
 10
156.4382
 20
52.4216
  0
VERTEX
  8
LAYER_1
 10
158.0377
 20
56.1874
  0
VERTEX
  8
LAYER_1
 10
158.7709
 20
56.1874
  0
VERTEX
  8
LAYER_1
 10
160.3773
 20
52.4216
  0
VERTEX
  8
LAYER_1
 10
159.7272
 20
52.4216
  0
VERTEX
  8
LAYER_1
 10
159.2246
 20
53.6067
  0
SEQEND
  0
POLYLINE
  8
LAYER_1
 40
0.05
 41
0.05
 66
1
 10
0
 20
0
 30
0
 70
1
  0
VERTEX
  8
LAYER_1
 10
159.0988
 20
53.9856
  0
VERTEX
  8
LAYER_1
 10
158.6379
 20
55.0705
  0
VERTEX
  8
LAYER_1
 10
158.3933
 20
55.7575
  0
VERTEX
  8
LAYER_1
 10
158.3795
 20
55.7575
  0
VERTEX
  8
LAYER_1
 10
158.1418
 20
55.075
  0
VERTEX
  8
LAYER_1
 10
157.6812
 20
53.9856
  0
SEQEND
  0
ENDBLK
  0
BLOCK
  8
LAYER_1
  2
AIGNBL01040012
 70
64
 10
0
 20
0
 30
0
  3
AIGNBL01040012
  0
POLYLINE
  8
LAYER_1
 40
0.05
 41
0.05
 66
1
 10
0
 20
0
 30
0
 70
1
  0
VERTEX
  8
LAYER_1
 10
164.7426
 20
51.8683
 42
-0.01559967508
  0
VERTEX
  8
LAYER_1
 10
162.9405
 20
52.3044
  0
VERTEX
  8
LAYER_1
 10
162.6538
 20
52.3599
 42
-0.08356944747
  0
VERTEX
  8
LAYER_1
 10
161.7898
 20
52.5261
 42
-0.0975043791
  0
VERTEX
  8
LAYER_1
 10
161.1286
 20
52.932
 42
-0.2129077902
  0
VERTEX
  8
LAYER_1
 10
160.5799
 20
54.2647
 42
-0.09684612991
  0
VERTEX
  8
LAYER_1
 10
160.7245
 20
55.0381
 42
-0.2046351071
  0
VERTEX
  8
LAYER_1
 10
161.772
 20
56.0624
 42
-0.09825619238
  0
VERTEX
  8
LAYER_1
 10
162.773
 20
56.2488
 42
-0.08554836282
  0
VERTEX
  8
LAYER_1
 10
163.6416
 20
56.1075
 42
-0.1004347897
  0
VERTEX
  8
LAYER_1
 10
164.3067
 20
55.7132
 42
-0.2140895568
  0
VERTEX
  8
LAYER_1
 10
164.8821
 20
54.3433
 42
-0.09539620281
  0
VERTEX
  8
LAYER_1
 10
164.7432
 20
53.5755
 42
-0.2143310008
  0
VERTEX
  8
LAYER_1
 10
163.7204
 20
52.597
 42
-0.02339132607
  0
VERTEX
  8
LAYER_1
 10
163.5413
 20
52.5387
  0
VERTEX
  8
LAYER_1
 10
163.5413
 20
52.5163
 42
0.01711831943
  0
VERTEX
  8
LAYER_1
 10
164.9176
 20
52.2762
  0
SEQEND
  0
POLYLINE
  8
LAYER_1
 40
0.05
 41
0.05
 66
1
 10
0
 20
0
 30
0
 70
1
  0
VERTEX
  8
LAYER_1
 10
164.2399
 20
54.3219
 42
0.1071511414
  0
VERTEX
  8
LAYER_1
 10
164.0886
 20
55.0267
 42
0.2976450246
  0
VERTEX
  8
LAYER_1
 10
162.7517
 20
55.8522
 42
0.1072291499
  0
VERTEX
  8
LAYER_1
 10
162.0618
 20
55.7127
 42
0.2386106109
  0
VERTEX
  8
LAYER_1
 10
161.2749
 20
54.7071
 42
0.05752849981
  0
VERTEX
  8
LAYER_1
 10
161.2293
 20
54.2771
 42
0.218096749
  0
VERTEX
  8
LAYER_1
 10
161.7599
 20
53.0817
 42
0.1772796408
  0
VERTEX
  8
LAYER_1
 10
162.7237
 20
52.7561
 42
0.1075185771
  0
VERTEX
  8
LAYER_1
 10
163.4051
 20
52.8951
 42
0.2370926009
  0
VERTEX
  8
LAYER_1
 10
164.1922
 20
53.8947
 42
0.05601310134
  0
SEQEND
  0
ENDBLK
  0
BLOCK
  8
LAYER_1
  2
AIGNBL01040013
 70
64
 10
0
 20
0
 30
0
  3
AIGNBL01040013
  0
POLYLINE
  8
LAYER_1
 40
0.05
 41
0.05
 66
1
 10
0
 20
0
 30
0
 70
1
  0
VERTEX
  8
LAYER_1
 10
166.2095
 20
56.1874
  0
VERTEX
  8
LAYER_1
 10
166.2095
 20
53.9581
 42
0.114533087
  0
VERTEX
  8
LAYER_1
 10
166.3434
 20
53.2923
 42
0.1464774934
  0
VERTEX
  8
LAYER_1
 10
166.6938
 20
52.9071
 42
0.1362552487
  0
VERTEX
  8
LAYER_1
 10
167.3061
 20
52.7561
 42
0.1219300979
  0
VERTEX
  8
LAYER_1
 10
167.9292
 20
52.8908
 42
0.1503016186
  0
VERTEX
  8
LAYER_1
 10
168.301
 20
53.2598
 42
0.1256239276
  0
VERTEX
  8
LAYER_1
 10
168.4516
 20
53.9581
  0
VERTEX
  8
LAYER_1
 10
168.4516
 20
56.1874
  0
VERTEX
  8
LAYER_1
 10
169.0662
 20
56.1874
  0
VERTEX
  8
LAYER_1
 10
169.0662
 20
53.9915
 42
-0.09997505101
  0
VERTEX
  8
LAYER_1
 10
168.9313
 20
53.2488
 42
-0.1214984503
  0
VERTEX
  8
LAYER_1
 10
168.558
 20
52.7421
 42
-0.1106235892
  0
VERTEX
  8
LAYER_1
 10
167.9326
 20
52.4355
 42
-0.06128954947
  0
VERTEX
  8
LAYER_1
 10
167.2851
 20
52.3599
 42
-0.09418508724
  0
VERTEX
  8
LAYER_1
 10
166.4659
 20
52.498
 42
-0.2431728796
  0
VERTEX
  8
LAYER_1
 10
165.6624
 20
53.4087
 42
-0.06320085329
  0
VERTEX
  8
LAYER_1
 10
165.5949
 20
53.9695
  0
VERTEX
  8
LAYER_1
 10
165.5949
 20
56.1874
  0
SEQEND
  0
ENDBLK
  0
BLOCK
  8
LAYER_1
  2
AIGNBL01040014
 70
64
 10
0
 20
0
 30
0
  3
AIGNBL01040014
  0
POLYLINE
  8
LAYER_1
 40
0.05
 41
0.05
 66
1
 10
0
 20
0
 30
0
 70
1
  0
VERTEX
  8
LAYER_1
 10
170.8125
 20
53.6067
  0
VERTEX
  8
LAYER_1
 10
170.3233
 20
52.4216
  0
VERTEX
  8
LAYER_1
 10
169.6953
 20
52.4216
  0
VERTEX
  8
LAYER_1
 10
171.2945
 20
56.1874
  0
VERTEX
  8
LAYER_1
 10
172.0276
 20
56.1874
  0
VERTEX
  8
LAYER_1
 10
173.634
 20
52.4216
  0
VERTEX
  8
LAYER_1
 10
172.9846
 20
52.4216
  0
VERTEX
  8
LAYER_1
 10
172.482
 20
53.6067
  0
SEQEND
  0
POLYLINE
  8
LAYER_1
 40
0.05
 41
0.05
 66
1
 10
0
 20
0
 30
0
 70
1
  0
VERTEX
  8
LAYER_1
 10
172.3559
 20
53.9856
  0
VERTEX
  8
LAYER_1
 10
171.8946
 20
55.0705
  0
VERTEX
  8
LAYER_1
 10
171.65
 20
55.7575
  0
VERTEX
  8
LAYER_1
 10
171.6362
 20
55.7575
  0
VERTEX
  8
LAYER_1
 10
171.3989
 20
55.075
  0
VERTEX
  8
LAYER_1
 10
170.9379
 20
53.9856
  0
SEQEND
  0
ENDBLK
  0
BLOCK
  8
LAYER_1
  2
AIGNBL01040015
 70
64
 10
0
 20
0
 30
0
  3
AIGNBL01040015
  0
POLYLINE
  8
LAYER_1
 40
0.05
 41
0.05
 66
1
 10
0
 20
0
 30
0
 70
1
  0
VERTEX
  8
LAYER_1
 10
174.6748
 20
56.1426
 42
-0.03245981043
  0
VERTEX
  8
LAYER_1
 10
175.8416
 20
56.2157
 42
-0.08081710393
  0
VERTEX
  8
LAYER_1
 10
176.7981
 20
56.0839
 42
-0.07812211839
  0
VERTEX
  8
LAYER_1
 10
177.1615
 20
55.9029
 42
-0.2483368586
  0
VERTEX
  8
LAYER_1
 10
177.5731
 20
55.1146
 42
-0.226147
  0
VERTEX
  8
LAYER_1
 10
177.21
 20
54.3105
 42
-0.1097236176
  0
VERTEX
  8
LAYER_1
 10
176.5818
 20
53.9972
 42
-0.06566039781
  0
VERTEX
  8
LAYER_1
 10
175.7714
 20
53.8968
 42
-0.06232747682
  0
VERTEX
  8
LAYER_1
 10
175.2828
 20
53.9302
  0
VERTEX
  8
LAYER_1
 10
175.2828
 20
52.4216
  0
VERTEX
  8
LAYER_1
 10
174.6748
 20
52.4216
  0
SEQEND
  0
POLYLINE
  8
LAYER_1
 40
0.05
 41
0.05
 66
1
 10
0
 20
0
 30
0
 70
1
  0
VERTEX
  8
LAYER_1
 10
175.2828
 20
54.3271
 42
0.04202445636
  0
VERTEX
  8
LAYER_1
 10
175.7852
 20
54.2878
 42
0.1032333559
  0
VERTEX
  8
LAYER_1
 10
176.5043
 20
54.4151
 42
0.1555698608
  0
VERTEX
  8
LAYER_1
 10
176.8691
 20
54.7196
 42
0.1352698132
  0
VERTEX
  8
LAYER_1
 10
176.9661
 20
55.0922
 42
0.1736824711
  0
VERTEX
  8
LAYER_1
 10
176.8313
 20
55.4995
 42
0.151721714
  0
VERTEX
  8
LAYER_1
 10
176.4102
 20
55.759
 42
0.06880216409
  0
VERTEX
  8
LAYER_1
 10
175.8558
 20
55.8298
 42
0.06336772289
  0
VERTEX
  8
LAYER_1
 10
175.2828
 20
55.7906
  0
SEQEND
  0
ENDBLK
  0
BLOCK
  8
LAYER_1
  2
AIGNBL01040016
 70
64
 10
0
 20
0
 30
0
  3
AIGNBL01040016
  0
POLYLINE
  8
LAYER_1
 40
0.05
 41
0.05
 66
1
 10
0
 20
0
 30
0
 70
1
  0
VERTEX
  8
LAYER_1
 10
179.1252
 20
55.8856
 42
-0.276560599
  0
VERTEX
  8
LAYER_1
 10
178.9856
 20
55.6455
 42
-0.1265502936
  0
VERTEX
  8
LAYER_1
 10
178.7335
 20
55.5838
 42
-0.22367962
  0
VERTEX
  8
LAYER_1
 10
178.4232
 20
55.7162
 42
-0.1709078449
  0
VERTEX
  8
LAYER_1
 10
178.3631
 20
55.8856
 42
-0.2643879937
  0
VERTEX
  8
LAYER_1
 10
178.5125
 20
56.1327
 42
-0.1290073663
  0
VERTEX
  8
LAYER_1
 10
178.7472
 20
56.1926
 42
-0.2253241111
  0
VERTEX
  8
LAYER_1
 10
179.0641
 20
56.0619
 42
-0.1691304651
  0
SEQEND
  0
POLYLINE
  8
LAYER_1
 40
0.05
 41
0.05
 66
1
 10
0
 20
0
 30
0
 70
1
  0
VERTEX
  8
LAYER_1
 10
178.4396
 20
52.4216
  0
VERTEX
  8
LAYER_1
 10
178.4396
 20
55.1256
  0
VERTEX
  8
LAYER_1
 10
179.0542
 20
55.1256
  0
VERTEX
  8
LAYER_1
 10
179.0542
 20
52.4216
  0
SEQEND
  0
ENDBLK
  0
BLOCK
  8
LAYER_1
  2
AIGNBL01040017
 70
64
 10
0
 20
0
 30
0
  3
AIGNBL01040017
  0
POLYLINE
  8
LAYER_1
 40
0.05
 41
0.05
 66
1
 10
0
 20
0
 30
0
 70
1
  0
VERTEX
  8
LAYER_1
 10
180.9259
 20
53.6067
  0
VERTEX
  8
LAYER_1
 10
180.4377
 20
52.4216
  0
VERTEX
  8
LAYER_1
 10
179.8087
 20
52.4216
  0
VERTEX
  8
LAYER_1
 10
181.4082
 20
56.1874
  0
VERTEX
  8
LAYER_1
 10
182.142
 20
56.1874
  0
VERTEX
  8
LAYER_1
 10
183.7485
 20
52.4216
  0
VERTEX
  8
LAYER_1
 10
183.0987
 20
52.4216
  0
VERTEX
  8
LAYER_1
 10
182.5961
 20
53.6067
  0
SEQEND
  0
POLYLINE
  8
LAYER_1
 40
0.05
 41
0.05
 66
1
 10
0
 20
0
 30
0
 70
1
  0
VERTEX
  8
LAYER_1
 10
182.47
 20
53.9856
  0
VERTEX
  8
LAYER_1
 10
182.009
 20
55.0705
  0
VERTEX
  8
LAYER_1
 10
181.7651
 20
55.7575
  0
VERTEX
  8
LAYER_1
 10
181.7503
 20
55.7575
  0
VERTEX
  8
LAYER_1
 10
181.5133
 20
55.075
  0
VERTEX
  8
LAYER_1
 10
181.0523
 20
53.9856
  0
SEQEND
  0
ENDBLK
  0
BLOCK
  8
LAYER_1
  2
AIGNBL01030010
 70
64
 10
0
 20
0
 30
0
  3
AIGNBL01030010
  0
INSERT
  8
LAYER_1
  2
AIGNBL01040011
 10
0
 20
0
 30
0
  0
INSERT
  8
LAYER_1
  2
AIGNBL01040012
 10
0
 20
0
 30
0
  0
INSERT
  8
LAYER_1
  2
AIGNBL01040013
 10
0
 20
0
 30
0
  0
INSERT
  8
LAYER_1
  2
AIGNBL01040014
 10
0
 20
0
 30
0
  0
INSERT
  8
LAYER_1
  2
AIGNBL01040015
 10
0
 20
0
 30
0
  0
INSERT
  8
LAYER_1
  2
AIGNBL01040016
 10
0
 20
0
 30
0
  0
INSERT
  8
LAYER_1
  2
AIGNBL01040017
 10
0
 20
0
 30
0
  0
ENDBLK
  0
BLOCK
  8
LAYER_1
  2
AIGNBL01030019
 70
64
 10
0
 20
0
 30
0
  3
AIGNBL01030019
  0
POLYLINE
  8
LAYER_1
 40
0.05
 41
0.05
 66
1
 10
0
 20
0
 30
0
 70
1
  0
VERTEX
  8
LAYER_1
 10
156.5481
 20
50.5223
  0
VERTEX
  8
LAYER_1
 10
157.1013
 20
50.5223
  0
VERTEX
  8
LAYER_1
 10
157.1013
 20
50.4286
  0
VERTEX
  8
LAYER_1
 10
156.443
 20
50.4286
  0
VERTEX
  8
LAYER_1
 10
156.443
 20
51.4618
  0
VERTEX
  8
LAYER_1
 10
157.0838
 20
51.4618
  0
VERTEX
  8
LAYER_1
 10
157.0838
 20
51.3684
  0
VERTEX
  8
LAYER_1
 10
156.5481
 20
51.3684
  0
VERTEX
  8
LAYER_1
 10
156.5481
 20
51.0139
  0
VERTEX
  8
LAYER_1
 10
157.0486
 20
51.0139
  0
VERTEX
  8
LAYER_1
 10
157.0486
 20
50.9206
  0
VERTEX
  8
LAYER_1
 10
156.5481
 20
50.9206
  0
SEQEND
  0
ENDBLK
  0
BLOCK
  8
LAYER_1
  2
AIGNBL0103001A
 70
64
 10
0
 20
0
 30
0
  3
AIGNBL0103001A
  0
POLYLINE
  8
LAYER_1
 40
0.05
 41
0.05
 66
1
 10
0
 20
0
 30
0
 70
1
  0
VERTEX
  8
LAYER_1
 10
158.241
 20
50.5819
  0
VERTEX
  8
LAYER_1
 10
158.2438
 20
50.5819
  0
VERTEX
  8
LAYER_1
 10
158.2438
 20
51.4618
  0
VERTEX
  8
LAYER_1
 10
158.3488
 20
51.4618
  0
VERTEX
  8
LAYER_1
 10
158.3488
 20
50.4286
  0
VERTEX
  8
LAYER_1
 10
158.2179
 20
50.4286
  0
VERTEX
  8
LAYER_1
 10
157.6168
 20
51.3174
  0
VERTEX
  8
LAYER_1
 10
157.6133
 20
51.3174
  0
VERTEX
  8
LAYER_1
 10
157.6133
 20
50.4286
  0
VERTEX
  8
LAYER_1
 10
157.5086
 20
50.4286
  0
VERTEX
  8
LAYER_1
 10
157.5086
 20
51.4618
  0
VERTEX
  8
LAYER_1
 10
157.6398
 20
51.4618
  0
SEQEND
  0
ENDBLK
  0
BLOCK
  8
LAYER_1
  2
AIGNBL0103001B
 70
64
 10
0
 20
0
 30
0
  3
AIGNBL0103001B
  0
POLYLINE
  8
LAYER_1
 40
0.05
 41
0.05
 66
1
 10
0
 20
0
 30
0
 70
1
  0
VERTEX
  8
LAYER_1
 10
158.8218
 20
50.6405
  0
VERTEX
  8
LAYER_1
 10
158.8763
 20
50.5375
 42
0.1809219053
  0
VERTEX
  8
LAYER_1
 10
158.9896
 20
50.4958
  0
VERTEX
  8
LAYER_1
 10
159.0788
 20
50.5154
  0
VERTEX
  8
LAYER_1
 10
159.135
 20
50.5688
  0
VERTEX
  8
LAYER_1
 10
159.1639
 20
50.6453
  0
VERTEX
  8
LAYER_1
 10
159.1722
 20
50.7349
  0
VERTEX
  8
LAYER_1
 10
159.1722
 20
51.4618
  0
VERTEX
  8
LAYER_1
 10
159.2773
 20
51.4618
  0
VERTEX
  8
LAYER_1
 10
159.2773
 20
50.7263
  0
VERTEX
  8
LAYER_1
 10
159.2659
 20
50.6184
  0
VERTEX
  8
LAYER_1
 10
159.2246
 20
50.5134
  0
VERTEX
  8
LAYER_1
 10
159.1398
 20
50.4338
  0
VERTEX
  8
LAYER_1
 10
159.001
 20
50.4024
 42
-0.1846674817
  0
VERTEX
  8
LAYER_1
 10
158.8163
 20
50.4624
 42
-0.1764563828
  0
VERTEX
  8
LAYER_1
 10
158.724
 20
50.6139
  0
SEQEND
  0
ENDBLK
  0
BLOCK
  8
LAYER_1
  2
AIGNBL0103001C
 70
64
 10
0
 20
0
 30
0
  3
AIGNBL0103001C
  0
POLYLINE
  8
LAYER_1
 40
0.05
 41
0.05
 66
1
 10
0
 20
0
 30
0
 70
1
  0
VERTEX
  8
LAYER_1
 10
160.7656
 20
50.9454
 42
-0.103587114
  0
VERTEX
  8
LAYER_1
 10
160.7246
 20
50.728
 42
-0.1000549391
  0
VERTEX
  8
LAYER_1
 10
160.6119
 20
50.5564
  0
VERTEX
  8
LAYER_1
 10
160.441
 20
50.4434
 42
-0.09506675375
  0
VERTEX
  8
LAYER_1
 10
160.2271
 20
50.4024
 42
-0.1010765979
  0
VERTEX
  8
LAYER_1
 10
160.0135
 20
50.4434
 42
-0.1005668876
  0
VERTEX
  8
LAYER_1
 10
159.8426
 20
50.5564
 42
-0.09506076213
  0
VERTEX
  8
LAYER_1
 10
159.7293
 20
50.728
 42
-0.0931359716
  0
VERTEX
  8
LAYER_1
 10
159.6886
 20
50.9454
 42
-0.1020962526
  0
VERTEX
  8
LAYER_1
 10
159.7293
 20
51.1628
 42
-0.1007559602
  0
VERTEX
  8
LAYER_1
 10
159.8426
 20
51.3343
 42
-0.09625543395
  0
VERTEX
  8
LAYER_1
 10
160.0135
 20
51.4473
 42
-0.0952064105
  0
VERTEX
  8
LAYER_1
 10
160.2271
 20
51.4883
 42
-0.101175466
  0
VERTEX
  8
LAYER_1
 10
160.441
 20
51.4473
 42
-0.09853409661
  0
VERTEX
  8
LAYER_1
 10
160.6119
 20
51.3343
 42
-0.09562840933
  0
VERTEX
  8
LAYER_1
 10
160.7246
 20
51.1628
 42
-0.09393796777
  0
SEQEND
  0
POLYLINE
  8
LAYER_1
 40
0.05
 41
0.05
 66
1
 10
0
 20
0
 30
0
 70
1
  0
VERTEX
  8
LAYER_1
 10
160.6546
 20
50.9447
  0
VERTEX
  8
LAYER_1
 10
160.6257
 20
51.1166
  0
VERTEX
  8
LAYER_1
 10
160.5409
 20
51.2599
  0
VERTEX
  8
LAYER_1
 10
160.4059
 20
51.3581
  0
VERTEX
  8
LAYER_1
 10
160.2271
 20
51.395
  0
VERTEX
  8
LAYER_1
 10
160.0483
 20
51.3581
  0
VERTEX
  8
LAYER_1
 10
159.9136
 20
51.2599
  0
VERTEX
  8
LAYER_1
 10
159.8289
 20
51.1166
  0
VERTEX
  8
LAYER_1
 10
159.7996
 20
50.9447
  0
VERTEX
  8
LAYER_1
 10
159.8289
 20
50.7728
  0
VERTEX
  8
LAYER_1
 10
159.9136
 20
50.6298
  0
VERTEX
  8
LAYER_1
 10
160.0483
 20
50.5323
 42
0.1008257054
  0
VERTEX
  8
LAYER_1
 10
160.2271
 20
50.4958
  0
VERTEX
  8
LAYER_1
 10
160.4059
 20
50.5323
  0
VERTEX
  8
LAYER_1
 10
160.5409
 20
50.6298
  0
VERTEX
  8
LAYER_1
 10
160.6257
 20
50.7728
  0
SEQEND
  0
ENDBLK
  0
BLOCK
  8
LAYER_1
  2
AIGNBL0103001D
 70
64
 10
0
 20
0
 30
0
  3
AIGNBL0103001D
  0
POLYLINE
  8
LAYER_1
 40
0.05
 41
0.05
 66
1
 10
0
 20
0
 30
0
 70
1
  0
VERTEX
  8
LAYER_1
 10
161.5404
 20
50.4286
  0
VERTEX
  8
LAYER_1
 10
161.4356
 20
50.4286
  0
VERTEX
  8
LAYER_1
 10
161.4356
 20
50.874
  0
VERTEX
  8
LAYER_1
 10
161.0488
 20
51.4618
  0
VERTEX
  8
LAYER_1
 10
161.18
 20
51.4618
  0
VERTEX
  8
LAYER_1
 10
161.4911
 20
50.9616
  0
VERTEX
  8
LAYER_1
 10
161.8046
 20
51.4618
  0
VERTEX
  8
LAYER_1
 10
161.9269
 20
51.4618
  0
VERTEX
  8
LAYER_1
 10
161.5404
 20
50.874
  0
SEQEND
  0
ENDBLK
  0
BLOCK
  8
LAYER_1
  2
AIGNBL0103001E
 70
64
 10
0
 20
0
 30
0
  3
AIGNBL0103001E
  0
POLYLINE
  8
LAYER_1
 40
0.05
 41
0.05
 66
1
 10
0
 20
0
 30
0
 70
1
  0
VERTEX
  8
LAYER_1
 10
162.8319
 20
51.4618
  0
VERTEX
  8
LAYER_1
 10
163.1396
 20
51.4618
  0
VERTEX
  8
LAYER_1
 10
163.2581
 20
51.4494
  0
VERTEX
  8
LAYER_1
 10
163.3649
 20
51.407
  0
VERTEX
  8
LAYER_1
 10
163.4427
 20
51.3261
  0
VERTEX
  8
LAYER_1
 10
163.4724
 20
51.1979
 42
-0.1787887146
  0
VERTEX
  8
LAYER_1
 10
163.4224
 20
51.0556
 42
-0.1642670326
  0
VERTEX
  8
LAYER_1
 10
163.2891
 20
50.976
  0
VERTEX
  8
LAYER_1
 10
163.2891
 20
50.9733
 42
-0.1734673322
  0
VERTEX
  8
LAYER_1
 10
163.4558
 20
50.8951
 42
-0.1923137572
  0
VERTEX
  8
LAYER_1
 10
163.522
 20
50.7146
  0
VERTEX
  8
LAYER_1
 10
163.4948
 20
50.5974
  0
VERTEX
  8
LAYER_1
 10
163.4186
 20
50.5068
  0
VERTEX
  8
LAYER_1
 10
163.2977
 20
50.4493
  0
VERTEX
  8
LAYER_1
 10
163.1379
 20
50.4286
  0
VERTEX
  8
LAYER_1
 10
162.8319
 20
50.4286
  0
SEQEND
  0
POLYLINE
  8
LAYER_1
 40
0.05
 41
0.05
 66
1
 10
0
 20
0
 30
0
 70
1
  0
VERTEX
  8
LAYER_1
 10
162.937
 20
51.0094
  0
VERTEX
  8
LAYER_1
 10
163.1485
 20
51.0094
  0
VERTEX
  8
LAYER_1
 10
163.2254
 20
51.0184
  0
VERTEX
  8
LAYER_1
 10
163.2956
 20
51.048
  0
VERTEX
  8
LAYER_1
 10
163.3477
 20
51.1045
  0
VERTEX
  8
LAYER_1
 10
163.3673
 20
51.1907
  0
VERTEX
  8
LAYER_1
 10
163.3477
 20
51.2744
  0
VERTEX
  8
LAYER_1
 10
163.2946
 20
51.3305
  0
VERTEX
  8
LAYER_1
 10
163.2157
 20
51.3619
  0
VERTEX
  8
LAYER_1
 10
163.1192
 20
51.3715
  0
VERTEX
  8
LAYER_1
 10
162.937
 20
51.3715
  0
SEQEND
  0
POLYLINE
  8
LAYER_1
 40
0.05
 41
0.05
 66
1
 10
0
 20
0
 30
0
 70
1
  0
VERTEX
  8
LAYER_1
 10
162.937
 20
50.5192
  0
VERTEX
  8
LAYER_1
 10
163.1327
 20
50.5192
  0
VERTEX
  8
LAYER_1
 10
163.2412
 20
50.5302
  0
VERTEX
  8
LAYER_1
 10
163.3318
 20
50.565
  0
VERTEX
  8
LAYER_1
 10
163.3935
 20
50.6281
  0
VERTEX
  8
LAYER_1
 10
163.4169
 20
50.7208
 42
0.2554060681
  0
VERTEX
  8
LAYER_1
 10
163.3477
 20
50.873
 42
0.1380642909
  0
VERTEX
  8
LAYER_1
 10
163.1516
 20
50.9233
  0
VERTEX
  8
LAYER_1
 10
162.937
 20
50.9233
  0
SEQEND
  0
ENDBLK
  0
BLOCK
  8
LAYER_1
  2
AIGNBL0103001F
 70
64
 10
0
 20
0
 30
0
  3
AIGNBL0103001F
  0
POLYLINE
  8
LAYER_1
 40
0.05
 41
0.05
 66
1
 10
0
 20
0
 30
0
 70
1
  0
VERTEX
  8
LAYER_1
 10
163.954
 20
50.4286
  0
VERTEX
  8
LAYER_1
 10
163.8386
 20
50.4286
  0
VERTEX
  8
LAYER_1
 10
164.2854
 20
51.4618
  0
VERTEX
  8
LAYER_1
 10
164.3877
 20
51.4618
  0
VERTEX
  8
LAYER_1
 10
164.8311
 20
50.4286
  0
VERTEX
  8
LAYER_1
 10
164.7143
 20
50.4286
  0
VERTEX
  8
LAYER_1
 10
164.6003
 20
50.7001
  0
VERTEX
  8
LAYER_1
 10
164.0663
 20
50.7001
  0
SEQEND
  0
POLYLINE
  8
LAYER_1
 40
0.05
 41
0.05
 66
1
 10
0
 20
0
 30
0
 70
1
  0
VERTEX
  8
LAYER_1
 10
164.1056
 20
50.7965
  0
VERTEX
  8
LAYER_1
 10
164.561
 20
50.7965
  0
VERTEX
  8
LAYER_1
 10
164.3333
 20
51.3454
  0
SEQEND
  0
ENDBLK
  0
BLOCK
  8
LAYER_1
  2
AIGNBL01030020
 70
64
 10
0
 20
0
 30
0
  3
AIGNBL01030020
  0
POLYLINE
  8
LAYER_1
 40
0.05
 41
0.05
 66
1
 10
0
 20
0
 30
0
 70
1
  0
VERTEX
  8
LAYER_1
 10
165.5157
 20
50.4286
  0
VERTEX
  8
LAYER_1
 10
165.4106
 20
50.4286
  0
VERTEX
  8
LAYER_1
 10
165.4106
 20
51.3684
  0
VERTEX
  8
LAYER_1
 10
165.0644
 20
51.3684
  0
VERTEX
  8
LAYER_1
 10
165.0644
 20
51.4618
  0
VERTEX
  8
LAYER_1
 10
165.8612
 20
51.4618
  0
VERTEX
  8
LAYER_1
 10
165.8612
 20
51.3684
  0
VERTEX
  8
LAYER_1
 10
165.5157
 20
51.3684
  0
SEQEND
  0
ENDBLK
  0
BLOCK
  8
LAYER_1
  2
AIGNBL01030021
 70
64
 10
0
 20
0
 30
0
  3
AIGNBL01030021
  0
POLYLINE
  8
LAYER_1
 40
0.05
 41
0.05
 66
1
 10
0
 20
0
 30
0
 70
1
  0
VERTEX
  8
LAYER_1
 10
166.2174
 20
51.4618
  0
VERTEX
  8
LAYER_1
 10
166.3221
 20
51.4618
  0
VERTEX
  8
LAYER_1
 10
166.3221
 20
51.0139
  0
VERTEX
  8
LAYER_1
 10
166.8858
 20
51.0139
  0
VERTEX
  8
LAYER_1
 10
166.8858
 20
51.4618
  0
VERTEX
  8
LAYER_1
 10
166.9908
 20
51.4618
  0
VERTEX
  8
LAYER_1
 10
166.9908
 20
50.4286
  0
VERTEX
  8
LAYER_1
 10
166.8858
 20
50.4286
  0
VERTEX
  8
LAYER_1
 10
166.8858
 20
50.9178
  0
VERTEX
  8
LAYER_1
 10
166.3221
 20
50.9178
  0
VERTEX
  8
LAYER_1
 10
166.3221
 20
50.4286
  0
VERTEX
  8
LAYER_1
 10
166.2174
 20
50.4286
  0
SEQEND
  0
ENDBLK
  0
BLOCK
  8
LAYER_1
  2
AIGNBL01030022
 70
64
 10
0
 20
0
 30
0
  3
AIGNBL01030022
  0
POLYLINE
  8
LAYER_1
 40
0.05
 41
0.05
 66
1
 10
0
 20
0
 30
0
 70
1
  0
VERTEX
  8
LAYER_1
 10
167.5713
 20
50.4286
  0
VERTEX
  8
LAYER_1
 10
167.4663
 20
50.4286
  0
VERTEX
  8
LAYER_1
 10
167.4663
 20
51.4618
  0
VERTEX
  8
LAYER_1
 10
167.7701
 20
51.4618
  0
VERTEX
  8
LAYER_1
 10
167.9107
 20
51.4473
  0
VERTEX
  8
LAYER_1
 10
168.0233
 20
51.3998
  0
VERTEX
  8
LAYER_1
 10
168.0967
 20
51.3143
  0
VERTEX
  8
LAYER_1
 10
168.1229
 20
51.1862
  0
VERTEX
  8
LAYER_1
 10
168.1029
 20
51.0825
  0
VERTEX
  8
LAYER_1
 10
168.0475
 20
51.0015
  0
VERTEX
  8
LAYER_1
 10
167.9641
 20
50.9467
  0
VERTEX
  8
LAYER_1
 10
167.859
 20
50.9206
  0
VERTEX
  8
LAYER_1
 10
168.1611
 20
50.4286
  0
VERTEX
  8
LAYER_1
 10
168.0327
 20
50.4286
  0
VERTEX
  8
LAYER_1
 10
167.7467
 20
50.9116
  0
VERTEX
  8
LAYER_1
 10
167.5713
 20
50.9116
  0
SEQEND
  0
POLYLINE
  8
LAYER_1
 40
0.05
 41
0.05
 66
1
 10
0
 20
0
 30
0
 70
1
  0
VERTEX
  8
LAYER_1
 10
167.5713
 20
51.0022
  0
VERTEX
  8
LAYER_1
 10
167.7539
 20
51.0022
 42
0.1657798624
  0
VERTEX
  8
LAYER_1
 10
167.9496
 20
51.048
 42
0.2503949893
  0
VERTEX
  8
LAYER_1
 10
168.0182
 20
51.1862
  0
VERTEX
  8
LAYER_1
 10
167.9989
 20
51.272
  0
VERTEX
  8
LAYER_1
 10
167.9465
 20
51.3292
  0
VERTEX
  8
LAYER_1
 10
167.8649
 20
51.3612
  0
VERTEX
  8
LAYER_1
 10
167.7584
 20
51.3715
  0
VERTEX
  8
LAYER_1
 10
167.5713
 20
51.3715
  0
SEQEND
  0
ENDBLK
  0
BLOCK
  8
LAYER_1
  2
AIGNBL01030023
 70
64
 10
0
 20
0
 30
0
  3
AIGNBL01030023
  0
POLYLINE
  8
LAYER_1
 40
0.05
 41
0.05
 66
1
 10
0
 20
0
 30
0
 70
1
  0
VERTEX
  8
LAYER_1
 10
169.5633
 20
50.9454
 42
-0.1000954639
  0
VERTEX
  8
LAYER_1
 10
169.5227
 20
50.728
 42
-0.1001905425
  0
VERTEX
  8
LAYER_1
 10
169.4093
 20
50.5564
 42
-0.09598116796
  0
VERTEX
  8
LAYER_1
 10
169.2388
 20
50.4434
 42
-0.09506675375
  0
VERTEX
  8
LAYER_1
 10
169.0249
 20
50.4024
 42
-0.1012184087
  0
VERTEX
  8
LAYER_1
 10
168.8109
 20
50.4434
 42
-0.1000476754
  0
VERTEX
  8
LAYER_1
 10
168.6404
 20
50.5564
 42
-0.09638651026
  0
VERTEX
  8
LAYER_1
 10
168.5274
 20
50.728
 42
-0.0931359716
  0
VERTEX
  8
LAYER_1
 10
168.4867
 20
50.9454
 42
-0.1020962526
  0
VERTEX
  8
LAYER_1
 10
168.5274
 20
51.1628
 42
-0.101889112
  0
VERTEX
  8
LAYER_1
 10
168.6404
 20
51.3343
 42
-0.09563682649
  0
VERTEX
  8
LAYER_1
 10
168.8109
 20
51.4473
 42
-0.0950295922
  0
VERTEX
  8
LAYER_1
 10
169.0249
 20
51.4883
 42
-0.101175466
  0
VERTEX
  8
LAYER_1
 10
169.2388
 20
51.4473
 42
-0.101575919
  0
VERTEX
  8
LAYER_1
 10
169.4093
 20
51.3343
 42
-0.09449174073
  0
VERTEX
  8
LAYER_1
 10
169.5227
 20
51.1628
 42
-0.09273041258
  0
SEQEND
  0
POLYLINE
  8
LAYER_1
 40
0.05
 41
0.05
 66
1
 10
0
 20
0
 30
0
 70
1
  0
VERTEX
  8
LAYER_1
 10
169.4524
 20
50.9447
  0
VERTEX
  8
LAYER_1
 10
169.4231
 20
51.1166
  0
VERTEX
  8
LAYER_1
 10
169.3383
 20
51.2599
  0
VERTEX
  8
LAYER_1
 10
169.2036
 20
51.3581
  0
VERTEX
  8
LAYER_1
 10
169.0249
 20
51.395
  0
VERTEX
  8
LAYER_1
 10
168.846
 20
51.3581
  0
VERTEX
  8
LAYER_1
 10
168.711
 20
51.2599
  0
VERTEX
  8
LAYER_1
 10
168.6262
 20
51.1166
  0
VERTEX
  8
LAYER_1
 10
168.5973
 20
50.9447
  0
VERTEX
  8
LAYER_1
 10
168.6262
 20
50.7728
  0
VERTEX
  8
LAYER_1
 10
168.711
 20
50.6298
  0
VERTEX
  8
LAYER_1
 10
168.846
 20
50.5323
  0
VERTEX
  8
LAYER_1
 10
169.0249
 20
50.4958
  0
VERTEX
  8
LAYER_1
 10
169.2036
 20
50.5323
  0
VERTEX
  8
LAYER_1
 10
169.3383
 20
50.6298
  0
VERTEX
  8
LAYER_1
 10
169.4231
 20
50.7728
  0
SEQEND
  0
ENDBLK
  0
BLOCK
  8
LAYER_1
  2
AIGNBL01030024
 70
64
 10
0
 20
0
 30
0
  3
AIGNBL01030024
  0
POLYLINE
  8
LAYER_1
 40
0.05
 41
0.05
 66
1
 10
0
 20
0
 30
0
 70
1
  0
VERTEX
  8
LAYER_1
 10
171.0051
 20
50.9454
 42
-0.1041417444
  0
VERTEX
  8
LAYER_1
 10
170.9641
 20
50.728
 42
-0.1000549391
  0
VERTEX
  8
LAYER_1
 10
170.8514
 20
50.5564
 42
-0.09536478376
  0
VERTEX
  8
LAYER_1
 10
170.6805
 20
50.4434
 42
-0.09507606236
  0
VERTEX
  8
LAYER_1
 10
170.4666
 20
50.4024
 42
-0.101822328
  0
VERTEX
  8
LAYER_1
 10
170.253
 20
50.4434
 42
-0.102112669
  0
VERTEX
  8
LAYER_1
 10
170.0821
 20
50.5564
 42
-0.09442769366
  0
VERTEX
  8
LAYER_1
 10
169.9688
 20
50.728
 42
-0.0931359716
  0
VERTEX
  8
LAYER_1
 10
169.9281
 20
50.9454
 42
-0.1020962526
  0
VERTEX
  8
LAYER_1
 10
169.9688
 20
51.1628
 42
-0.1007688052
  0
VERTEX
  8
LAYER_1
 10
170.0821
 20
51.3343
 42
-0.09625543395
  0
VERTEX
  8
LAYER_1
 10
170.253
 20
51.4473
 42
-0.09528409444
  0
VERTEX
  8
LAYER_1
 10
170.4666
 20
51.4883
 42
-0.101185532
  0
VERTEX
  8
LAYER_1
 10
170.6805
 20
51.4473
 42
-0.09904343471
  0
VERTEX
  8
LAYER_1
 10
170.8514
 20
51.3343
 42
-0.09562840933
  0
VERTEX
  8
LAYER_1
 10
170.9641
 20
51.1628
 42
-0.09397287008
  0
SEQEND
  0
POLYLINE
  8
LAYER_1
 40
0.05
 41
0.05
 66
1
 10
0
 20
0
 30
0
 70
1
  0
VERTEX
  8
LAYER_1
 10
170.8941
 20
50.9447
  0
VERTEX
  8
LAYER_1
 10
170.8652
 20
51.1166
  0
VERTEX
  8
LAYER_1
 10
170.7804
 20
51.2599
  0
VERTEX
  8
LAYER_1
 10
170.6454
 20
51.3581
  0
VERTEX
  8
LAYER_1
 10
170.4666
 20
51.395
  0
VERTEX
  8
LAYER_1
 10
170.2878
 20
51.3581
  0
VERTEX
  8
LAYER_1
 10
170.1531
 20
51.2599
  0
VERTEX
  8
LAYER_1
 10
170.0684
 20
51.1166
  0
VERTEX
  8
LAYER_1
 10
170.0391
 20
50.9447
  0
VERTEX
  8
LAYER_1
 10
170.0684
 20
50.7728
  0
VERTEX
  8
LAYER_1
 10
170.1531
 20
50.6298
  0
VERTEX
  8
LAYER_1
 10
170.2878
 20
50.5323
  0
VERTEX
  8
LAYER_1
 10
170.4666
 20
50.4958
  0
VERTEX
  8
LAYER_1
 10
170.6454
 20
50.5323
  0
VERTEX
  8
LAYER_1
 10
170.7804
 20
50.6298
  0
VERTEX
  8
LAYER_1
 10
170.8652
 20
50.7728
  0
SEQEND
  0
ENDBLK
  0
BLOCK
  8
LAYER_1
  2
AIGNBL01030025
 70
64
 10
0
 20
0
 30
0
  3
AIGNBL01030025
  0
POLYLINE
  8
LAYER_1
 40
0.05
 41
0.05
 66
1
 10
0
 20
0
 30
0
 70
1
  0
VERTEX
  8
LAYER_1
 10
171.9359
 20
50.6067
  0
VERTEX
  8
LAYER_1
 10
171.9377
 20
50.6067
  0
VERTEX
  8
LAYER_1
 10
172.2832
 20
51.4618
  0
VERTEX
  8
LAYER_1
 10
172.4441
 20
51.4618
  0
VERTEX
  8
LAYER_1
 10
172.4441
 20
50.4286
  0
VERTEX
  8
LAYER_1
 10
172.3387
 20
50.4286
  0
VERTEX
  8
LAYER_1
 10
172.3387
 20
51.3261
  0
VERTEX
  8
LAYER_1
 10
172.3359
 20
51.3261
  0
VERTEX
  8
LAYER_1
 10
171.9625
 20
50.4286
  0
VERTEX
  8
LAYER_1
 10
171.907
 20
50.4286
  0
VERTEX
  8
LAYER_1
 10
171.5332
 20
51.3261
  0
VERTEX
  8
LAYER_1
 10
171.5305
 20
51.3261
  0
VERTEX
  8
LAYER_1
 10
171.5305
 20
50.4286
  0
VERTEX
  8
LAYER_1
 10
171.4254
 20
50.4286
  0
VERTEX
  8
LAYER_1
 10
171.4254
 20
51.4618
  0
VERTEX
  8
LAYER_1
 10
171.5859
 20
51.4618
  0
SEQEND
  0
ENDBLK
  0
BLOCK
  8
LAYER_1
  2
AIGNBL01030026
 70
64
 10
0
 20
0
 30
0
  3
AIGNBL01030026
  0
POLYLINE
  8
LAYER_1
 40
0.05
 41
0.05
 66
1
 10
0
 20
0
 30
0
 70
1
  0
VERTEX
  8
LAYER_1
 10
173.5906
 20
50.5223
  0
VERTEX
  8
LAYER_1
 10
174.1439
 20
50.5223
  0
VERTEX
  8
LAYER_1
 10
174.1439
 20
50.4286
  0
VERTEX
  8
LAYER_1
 10
173.4855
 20
50.4286
  0
VERTEX
  8
LAYER_1
 10
173.4855
 20
51.4618
  0
VERTEX
  8
LAYER_1
 10
174.1263
 20
51.4618
  0
VERTEX
  8
LAYER_1
 10
174.1263
 20
51.3684
  0
VERTEX
  8
LAYER_1
 10
173.5906
 20
51.3684
  0
VERTEX
  8
LAYER_1
 10
173.5906
 20
51.0139
  0
VERTEX
  8
LAYER_1
 10
174.0912
 20
51.0139
  0
VERTEX
  8
LAYER_1
 10
174.0912
 20
50.9206
  0
VERTEX
  8
LAYER_1
 10
173.5906
 20
50.9206
  0
SEQEND
  0
ENDBLK
  0
BLOCK
  8
LAYER_1
  2
AIGNBL01030027
 70
64
 10
0
 20
0
 30
0
  3
AIGNBL01030027
  0
POLYLINE
  8
LAYER_1
 40
0.05
 41
0.05
 66
1
 10
0
 20
0
 30
0
 70
1
  0
VERTEX
  8
LAYER_1
 10
174.8891
 20
51.0446
  0
VERTEX
  8
LAYER_1
 10
175.1712
 20
51.4618
  0
VERTEX
  8
LAYER_1
 10
175.2963
 20
51.4618
  0
VERTEX
  8
LAYER_1
 10
174.9538
 20
50.9702
  0
VERTEX
  8
LAYER_1
 10
175.3332
 20
50.4286
  0
VERTEX
  8
LAYER_1
 10
175.2019
 20
50.4286
  0
VERTEX
  8
LAYER_1
 10
174.8863
 20
50.8944
  0
VERTEX
  8
LAYER_1
 10
174.5728
 20
50.4286
  0
VERTEX
  8
LAYER_1
 10
174.4412
 20
50.4286
  0
VERTEX
  8
LAYER_1
 10
174.8209
 20
50.9715
  0
VERTEX
  8
LAYER_1
 10
174.475
 20
51.4618
  0
VERTEX
  8
LAYER_1
 10
174.6066
 20
51.4618
  0
SEQEND
  0
ENDBLK
  0
BLOCK
  8
LAYER_1
  2
AIGNBL01030028
 70
64
 10
0
 20
0
 30
0
  3
AIGNBL01030028
  0
POLYLINE
  8
LAYER_1
 40
0.05
 41
0.05
 66
1
 10
0
 20
0
 30
0
 70
1
  0
VERTEX
  8
LAYER_1
 10
175.6994
 20
51.4618
  0
VERTEX
  8
LAYER_1
 10
175.9915
 20
51.4618
  0
VERTEX
  8
LAYER_1
 10
176.1345
 20
51.4453
  0
VERTEX
  8
LAYER_1
 10
176.2444
 20
51.3939
  0
VERTEX
  8
LAYER_1
 10
176.3154
 20
51.3078
  0
VERTEX
  8
LAYER_1
 10
176.3398
 20
51.1862
  0
VERTEX
  8
LAYER_1
 10
176.3147
 20
51.0642
  0
VERTEX
  8
LAYER_1
 10
176.243
 20
50.9781
  0
VERTEX
  8
LAYER_1
 10
176.1321
 20
50.9264
  0
VERTEX
  8
LAYER_1
 10
175.9884
 20
50.9089
  0
VERTEX
  8
LAYER_1
 10
175.8044
 20
50.9089
  0
VERTEX
  8
LAYER_1
 10
175.8044
 20
50.4286
  0
VERTEX
  8
LAYER_1
 10
175.6994
 20
50.4286
  0
SEQEND
  0
POLYLINE
  8
LAYER_1
 40
0.05
 41
0.05
 66
1
 10
0
 20
0
 30
0
 70
1
  0
VERTEX
  8
LAYER_1
 10
175.8044
 20
50.9977
  0
VERTEX
  8
LAYER_1
 10
175.9822
 20
50.9977
 42
0.1829203509
  0
VERTEX
  8
LAYER_1
 10
176.1706
 20
51.0459
 42
0.2347011275
  0
VERTEX
  8
LAYER_1
 10
176.2351
 20
51.1862
 42
0.26486771
  0
VERTEX
  8
LAYER_1
 10
176.1686
 20
51.3271
 42
0.126412566
  0
VERTEX
  8
LAYER_1
 10
175.9822
 20
51.3715
  0
VERTEX
  8
LAYER_1
 10
175.8044
 20
51.3715
  0
SEQEND
  0
ENDBLK
  0
BLOCK
  8
LAYER_1
  2
AIGNBL01030029
 70
64
 10
0
 20
0
 30
0
  3
AIGNBL01030029
  0
POLYLINE
  8
LAYER_1
 40
0.05
 41
0.05
 66
1
 10
0
 20
0
 30
0
 70
1
  0
VERTEX
  8
LAYER_1
 10
176.8521
 20
50.5223
  0
VERTEX
  8
LAYER_1
 10
177.4054
 20
50.5223
  0
VERTEX
  8
LAYER_1
 10
177.4054
 20
50.4286
  0
VERTEX
  8
LAYER_1
 10
176.747
 20
50.4286
  0
VERTEX
  8
LAYER_1
 10
176.747
 20
51.4618
  0
VERTEX
  8
LAYER_1
 10
177.3878
 20
51.4618
  0
VERTEX
  8
LAYER_1
 10
177.3878
 20
51.3684
  0
VERTEX
  8
LAYER_1
 10
176.8521
 20
51.3684
  0
VERTEX
  8
LAYER_1
 10
176.8521
 20
51.0139
  0
VERTEX
  8
LAYER_1
 10
177.3527
 20
51.0139
  0
VERTEX
  8
LAYER_1
 10
177.3527
 20
50.9206
  0
VERTEX
  8
LAYER_1
 10
176.8521
 20
50.9206
  0
SEQEND
  0
ENDBLK
  0
BLOCK
  8
LAYER_1
  2
AIGNBL0103002A
 70
64
 10
0
 20
0
 30
0
  3
AIGNBL0103002A
  0
POLYLINE
  8
LAYER_1
 40
0.05
 41
0.05
 66
1
 10
0
 20
0
 30
0
 70
1
  0
VERTEX
  8
LAYER_1
 10
177.9173
 20
50.4286
  0
VERTEX
  8
LAYER_1
 10
177.8122
 20
50.4286
  0
VERTEX
  8
LAYER_1
 10
177.8122
 20
51.4618
  0
VERTEX
  8
LAYER_1
 10
178.1161
 20
51.4618
  0
VERTEX
  8
LAYER_1
 10
178.2567
 20
51.4473
  0
VERTEX
  8
LAYER_1
 10
178.3693
 20
51.3998
  0
VERTEX
  8
LAYER_1
 10
178.443
 20
51.3143
  0
VERTEX
  8
LAYER_1
 10
178.4689
 20
51.1862
  0
VERTEX
  8
LAYER_1
 10
178.4489
 20
51.0825
  0
VERTEX
  8
LAYER_1
 10
178.3934
 20
51.0015
  0
VERTEX
  8
LAYER_1
 10
178.3101
 20
50.9467
  0
VERTEX
  8
LAYER_1
 10
178.205
 20
50.9206
  0
VERTEX
  8
LAYER_1
 10
178.5071
 20
50.4286
  0
VERTEX
  8
LAYER_1
 10
178.3786
 20
50.4286
  0
VERTEX
  8
LAYER_1
 10
178.0927
 20
50.9116
  0
VERTEX
  8
LAYER_1
 10
177.9173
 20
50.9116
  0
SEQEND
  0
POLYLINE
  8
LAYER_1
 40
0.05
 41
0.05
 66
1
 10
0
 20
0
 30
0
 70
1
  0
VERTEX
  8
LAYER_1
 10
177.9173
 20
51.0022
  0
VERTEX
  8
LAYER_1
 10
178.0999
 20
51.0022
 42
0.1667734107
  0
VERTEX
  8
LAYER_1
 10
178.2956
 20
51.048
 42
0.2503091692
  0
VERTEX
  8
LAYER_1
 10
178.3641
 20
51.1862
  0
VERTEX
  8
LAYER_1
 10
178.3452
 20
51.272
  0
VERTEX
  8
LAYER_1
 10
178.2925
 20
51.3292
  0
VERTEX
  8
LAYER_1
 10
178.2108
 20
51.3612
  0
VERTEX
  8
LAYER_1
 10
178.1044
 20
51.3715
  0
VERTEX
  8
LAYER_1
 10
177.9173
 20
51.3715
  0
SEQEND
  0
ENDBLK
  0
BLOCK
  8
LAYER_1
  2
AIGNBL0103002B
 70
64
 10
0
 20
0
 30
0
  3
AIGNBL0103002B
  0
POLYLINE
  8
LAYER_1
 40
0.05
 41
0.05
 66
1
 10
0
 20
0
 30
0
 70
1
  0
VERTEX
  8
LAYER_1
 10
178.9929
 20
50.4286
  0
VERTEX
  8
LAYER_1
 10
178.8882
 20
50.4286
  0
VERTEX
  8
LAYER_1
 10
178.8882
 20
51.4618
  0
VERTEX
  8
LAYER_1
 10
178.9929
 20
51.4618
  0
SEQEND
  0
ENDBLK
  0
BLOCK
  8
LAYER_1
  2
AIGNBL0103002C
 70
64
 10
0
 20
0
 30
0
  3
AIGNBL0103002C
  0
POLYLINE
  8
LAYER_1
 40
0.05
 41
0.05
 66
1
 10
0
 20
0
 30
0
 70
1
  0
VERTEX
  8
LAYER_1
 10
179.5737
 20
50.5223
  0
VERTEX
  8
LAYER_1
 10
180.1267
 20
50.5223
  0
VERTEX
  8
LAYER_1
 10
180.1267
 20
50.4286
  0
VERTEX
  8
LAYER_1
 10
179.4687
 20
50.4286
  0
VERTEX
  8
LAYER_1
 10
179.4687
 20
51.4618
  0
VERTEX
  8
LAYER_1
 10
180.1094
 20
51.4618
  0
VERTEX
  8
LAYER_1
 10
180.1094
 20
51.3684
  0
VERTEX
  8
LAYER_1
 10
179.5737
 20
51.3684
  0
VERTEX
  8
LAYER_1
 10
179.5737
 20
51.0139
  0
VERTEX
  8
LAYER_1
 10
180.0743
 20
51.0139
  0
VERTEX
  8
LAYER_1
 10
180.0743
 20
50.9206
  0
VERTEX
  8
LAYER_1
 10
179.5737
 20
50.9206
  0
SEQEND
  0
ENDBLK
  0
BLOCK
  8
LAYER_1
  2
AIGNBL0103002D
 70
64
 10
0
 20
0
 30
0
  3
AIGNBL0103002D
  0
POLYLINE
  8
LAYER_1
 40
0.05
 41
0.05
 66
1
 10
0
 20
0
 30
0
 70
1
  0
VERTEX
  8
LAYER_1
 10
181.2666
 20
50.5819
  0
VERTEX
  8
LAYER_1
 10
181.2694
 20
50.5819
  0
VERTEX
  8
LAYER_1
 10
181.2694
 20
51.4618
  0
VERTEX
  8
LAYER_1
 10
181.3745
 20
51.4618
  0
VERTEX
  8
LAYER_1
 10
181.3745
 20
50.4286
  0
VERTEX
  8
LAYER_1
 10
181.2432
 20
50.4286
  0
VERTEX
  8
LAYER_1
 10
180.642
 20
51.3174
  0
VERTEX
  8
LAYER_1
 10
180.6389
 20
51.3174
  0
VERTEX
  8
LAYER_1
 10
180.6389
 20
50.4286
  0
VERTEX
  8
LAYER_1
 10
180.5339
 20
50.4286
  0
VERTEX
  8
LAYER_1
 10
180.5339
 20
51.4618
  0
VERTEX
  8
LAYER_1
 10
180.6655
 20
51.4618
  0
SEQEND
  0
ENDBLK
  0
BLOCK
  8
LAYER_1
  2
AIGNBL0103002E
 70
64
 10
0
 20
0
 30
0
  3
AIGNBL0103002E
  0
POLYLINE
  8
LAYER_1
 40
0.05
 41
0.05
 66
1
 10
0
 20
0
 30
0
 70
1
  0
VERTEX
  8
LAYER_1
 10
182.7201
 20
50.5964
  0
VERTEX
  8
LAYER_1
 10
182.6564
 20
50.522
  0
VERTEX
  8
LAYER_1
 10
182.5703
 20
50.4603
  0
VERTEX
  8
LAYER_1
 10
182.4621
 20
50.4179
  0
VERTEX
  8
LAYER_1
 10
182.3333
 20
50.4024
 42
-0.100982896
  0
VERTEX
  8
LAYER_1
 10
182.1172
 20
50.4434
 42
-0.1036559164
  0
VERTEX
  8
LAYER_1
 10
181.9467
 20
50.5564
 42
-0.09812017057
  0
VERTEX
  8
LAYER_1
 10
181.8351
 20
50.728
 42
-0.09232404316
  0
VERTEX
  8
LAYER_1
 10
181.7948
 20
50.9454
 42
-0.1039024847
  0
VERTEX
  8
LAYER_1
 10
181.8358
 20
51.1628
 42
-0.1006255151
  0
VERTEX
  8
LAYER_1
 10
181.9484
 20
51.3343
 42
-0.09509197705
  0
VERTEX
  8
LAYER_1
 10
182.1193
 20
51.4473
 42
-0.0950295922
  0
VERTEX
  8
LAYER_1
 10
182.3333
 20
51.4883
  0
VERTEX
  8
LAYER_1
 10
182.4449
 20
51.4763
  0
VERTEX
  8
LAYER_1
 10
182.5479
 20
51.4428
  0
VERTEX
  8
LAYER_1
 10
182.6354
 20
51.3912
  0
VERTEX
  8
LAYER_1
 10
182.7012
 20
51.3233
  0
VERTEX
  8
LAYER_1
 10
182.6137
 20
51.2589
  0
VERTEX
  8
LAYER_1
 10
182.5703
 20
51.3088
  0
VERTEX
  8
LAYER_1
 10
182.5069
 20
51.3526
  0
VERTEX
  8
LAYER_1
 10
182.4273
 20
51.3832
  0
VERTEX
  8
LAYER_1
 10
182.3346
 20
51.395
  0
VERTEX
  8
LAYER_1
 10
182.1544
 20
51.3584
  0
VERTEX
  8
LAYER_1
 10
182.0194
 20
51.2603
  0
VERTEX
  8
LAYER_1
 10
181.9346
 20
51.1169
  0
VERTEX
  8
LAYER_1
 10
181.9057
 20
50.9454
  0
VERTEX
  8
LAYER_1
 10
181.9357
 20
50.7738
  0
VERTEX
  8
LAYER_1
 10
182.0211
 20
50.6305
  0
VERTEX
  8
LAYER_1
 10
182.1562
 20
50.5323
 42
0.1010490553
  0
VERTEX
  8
LAYER_1
 10
182.3346
 20
50.4958
  0
VERTEX
  8
LAYER_1
 10
182.5038
 20
50.5323
 42
0.1324826472
  0
VERTEX
  8
LAYER_1
 10
182.6381
 20
50.6491
  0
SEQEND
  0
ENDBLK
  0
BLOCK
  8
LAYER_1
  2
AIGNBL0103002F
 70
64
 10
0
 20
0
 30
0
  3
AIGNBL0103002F
  0
POLYLINE
  8
LAYER_1
 40
0.05
 41
0.05
 66
1
 10
0
 20
0
 30
0
 70
1
  0
VERTEX
  8
LAYER_1
 10
183.2073
 20
50.5223
  0
VERTEX
  8
LAYER_1
 10
183.7606
 20
50.5223
  0
VERTEX
  8
LAYER_1
 10
183.7606
 20
50.4286
  0
VERTEX
  8
LAYER_1
 10
183.1022
 20
50.4286
  0
VERTEX
  8
LAYER_1
 10
183.1022
 20
51.4618
  0
VERTEX
  8
LAYER_1
 10
183.743
 20
51.4618
  0
VERTEX
  8
LAYER_1
 10
183.743
 20
51.3684
  0
VERTEX
  8
LAYER_1
 10
183.2073
 20
51.3684
  0
VERTEX
  8
LAYER_1
 10
183.2073
 20
51.0139
  0
VERTEX
  8
LAYER_1
 10
183.7078
 20
51.0139
  0
VERTEX
  8
LAYER_1
 10
183.7078
 20
50.9206
  0
VERTEX
  8
LAYER_1
 10
183.2073
 20
50.9206
  0
SEQEND
  0
ENDBLK
  0
BLOCK
  8
LAYER_1
  2
AIGNBL01020003
 70
64
 10
0
 20
0
 30
0
  3
AIGNBL01020003
  0
POLYLINE
  8
LAYER_1
 40
0.05
 41
0.05
 66
1
 10
0
 20
0
 30
0
 70
1
  0
VERTEX
  8
LAYER_1
 10
99.3451
 20
195.4939
  0
VERTEX
  8
LAYER_1
 10
98.8424
 20
195.4939
  0
VERTEX
  8
LAYER_1
 10
98.8424
 20
195.1235
  0
VERTEX
  8
LAYER_1
 10
99.3451
 20
195.1235
  0
SEQEND
  0
ENDBLK
  0
BLOCK
  8
LAYER_1
  2
AIGNBL01020004
 70
64
 10
0
 20
0
 30
0
  3
AIGNBL01020004
  0
POLYLINE
  8
LAYER_1
 40
0.0847
 41
0.0847
 66
1
 10
0
 20
0
 30
0
 70
1
  0
VERTEX
  8
LAYER_1
 10
99.3451
 20
195.4939
  0
VERTEX
  8
LAYER_1
 10
98.8424
 20
195.4939
  0
VERTEX
  8
LAYER_1
 10
98.8424
 20
195.1235
  0
VERTEX
  8
LAYER_1
 10
99.3451
 20
195.1235
  0
SEQEND
  0
ENDBLK
  0
BLOCK
  8
LAYER_1
  2
AIGNBL01020005
 70
64
 10
0
 20
0
 30
0
  3
AIGNBL01020005
  0
POLYLINE
  8
LAYER_1
 40
0.05
 41
0.05
 66
1
 10
0
 20
0
 30
0
 70
1
  0
VERTEX
  8
LAYER_1
 10
95.9055
 20
193.3772
  0
VERTEX
  8
LAYER_1
 10
95.4028
 20
193.3772
  0
VERTEX
  8
LAYER_1
 10
95.4028
 20
193.0068
  0
VERTEX
  8
LAYER_1
 10
95.9055
 20
193.0068
  0
SEQEND
  0
ENDBLK
  0
BLOCK
  8
LAYER_1
  2
AIGNBL01020006
 70
64
 10
0
 20
0
 30
0
  3
AIGNBL01020006
  0
POLYLINE
  8
LAYER_1
 40
0.0847
 41
0.0847
 66
1
 10
0
 20
0
 30
0
 70
1
  0
VERTEX
  8
LAYER_1
 10
95.9055
 20
193.3772
  0
VERTEX
  8
LAYER_1
 10
95.4028
 20
193.3772
  0
VERTEX
  8
LAYER_1
 10
95.4028
 20
193.0068
  0
VERTEX
  8
LAYER_1
 10
95.9055
 20
193.0068
  0
SEQEND
  0
ENDBLK
  0
BLOCK
  8
LAYER_1
  2
AIGNBL01020007
 70
64
 10
0
 20
0
 30
0
  3
AIGNBL01020007
  0
POLYLINE
  8
LAYER_1
 40
0.05
 41
0.05
 66
1
 10
0
 20
0
 30
0
 70
1
  0
VERTEX
  8
LAYER_1
 10
112.1774
 20
195.4939
  0
VERTEX
  8
LAYER_1
 10
111.6747
 20
195.4939
  0
VERTEX
  8
LAYER_1
 10
111.6747
 20
195.1235
  0
VERTEX
  8
LAYER_1
 10
112.1774
 20
195.1235
  0
SEQEND
  0
ENDBLK
  0
BLOCK
  8
LAYER_1
  2
AIGNBL01020008
 70
64
 10
0
 20
0
 30
0
  3
AIGNBL01020008
  0
POLYLINE
  8
LAYER_1
 40
0.0847
 41
0.0847
 66
1
 10
0
 20
0
 30
0
 70
1
  0
VERTEX
  8
LAYER_1
 10
112.1774
 20
195.4939
  0
VERTEX
  8
LAYER_1
 10
111.6747
 20
195.4939
  0
VERTEX
  8
LAYER_1
 10
111.6747
 20
195.1235
  0
VERTEX
  8
LAYER_1
 10
112.1774
 20
195.1235
  0
SEQEND
  0
ENDBLK
  0
BLOCK
  8
LAYER_1
  2
AIGNBL01020009
 70
64
 10
0
 20
0
 30
0
  3
AIGNBL01020009
  0
POLYLINE
  8
LAYER_1
 40
0.05
 41
0.05
 66
1
 10
0
 20
0
 30
0
 70
1
  0
VERTEX
  8
LAYER_1
 10
115.617
 20
193.3772
  0
VERTEX
  8
LAYER_1
 10
115.1143
 20
193.3772
  0
VERTEX
  8
LAYER_1
 10
115.1143
 20
193.0068
  0
VERTEX
  8
LAYER_1
 10
115.617
 20
193.0068
  0
SEQEND
  0
ENDBLK
  0
BLOCK
  8
LAYER_1
  2
AIGNBL0102000A
 70
64
 10
0
 20
0
 30
0
  3
AIGNBL0102000A
  0
POLYLINE
  8
LAYER_1
 40
0.0847
 41
0.0847
 66
1
 10
0
 20
0
 30
0
 70
1
  0
VERTEX
  8
LAYER_1
 10
115.617
 20
193.3772
  0
VERTEX
  8
LAYER_1
 10
115.1143
 20
193.3772
  0
VERTEX
  8
LAYER_1
 10
115.1143
 20
193.0068
  0
VERTEX
  8
LAYER_1
 10
115.617
 20
193.0068
  0
SEQEND
  0
ENDBLK
  0
BLOCK
  8
LAYER_1
  2
AIGNBL0102000B
 70
64
 10
0
 20
0
 30
0
  3
AIGNBL0102000B
  0
POLYLINE
  8
LAYER_1
 40
0.05
 41
0.05
 66
1
 10
0
 20
0
 30
0
 70
1
  0
VERTEX
  8
LAYER_1
 10
111.7541
 20
192.3189
  0
VERTEX
  8
LAYER_1
 10
99.2658
 20
192.3189
  0
VERTEX
  8
LAYER_1
 10
99.2658
 20
192.2131
  0
VERTEX
  8
LAYER_1
 10
111.7541
 20
192.2131
  0
SEQEND
  0
ENDBLK
  0
BLOCK
  8
LAYER_1
  2
AIGNBL0102000C
 70
64
 10
0
 20
0
 30
0
  3
AIGNBL0102000C
  0
POLYLINE
  8
LAYER_1
 40
0.0847
 41
0.0847
 66
1
 10
0
 20
0
 30
0
 70
1
  0
VERTEX
  8
LAYER_1
 10
111.7541
 20
192.3189
  0
VERTEX
  8
LAYER_1
 10
99.2658
 20
192.3189
  0
VERTEX
  8
LAYER_1
 10
99.2658
 20
192.2131
  0
VERTEX
  8
LAYER_1
 10
111.7541
 20
192.2131
  0
SEQEND
  0
ENDBLK
  0
BLOCK
  8
LAYER_1
  2
AIGNBL0102000F
 70
64
 10
0
 20
0
 30
0
  3
AIGNBL0102000F
  0
INSERT
  8
LAYER_1
  2
AIGNBL01030010
 10
0
 20
0
 30
0
  0
ENDBLK
  0
BLOCK
  8
LAYER_1
  2
AIGNBL01020018
 70
64
 10
0
 20
0
 30
0
  3
AIGNBL01020018
  0
INSERT
  8
LAYER_1
  2
AIGNBL01030019
 10
0
 20
0
 30
0
  0
INSERT
  8
LAYER_1
  2
AIGNBL0103001A
 10
0
 20
0
 30
0
  0
INSERT
  8
LAYER_1
  2
AIGNBL0103001B
 10
0
 20
0
 30
0
  0
INSERT
  8
LAYER_1
  2
AIGNBL0103001C
 10
0
 20
0
 30
0
  0
INSERT
  8
LAYER_1
  2
AIGNBL0103001D
 10
0
 20
0
 30
0
  0
INSERT
  8
LAYER_1
  2
AIGNBL0103001E
 10
0
 20
0
 30
0
  0
INSERT
  8
LAYER_1
  2
AIGNBL0103001F
 10
0
 20
0
 30
0
  0
INSERT
  8
LAYER_1
  2
AIGNBL01030020
 10
0
 20
0
 30
0
  0
INSERT
  8
LAYER_1
  2
AIGNBL01030021
 10
0
 20
0
 30
0
  0
INSERT
  8
LAYER_1
  2
AIGNBL01030022
 10
0
 20
0
 30
0
  0
INSERT
  8
LAYER_1
  2
AIGNBL01030023
 10
0
 20
0
 30
0
  0
INSERT
  8
LAYER_1
  2
AIGNBL01030024
 10
0
 20
0
 30
0
  0
INSERT
  8
LAYER_1
  2
AIGNBL01030025
 10
0
 20
0
 30
0
  0
INSERT
  8
LAYER_1
  2
AIGNBL01030026
 10
0
 20
0
 30
0
  0
INSERT
  8
LAYER_1
  2
AIGNBL01030027
 10
0
 20
0
 30
0
  0
INSERT
  8
LAYER_1
  2
AIGNBL01030028
 10
0
 20
0
 30
0
  0
INSERT
  8
LAYER_1
  2
AIGNBL01030029
 10
0
 20
0
 30
0
  0
INSERT
  8
LAYER_1
  2
AIGNBL0103002A
 10
0
 20
0
 30
0
  0
INSERT
  8
LAYER_1
  2
AIGNBL0103002B
 10
0
 20
0
 30
0
  0
INSERT
  8
LAYER_1
  2
AIGNBL0103002C
 10
0
 20
0
 30
0
  0
INSERT
  8
LAYER_1
  2
AIGNBL0103002D
 10
0
 20
0
 30
0
  0
INSERT
  8
LAYER_1
  2
AIGNBL0103002E
 10
0
 20
0
 30
0
  0
INSERT
  8
LAYER_1
  2
AIGNBL0103002F
 10
0
 20
0
 30
0
  0
ENDBLK
  0
BLOCK
  8
LAYER_1
  2
AIGNBL01010002
 70
64
 10
0
 20
0
 30
0
  3
AIGNBL01010002
  0
INSERT
  8
LAYER_1
  2
AIGNBL01020003
 10
0
 20
0
 30
0
  0
INSERT
  8
LAYER_1
  2
AIGNBL01020004
 10
0
 20
0
 30
0
  0
INSERT
  8
LAYER_1
  2
AIGNBL01020005
 10
0
 20
0
 30
0
  0
INSERT
  8
LAYER_1
  2
AIGNBL01020006
 10
0
 20
0
 30
0
  0
INSERT
  8
LAYER_1
  2
AIGNBL01020007
 10
0
 20
0
 30
0
  0
INSERT
  8
LAYER_1
  2
AIGNBL01020008
 10
0
 20
0
 30
0
  0
INSERT
  8
LAYER_1
  2
AIGNBL01020009
 10
0
 20
0
 30
0
  0
INSERT
  8
LAYER_1
  2
AIGNBL0102000A
 10
0
 20
0
 30
0
  0
INSERT
  8
LAYER_1
  2
AIGNBL0102000B
 10
0
 20
0
 30
0
  0
INSERT
  8
LAYER_1
  2
AIGNBL0102000C
 10
0
 20
0
 30
0
  0
POLYLINE
  8
LAYER_1
 40
0.0847
 41
0.0847
 66
1
 10
0
 20
0
 30
0
  0
VERTEX
  8
LAYER_1
 10
107.6795
 20
157.8172
  0
VERTEX
  8
LAYER_1
 10
107.7589
 20
157.8172
  0
SEQEND
  0
POLYLINE
  8
LAYER_1
 40
0.0847
 41
0.0847
 66
1
 10
0
 20
0
 30
0
  0
VERTEX
  8
LAYER_1
 10
107.9176
 20
157.8701
  0
VERTEX
  8
LAYER_1
 10
107.997
 20
157.8966
  0
SEQEND
  0
POLYLINE
  8
LAYER_1
 40
0.0847
 41
0.0847
 66
1
 10
0
 20
0
 30
0
  0
VERTEX
  8
LAYER_1
 10
107.3091
 20
157.8172
  0
VERTEX
  8
LAYER_1
 10
107.3355
 20
157.8172
  0
SEQEND
  0
POLYLINE
  8
LAYER_1
 40
0.0847
 41
0.0847
 66
1
 10
0
 20
0
 30
0
  0
VERTEX
  8
LAYER_1
 10
107.4414
 20
157.8172
  0
VERTEX
  8
LAYER_1
 10
107.4943
 20
157.7907
  0
VERTEX
  8
LAYER_1
 10
107.5207
 20
157.7907
  0
SEQEND
  0
POLYLINE
  8
LAYER_1
 40
0.0847
 41
0.0847
 66
1
 10
0
 20
0
 30
0
  0
VERTEX
  8
LAYER_1
 10
107.6266
 20
157.7907
  0
VERTEX
  8
LAYER_1
 10
107.6795
 20
157.8172
  0
SEQEND
  0
POLYLINE
  8
LAYER_1
 40
0.0847
 41
0.0847
 66
1
 10
0
 20
0
 30
0
  0
VERTEX
  8
LAYER_1
 10
102.6789
 20
160.0132
  0
VERTEX
  8
LAYER_1
 10
102.7582
 20
160.0397
  0
SEQEND
  0
POLYLINE
  8
LAYER_1
 40
0.0847
 41
0.0847
 66
1
 10
0
 20
0
 30
0
  0
VERTEX
  8
LAYER_1
 10
102.917
 20
160.1191
  0
VERTEX
  8
LAYER_1
 10
103.0228
 20
160.172
  0
VERTEX
  8
LAYER_1
 10
103.1022
 20
160.1984
  0
SEQEND
  0
POLYLINE
  8
LAYER_1
 40
0.0847
 41
0.0847
 66
1
 10
0
 20
0
 30
0
  0
VERTEX
  8
LAYER_1
 10
103.261
 20
160.2513
  0
VERTEX
  8
LAYER_1
 10
103.3403
 20
160.2778
  0
VERTEX
  8
LAYER_1
 10
103.3668
 20
160.2778
  0
SEQEND
  0
POLYLINE
  8
LAYER_1
 40
0.0847
 41
0.0847
 66
1
 10
0
 20
0
 30
0
  0
VERTEX
  8
LAYER_1
 10
103.4726
 20
160.2778
  0
VERTEX
  8
LAYER_1
 10
103.5255
 20
160.3043
  0
VERTEX
  8
LAYER_1
 10
103.552
 20
160.3043
  0
SEQEND
  0
POLYLINE
  8
LAYER_1
 40
0.0847
 41
0.0847
 66
1
 10
0
 20
0
 30
0
  0
VERTEX
  8
LAYER_1
 10
103.6578
 20
160.3043
  0
VERTEX
  8
LAYER_1
 10
103.7108
 20
160.2778
  0
VERTEX
  8
LAYER_1
 10
103.7901
 20
160.2513
  0
SEQEND
  0
POLYLINE
  8
LAYER_1
 40
0.0847
 41
0.0847
 66
1
 10
0
 20
0
 30
0
  0
VERTEX
  8
LAYER_1
 10
103.9489
 20
160.1984
  0
VERTEX
  8
LAYER_1
 10
104.0283
 20
160.1719
  0
VERTEX
  8
LAYER_1
 10
104.1076
 20
160.1455
  0
SEQEND
  0
POLYLINE
  8
LAYER_1
 40
0.0847
 41
0.0847
 66
1
 10
0
 20
0
 30
0
  0
VERTEX
  8
LAYER_1
 10
104.2664
 20
160.0661
  0
VERTEX
  8
LAYER_1
 10
104.3722
 20
160.0132
  0
VERTEX
  8
LAYER_1
 10
104.4516
 20
159.9603
  0
SEQEND
  0
POLYLINE
  8
LAYER_1
 40
0.0847
 41
0.0847
 66
1
 10
0
 20
0
 30
0
  0
VERTEX
  8
LAYER_1
 10
104.6103
 20
159.8545
  0
VERTEX
  8
LAYER_1
 10
104.6897
 20
159.7751
  0
VERTEX
  8
LAYER_1
 10
104.7691
 20
159.7222
  0
SEQEND
  0
POLYLINE
  8
LAYER_1
 40
0.0847
 41
0.0847
 66
1
 10
0
 20
0
 30
0
  0
VERTEX
  8
LAYER_1
 10
104.9278
 20
159.5899
  0
VERTEX
  8
LAYER_1
 10
105.0072
 20
159.5105
  0
VERTEX
  8
LAYER_1
 10
105.0866
 20
159.4576
  0
SEQEND
  0
POLYLINE
  8
LAYER_1
 40
0.0847
 41
0.0847
 66
1
 10
0
 20
0
 30
0
  0
VERTEX
  8
LAYER_1
 10
105.2453
 20
159.2989
  0
VERTEX
  8
LAYER_1
 10
105.3247
 20
159.2195
  0
VERTEX
  8
LAYER_1
 10
105.4041
 20
159.1401
  0
SEQEND
  0
POLYLINE
  8
LAYER_1
 40
0.0847
 41
0.0847
 66
1
 10
0
 20
0
 30
0
  0
VERTEX
  8
LAYER_1
 10
105.5893
 20
158.9814
  0
VERTEX
  8
LAYER_1
 10
105.6951
 20
158.8755
  0
VERTEX
  8
LAYER_1
 10
105.7745
 20
158.8226
  0
SEQEND
  0
POLYLINE
  8
LAYER_1
 40
0.0847
 41
0.0847
 66
1
 10
0
 20
0
 30
0
  0
VERTEX
  8
LAYER_1
 10
105.9333
 20
158.6639
  0
VERTEX
  8
LAYER_1
 10
106.0126
 20
158.5845
  0
VERTEX
  8
LAYER_1
 10
106.092
 20
158.5316
  0
SEQEND
  0
POLYLINE
  8
LAYER_1
 40
0.0847
 41
0.0847
 66
1
 10
0
 20
0
 30
0
  0
VERTEX
  8
LAYER_1
 10
106.2508
 20
158.3993
  0
VERTEX
  8
LAYER_1
 10
106.3301
 20
158.3199
  0
VERTEX
  8
LAYER_1
 10
106.4095
 20
158.267
  0
SEQEND
  0
POLYLINE
  8
LAYER_1
 40
0.0847
 41
0.0847
 66
1
 10
0
 20
0
 30
0
  0
VERTEX
  8
LAYER_1
 10
106.5683
 20
158.1612
  0
VERTEX
  8
LAYER_1
 10
106.6476
 20
158.0818
  0
VERTEX
  8
LAYER_1
 10
106.727
 20
158.0554
  0
SEQEND
  0
POLYLINE
  8
LAYER_1
 40
0.0847
 41
0.0847
 66
1
 10
0
 20
0
 30
0
  0
VERTEX
  8
LAYER_1
 10
106.8858
 20
157.9496
  0
VERTEX
  8
LAYER_1
 10
106.9916
 20
157.8966
  0
VERTEX
  8
LAYER_1
 10
107.071
 20
157.8966
  0
SEQEND
  0
POLYLINE
  8
LAYER_1
 40
0.0847
 41
0.0847
 66
1
 10
0
 20
0
 30
0
  0
VERTEX
  8
LAYER_1
 10
107.2297
 20
157.8437
  0
VERTEX
  8
LAYER_1
 10
107.3091
 20
157.8172
  0
SEQEND
  0
POLYLINE
  8
LAYER_1
 40
0.0847
 41
0.0847
 66
1
 10
0
 20
0
 30
0
  0
VERTEX
  8
LAYER_1
 10
102.3878
 20
159.8017
  0
VERTEX
  8
LAYER_1
 10
102.4408
 20
159.8546
  0
SEQEND
  0
POLYLINE
  8
LAYER_1
 40
0.0847
 41
0.0847
 66
1
 10
0
 20
0
 30
0
  0
VERTEX
  8
LAYER_1
 10
102.5995
 20
159.9604
  0
VERTEX
  8
LAYER_1
 10
102.6789
 20
160.0133
  0
SEQEND
  0
POLYLINE
  8
LAYER_1
 40
0.0847
 41
0.0847
 66
1
 10
0
 20
0
 30
0
  0
VERTEX
  8
LAYER_1
 10
107.997
 20
157.8966
  0
VERTEX
  8
LAYER_1
 10
108.0764
 20
157.9231
  0
SEQEND
  0
POLYLINE
  8
LAYER_1
 40
0.0847
 41
0.0847
 66
1
 10
0
 20
0
 30
0
  0
VERTEX
  8
LAYER_1
 10
108.2351
 20
158.0289
  0
VERTEX
  8
LAYER_1
 10
108.341
 20
158.0818
  0
VERTEX
  8
LAYER_1
 10
108.3939
 20
158.1348
  0
SEQEND
  0
POLYLINE
  8
LAYER_1
 40
0.0847
 41
0.0847
 66
1
 10
0
 20
0
 30
0
  0
VERTEX
  8
LAYER_1
 10
108.5526
 20
158.2406
  0
VERTEX
  8
LAYER_1
 10
108.632
 20
158.2935
  0
SEQEND
  0
POLYLINE
  8
LAYER_1
 40
0.0847
 41
0.0847
 66
1
 10
0
 20
0
 30
0
  0
VERTEX
  8
LAYER_1
 10
199.6222
 20
193.0069
  0
VERTEX
  8
LAYER_1
 10
206.3955
 20
193.0069
  0
SEQEND
  0
POLYLINE
  8
LAYER_1
 40
0.0847
 41
0.0847
 66
1
 10
0
 20
0
 30
0
  0
VERTEX
  8
LAYER_1
 10
107.0181
 20
201.6852
  0
VERTEX
  8
LAYER_1
 10
127.2587
 20
225.3918
  0
SEQEND
  0
TEXT
  8
LAYER_1
 10
128.1052
 20
225.7097
 11
128.1052
 21
225.7097
 40
3.2224
 41
0.5
  1
ë╗Å¤âLâââbâvâëâEâôâh
  0
TEXT
  8
LAYER_1
 10
157.8181
 20
205.866
 11
157.8181
 21
205.866
 40
3.2224
 41
0.5
  1
âXâ|âôâWâpâbâLâô
  0
POLYLINE
  8
LAYER_1
 40
0.0847
 41
0.0847
 66
1
 10
0
 20
0
 30
0
  0
VERTEX
  8
LAYER_1
 10
117.231
 20
193.483
  0
VERTEX
  8
LAYER_1
 10
158.4001
 20
202.4259
  0
SEQEND
  0
TEXT
  8
LAYER_1
 10
158.268
 20
201.4735
 11
158.268
 21
201.4735
 40
3.2224
 41
0.5
  1
â}âEâôâeâBâôâOâfâBâXâN
  0
POLYLINE
  8
LAYER_1
 40
0.0847
 41
0.0847
 66
1
 10
0
 20
0
 30
0
  0
VERTEX
  8
LAYER_1
 10
105.5099
 20
149.5622
  0
VERTEX
  8
LAYER_1
 10
105.5099
 20
152.4197
  0
SEQEND
  0
POLYLINE
  8
LAYER_1
 40
0.0847
 41
0.0847
 66
1
 10
0
 20
0
 30
0
  0
VERTEX
  8
LAYER_1
 10
105.5099
 20
153.5839
  0
VERTEX
  8
LAYER_1
 10
105.5099
 20
154.7216
  0
SEQEND
  0
POLYLINE
  8
LAYER_1
 40
0.0847
 41
0.0847
 66
1
 10
0
 20
0
 30
0
  0
VERTEX
  8
LAYER_1
 10
105.5099
 20
155.8857
  0
VERTEX
  8
LAYER_1
 10
105.5099
 20
161.6536
  0
SEQEND
  0
POLYLINE
  8
LAYER_1
 40
0.0847
 41
0.0847
 66
1
 10
0
 20
0
 30
0
  0
VERTEX
  8
LAYER_1
 10
105.5099
 20
162.7913
  0
VERTEX
  8
LAYER_1
 10
105.5099
 20
163.9555
  0
SEQEND
  0
POLYLINE
  8
LAYER_1
 40
0.0847
 41
0.0847
 66
1
 10
0
 20
0
 30
0
  0
VERTEX
  8
LAYER_1
 10
105.5099
 20
165.0932
  0
VERTEX
  8
LAYER_1
 10
105.5099
 20
170.8611
  0
SEQEND
  0
POLYLINE
  8
LAYER_1
 40
0.0847
 41
0.0847
 66
1
 10
0
 20
0
 30
0
  0
VERTEX
  8
LAYER_1
 10
105.5099
 20
171.9988
  0
VERTEX
  8
LAYER_1
 10
105.5099
 20
173.163
  0
SEQEND
  0
POLYLINE
  8
LAYER_1
 40
0.0847
 41
0.0847
 66
1
 10
0
 20
0
 30
0
  0
VERTEX
  8
LAYER_1
 10
105.5099
 20
174.3007
  0
VERTEX
  8
LAYER_1
 10
105.5099
 20
180.0686
  0
SEQEND
  0
POLYLINE
  8
LAYER_1
 40
0.0847
 41
0.0847
 66
1
 10
0
 20
0
 30
0
  0
VERTEX
  8
LAYER_1
 10
105.5099
 20
181.2328
  0
VERTEX
  8
LAYER_1
 10
105.5099
 20
182.3704
  0
SEQEND
  0
POLYLINE
  8
LAYER_1
 40
0.0847
 41
0.0847
 66
1
 10
0
 20
0
 30
0
  0
VERTEX
  8
LAYER_1
 10
105.5099
 20
183.5346
  0
VERTEX
  8
LAYER_1
 10
105.5099
 20
189.2761
  0
SEQEND
  0
POLYLINE
  8
LAYER_1
 40
0.0847
 41
0.0847
 66
1
 10
0
 20
0
 30
0
  0
VERTEX
  8
LAYER_1
 10
105.5099
 20
190.4402
  0
VERTEX
  8
LAYER_1
 10
105.5099
 20
191.5779
  0
SEQEND
  0
POLYLINE
  8
LAYER_1
 40
0.0847
 41
0.0847
 66
1
 10
0
 20
0
 30
0
  0
VERTEX
  8
LAYER_1
 10
105.5099
 20
192.7421
  0
VERTEX
  8
LAYER_1
 10
105.5099
 20
198.4835
  0
SEQEND
  0
POLYLINE
  8
LAYER_1
 40
0.0847
 41
0.0847
 66
1
 10
0
 20
0
 30
0
  0
VERTEX
  8
LAYER_1
 10
105.5099
 20
199.6477
  0
VERTEX
  8
LAYER_1
 10
105.5099
 20
200.7854
  0
SEQEND
  0
POLYLINE
  8
LAYER_1
 40
0.0847
 41
0.0847
 66
1
 10
0
 20
0
 30
0
  0
VERTEX
  8
LAYER_1
 10
105.5099
 20
201.9496
  0
VERTEX
  8
LAYER_1
 10
105.5099
 20
207.7175
  0
SEQEND
  0
POLYLINE
  8
LAYER_1
 40
0.0847
 41
0.0847
 66
1
 10
0
 20
0
 30
0
  0
VERTEX
  8
LAYER_1
 10
105.5099
 20
208.8552
  0
VERTEX
  8
LAYER_1
 10
105.5099
 20
210.0193
  0
SEQEND
  0
POLYLINE
  8
LAYER_1
 40
0.0847
 41
0.0847
 66
1
 10
0
 20
0
 30
0
  0
VERTEX
  8
LAYER_1
 10
105.5099
 20
211.157
  0
VERTEX
  8
LAYER_1
 10
105.5099
 20
216.9249
  0
SEQEND
  0
POLYLINE
  8
LAYER_1
 40
0.0847
 41
0.0847
 66
1
 10
0
 20
0
 30
0
  0
VERTEX
  8
LAYER_1
 10
105.5099
 20
218.0627
  0
VERTEX
  8
LAYER_1
 10
105.5099
 20
219.2268
  0
SEQEND
  0
POLYLINE
  8
LAYER_1
 40
0.0847
 41
0.0847
 66
1
 10
0
 20
0
 30
0
  0
VERTEX
  8
LAYER_1
 10
105.5099
 20
220.3645
  0
VERTEX
  8
LAYER_1
 10
105.5099
 20
226.1324
  0
SEQEND
  0
POLYLINE
  8
LAYER_1
 40
0.0847
 41
0.0847
 66
1
 10
0
 20
0
 30
0
  0
VERTEX
  8
LAYER_1
 10
105.5099
 20
227.2966
  0
VERTEX
  8
LAYER_1
 10
105.5099
 20
228.4343
  0
SEQEND
  0
POLYLINE
  8
LAYER_1
 40
0.0847
 41
0.0847
 66
1
 10
0
 20
0
 30
0
  0
VERTEX
  8
LAYER_1
 10
105.5099
 20
229.5985
  0
VERTEX
  8
LAYER_1
 10
105.5099
 20
232.4824
  0
SEQEND
  0
POLYLINE
  8
LAYER_1
 40
0.0847
 41
0.0847
 66
1
 10
0
 20
0
 30
0
  0
VERTEX
  8
LAYER_1
 10
95.8791
 20
193.2449
  0
VERTEX
  8
LAYER_1
 10
47.8043
 20
170.623
  0
SEQEND
  0
TEXT
  8
LAYER_1
 10
25.9498
 20
169.4593
 11
25.9498
 21
169.4593
 40
3.2224
 41
0.5
  1
äOâèâôâOüiìòüj
  0
TEXT
  8
LAYER_1
 10
158.6649
 20
164.1941
 11
158.6649
 21
164.1941
 40
3.2224
 41
0.5
  1
äOâèâôâOüiô¹öÆüj
  0
POLYLINE
  8
LAYER_1
 40
0.0847
 41
0.0847
 66
1
 10
0
 20
0
 30
0
  0
VERTEX
  8
LAYER_1
 10
111.8864
 20
195.2822
  0
VERTEX
  8
LAYER_1
 10
157.9503
 20
166.3632
  0
SEQEND
  0
TEXT
  8
LAYER_1
 10
163.5597
 20
156.5739
 11
163.5597
 21
156.5739
 40
3.2224
 41
0.5
  1
ÄOèpâpâbâLâô
  0
POLYLINE
  8
LAYER_1
 40
0.0847
 41
0.0847
 66
1
 10
0
 20
0
 30
0
  0
VERTEX
  8
LAYER_1
 10
107.362
 20
193.2185
  0
VERTEX
  8
LAYER_1
 10
162.951
 20
158.0553
  0
SEQEND
  0
TEXT
  8
LAYER_1
 10
151.7065
 20
151.1499
 11
151.7065
 21
151.1499
 40
3.2224
 41
0.5
  1
âXâèâbâvâpâbâLâô
  0
POLYLINE
  8
LAYER_1
 40
0.0847
 41
0.0847
 66
1
 10
0
 20
0
 30
0
  0
VERTEX
  8
LAYER_1
 10
105.9068
 20
192.2924
  0
VERTEX
  8
LAYER_1
 10
151.0182
 20
152.4726
  0
SEQEND
  0
POLYLINE
  8
LAYER_1
 40
0.0847
 41
0.0847
 66
1
 10
0
 20
0
 30
0
  0
VERTEX
  8
LAYER_1
 10
106.5418
 20
161.1245
  0
VERTEX
  8
LAYER_1
 10
148.1343
 20
145.9639
  0
SEQEND
  0
TEXT
  8
LAYER_1
 10
149.2987
 20
174.3537
 11
149.2987
 21
174.3537
 40
5.3169
 41
0.5
  1
ôVö┬èJî¹Éíû@üF53055
  0
POLYLINE
  8
LAYER_1
 40
0.0847
 41
0.0847
 66
1
 10
0
 20
0
 30
0
  0
VERTEX
  8
LAYER_1
 10
206.3955
 20
179.2749
  0
VERTEX
  8
LAYER_1
 10
206.3955
 20
193.0068
  0
SEQEND
  0
POLYLINE
  8
LAYER_1
 40
0.0847
 41
0.0847
 66
1
 10
0
 20
0
 30
0
  0
VERTEX
  8
LAYER_1
 10
199.6222
 20
179.2749
  0
VERTEX
  8
LAYER_1
 10
206.3955
 20
179.2749
  0
SEQEND
  0
POLYLINE
  8
LAYER_1
 40
0.0847
 41
0.0847
 66
1
 10
0
 20
0
 30
0
  0
VERTEX
  8
LAYER_1
 10
70.876
 20
150.0649
  0
VERTEX
  8
LAYER_1
 10
96.8051
 20
178.6664
  0
SEQEND
  0
POLYLINE
  8
LAYER_1
 40
0.0847
 41
0.0847
 66
1
 10
0
 20
0
 30
0
  0
VERTEX
  8
LAYER_1
 10
102.3878
 20
159.8016
  0
VERTEX
  8
LAYER_1
 10
102.3878
 20
160.9128
  0
SEQEND
  0
POLYLINE
  8
LAYER_1
 40
0.0847
 41
0.0847
 66
1
 10
0
 20
0
 30
0
  0
VERTEX
  8
LAYER_1
 10
102.3878
 20
163.1618
  0
VERTEX
  8
LAYER_1
 10
102.3878
 20
165.4372
  0
SEQEND
  0
POLYLINE
  8
LAYER_1
 40
0.0847
 41
0.0847
 66
1
 10
0
 20
0
 30
0
  0
VERTEX
  8
LAYER_1
 10
102.3878
 20
167.6862
  0
VERTEX
  8
LAYER_1
 10
102.3878
 20
169.9351
  0
SEQEND
  0
POLYLINE
  8
LAYER_1
 40
0.0847
 41
0.0847
 66
1
 10
0
 20
0
 30
0
  0
VERTEX
  8
LAYER_1
 10
102.3878
 20
172.2106
  0
VERTEX
  8
LAYER_1
 10
102.3878
 20
173.3483
  0
SEQEND
  0
POLYLINE
  8
LAYER_1
 40
0.0847
 41
0.0847
 66
1
 10
0
 20
0
 30
0
  0
VERTEX
  8
LAYER_1
 10
108.632
 20
158.2935
  0
VERTEX
  8
LAYER_1
 10
108.632
 20
159.537
  0
SEQEND
  0
POLYLINE
  8
LAYER_1
 40
0.0847
 41
0.0847
 66
1
 10
0
 20
0
 30
0
  0
VERTEX
  8
LAYER_1
 10
108.632
 20
162.0506
  0
VERTEX
  8
LAYER_1
 10
108.632
 20
164.5641
  0
SEQEND
  0
POLYLINE
  8
LAYER_1
 40
0.0847
 41
0.0847
 66
1
 10
0
 20
0
 30
0
  0
VERTEX
  8
LAYER_1
 10
108.632
 20
167.0512
  0
VERTEX
  8
LAYER_1
 10
108.632
 20
169.5647
  0
SEQEND
  0
POLYLINE
  8
LAYER_1
 40
0.0847
 41
0.0847
 66
1
 10
0
 20
0
 30
0
  0
VERTEX
  8
LAYER_1
 10
108.632
 20
172.0783
  0
VERTEX
  8
LAYER_1
 10
108.632
 20
173.3483
  0
SEQEND
  0
POLYLINE
  8
LAYER_1
 40
0.0847
 41
0.0847
 66
1
 10
0
 20
0
 30
0
  0
VERTEX
  8
LAYER_1
 10
58.0172
 20
160.5425
  0
VERTEX
  8
LAYER_1
 10
100.4828
 20
177.9785
  0
SEQEND
  0
POLYLINE
  8
LAYER_1
 40
0.0847
 41
0.0847
 66
1
 10
0
 20
0
 30
0
  0
VERTEX
  8
LAYER_1
 10
58.0172
 20
160.5425
  0
VERTEX
  8
LAYER_1
 10
100.2447
 20
191.7898
  0
SEQEND
  0
POLYLINE
  8
LAYER_1
 40
0.0847
 41
0.0847
 66
1
 10
0
 20
0
 30
0
  0
VERTEX
  8
LAYER_1
 10
206.3955
 20
179.275
  0
VERTEX
  8
LAYER_1
 10
206.3955
 20
193.0068
  0
SEQEND
  0
POLYLINE
  8
LAYER_1
 40
0.1693
 41
0.1693
 66
1
 10
0
 20
0
 30
0
  0
VERTEX
  8
LAYER_1
 10
206.3955
 20
179.2749
  0
VERTEX
  8
LAYER_1
 10
205.9193
 20
181.0741
  0
SEQEND
  0
POLYLINE
  8
LAYER_1
 40
0.1693
 41
0.1693
 66
1
 10
0
 20
0
 30
0
  0
VERTEX
  8
LAYER_1
 10
206.3955
 20
179.2749
  0
VERTEX
  8
LAYER_1
 10
206.8982
 20
181.0741
  0
SEQEND
  0
POLYLINE
  8
LAYER_1
 40
0.1693
 41
0.1693
 66
1
 10
0
 20
0
 30
0
  0
VERTEX
  8
LAYER_1
 10
206.3955
 20
193.0068
  0
VERTEX
  8
LAYER_1
 10
206.8982
 20
191.2076
  0
SEQEND
  0
POLYLINE
  8
LAYER_1
 40
0.1693
 41
0.1693
 66
1
 10
0
 20
0
 30
0
  0
VERTEX
  8
LAYER_1
 10
206.3955
 20
193.0068
  0
VERTEX
  8
LAYER_1
 10
205.9193
 20
191.2076
  0
SEQEND
  0
POLYLINE
  8
LAYER_1
 40
0.0847
 41
0.0847
 66
1
 10
0
 20
0
 30
0
  0
VERTEX
  8
LAYER_1
 10
199.6222
 20
179.2749
  0
VERTEX
  8
LAYER_1
 10
206.3955
 20
179.2749
  0
SEQEND
  0
POLYLINE
  8
LAYER_1
 40
0.0847
 41
0.0847
 66
1
 10
0
 20
0
 30
0
  0
VERTEX
  8
LAYER_1
 10
199.6222
 20
193.0068
  0
VERTEX
  8
LAYER_1
 10
206.3955
 20
193.0068
  0
SEQEND
  0
TEXT
  8
LAYER_1
 10
205.4875
 20
184.5672
 11
205.4875
 21
184.5672
 40
4.5757
 41
0.5
 50
89.99999999
  1
55
  0
POLYLINE
  8
LAYER_1
 40
0.254
 41
0.254
 66
1
 10
0
 20
0
 30
0
  0
VERTEX
  8
LAYER_1
 10
16.6099
 20
193.0068
  0
VERTEX
  8
LAYER_1
 10
97.4137
 20
193.0068
  0
SEQEND
  0
POLYLINE
  8
LAYER_1
 40
0.254
 41
0.254
 66
1
 10
0
 20
0
 30
0
  0
VERTEX
  8
LAYER_1
 10
97.4137
 20
179.2749
  0
VERTEX
  8
LAYER_1
 10
97.4137
 20
193.0068
  0
SEQEND
  0
POLYLINE
  8
LAYER_1
 40
0.254
 41
0.254
 66
1
 10
0
 20
0
 30
0
  0
VERTEX
  8
LAYER_1
 10
16.3982
 20
179.2749
  0
VERTEX
  8
LAYER_1
 10
97.4137
 20
179.2749
  0
SEQEND
  0
POLYLINE
  8
LAYER_1
 40
0.254
 41
0.254
 66
1
 10
0
 20
0
 30
0
  0
VERTEX
  8
LAYER_1
 10
113.6062
 20
193.0068
  0
VERTEX
  8
LAYER_1
 10
194.4099
 20
193.0068
  0
SEQEND
  0
POLYLINE
  8
LAYER_1
 40
0.254
 41
0.254
 66
1
 10
0
 20
0
 30
0
  0
VERTEX
  8
LAYER_1
 10
113.6062
 20
179.2749
  0
VERTEX
  8
LAYER_1
 10
113.6062
 20
193.0068
  0
SEQEND
  0
POLYLINE
  8
LAYER_1
 40
0.254
 41
0.254
 66
1
 10
0
 20
0
 30
0
  0
VERTEX
  8
LAYER_1
 10
113.6062
 20
179.2749
  0
VERTEX
  8
LAYER_1
 10
194.6216
 20
179.2749
  0
SEQEND
  0
POLYLINE
  8
LAYER_1
 40
0.0847
 41
0.0847
 66
1
 10
0
 20
0
 30
0
  0
VERTEX
  8
LAYER_1
 10
194.4099
 20
193.0068
  0
VERTEX
  8
LAYER_1
 10
194.2247
 20
192.7422
  0
SEQEND
  0
POLYLINE
  8
LAYER_1
 40
0.0847
 41
0.0847
 66
1
 10
0
 20
0
 30
0
  0
VERTEX
  8
LAYER_1
 10
89.1587
 20
179.2749
  0
VERTEX
  8
LAYER_1
 10
97.4136
 20
187.5034
  0
SEQEND
  0
POLYLINE
  8
LAYER_1
 40
0.0847
 41
0.0847
 66
1
 10
0
 20
0
 30
0
  0
VERTEX
  8
LAYER_1
 10
32.6172
 20
179.2749
  0
VERTEX
  8
LAYER_1
 10
46.3491
 20
193.0068
  0
SEQEND
  0
POLYLINE
  8
LAYER_1
 40
0.0847
 41
0.0847
 66
1
 10
0
 20
0
 30
0
  0
VERTEX
  8
LAYER_1
 10
29.0718
 20
179.2749
  0
VERTEX
  8
LAYER_1
 10
42.8301
 20
193.0068
  0
SEQEND
  0
POLYLINE
  8
LAYER_1
 40
0.0847
 41
0.0847
 66
1
 10
0
 20
0
 30
0
  0
VERTEX
  8
LAYER_1
 10
25.5528
 20
179.2749
  0
VERTEX
  8
LAYER_1
 10
39.2847
 20
193.0068
  0
SEQEND
  0
POLYLINE
  8
LAYER_1
 40
0.0847
 41
0.0847
 66
1
 10
0
 20
0
 30
0
  0
VERTEX
  8
LAYER_1
 10
22.0074
 20
179.2749
  0
VERTEX
  8
LAYER_1
 10
35.7657
 20
193.0068
  0
SEQEND
  0
POLYLINE
  8
LAYER_1
 40
0.0847
 41
0.0847
 66
1
 10
0
 20
0
 30
0
  0
VERTEX
  8
LAYER_1
 10
18.4884
 20
179.2749
  0
VERTEX
  8
LAYER_1
 10
32.2203
 20
193.0068
  0
SEQEND
  0
POLYLINE
  8
LAYER_1
 40
0.0847
 41
0.0847
 66
1
 10
0
 20
0
 30
0
  0
VERTEX
  8
LAYER_1
 10
75.0299
 20
179.2749
  0
VERTEX
  8
LAYER_1
 10
88.7618
 20
193.0068
  0
SEQEND
  0
POLYLINE
  8
LAYER_1
 40
0.0847
 41
0.0847
 66
1
 10
0
 20
0
 30
0
  0
VERTEX
  8
LAYER_1
 10
71.4845
 20
179.2749
  0
VERTEX
  8
LAYER_1
 10
85.2428
 20
193.0068
  0
SEQEND
  0
POLYLINE
  8
LAYER_1
 40
0.0847
 41
0.0847
 66
1
 10
0
 20
0
 30
0
  0
VERTEX
  8
LAYER_1
 10
67.9655
 20
179.2749
  0
VERTEX
  8
LAYER_1
 10
81.6974
 20
193.0068
  0
SEQEND
  0
POLYLINE
  8
LAYER_1
 40
0.0847
 41
0.0847
 66
1
 10
0
 20
0
 30
0
  0
VERTEX
  8
LAYER_1
 10
64.4201
 20
179.2749
  0
VERTEX
  8
LAYER_1
 10
78.1785
 20
193.0068
  0
SEQEND
  0
POLYLINE
  8
LAYER_1
 40
0.0847
 41
0.0847
 66
1
 10
0
 20
0
 30
0
  0
VERTEX
  8
LAYER_1
 10
60.9012
 20
179.2749
  0
VERTEX
  8
LAYER_1
 10
74.633
 20
193.0068
  0
SEQEND
  0
POLYLINE
  8
LAYER_1
 40
0.0847
 41
0.0847
 66
1
 10
0
 20
0
 30
0
  0
VERTEX
  8
LAYER_1
 10
57.3558
 20
179.2749
  0
VERTEX
  8
LAYER_1
 10
71.0876
 20
193.0068
  0
SEQEND
  0
POLYLINE
  8
LAYER_1
 40
0.0847
 41
0.0847
 66
1
 10
0
 20
0
 30
0
  0
VERTEX
  8
LAYER_1
 10
53.8103
 20
179.2749
  0
VERTEX
  8
LAYER_1
 10
67.5687
 20
193.0068
  0
SEQEND
  0
POLYLINE
  8
LAYER_1
 40
0.0847
 41
0.0847
 66
1
 10
0
 20
0
 30
0
  0
VERTEX
  8
LAYER_1
 10
50.2914
 20
179.2749
  0
VERTEX
  8
LAYER_1
 10
64.0233
 20
193.0068
  0
SEQEND
  0
POLYLINE
  8
LAYER_1
 40
0.0847
 41
0.0847
 66
1
 10
0
 20
0
 30
0
  0
VERTEX
  8
LAYER_1
 10
46.746
 20
179.2749
  0
VERTEX
  8
LAYER_1
 10
60.5043
 20
193.0068
  0
SEQEND
  0
POLYLINE
  8
LAYER_1
 40
0.0847
 41
0.0847
 66
1
 10
0
 20
0
 30
0
  0
VERTEX
  8
LAYER_1
 10
43.227
 20
179.2749
  0
VERTEX
  8
LAYER_1
 10
56.9589
 20
193.0068
  0
SEQEND
  0
POLYLINE
  8
LAYER_1
 40
0.0847
 41
0.0847
 66
1
 10
0
 20
0
 30
0
  0
VERTEX
  8
LAYER_1
 10
39.6816
 20
179.2749
  0
VERTEX
  8
LAYER_1
 10
53.4399
 20
193.0068
  0
SEQEND
  0
POLYLINE
  8
LAYER_1
 40
0.0847
 41
0.0847
 66
1
 10
0
 20
0
 30
0
  0
VERTEX
  8
LAYER_1
 10
36.1626
 20
179.2749
  0
VERTEX
  8
LAYER_1
 10
49.8945
 20
193.0068
  0
SEQEND
  0
POLYLINE
  8
LAYER_1
 40
0.0847
 41
0.0847
 66
1
 10
0
 20
0
 30
0
  0
VERTEX
  8
LAYER_1
 10
78.5489
 20
179.2749
  0
VERTEX
  8
LAYER_1
 10
92.3072
 20
193.0068
  0
SEQEND
  0
POLYLINE
  8
LAYER_1
 40
0.0847
 41
0.0847
 66
1
 10
0
 20
0
 30
0
  0
VERTEX
  8
LAYER_1
 10
82.0943
 20
179.2749
  0
VERTEX
  8
LAYER_1
 10
95.8262
 20
193.0068
  0
SEQEND
  0
POLYLINE
  8
LAYER_1
 40
0.0847
 41
0.0847
 66
1
 10
0
 20
0
 30
0
  0
VERTEX
  8
LAYER_1
 10
85.6397
 20
179.2749
  0
VERTEX
  8
LAYER_1
 10
97.4137
 20
191.0489
  0
SEQEND
  0
POLYLINE
  8
LAYER_1
 40
0.0847
 41
0.0847
 66
1
 10
0
 20
0
 30
0
  0
VERTEX
  8
LAYER_1
 10
138.6093
 20
179.2749
  0
VERTEX
  8
LAYER_1
 10
152.3676
 20
193.0068
  0
SEQEND
  0
POLYLINE
  8
LAYER_1
 40
0.0847
 41
0.0847
 66
1
 10
0
 20
0
 30
0
  0
VERTEX
  8
LAYER_1
 10
142.1547
 20
179.2749
  0
VERTEX
  8
LAYER_1
 10
155.8866
 20
193.0068
  0
SEQEND
  0
POLYLINE
  8
LAYER_1
 40
0.0847
 41
0.0847
 66
1
 10
0
 20
0
 30
0
  0
VERTEX
  8
LAYER_1
 10
145.6737
 20
179.2749
  0
VERTEX
  8
LAYER_1
 10
159.432
 20
193.0068
  0
SEQEND
  0
POLYLINE
  8
LAYER_1
 40
0.0847
 41
0.0847
 66
1
 10
0
 20
0
 30
0
  0
VERTEX
  8
LAYER_1
 10
149.2191
 20
179.2749
  0
VERTEX
  8
LAYER_1
 10
162.951
 20
193.0068
  0
SEQEND
  0
POLYLINE
  8
LAYER_1
 40
0.0847
 41
0.0847
 66
1
 10
0
 20
0
 30
0
  0
VERTEX
  8
LAYER_1
 10
152.7381
 20
179.2749
  0
VERTEX
  8
LAYER_1
 10
166.4964
 20
193.0068
  0
SEQEND
  0
POLYLINE
  8
LAYER_1
 40
0.0847
 41
0.0847
 66
1
 10
0
 20
0
 30
0
  0
VERTEX
  8
LAYER_1
 10
156.2835
 20
179.2749
  0
VERTEX
  8
LAYER_1
 10
170.0154
 20
193.0068
  0
SEQEND
  0
POLYLINE
  8
LAYER_1
 40
0.0847
 41
0.0847
 66
1
 10
0
 20
0
 30
0
  0
VERTEX
  8
LAYER_1
 10
159.8025
 20
179.2749
  0
VERTEX
  8
LAYER_1
 10
173.5608
 20
193.0068
  0
SEQEND
  0
POLYLINE
  8
LAYER_1
 40
0.0847
 41
0.0847
 66
1
 10
0
 20
0
 30
0
  0
VERTEX
  8
LAYER_1
 10
163.3479
 20
179.2749
  0
VERTEX
  8
LAYER_1
 10
177.1062
 20
193.0068
  0
SEQEND
  0
POLYLINE
  8
LAYER_1
 40
0.0847
 41
0.0847
 66
1
 10
0
 20
0
 30
0
  0
VERTEX
  8
LAYER_1
 10
166.8933
 20
179.2749
  0
VERTEX
  8
LAYER_1
 10
180.6252
 20
193.0068
  0
SEQEND
  0
POLYLINE
  8
LAYER_1
 40
0.0847
 41
0.0847
 66
1
 10
0
 20
0
 30
0
  0
VERTEX
  8
LAYER_1
 10
170.4123
 20
179.2749
  0
VERTEX
  8
LAYER_1
 10
184.1706
 20
193.0068
  0
SEQEND
  0
POLYLINE
  8
LAYER_1
 40
0.0847
 41
0.0847
 66
1
 10
0
 20
0
 30
0
  0
VERTEX
  8
LAYER_1
 10
173.9577
 20
179.2749
  0
VERTEX
  8
LAYER_1
 10
187.6896
 20
193.0068
  0
SEQEND
  0
POLYLINE
  8
LAYER_1
 40
0.0847
 41
0.0847
 66
1
 10
0
 20
0
 30
0
  0
VERTEX
  8
LAYER_1
 10
177.4766
 20
179.2749
  0
VERTEX
  8
LAYER_1
 10
191.235
 20
193.0068
  0
SEQEND
  0
POLYLINE
  8
LAYER_1
 40
0.0847
 41
0.0847
 66
1
 10
0
 20
0
 30
0
  0
VERTEX
  8
LAYER_1
 10
181.0221
 20
179.2749
  0
VERTEX
  8
LAYER_1
 10
193.7485
 20
191.9749
  0
SEQEND
  0
POLYLINE
  8
LAYER_1
 40
0.0847
 41
0.0847
 66
1
 10
0
 20
0
 30
0
  0
VERTEX
  8
LAYER_1
 10
15.0489
 20
182.8997
  0
VERTEX
  8
LAYER_1
 10
25.156
 20
193.0068
  0
SEQEND
  0
POLYLINE
  8
LAYER_1
 40
0.0847
 41
0.0847
 66
1
 10
0
 20
0
 30
0
  0
VERTEX
  8
LAYER_1
 10
15.8427
 20
180.148
  0
VERTEX
  8
LAYER_1
 10
28.7014
 20
193.0068
  0
SEQEND
  0
POLYLINE
  8
LAYER_1
 40
0.0847
 41
0.0847
 66
1
 10
0
 20
0
 30
0
  0
VERTEX
  8
LAYER_1
 10
18.1975
 20
189.5937
  0
VERTEX
  8
LAYER_1
 10
21.6106
 20
193.0068
  0
SEQEND
  0
POLYLINE
  8
LAYER_1
 40
0.0847
 41
0.0847
 66
1
 10
0
 20
0
 30
0
  0
VERTEX
  8
LAYER_1
 10
17.2185
 20
192.1337
  0
VERTEX
  8
LAYER_1
 10
18.0916
 20
193.0068
  0
SEQEND
  0
POLYLINE
  8
LAYER_1
 40
0.0847
 41
0.0847
 66
1
 10
0
 20
0
 30
0
  0
VERTEX
  8
LAYER_1
 10
194.6216
 20
185.6514
  0
VERTEX
  8
LAYER_1
 10
194.9391
 20
185.2016
  0
SEQEND
  0
POLYLINE
  8
LAYER_1
 40
0.0847
 41
0.0847
 66
1
 10
0
 20
0
 30
0
  0
VERTEX
  8
LAYER_1
 10
194.41
 20
193.0068
  0
VERTEX
  8
LAYER_1
 10
194.1718
 20
192.6628
  0
VERTEX
  8
LAYER_1
 10
193.8014
 20
192.1072
  0
VERTEX
  8
LAYER_1
 10
193.4575
 20
191.5251
  0
VERTEX
  8
LAYER_1
 10
193.1664
 20
190.9695
  0
VERTEX
  8
LAYER_1
 10
192.9547
 20
190.3874
  0
VERTEX
  8
LAYER_1
 10
192.8225
 20
189.8318
  0
VERTEX
  8
LAYER_1
 10
192.796
 20
189.4878
  0
VERTEX
  8
LAYER_1
 10
192.8225
 20
189.1703
  0
VERTEX
  8
LAYER_1
 10
192.9547
 20
188.5882
  0
VERTEX
  8
LAYER_1
 10
193.1664
 20
188.0326
  0
VERTEX
  8
LAYER_1
 10
193.4575
 20
187.4505
  0
VERTEX
  8
LAYER_1
 10
193.8014
 20
186.8684
  0
VERTEX
  8
LAYER_1
 10
194.1718
 20
186.3128
  0
VERTEX
  8
LAYER_1
 10
194.6216
 20
185.6513
  0
SEQEND
  0
POLYLINE
  8
LAYER_1
 40
0.0847
 41
0.0847
 66
1
 10
0
 20
0
 30
0
  0
VERTEX
  8
LAYER_1
 10
184.541
 20
179.2749
  0
VERTEX
  8
LAYER_1
 10
193.2193
 20
187.9268
  0
SEQEND
  0
POLYLINE
  8
LAYER_1
 40
0.0847
 41
0.0847
 66
1
 10
0
 20
0
 30
0
  0
VERTEX
  8
LAYER_1
 10
191.6318
 20
179.2749
  0
VERTEX
  8
LAYER_1
 10
195.8122
 20
183.4553
  0
SEQEND
  0
POLYLINE
  8
LAYER_1
 40
0.0847
 41
0.0847
 66
1
 10
0
 20
0
 30
0
  0
VERTEX
  8
LAYER_1
 10
188.0864
 20
179.2749
  0
VERTEX
  8
LAYER_1
 10
194.5687
 20
185.7307
  0
SEQEND
  0
POLYLINE
  8
LAYER_1
 40
0.0847
 41
0.0847
 66
1
 10
0
 20
0
 30
0
  0
VERTEX
  8
LAYER_1
 10
92.7041
 20
179.2749
  0
VERTEX
  8
LAYER_1
 10
97.4137
 20
183.958
  0
SEQEND
  0
POLYLINE
  8
LAYER_1
 40
0.0847
 41
0.0847
 66
1
 10
0
 20
0
 30
0
  0
VERTEX
  8
LAYER_1
 10
96.2231
 20
179.2749
  0
VERTEX
  8
LAYER_1
 10
97.4137
 20
180.439
  0
SEQEND
  0
POLYLINE
  8
LAYER_1
 40
0.0847
 41
0.0847
 66
1
 10
0
 20
0
 30
0
  0
VERTEX
  8
LAYER_1
 10
16.61
 20
193.0068
  0
VERTEX
  8
LAYER_1
 10
16.8481
 20
192.6628
  0
VERTEX
  8
LAYER_1
 10
17.2185
 20
192.1072
  0
VERTEX
  8
LAYER_1
 10
17.5624
 20
191.5251
  0
VERTEX
  8
LAYER_1
 10
17.8535
 20
190.9695
  0
VERTEX
  8
LAYER_1
 10
18.0652
 20
190.3874
  0
VERTEX
  8
LAYER_1
 10
18.1975
 20
189.8318
  0
VERTEX
  8
LAYER_1
 10
18.2239
 20
189.4878
  0
VERTEX
  8
LAYER_1
 10
18.1975
 20
189.1703
  0
VERTEX
  8
LAYER_1
 10
18.0652
 20
188.5882
  0
VERTEX
  8
LAYER_1
 10
17.8535
 20
188.0326
  0
VERTEX
  8
LAYER_1
 10
17.5624
 20
187.4505
  0
VERTEX
  8
LAYER_1
 10
17.2185
 20
186.8684
  0
VERTEX
  8
LAYER_1
 10
16.8481
 20
186.3128
  0
VERTEX
  8
LAYER_1
 10
16.3983
 20
185.6513
  0
VERTEX
  8
LAYER_1
 10
16.0808
 20
185.2016
  0
SEQEND
  0
POLYLINE
  8
LAYER_1
 40
0.0847
 41
0.0847
 66
1
 10
0
 20
0
 30
0
  0
VERTEX
  8
LAYER_1
 10
16.3983
 20
179.2749
  0
SEQEND
  0
POLYLINE
  8
LAYER_1
 40
0.0847
 41
0.0847
 66
1
 10
0
 20
0
 30
0
  0
VERTEX
  8
LAYER_1
 10
16.0014
 20
179.857
  0
VERTEX
  8
LAYER_1
 10
16.3983
 20
179.2749
  0
SEQEND
  0
POLYLINE
  8
LAYER_1
 40
0.0847
 41
0.0847
 66
1
 10
0
 20
0
 30
0
  0
VERTEX
  8
LAYER_1
 10
15.6574
 20
180.4126
  0
VERTEX
  8
LAYER_1
 10
16.0014
 20
179.857
  0
SEQEND
  0
POLYLINE
  8
LAYER_1
 40
0.0847
 41
0.0847
 66
1
 10
0
 20
0
 30
0
  0
VERTEX
  8
LAYER_1
 10
15.3664
 20
180.9947
  0
VERTEX
  8
LAYER_1
 10
15.6574
 20
180.4126
  0
SEQEND
  0
POLYLINE
  8
LAYER_1
 40
0.0847
 41
0.0847
 66
1
 10
0
 20
0
 30
0
  0
VERTEX
  8
LAYER_1
 10
15.1547
 20
181.5503
  0
VERTEX
  8
LAYER_1
 10
15.3664
 20
180.9947
  0
SEQEND
  0
POLYLINE
  8
LAYER_1
 40
0.0847
 41
0.0847
 66
1
 10
0
 20
0
 30
0
  0
VERTEX
  8
LAYER_1
 10
15.0224
 20
182.1324
  0
VERTEX
  8
LAYER_1
 10
15.1547
 20
181.5503
  0
SEQEND
  0
POLYLINE
  8
LAYER_1
 40
0.0847
 41
0.0847
 66
1
 10
0
 20
0
 30
0
  0
VERTEX
  8
LAYER_1
 10
15.0224
 20
182.4764
  0
VERTEX
  8
LAYER_1
 10
15.0224
 20
182.1324
  0
SEQEND
  0
POLYLINE
  8
LAYER_1
 40
0.0847
 41
0.0847
 66
1
 10
0
 20
0
 30
0
  0
VERTEX
  8
LAYER_1
 10
15.0224
 20
182.7939
  0
VERTEX
  8
LAYER_1
 10
15.0224
 20
182.4764
  0
SEQEND
  0
POLYLINE
  8
LAYER_1
 40
0.0847
 41
0.0847
 66
1
 10
0
 20
0
 30
0
  0
VERTEX
  8
LAYER_1
 10
15.1547
 20
183.376
  0
VERTEX
  8
LAYER_1
 10
15.0224
 20
182.7939
  0
SEQEND
  0
POLYLINE
  8
LAYER_1
 40
0.0847
 41
0.0847
 66
1
 10
0
 20
0
 30
0
  0
VERTEX
  8
LAYER_1
 10
15.3664
 20
183.9316
  0
VERTEX
  8
LAYER_1
 10
15.1547
 20
183.376
  0
SEQEND
  0
POLYLINE
  8
LAYER_1
 40
0.0847
 41
0.0847
 66
1
 10
0
 20
0
 30
0
  0
VERTEX
  8
LAYER_1
 10
15.6574
 20
184.5137
  0
VERTEX
  8
LAYER_1
 10
15.3664
 20
183.9316
  0
SEQEND
  0
POLYLINE
  8
LAYER_1
 40
0.0847
 41
0.0847
 66
1
 10
0
 20
0
 30
0
  0
VERTEX
  8
LAYER_1
 10
16.0014
 20
185.0693
  0
VERTEX
  8
LAYER_1
 10
15.6574
 20
184.5137
  0
SEQEND
  0
POLYLINE
  8
LAYER_1
 40
0.0847
 41
0.0847
 66
1
 10
0
 20
0
 30
0
  0
VERTEX
  8
LAYER_1
 10
16.3983
 20
185.6514
  0
VERTEX
  8
LAYER_1
 10
16.0014
 20
185.0693
  0
SEQEND
  0
POLYLINE
  8
LAYER_1
 40
0.0847
 41
0.0847
 66
1
 10
0
 20
0
 30
0
  0
VERTEX
  8
LAYER_1
 10
16.8481
 20
186.3128
  0
VERTEX
  8
LAYER_1
 10
16.3983
 20
185.6514
  0
SEQEND
  0
POLYLINE
  8
LAYER_1
 40
0.0847
 41
0.0847
 66
1
 10
0
 20
0
 30
0
  0
VERTEX
  8
LAYER_1
 10
17.2185
 20
186.8685
  0
VERTEX
  8
LAYER_1
 10
16.8481
 20
186.3128
  0
SEQEND
  0
POLYLINE
  8
LAYER_1
 40
0.0847
 41
0.0847
 66
1
 10
0
 20
0
 30
0
  0
VERTEX
  8
LAYER_1
 10
17.5624
 20
187.4506
  0
VERTEX
  8
LAYER_1
 10
17.2185
 20
186.8685
  0
SEQEND
  0
POLYLINE
  8
LAYER_1
 40
0.0847
 41
0.0847
 66
1
 10
0
 20
0
 30
0
  0
VERTEX
  8
LAYER_1
 10
17.8535
 20
188.0326
  0
VERTEX
  8
LAYER_1
 10
17.5624
 20
187.4506
  0
SEQEND
  0
POLYLINE
  8
LAYER_1
 40
0.0847
 41
0.0847
 66
1
 10
0
 20
0
 30
0
  0
VERTEX
  8
LAYER_1
 10
18.0652
 20
188.5883
  0
VERTEX
  8
LAYER_1
 10
17.8535
 20
188.0326
  0
SEQEND
  0
POLYLINE
  8
LAYER_1
 40
0.0847
 41
0.0847
 66
1
 10
0
 20
0
 30
0
  0
VERTEX
  8
LAYER_1
 10
18.1975
 20
189.1704
  0
VERTEX
  8
LAYER_1
 10
18.0652
 20
188.5883
  0
SEQEND
  0
POLYLINE
  8
LAYER_1
 40
0.0847
 41
0.0847
 66
1
 10
0
 20
0
 30
0
  0
VERTEX
  8
LAYER_1
 10
18.2239
 20
189.4878
  0
VERTEX
  8
LAYER_1
 10
18.1974
 20
189.1703
  0
SEQEND
  0
POLYLINE
  8
LAYER_1
 40
0.0847
 41
0.0847
 66
1
 10
0
 20
0
 30
0
  0
VERTEX
  8
LAYER_1
 10
18.1975
 20
189.8318
  0
VERTEX
  8
LAYER_1
 10
18.2239
 20
189.4878
  0
SEQEND
  0
POLYLINE
  8
LAYER_1
 40
0.0847
 41
0.0847
 66
1
 10
0
 20
0
 30
0
  0
VERTEX
  8
LAYER_1
 10
18.0652
 20
190.3875
  0
VERTEX
  8
LAYER_1
 10
18.1974
 20
189.8318
  0
SEQEND
  0
POLYLINE
  8
LAYER_1
 40
0.0847
 41
0.0847
 66
1
 10
0
 20
0
 30
0
  0
VERTEX
  8
LAYER_1
 10
17.8535
 20
190.9695
  0
VERTEX
  8
LAYER_1
 10
18.0652
 20
190.3875
  0
SEQEND
  0
POLYLINE
  8
LAYER_1
 40
0.0847
 41
0.0847
 66
1
 10
0
 20
0
 30
0
  0
VERTEX
  8
LAYER_1
 10
17.5624
 20
191.5252
  0
VERTEX
  8
LAYER_1
 10
17.8535
 20
190.9695
  0
SEQEND
  0
POLYLINE
  8
LAYER_1
 40
0.0847
 41
0.0847
 66
1
 10
0
 20
0
 30
0
  0
VERTEX
  8
LAYER_1
 10
17.2185
 20
192.1073
  0
VERTEX
  8
LAYER_1
 10
17.5624
 20
191.5252
  0
SEQEND
  0
POLYLINE
  8
LAYER_1
 40
0.0847
 41
0.0847
 66
1
 10
0
 20
0
 30
0
  0
VERTEX
  8
LAYER_1
 10
16.8481
 20
192.6629
  0
VERTEX
  8
LAYER_1
 10
17.2185
 20
192.1073
  0
SEQEND
  0
POLYLINE
  8
LAYER_1
 40
0.0847
 41
0.0847
 66
1
 10
0
 20
0
 30
0
  0
VERTEX
  8
LAYER_1
 10
16.6099
 20
193.0069
  0
VERTEX
  8
LAYER_1
 10
16.8481
 20
192.6629
  0
SEQEND
  0
POLYLINE
  8
LAYER_1
 40
0.0847
 41
0.0847
 66
1
 10
0
 20
0
 30
0
  0
VERTEX
  8
LAYER_1
 10
194.6216
 20
179.275
  0
SEQEND
  0
POLYLINE
  8
LAYER_1
 40
0.0847
 41
0.0847
 66
1
 10
0
 20
0
 30
0
  0
VERTEX
  8
LAYER_1
 10
195.0185
 20
179.8571
  0
VERTEX
  8
LAYER_1
 10
194.6216
 20
179.275
  0
SEQEND
  0
POLYLINE
  8
LAYER_1
 40
0.0847
 41
0.0847
 66
1
 10
0
 20
0
 30
0
  0
VERTEX
  8
LAYER_1
 10
195.3624
 20
180.4127
  0
VERTEX
  8
LAYER_1
 10
195.0185
 20
179.8571
  0
SEQEND
  0
POLYLINE
  8
LAYER_1
 40
0.0847
 41
0.0847
 66
1
 10
0
 20
0
 30
0
  0
VERTEX
  8
LAYER_1
 10
195.6535
 20
180.9948
  0
VERTEX
  8
LAYER_1
 10
195.3624
 20
180.4127
  0
SEQEND
  0
POLYLINE
  8
LAYER_1
 40
0.0847
 41
0.0847
 66
1
 10
0
 20
0
 30
0
  0
VERTEX
  8
LAYER_1
 10
195.8652
 20
181.5504
  0
VERTEX
  8
LAYER_1
 10
195.6535
 20
180.9948
  0
SEQEND
  0
POLYLINE
  8
LAYER_1
 40
0.0847
 41
0.0847
 66
1
 10
0
 20
0
 30
0
  0
VERTEX
  8
LAYER_1
 10
195.9974
 20
182.1325
  0
VERTEX
  8
LAYER_1
 10
195.8651
 20
181.5504
  0
SEQEND
  0
POLYLINE
  8
LAYER_1
 40
0.0847
 41
0.0847
 66
1
 10
0
 20
0
 30
0
  0
VERTEX
  8
LAYER_1
 10
195.9974
 20
182.4765
  0
VERTEX
  8
LAYER_1
 10
195.9974
 20
182.1325
  0
SEQEND
  0
POLYLINE
  8
LAYER_1
 40
0.0847
 41
0.0847
 66
1
 10
0
 20
0
 30
0
  0
VERTEX
  8
LAYER_1
 10
195.9974
 20
182.7939
  0
VERTEX
  8
LAYER_1
 10
195.9974
 20
182.4764
  0
SEQEND
  0
POLYLINE
  8
LAYER_1
 40
0.0847
 41
0.0847
 66
1
 10
0
 20
0
 30
0
  0
VERTEX
  8
LAYER_1
 10
195.8652
 20
183.376
  0
VERTEX
  8
LAYER_1
 10
195.9974
 20
182.7939
  0
SEQEND
  0
POLYLINE
  8
LAYER_1
 40
0.0847
 41
0.0847
 66
1
 10
0
 20
0
 30
0
  0
VERTEX
  8
LAYER_1
 10
195.6535
 20
183.9317
  0
VERTEX
  8
LAYER_1
 10
195.8651
 20
183.376
  0
SEQEND
  0
POLYLINE
  8
LAYER_1
 40
0.0847
 41
0.0847
 66
1
 10
0
 20
0
 30
0
  0
VERTEX
  8
LAYER_1
 10
195.3624
 20
184.5138
  0
VERTEX
  8
LAYER_1
 10
195.6535
 20
183.9317
  0
SEQEND
  0
POLYLINE
  8
LAYER_1
 40
0.0847
 41
0.0847
 66
1
 10
0
 20
0
 30
0
  0
VERTEX
  8
LAYER_1
 10
195.0185
 20
185.0694
  0
VERTEX
  8
LAYER_1
 10
195.3624
 20
184.5138
  0
SEQEND
  0
POLYLINE
  8
LAYER_1
 40
0.0847
 41
0.0847
 66
1
 10
0
 20
0
 30
0
  0
VERTEX
  8
LAYER_1
 10
194.6216
 20
185.6515
  0
VERTEX
  8
LAYER_1
 10
195.0185
 20
185.0694
  0
SEQEND
  0
POLYLINE
  8
LAYER_1
 40
0.0847
 41
0.0847
 66
1
 10
0
 20
0
 30
0
  0
VERTEX
  8
LAYER_1
 10
194.1718
 20
186.3129
  0
VERTEX
  8
LAYER_1
 10
194.6216
 20
185.6515
  0
SEQEND
  0
POLYLINE
  8
LAYER_1
 40
0.0847
 41
0.0847
 66
1
 10
0
 20
0
 30
0
  0
VERTEX
  8
LAYER_1
 10
193.8014
 20
186.8686
  0
VERTEX
  8
LAYER_1
 10
194.1718
 20
186.3129
  0
SEQEND
  0
POLYLINE
  8
LAYER_1
 40
0.0847
 41
0.0847
 66
1
 10
0
 20
0
 30
0
  0
VERTEX
  8
LAYER_1
 10
193.4574
 20
187.4506
  0
VERTEX
  8
LAYER_1
 10
193.8014
 20
186.8686
  0
SEQEND
  0
POLYLINE
  8
LAYER_1
 40
0.0847
 41
0.0847
 66
1
 10
0
 20
0
 30
0
  0
VERTEX
  8
LAYER_1
 10
193.1664
 20
188.0327
  0
VERTEX
  8
LAYER_1
 10
193.4574
 20
187.4506
  0
SEQEND
  0
POLYLINE
  8
LAYER_1
 40
0.0847
 41
0.0847
 66
1
 10
0
 20
0
 30
0
  0
VERTEX
  8
LAYER_1
 10
192.9547
 20
188.5884
  0
VERTEX
  8
LAYER_1
 10
193.1664
 20
188.0327
  0
SEQEND
  0
POLYLINE
  8
LAYER_1
 40
0.0847
 41
0.0847
 66
1
 10
0
 20
0
 30
0
  0
VERTEX
  8
LAYER_1
 10
192.8224
 20
189.1704
  0
VERTEX
  8
LAYER_1
 10
192.9547
 20
188.5884
  0
SEQEND
  0
POLYLINE
  8
LAYER_1
 40
0.0847
 41
0.0847
 66
1
 10
0
 20
0
 30
0
  0
VERTEX
  8
LAYER_1
 10
192.796
 20
189.4879
  0
VERTEX
  8
LAYER_1
 10
192.8224
 20
189.1704
  0
SEQEND
  0
POLYLINE
  8
LAYER_1
 40
0.0847
 41
0.0847
 66
1
 10
0
 20
0
 30
0
  0
VERTEX
  8
LAYER_1
 10
192.8224
 20
189.8319
  0
VERTEX
  8
LAYER_1
 10
192.796
 20
189.4879
  0
SEQEND
  0
POLYLINE
  8
LAYER_1
 40
0.0847
 41
0.0847
 66
1
 10
0
 20
0
 30
0
  0
VERTEX
  8
LAYER_1
 10
192.9547
 20
190.3875
  0
VERTEX
  8
LAYER_1
 10
192.8224
 20
189.8319
  0
SEQEND
  0
POLYLINE
  8
LAYER_1
 40
0.0847
 41
0.0847
 66
1
 10
0
 20
0
 30
0
  0
VERTEX
  8
LAYER_1
 10
193.1664
 20
190.9696
  0
VERTEX
  8
LAYER_1
 10
192.9547
 20
190.3875
  0
SEQEND
  0
POLYLINE
  8
LAYER_1
 40
0.0847
 41
0.0847
 66
1
 10
0
 20
0
 30
0
  0
VERTEX
  8
LAYER_1
 10
193.4574
 20
191.5252
  0
VERTEX
  8
LAYER_1
 10
193.1664
 20
190.9696
  0
SEQEND
  0
POLYLINE
  8
LAYER_1
 40
0.0847
 41
0.0847
 66
1
 10
0
 20
0
 30
0
  0
VERTEX
  8
LAYER_1
 10
193.8014
 20
192.1073
  0
VERTEX
  8
LAYER_1
 10
193.4574
 20
191.5252
  0
SEQEND
  0
POLYLINE
  8
LAYER_1
 40
0.0847
 41
0.0847
 66
1
 10
0
 20
0
 30
0
  0
VERTEX
  8
LAYER_1
 10
194.1718
 20
192.663
  0
VERTEX
  8
LAYER_1
 10
193.8014
 20
192.1073
  0
SEQEND
  0
POLYLINE
  8
LAYER_1
 40
0.0847
 41
0.0847
 66
1
 10
0
 20
0
 30
0
  0
VERTEX
  8
LAYER_1
 10
194.4099
 20
193.0069
  0
VERTEX
  8
LAYER_1
 10
194.1718
 20
192.663
  0
SEQEND
  0
POLYLINE
  8
LAYER_1
 40
0.0847
 41
0.0847
 66
1
 10
0
 20
0
 30
0
  0
VERTEX
  8
LAYER_1
 10
113.6062
 20
189.6203
  0
VERTEX
  8
LAYER_1
 10
117.0193
 20
193.0069
  0
SEQEND
  0
POLYLINE
  8
LAYER_1
 40
0.0847
 41
0.0847
 66
1
 10
0
 20
0
 30
0
  0
VERTEX
  8
LAYER_1
 10
113.6062
 20
186.0749
  0
VERTEX
  8
LAYER_1
 10
120.5383
 20
193.0069
  0
SEQEND
  0
POLYLINE
  8
LAYER_1
 40
0.0847
 41
0.0847
 66
1
 10
0
 20
0
 30
0
  0
VERTEX
  8
LAYER_1
 10
113.6062
 20
182.5295
  0
VERTEX
  8
LAYER_1
 10
124.0837
 20
193.0069
  0
SEQEND
  0
POLYLINE
  8
LAYER_1
 40
0.0847
 41
0.0847
 66
1
 10
0
 20
0
 30
0
  0
VERTEX
  8
LAYER_1
 10
113.8708
 20
179.2751
  0
VERTEX
  8
LAYER_1
 10
127.6291
 20
193.0069
  0
SEQEND
  0
POLYLINE
  8
LAYER_1
 40
0.0847
 41
0.0847
 66
1
 10
0
 20
0
 30
0
  0
VERTEX
  8
LAYER_1
 10
117.4162
 20
179.2751
  0
VERTEX
  8
LAYER_1
 10
131.1481
 20
193.0069
  0
SEQEND
  0
POLYLINE
  8
LAYER_1
 40
0.0847
 41
0.0847
 66
1
 10
0
 20
0
 30
0
  0
VERTEX
  8
LAYER_1
 10
120.9352
 20
179.2751
  0
VERTEX
  8
LAYER_1
 10
134.6935
 20
193.0069
  0
SEQEND
  0
POLYLINE
  8
LAYER_1
 40
0.0847
 41
0.0847
 66
1
 10
0
 20
0
 30
0
  0
VERTEX
  8
LAYER_1
 10
124.4806
 20
179.2751
  0
VERTEX
  8
LAYER_1
 10
138.2125
 20
193.0069
  0
SEQEND
  0
POLYLINE
  8
LAYER_1
 40
0.0847
 41
0.0847
 66
1
 10
0
 20
0
 30
0
  0
VERTEX
  8
LAYER_1
 10
127.9996
 20
179.2751
  0
VERTEX
  8
LAYER_1
 10
141.7579
 20
193.0069
  0
SEQEND
  0
POLYLINE
  8
LAYER_1
 40
0.0847
 41
0.0847
 66
1
 10
0
 20
0
 30
0
  0
VERTEX
  8
LAYER_1
 10
131.545
 20
179.2751
  0
VERTEX
  8
LAYER_1
 10
145.2768
 20
193.0069
  0
SEQEND
  0
POLYLINE
  8
LAYER_1
 40
0.0847
 41
0.0847
 66
1
 10
0
 20
0
 30
0
  0
VERTEX
  8
LAYER_1
 10
135.0639
 20
179.2751
  0
VERTEX
  8
LAYER_1
 10
148.8223
 20
193.0069
  0
SEQEND
  0
POLYLINE
  8
LAYER_1
 40
0.1693
 41
0.1693
 66
1
 10
0
 20
0
 30
0
  0
VERTEX
  8
LAYER_1
 10
95.5351
 20
178.5076
  0
VERTEX
  8
LAYER_1
 10
115.4847
 20
178.5076
  0
VERTEX
  8
LAYER_1
 10
115.4847
 20
179.2749
  0
SEQEND
  0
POLYLINE
  8
LAYER_1
 40
0.1693
 41
0.1693
 66
1
 10
0
 20
0
 30
0
  0
VERTEX
  8
LAYER_1
 10
95.5351
 20
179.2749
  0
VERTEX
  8
LAYER_1
 10
115.4847
 20
179.2749
  0
SEQEND
  0
POLYLINE
  8
LAYER_1
 40
0.1693
 41
0.1693
 66
1
 10
0
 20
0
 30
0
  0
VERTEX
  8
LAYER_1
 10
95.5351
 20
178.5076
  0
VERTEX
  8
LAYER_1
 10
95.5351
 20
179.2749
  0
SEQEND
  0
POLYLINE
  8
LAYER_1
 40
0.0847
 41
0.0847
 66
1
 10
0
 20
0
 30
0
  0
VERTEX
  8
LAYER_1
 10
109.611
 20
178.5076
  0
VERTEX
  8
LAYER_1
 10
109.611
 20
178.6928
  0
SEQEND
  0
POLYLINE
  8
LAYER_1
 40
0.0847
 41
0.0847
 66
1
 10
0
 20
0
 30
0
  0
VERTEX
  8
LAYER_1
 10
109.611
 20
179.0633
  0
VERTEX
  8
LAYER_1
 10
109.611
 20
179.2749
  0
SEQEND
  0
POLYLINE
  8
LAYER_1
 40
0.0847
 41
0.0847
 66
1
 10
0
 20
0
 30
0
  0
VERTEX
  8
LAYER_1
 10
101.4089
 20
178.5076
  0
VERTEX
  8
LAYER_1
 10
101.4089
 20
178.6928
  0
SEQEND
  0
POLYLINE
  8
LAYER_1
 40
0.0847
 41
0.0847
 66
1
 10
0
 20
0
 30
0
  0
VERTEX
  8
LAYER_1
 10
101.4089
 20
179.0633
  0
VERTEX
  8
LAYER_1
 10
101.4089
 20
179.2749
  0
SEQEND
  0
POLYLINE
  8
LAYER_1
 40
0.1693
 41
0.1693
 66
1
 10
0
 20
0
 30
0
  0
VERTEX
  8
LAYER_1
 10
99.398
 20
191.578
  0
VERTEX
  8
LAYER_1
 10
111.6218
 20
191.578
  0
VERTEX
  8
LAYER_1
 10
111.6218
 20
192.213
  0
SEQEND
  0
POLYLINE
  8
LAYER_1
 40
0.1693
 41
0.1693
 66
1
 10
0
 20
0
 30
0
  0
VERTEX
  8
LAYER_1
 10
99.398
 20
192.213
  0
VERTEX
  8
LAYER_1
 10
111.6218
 20
192.213
  0
SEQEND
  0
POLYLINE
  8
LAYER_1
 40
0.1693
 41
0.1693
 66
1
 10
0
 20
0
 30
0
  0
VERTEX
  8
LAYER_1
 10
99.398
 20
191.578
  0
VERTEX
  8
LAYER_1
 10
99.398
 20
192.213
  0
SEQEND
  0
POLYLINE
  8
LAYER_1
 40
0.1693
 41
0.1693
 66
1
 10
0
 20
0
 30
0
  0
VERTEX
  8
LAYER_1
 10
100.7739
 20
190.0964
  0
VERTEX
  8
LAYER_1
 10
100.7739
 20
191.578
  0
SEQEND
  0
POLYLINE
  8
LAYER_1
 40
0.1693
 41
0.1693
 66
1
 10
0
 20
0
 30
0
  0
VERTEX
  8
LAYER_1
 10
100.7739
 20
190.0964
  0
VERTEX
  8
LAYER_1
 10
110.2459
 20
190.0964
  0
VERTEX
  8
LAYER_1
 10
110.2459
 20
191.578
  0
SEQEND
  0
POLYLINE
  8
LAYER_1
 40
0.1693
 41
0.1693
 66
1
 10
0
 20
0
 30
0
  0
VERTEX
  8
LAYER_1
 10
99.398
 20
177.8991
  0
VERTEX
  8
LAYER_1
 10
111.6218
 20
177.8991
  0
SEQEND
  0
POLYLINE
  8
LAYER_1
 40
0.1693
 41
0.1693
 66
1
 10
0
 20
0
 30
0
  0
VERTEX
  8
LAYER_1
 10
99.398
 20
178.5076
  0
VERTEX
  8
LAYER_1
 10
111.6218
 20
178.5076
  0
SEQEND
  0
POLYLINE
  8
LAYER_1
 40
0.1693
 41
0.1693
 66
1
 10
0
 20
0
 30
0
  0
VERTEX
  8
LAYER_1
 10
111.6218
 20
177.8991
  0
VERTEX
  8
LAYER_1
 10
111.6218
 20
178.5076
  0
SEQEND
  0
POLYLINE
  8
LAYER_1
 40
0.1693
 41
0.1693
 66
1
 10
0
 20
0
 30
0
  0
VERTEX
  8
LAYER_1
 10
99.398
 20
177.8991
  0
VERTEX
  8
LAYER_1
 10
99.398
 20
178.5076
  0
SEQEND
  0
POLYLINE
  8
LAYER_1
 40
0.1693
 41
0.1693
 66
1
 10
0
 20
0
 30
0
  0
VERTEX
  8
LAYER_1
 10
100.7739
 20
176.4174
  0
VERTEX
  8
LAYER_1
 10
100.7739
 20
177.8991
  0
SEQEND
  0
POLYLINE
  8
LAYER_1
 40
0.1693
 41
0.1693
 66
1
 10
0
 20
0
 30
0
  0
VERTEX
  8
LAYER_1
 10
100.7739
 20
176.4174
  0
VERTEX
  8
LAYER_1
 10
110.2459
 20
176.4174
  0
VERTEX
  8
LAYER_1
 10
110.2459
 20
177.8991
  0
SEQEND
  0
POLYLINE
  8
LAYER_1
 40
0.1693
 41
0.1693
 66
1
 10
0
 20
0
 30
0
  0
VERTEX
  8
LAYER_1
 10
101.5941
 20
194.1974
  0
VERTEX
  8
LAYER_1
 10
99.0276
 20
192.6893
  0
SEQEND
  0
POLYLINE
  8
LAYER_1
 40
0.1693
 41
0.1693
 66
1
 10
0
 20
0
 30
0
  0
VERTEX
  8
LAYER_1
 10
99.0276
 20
192.3189
  0
VERTEX
  8
LAYER_1
 10
99.0276
 20
192.6893
  0
SEQEND
  0
POLYLINE
  8
LAYER_1
 40
0.1693
 41
0.1693
 66
1
 10
0
 20
0
 30
0
  0
VERTEX
  8
LAYER_1
 10
99.0276
 20
192.3189
  0
VERTEX
  8
LAYER_1
 10
111.9922
 20
192.3189
  0
VERTEX
  8
LAYER_1
 10
111.9922
 20
192.6893
  0
SEQEND
  0
POLYLINE
  8
LAYER_1
 40
0.1693
 41
0.1693
 66
1
 10
0
 20
0
 30
0
  0
VERTEX
  8
LAYER_1
 10
109.4257
 20
194.1974
  0
VERTEX
  8
LAYER_1
 10
111.9922
 20
192.6893
  0
SEQEND
  0
POLYLINE
  8
LAYER_1
 40
0.1693
 41
0.1693
 66
1
 10
0
 20
0
 30
0
  0
VERTEX
  8
LAYER_1
 10
101.5941
 20
194.1974
  0
VERTEX
  8
LAYER_1
 10
109.4257
 20
194.1974
  0
SEQEND
  0
POLYLINE
  8
LAYER_1
 40
0.0847
 41
0.0847
 66
1
 10
0
 20
0
 30
0
  0
VERTEX
  8
LAYER_1
 10
99.0276
 20
192.6893
  0
VERTEX
  8
LAYER_1
 10
111.9922
 20
192.6893
  0
SEQEND
  0
POLYLINE
  8
LAYER_1
 40
0.1693
 41
0.1693
 66
1
 10
0
 20
0
 30
0
  0
VERTEX
  8
LAYER_1
 10
99.2658
 20
192.213
  0
VERTEX
  8
LAYER_1
 10
99.2658
 20
192.3189
  0
SEQEND
  0
POLYLINE
  8
LAYER_1
 40
0.1693
 41
0.1693
 66
1
 10
0
 20
0
 30
0
  0
VERTEX
  8
LAYER_1
 10
99.2658
 20
192.213
  0
VERTEX
  8
LAYER_1
 10
111.7541
 20
192.213
  0
VERTEX
  8
LAYER_1
 10
111.7541
 20
192.3189
  0
SEQEND
  0
POLYLINE
  8
LAYER_1
 40
0.1693
 41
0.1693
 66
1
 10
0
 20
0
 30
0
  0
VERTEX
  8
LAYER_1
 10
99.2658
 20
192.3189
  0
VERTEX
  8
LAYER_1
 10
111.7541
 20
192.3189
  0
SEQEND
  0
POLYLINE
  8
LAYER_1
 40
0.1693
 41
0.1693
 66
1
 10
0
 20
0
 30
0
  0
VERTEX
  8
LAYER_1
 10
97.7841
 20
194.2503
  0
VERTEX
  8
LAYER_1
 10
97.7841
 20
195.4938
  0
SEQEND
  0
POLYLINE
  8
LAYER_1
 40
0.1693
 41
0.1693
 66
1
 10
0
 20
0
 30
0
  0
VERTEX
  8
LAYER_1
 10
113.2358
 20
194.2503
  0
VERTEX
  8
LAYER_1
 10
113.2358
 20
195.4938
  0
SEQEND
  0
POLYLINE
  8
LAYER_1
 40
0.1693
 41
0.1693
 66
1
 10
0
 20
0
 30
0
  0
VERTEX
  8
LAYER_1
 10
94.2651
 20
194.2503
  0
VERTEX
  8
LAYER_1
 10
97.7841
 20
194.2503
  0
SEQEND
  0
POLYLINE
  8
LAYER_1
 40
0.1693
 41
0.1693
 66
1
 10
0
 20
0
 30
0
  0
VERTEX
  8
LAYER_1
 10
113.2358
 20
194.2503
  0
VERTEX
  8
LAYER_1
 10
116.7547
 20
194.2503
  0
SEQEND
  0
POLYLINE
  8
LAYER_1
 40
0.1693
 41
0.1693
 66
1
 10
0
 20
0
 30
0
  0
VERTEX
  8
LAYER_1
 10
94.2387
 20
194.2503
 42
0.4239263388
  0
VERTEX
  8
LAYER_1
 10
93.0216
 20
193.0332
  0
SEQEND
  0
POLYLINE
  8
LAYER_1
 40
0.1693
 41
0.1693
 66
1
 10
0
 20
0
 30
0
  0
VERTEX
  8
LAYER_1
 10
117.9983
 20
193.0332
 42
0.3809946571
  0
VERTEX
  8
LAYER_1
 10
116.7547
 20
194.2503
  0
VERTEX
  8
LAYER_1
 10
116.7283
 20
194.2503
  0
SEQEND
  0
POLYLINE
  8
LAYER_1
 40
0.0847
 41
0.0847
 66
1
 10
0
 20
0
 30
0
  0
VERTEX
  8
LAYER_1
 10
117.8924
 20
193.0068
  0
VERTEX
  8
LAYER_1
 10
117.9982
 20
193.1126
  0
SEQEND
  0
POLYLINE
  8
LAYER_1
 40
0.0847
 41
0.0847
 66
1
 10
0
 20
0
 30
0
  0
VERTEX
  8
LAYER_1
 10
117.522
 20
193.0068
  0
VERTEX
  8
LAYER_1
 10
117.9189
 20
193.4037
  0
SEQEND
  0
POLYLINE
  8
LAYER_1
 40
0.0847
 41
0.0847
 66
1
 10
0
 20
0
 30
0
  0
VERTEX
  8
LAYER_1
 10
117.178
 20
193.0068
  0
VERTEX
  8
LAYER_1
 10
117.813
 20
193.6418
  0
SEQEND
  0
POLYLINE
  8
LAYER_1
 40
0.0847
 41
0.0847
 66
1
 10
0
 20
0
 30
0
  0
VERTEX
  8
LAYER_1
 10
116.8341
 20
193.0068
  0
VERTEX
  8
LAYER_1
 10
117.6543
 20
193.8535
  0
SEQEND
  0
POLYLINE
  8
LAYER_1
 40
0.0847
 41
0.0847
 66
1
 10
0
 20
0
 30
0
  0
VERTEX
  8
LAYER_1
 10
116.4637
 20
193.0068
  0
VERTEX
  8
LAYER_1
 10
117.4691
 20
194.0122
  0
SEQEND
  0
POLYLINE
  8
LAYER_1
 40
0.0847
 41
0.0847
 66
1
 10
0
 20
0
 30
0
  0
VERTEX
  8
LAYER_1
 10
116.1197
 20
193.0068
  0
VERTEX
  8
LAYER_1
 10
117.2574
 20
194.1445
  0
SEQEND
  0
POLYLINE
  8
LAYER_1
 40
0.0847
 41
0.0847
 66
1
 10
0
 20
0
 30
0
  0
VERTEX
  8
LAYER_1
 10
115.7758
 20
193.0068
  0
VERTEX
  8
LAYER_1
 10
116.9928
 20
194.2239
  0
SEQEND
  0
POLYLINE
  8
LAYER_1
 40
0.0847
 41
0.0847
 66
1
 10
0
 20
0
 30
0
  0
VERTEX
  8
LAYER_1
 10
115.4053
 20
193.0068
  0
VERTEX
  8
LAYER_1
 10
116.6489
 20
194.2503
  0
SEQEND
  0
POLYLINE
  8
LAYER_1
 40
0.0847
 41
0.0847
 66
1
 10
0
 20
0
 30
0
  0
VERTEX
  8
LAYER_1
 10
115.0614
 20
193.0068
  0
VERTEX
  8
LAYER_1
 10
116.3049
 20
194.2503
  0
SEQEND
  0
POLYLINE
  8
LAYER_1
 40
0.0847
 41
0.0847
 66
1
 10
0
 20
0
 30
0
  0
VERTEX
  8
LAYER_1
 10
114.7174
 20
193.0068
  0
VERTEX
  8
LAYER_1
 10
115.961
 20
194.2503
  0
SEQEND
  0
POLYLINE
  8
LAYER_1
 40
0.0847
 41
0.0847
 66
1
 10
0
 20
0
 30
0
  0
VERTEX
  8
LAYER_1
 10
114.347
 20
193.0068
  0
VERTEX
  8
LAYER_1
 10
115.5905
 20
194.2503
  0
SEQEND
  0
POLYLINE
  8
LAYER_1
 40
0.0847
 41
0.0847
 66
1
 10
0
 20
0
 30
0
  0
VERTEX
  8
LAYER_1
 10
114.003
 20
193.0068
  0
VERTEX
  8
LAYER_1
 10
115.2466
 20
194.2503
  0
SEQEND
  0
POLYLINE
  8
LAYER_1
 40
0.0847
 41
0.0847
 66
1
 10
0
 20
0
 30
0
  0
VERTEX
  8
LAYER_1
 10
113.6326
 20
193.0068
  0
VERTEX
  8
LAYER_1
 10
114.9026
 20
194.2503
  0
SEQEND
  0
POLYLINE
  8
LAYER_1
 40
0.0847
 41
0.0847
 66
1
 10
0
 20
0
 30
0
  0
VERTEX
  8
LAYER_1
 10
113.2887
 20
193.0068
  0
VERTEX
  8
LAYER_1
 10
114.5322
 20
194.2503
  0
SEQEND
  0
POLYLINE
  8
LAYER_1
 40
0.0847
 41
0.0847
 66
1
 10
0
 20
0
 30
0
  0
VERTEX
  8
LAYER_1
 10
112.9447
 20
193.0068
  0
VERTEX
  8
LAYER_1
 10
114.1882
 20
194.2503
  0
SEQEND
  0
POLYLINE
  8
LAYER_1
 40
0.0847
 41
0.0847
 66
1
 10
0
 20
0
 30
0
  0
VERTEX
  8
LAYER_1
 10
112.5743
 20
193.0068
  0
VERTEX
  8
LAYER_1
 10
113.8443
 20
194.2503
  0
SEQEND
  0
POLYLINE
  8
LAYER_1
 40
0.0847
 41
0.0847
 66
1
 10
0
 20
0
 30
0
  0
VERTEX
  8
LAYER_1
 10
112.2303
 20
193.0068
  0
VERTEX
  8
LAYER_1
 10
113.4739
 20
194.2503
  0
SEQEND
  0
POLYLINE
  8
LAYER_1
 40
0.0847
 41
0.0847
 66
1
 10
0
 20
0
 30
0
  0
VERTEX
  8
LAYER_1
 10
111.8864
 20
193.0068
  0
VERTEX
  8
LAYER_1
 10
113.2358
 20
194.3826
  0
SEQEND
  0
POLYLINE
  8
LAYER_1
 40
0.0847
 41
0.0847
 66
1
 10
0
 20
0
 30
0
  0
VERTEX
  8
LAYER_1
 10
97.0697
 20
193.0068
  0
VERTEX
  8
LAYER_1
 10
99.5568
 20
195.4939
  0
SEQEND
  0
POLYLINE
  8
LAYER_1
 40
0.0847
 41
0.0847
 66
1
 10
0
 20
0
 30
0
  0
VERTEX
  8
LAYER_1
 10
96.6993
 20
193.0068
  0
VERTEX
  8
LAYER_1
 10
99.2128
 20
195.4939
  0
SEQEND
  0
POLYLINE
  8
LAYER_1
 40
0.0847
 41
0.0847
 66
1
 10
0
 20
0
 30
0
  0
VERTEX
  8
LAYER_1
 10
96.3553
 20
193.0068
  0
VERTEX
  8
LAYER_1
 10
97.5989
 20
194.2503
  0
SEQEND
  0
POLYLINE
  8
LAYER_1
 40
0.0847
 41
0.0847
 66
1
 10
0
 20
0
 30
0
  0
VERTEX
  8
LAYER_1
 10
97.7841
 20
194.4355
  0
VERTEX
  8
LAYER_1
 10
98.8424
 20
195.4939
  0
SEQEND
  0
POLYLINE
  8
LAYER_1
 40
0.0847
 41
0.0847
 66
1
 10
0
 20
0
 30
0
  0
VERTEX
  8
LAYER_1
 10
96.0114
 20
193.0068
  0
VERTEX
  8
LAYER_1
 10
97.2549
 20
194.2503
  0
SEQEND
  0
POLYLINE
  8
LAYER_1
 40
0.0847
 41
0.0847
 66
1
 10
0
 20
0
 30
0
  0
VERTEX
  8
LAYER_1
 10
97.7841
 20
194.7795
  0
VERTEX
  8
LAYER_1
 10
98.4985
 20
195.4939
  0
SEQEND
  0
POLYLINE
  8
LAYER_1
 40
0.0847
 41
0.0847
 66
1
 10
0
 20
0
 30
0
  0
VERTEX
  8
LAYER_1
 10
95.641
 20
193.0068
  0
VERTEX
  8
LAYER_1
 10
96.8845
 20
194.2503
  0
SEQEND
  0
POLYLINE
  8
LAYER_1
 40
0.0847
 41
0.0847
 66
1
 10
0
 20
0
 30
0
  0
VERTEX
  8
LAYER_1
 10
97.7841
 20
195.1235
  0
VERTEX
  8
LAYER_1
 10
98.1545
 20
195.4939
  0
SEQEND
  0
POLYLINE
  8
LAYER_1
 40
0.0847
 41
0.0847
 66
1
 10
0
 20
0
 30
0
  0
VERTEX
  8
LAYER_1
 10
95.297
 20
193.0068
  0
VERTEX
  8
LAYER_1
 10
96.5405
 20
194.2503
  0
SEQEND
  0
POLYLINE
  8
LAYER_1
 40
0.0847
 41
0.0847
 66
1
 10
0
 20
0
 30
0
  0
VERTEX
  8
LAYER_1
 10
97.7841
 20
195.4939
  0
SEQEND
  0
POLYLINE
  8
LAYER_1
 40
0.0847
 41
0.0847
 66
1
 10
0
 20
0
 30
0
  0
VERTEX
  8
LAYER_1
 10
94.953
 20
193.0068
  0
VERTEX
  8
LAYER_1
 10
96.1966
 20
194.2503
  0
SEQEND
  0
POLYLINE
  8
LAYER_1
 40
0.0847
 41
0.0847
 66
1
 10
0
 20
0
 30
0
  0
VERTEX
  8
LAYER_1
 10
94.5826
 20
193.0068
  0
VERTEX
  8
LAYER_1
 10
95.8262
 20
194.2503
  0
SEQEND
  0
POLYLINE
  8
LAYER_1
 40
0.0847
 41
0.0847
 66
1
 10
0
 20
0
 30
0
  0
VERTEX
  8
LAYER_1
 10
94.2387
 20
193.0068
  0
VERTEX
  8
LAYER_1
 10
95.4822
 20
194.2503
  0
SEQEND
  0
POLYLINE
  8
LAYER_1
 40
0.0847
 41
0.0847
 66
1
 10
0
 20
0
 30
0
  0
VERTEX
  8
LAYER_1
 10
93.8683
 20
193.0068
  0
VERTEX
  8
LAYER_1
 10
95.1382
 20
194.2503
  0
SEQEND
  0
POLYLINE
  8
LAYER_1
 40
0.0847
 41
0.0847
 66
1
 10
0
 20
0
 30
0
  0
VERTEX
  8
LAYER_1
 10
93.5243
 20
193.0068
  0
VERTEX
  8
LAYER_1
 10
94.7678
 20
194.2503
  0
SEQEND
  0
POLYLINE
  8
LAYER_1
 40
0.0847
 41
0.0847
 66
1
 10
0
 20
0
 30
0
  0
VERTEX
  8
LAYER_1
 10
93.1803
 20
193.0068
  0
VERTEX
  8
LAYER_1
 10
94.4239
 20
194.2503
  0
SEQEND
  0
POLYLINE
  8
LAYER_1
 40
0.0847
 41
0.0847
 66
1
 10
0
 20
0
 30
0
  0
VERTEX
  8
LAYER_1
 10
93.0481
 20
193.2449
  0
VERTEX
  8
LAYER_1
 10
94.0535
 20
194.2239
  0
SEQEND
  0
POLYLINE
  8
LAYER_1
 40
0.0847
 41
0.0847
 66
1
 10
0
 20
0
 30
0
  0
VERTEX
  8
LAYER_1
 10
111.172
 20
193.3507
  0
VERTEX
  8
LAYER_1
 10
113.2358
 20
195.4409
  0
SEQEND
  0
POLYLINE
  8
LAYER_1
 40
0.1693
 41
0.1693
 66
1
 10
0
 20
0
 30
0
  0
VERTEX
  8
LAYER_1
 10
100.9326
 20
194.0916
  0
VERTEX
  8
LAYER_1
 10
99.398
 20
193.0068
  0
SEQEND
  0
POLYLINE
  8
LAYER_1
 40
0.1693
 41
0.1693
 66
1
 10
0
 20
0
 30
0
  0
VERTEX
  8
LAYER_1
 10
100.9062
 20
194.0916
 42
0.2069348697
  0
VERTEX
  8
LAYER_1
 10
101.012
 20
194.2768
 42
0.2516645356
  0
VERTEX
  8
LAYER_1
 10
100.9062
 20
194.462
  0
SEQEND
  0
POLYLINE
  8
LAYER_1
 40
0.1693
 41
0.1693
 66
1
 10
0
 20
0
 30
0
  0
VERTEX
  8
LAYER_1
 10
100.9591
 20
194.462
  0
VERTEX
  8
LAYER_1
 10
99.8478
 20
195.4939
  0
SEQEND
  0
POLYLINE
  8
LAYER_1
 40
0.0847
 41
0.0847
 66
1
 10
0
 20
0
 30
0
  0
VERTEX
  8
LAYER_1
 10
97.7576
 20
193.0068
  0
VERTEX
  8
LAYER_1
 10
100.0595
 20
195.3087
  0
SEQEND
  0
POLYLINE
  8
LAYER_1
 40
0.0847
 41
0.0847
 66
1
 10
0
 20
0
 30
0
  0
VERTEX
  8
LAYER_1
 10
97.4137
 20
193.0068
  0
VERTEX
  8
LAYER_1
 10
99.8743
 20
195.4674
  0
SEQEND
  0
POLYLINE
  8
LAYER_1
 40
0.0847
 41
0.0847
 66
1
 10
0
 20
0
 30
0
  0
VERTEX
  8
LAYER_1
 10
98.128
 20
193.0068
  0
VERTEX
  8
LAYER_1
 10
100.2447
 20
195.1235
  0
SEQEND
  0
POLYLINE
  8
LAYER_1
 40
0.0847
 41
0.0847
 66
1
 10
0
 20
0
 30
0
  0
VERTEX
  8
LAYER_1
 10
98.472
 20
193.0068
  0
VERTEX
  8
LAYER_1
 10
100.4299
 20
194.9647
  0
SEQEND
  0
POLYLINE
  8
LAYER_1
 40
0.0847
 41
0.0847
 66
1
 10
0
 20
0
 30
0
  0
VERTEX
  8
LAYER_1
 10
98.816
 20
193.0068
  0
VERTEX
  8
LAYER_1
 10
100.6151
 20
194.7795
  0
SEQEND
  0
POLYLINE
  8
LAYER_1
 40
0.0847
 41
0.0847
 66
1
 10
0
 20
0
 30
0
  0
VERTEX
  8
LAYER_1
 10
99.1864
 20
193.0068
  0
VERTEX
  8
LAYER_1
 10
100.8003
 20
194.6207
  0
SEQEND
  0
POLYLINE
  8
LAYER_1
 40
0.0847
 41
0.0847
 66
1
 10
0
 20
0
 30
0
  0
VERTEX
  8
LAYER_1
 10
99.8743
 20
193.3508
  0
VERTEX
  8
LAYER_1
 10
100.9591
 20
194.4355
  0
SEQEND
  0
POLYLINE
  8
LAYER_1
 40
0.1693
 41
0.1693
 66
1
 10
0
 20
0
 30
0
  0
VERTEX
  8
LAYER_1
 10
110.0607
 20
194.462
  0
VERTEX
  8
LAYER_1
 10
111.172
 20
195.4939
  0
SEQEND
  0
POLYLINE
  8
LAYER_1
 40
0.1693
 41
0.1693
 66
1
 10
0
 20
0
 30
0
  0
VERTEX
  8
LAYER_1
 10
110.0607
 20
194.462
 42
0.2088332542
  0
VERTEX
  8
LAYER_1
 10
110.0078
 20
194.2768
 42
0.2701646886
  0
VERTEX
  8
LAYER_1
 10
110.0872
 20
194.118
  0
SEQEND
  0
POLYLINE
  8
LAYER_1
 40
0.1693
 41
0.1693
 66
1
 10
0
 20
0
 30
0
  0
VERTEX
  8
LAYER_1
 10
110.0872
 20
194.0916
  0
VERTEX
  8
LAYER_1
 10
111.6218
 20
193.0068
  0
SEQEND
  0
POLYLINE
  8
LAYER_1
 40
0.0847
 41
0.0847
 66
1
 10
0
 20
0
 30
0
  0
VERTEX
  8
LAYER_1
 10
110.1137
 20
194.0651
  0
VERTEX
  8
LAYER_1
 10
111.5424
 20
195.4939
  0
SEQEND
  0
POLYLINE
  8
LAYER_1
 40
0.0847
 41
0.0847
 66
1
 10
0
 20
0
 30
0
  0
VERTEX
  8
LAYER_1
 10
110.537
 20
193.7741
  0
VERTEX
  8
LAYER_1
 10
112.2568
 20
195.4939
  0
SEQEND
  0
POLYLINE
  8
LAYER_1
 40
0.0847
 41
0.0847
 66
1
 10
0
 20
0
 30
0
  0
VERTEX
  8
LAYER_1
 10
110.3253
 20
193.9328
  0
VERTEX
  8
LAYER_1
 10
111.9128
 20
195.4939
  0
SEQEND
  0
POLYLINE
  8
LAYER_1
 40
0.0847
 41
0.0847
 66
1
 10
0
 20
0
 30
0
  0
VERTEX
  8
LAYER_1
 10
110.7487
 20
193.6418
  0
VERTEX
  8
LAYER_1
 10
112.6007
 20
195.4939
  0
SEQEND
  0
POLYLINE
  8
LAYER_1
 40
0.0847
 41
0.0847
 66
1
 10
0
 20
0
 30
0
  0
VERTEX
  8
LAYER_1
 10
110.9339
 20
193.4831
  0
VERTEX
  8
LAYER_1
 10
112.9712
 20
195.4939
  0
SEQEND
  0
POLYLINE
  8
LAYER_1
 40
0.0847
 41
0.0847
 66
1
 10
0
 20
0
 30
0
  0
VERTEX
  8
LAYER_1
 10
109.9814
 20
194.3033
  0
VERTEX
  8
LAYER_1
 10
111.1984
 20
195.4939
  0
SEQEND
  0
POLYLINE
  8
LAYER_1
 40
0.0847
 41
0.0847
 66
1
 10
0
 20
0
 30
0
  0
VERTEX
  8
LAYER_1
 10
111.3572
 20
193.192
  0
VERTEX
  8
LAYER_1
 10
113.2357
 20
195.0705
  0
SEQEND
  0
POLYLINE
  8
LAYER_1
 40
0.0847
 41
0.0847
 66
1
 10
0
 20
0
 30
0
  0
VERTEX
  8
LAYER_1
 10
111.5689
 20
193.0597
  0
VERTEX
  8
LAYER_1
 10
113.2357
 20
194.7266
  0
SEQEND
  0
POLYLINE
  8
LAYER_1
 40
0.0847
 41
0.0847
 66
1
 10
0
 20
0
 30
0
  0
VERTEX
  8
LAYER_1
 10
99.3451
 20
195.1235
  0
VERTEX
  8
LAYER_1
 10
99.3451
 20
195.2028
  0
SEQEND
  0
POLYLINE
  8
LAYER_1
 40
0.0847
 41
0.0847
 66
1
 10
0
 20
0
 30
0
  0
VERTEX
  8
LAYER_1
 10
99.3451
 20
195.388
  0
VERTEX
  8
LAYER_1
 10
99.3451
 20
195.4939
  0
SEQEND
  0
POLYLINE
  8
LAYER_1
 40
0.0847
 41
0.0847
 66
1
 10
0
 20
0
 30
0
  0
VERTEX
  8
LAYER_1
 10
98.8424
 20
195.1235
  0
VERTEX
  8
LAYER_1
 10
98.8424
 20
195.2028
  0
SEQEND
  0
POLYLINE
  8
LAYER_1
 40
0.0847
 41
0.0847
 66
1
 10
0
 20
0
 30
0
  0
VERTEX
  8
LAYER_1
 10
98.8424
 20
195.388
  0
VERTEX
  8
LAYER_1
 10
98.8424
 20
195.4939
  0
SEQEND
  0
POLYLINE
  8
LAYER_1
 40
0.0847
 41
0.0847
 66
1
 10
0
 20
0
 30
0
  0
VERTEX
  8
LAYER_1
 10
98.8424
 20
195.1235
  0
VERTEX
  8
LAYER_1
 10
98.9482
 20
195.1235
  0
SEQEND
  0
POLYLINE
  8
LAYER_1
 40
0.0847
 41
0.0847
 66
1
 10
0
 20
0
 30
0
  0
VERTEX
  8
LAYER_1
 10
99.2128
 20
195.1235
  0
VERTEX
  8
LAYER_1
 10
99.3451
 20
195.1235
  0
SEQEND
  0
POLYLINE
  8
LAYER_1
 40
0.0847
 41
0.0847
 66
1
 10
0
 20
0
 30
0
  0
VERTEX
  8
LAYER_1
 10
95.4028
 20
193.0068
  0
VERTEX
  8
LAYER_1
 10
95.4028
 20
193.0862
  0
SEQEND
  0
POLYLINE
  8
LAYER_1
 40
0.0847
 41
0.0847
 66
1
 10
0
 20
0
 30
0
  0
VERTEX
  8
LAYER_1
 10
95.4028
 20
193.2714
  0
VERTEX
  8
LAYER_1
 10
95.4028
 20
193.3772
  0
VERTEX
  8
LAYER_1
 10
95.5086
 20
193.3772
  0
SEQEND
  0
POLYLINE
  8
LAYER_1
 40
0.0847
 41
0.0847
 66
1
 10
0
 20
0
 30
0
  0
VERTEX
  8
LAYER_1
 10
95.7732
 20
193.3772
  0
VERTEX
  8
LAYER_1
 10
95.9055
 20
193.3772
  0
SEQEND
  0
POLYLINE
  8
LAYER_1
 40
0.0847
 41
0.0847
 66
1
 10
0
 20
0
 30
0
  0
VERTEX
  8
LAYER_1
 10
95.9055
 20
193.0068
  0
VERTEX
  8
LAYER_1
 10
95.9055
 20
193.0861
  0
SEQEND
  0
POLYLINE
  8
LAYER_1
 40
0.0847
 41
0.0847
 66
1
 10
0
 20
0
 30
0
  0
VERTEX
  8
LAYER_1
 10
95.9055
 20
193.2713
  0
VERTEX
  8
LAYER_1
 10
95.9055
 20
193.3772
  0
SEQEND
  0
POLYLINE
  8
LAYER_1
 40
0.0847
 41
0.0847
 66
1
 10
0
 20
0
 30
0
  0
VERTEX
  8
LAYER_1
 10
111.6747
 20
195.1234
  0
VERTEX
  8
LAYER_1
 10
111.6747
 20
195.2028
  0
SEQEND
  0
POLYLINE
  8
LAYER_1
 40
0.0847
 41
0.0847
 66
1
 10
0
 20
0
 30
0
  0
VERTEX
  8
LAYER_1
 10
111.6747
 20
195.388
  0
VERTEX
  8
LAYER_1
 10
111.6747
 20
195.4938
  0
SEQEND
  0
POLYLINE
  8
LAYER_1
 40
0.0847
 41
0.0847
 66
1
 10
0
 20
0
 30
0
  0
VERTEX
  8
LAYER_1
 10
111.6747
 20
195.1234
  0
VERTEX
  8
LAYER_1
 10
111.7805
 20
195.1234
  0
SEQEND
  0
POLYLINE
  8
LAYER_1
 40
0.0847
 41
0.0847
 66
1
 10
0
 20
0
 30
0
  0
VERTEX
  8
LAYER_1
 10
112.0451
 20
195.1234
  0
VERTEX
  8
LAYER_1
 10
112.1774
 20
195.1234
  0
VERTEX
  8
LAYER_1
 10
112.1774
 20
195.2028
  0
SEQEND
  0
POLYLINE
  8
LAYER_1
 40
0.0847
 41
0.0847
 66
1
 10
0
 20
0
 30
0
  0
VERTEX
  8
LAYER_1
 10
112.1774
 20
195.388
  0
VERTEX
  8
LAYER_1
 10
112.1774
 20
195.4938
  0
SEQEND
  0
POLYLINE
  8
LAYER_1
 40
0.0847
 41
0.0847
 66
1
 10
0
 20
0
 30
0
  0
VERTEX
  8
LAYER_1
 10
115.1143
 20
193.0067
  0
VERTEX
  8
LAYER_1
 10
115.1143
 20
193.0861
  0
SEQEND
  0
POLYLINE
  8
LAYER_1
 40
0.0847
 41
0.0847
 66
1
 10
0
 20
0
 30
0
  0
VERTEX
  8
LAYER_1
 10
115.1143
 20
193.2713
  0
VERTEX
  8
LAYER_1
 10
115.1143
 20
193.3771
  0
VERTEX
  8
LAYER_1
 10
115.2201
 20
193.3771
  0
SEQEND
  0
POLYLINE
  8
LAYER_1
 40
0.0847
 41
0.0847
 66
1
 10
0
 20
0
 30
0
  0
VERTEX
  8
LAYER_1
 10
115.4847
 20
193.3771
  0
VERTEX
  8
LAYER_1
 10
115.617
 20
193.3771
  0
SEQEND
  0
POLYLINE
  8
LAYER_1
 40
0.0847
 41
0.0847
 66
1
 10
0
 20
0
 30
0
  0
VERTEX
  8
LAYER_1
 10
115.617
 20
193.0067
  0
VERTEX
  8
LAYER_1
 10
115.617
 20
193.0861
  0
SEQEND
  0
POLYLINE
  8
LAYER_1
 40
0.0847
 41
0.0847
 66
1
 10
0
 20
0
 30
0
  0
VERTEX
  8
LAYER_1
 10
115.617
 20
193.2713
  0
VERTEX
  8
LAYER_1
 10
115.617
 20
193.3771
  0
SEQEND
  0
POLYLINE
  8
LAYER_1
 40
0.1693
 41
0.1693
 66
1
 10
0
 20
0
 30
0
  0
VERTEX
  8
LAYER_1
 10
97.7841
 20
195.4939
  0
VERTEX
  8
LAYER_1
 10
101.2237
 20
195.4939
  0
SEQEND
  0
POLYLINE
  8
LAYER_1
 40
0.1693
 41
0.1693
 66
1
 10
0
 20
0
 30
0
  0
VERTEX
  8
LAYER_1
 10
109.7962
 20
195.4939
  0
VERTEX
  8
LAYER_1
 10
113.2357
 20
195.4939
  0
SEQEND
  0
POLYLINE
  8
LAYER_1
 40
0.1693
 41
0.1693
 66
1
 10
0
 20
0
 30
0
  0
VERTEX
  8
LAYER_1
 10
93.0216
 20
193.0068
  0
VERTEX
  8
LAYER_1
 10
99.5568
 20
193.0068
  0
SEQEND
  0
POLYLINE
  8
LAYER_1
 40
0.1693
 41
0.1693
 66
1
 10
0
 20
0
 30
0
  0
VERTEX
  8
LAYER_1
 10
111.463
 20
193.0068
  0
VERTEX
  8
LAYER_1
 10
117.9982
 20
193.0068
  0
SEQEND
  0
POLYLINE
  8
LAYER_1
 40
0.0847
 41
0.0847
 66
1
 10
0
 20
0
 30
0
  0
VERTEX
  8
LAYER_1
 10
101.7264
 20
193.9064
  0
VERTEX
  8
LAYER_1
 10
101.6999
 20
193.9328
  0
SEQEND
  0
POLYLINE
  8
LAYER_1
 40
0.0847
 41
0.0847
 66
1
 10
0
 20
0
 30
0
  0
VERTEX
  8
LAYER_1
 10
101.5941
 20
194.0387
  0
VERTEX
  8
LAYER_1
 10
101.5412
 20
194.0916
  0
SEQEND
  0
POLYLINE
  8
LAYER_1
 40
0.0847
 41
0.0847
 66
1
 10
0
 20
0
 30
0
  0
VERTEX
  8
LAYER_1
 10
109.2935
 20
193.9064
  0
VERTEX
  8
LAYER_1
 10
109.3199
 20
193.9328
  0
SEQEND
  0
POLYLINE
  8
LAYER_1
 40
0.0847
 41
0.0847
 66
1
 10
0
 20
0
 30
0
  0
VERTEX
  8
LAYER_1
 10
109.4257
 20
194.0387
  0
VERTEX
  8
LAYER_1
 10
109.4787
 20
194.0916
  0
SEQEND
  0
POLYLINE
  8
LAYER_1
 40
0.0847
 41
0.0847
 66
1
 10
0
 20
0
 30
0
  0
VERTEX
  8
LAYER_1
 10
105.5099
 20
190.0964
  0
VERTEX
  8
LAYER_1
 10
105.5099
 20
191.578
  0
SEQEND
  0
POLYLINE
  8
LAYER_1
 40
0.0847
 41
0.0847
 66
1
 10
0
 20
0
 30
0
  0
VERTEX
  8
LAYER_1
 10
105.5099
 20
176.4174
  0
VERTEX
  8
LAYER_1
 10
105.5099
 20
177.8991
  0
SEQEND
  0
POLYLINE
  8
LAYER_1
 40
0.1693
 41
0.1693
 66
1
 10
0
 20
0
 30
0
  0
VERTEX
  8
LAYER_1
 10
112.6007
 20
198.2985
  0
VERTEX
  8
LAYER_1
 10
112.5478
 20
198.272
  0
SEQEND
  0
POLYLINE
  8
LAYER_1
 40
0.1693
 41
0.1693
 66
1
 10
0
 20
0
 30
0
  0
VERTEX
  8
LAYER_1
 10
112.5214
 20
198.2191
  0
VERTEX
  8
LAYER_1
 10
112.442
 20
198.1662
  0
VERTEX
  8
LAYER_1
 10
112.3891
 20
198.1397
  0
SEQEND
  0
POLYLINE
  8
LAYER_1
 40
0.1693
 41
0.1693
 66
1
 10
0
 20
0
 30
0
  0
VERTEX
  8
LAYER_1
 10
112.3626
 20
198.0868
  0
VERTEX
  8
LAYER_1
 10
112.2832
 20
198.0339
  0
SEQEND
  0
POLYLINE
  8
LAYER_1
 40
0.0847
 41
0.0847
 66
1
 10
0
 20
0
 30
0
  0
VERTEX
  8
LAYER_1
 10
101.7264
 20
193.9064
  0
VERTEX
  8
LAYER_1
 10
102.3349
 20
193.9064
  0
SEQEND
  0
POLYLINE
  8
LAYER_1
 40
0.0847
 41
0.0847
 66
1
 10
0
 20
0
 30
0
  0
VERTEX
  8
LAYER_1
 10
103.6049
 20
193.9064
  0
VERTEX
  8
LAYER_1
 10
104.8749
 20
193.9064
  0
SEQEND
  0
POLYLINE
  8
LAYER_1
 40
0.0847
 41
0.0847
 66
1
 10
0
 20
0
 30
0
  0
VERTEX
  8
LAYER_1
 10
106.1185
 20
193.9064
  0
VERTEX
  8
LAYER_1
 10
107.3885
 20
193.9064
  0
SEQEND
  0
POLYLINE
  8
LAYER_1
 40
0.0847
 41
0.0847
 66
1
 10
0
 20
0
 30
0
  0
VERTEX
  8
LAYER_1
 10
108.6585
 20
193.9064
  0
VERTEX
  8
LAYER_1
 10
109.2935
 20
193.9064
  0
SEQEND
  0
POLYLINE
  8
LAYER_1
 40
0.0847
 41
0.0847
 66
1
 10
0
 20
0
 30
0
  0
VERTEX
  8
LAYER_1
 10
101.5412
 20
194.0916
  0
VERTEX
  8
LAYER_1
 10
102.2026
 20
194.0916
  0
SEQEND
  0
POLYLINE
  8
LAYER_1
 40
0.0847
 41
0.0847
 66
1
 10
0
 20
0
 30
0
  0
VERTEX
  8
LAYER_1
 10
103.5256
 20
194.0916
  0
VERTEX
  8
LAYER_1
 10
104.8485
 20
194.0916
  0
SEQEND
  0
POLYLINE
  8
LAYER_1
 40
0.0847
 41
0.0847
 66
1
 10
0
 20
0
 30
0
  0
VERTEX
  8
LAYER_1
 10
106.1714
 20
194.0916
  0
VERTEX
  8
LAYER_1
 10
107.4943
 20
194.0916
  0
SEQEND
  0
POLYLINE
  8
LAYER_1
 40
0.0847
 41
0.0847
 66
1
 10
0
 20
0
 30
0
  0
VERTEX
  8
LAYER_1
 10
108.8172
 20
194.0916
  0
VERTEX
  8
LAYER_1
 10
109.4787
 20
194.0916
  0
SEQEND
  0
POLYLINE
  8
LAYER_1
 40
0.1693
 41
0.1693
 66
1
 10
0
 20
0
 30
0
  0
VERTEX
  8
LAYER_1
 10
101.7264
 20
193.9064
  0
VERTEX
  8
LAYER_1
 10
101.5412
 20
194.0916
  0
SEQEND
  0
POLYLINE
  8
LAYER_1
 40
0.1693
 41
0.1693
 66
1
 10
0
 20
0
 30
0
  0
VERTEX
  8
LAYER_1
 10
109.2935
 20
193.9064
  0
VERTEX
  8
LAYER_1
 10
109.4787
 20
194.0916
  0
SEQEND
  0
POLYLINE
  8
LAYER_1
 40
0.1693
 41
0.1693
 66
1
 10
0
 20
0
 30
0
  0
VERTEX
  8
LAYER_1
 10
98.9483
 20
198.3514
 42
0.3899464858
  0
VERTEX
  8
LAYER_1
 10
98.816
 20
198.2455
  0
SEQEND
  0
POLYLINE
  8
LAYER_1
 40
0.1693
 41
0.1693
 66
1
 10
0
 20
0
 30
0
  0
VERTEX
  8
LAYER_1
 10
98.816
 20
198.1926
  0
VERTEX
  8
LAYER_1
 10
98.816
 20
198.1662
 42
0.2987925274
  0
VERTEX
  8
LAYER_1
 10
98.8953
 20
198.0603
  0
SEQEND
  0
POLYLINE
  8
LAYER_1
 40
0.1693
 41
0.1693
 66
1
 10
0
 20
0
 30
0
  0
VERTEX
  8
LAYER_1
 10
98.816
 20
198.1662
  0
VERTEX
  8
LAYER_1
 10
98.816
 20
198.2191
  0
SEQEND
  0
POLYLINE
  8
LAYER_1
 40
0.1693
 41
0.1693
 66
1
 10
0
 20
0
 30
0
  0
VERTEX
  8
LAYER_1
 10
98.9218
 20
198.0604
  0
VERTEX
  8
LAYER_1
 10
100.1389
 20
197.637
  0
SEQEND
  0
POLYLINE
  8
LAYER_1
 40
0.1693
 41
0.1693
 66
1
 10
0
 20
0
 30
0
  0
VERTEX
  8
LAYER_1
 10
100.9062
 20
196.711
 42
0.276804832
  0
VERTEX
  8
LAYER_1
 10
100.086
 20
197.637
  0
SEQEND
  0
POLYLINE
  8
LAYER_1
 40
0.1693
 41
0.1693
 66
1
 10
0
 20
0
 30
0
  0
VERTEX
  8
LAYER_1
 10
98.9747
 20
198.3514
  0
VERTEX
  8
LAYER_1
 10
112.0451
 20
198.3514
  0
SEQEND
  0
POLYLINE
  8
LAYER_1
 40
0.1693
 41
0.1693
 66
1
 10
0
 20
0
 30
0
  0
VERTEX
  8
LAYER_1
 10
112.1774
 20
198.2456
 42
0.441191894
  0
VERTEX
  8
LAYER_1
 10
112.0716
 20
198.3514
  0
VERTEX
  8
LAYER_1
 10
112.0187
 20
198.3514
  0
SEQEND
  0
POLYLINE
  8
LAYER_1
 40
0.1693
 41
0.1693
 66
1
 10
0
 20
0
 30
0
  0
VERTEX
  8
LAYER_1
 10
112.0716
 20
198.0604
 42
0.390056353
  0
VERTEX
  8
LAYER_1
 10
112.2039
 20
198.1662
 42
0.5029586175
  0
VERTEX
  8
LAYER_1
 10
112.1774
 20
198.1926
  0
SEQEND
  0
POLYLINE
  8
LAYER_1
 40
0.1693
 41
0.1693
 66
1
 10
0
 20
0
 30
0
  0
VERTEX
  8
LAYER_1
 10
112.2039
 20
198.1662
  0
VERTEX
  8
LAYER_1
 10
112.2039
 20
198.2191
  0
SEQEND
  0
POLYLINE
  8
LAYER_1
 40
0.1693
 41
0.1693
 66
1
 10
0
 20
0
 30
0
  0
VERTEX
  8
LAYER_1
 10
112.098
 20
198.0604
  0
VERTEX
  8
LAYER_1
 10
110.881
 20
197.637
 42
0.2569112721
  0
VERTEX
  8
LAYER_1
 10
110.0872
 20
196.711
  0
SEQEND
  0
POLYLINE
  8
LAYER_1
 40
0.1693
 41
0.1693
 66
1
 10
0
 20
0
 30
0
  0
VERTEX
  8
LAYER_1
 10
101.5412
 20
194.0916
  0
VERTEX
  8
LAYER_1
 10
100.9591
 20
196.711
  0
SEQEND
  0
POLYLINE
  8
LAYER_1
 40
0.1693
 41
0.1693
 66
1
 10
0
 20
0
 30
0
  0
VERTEX
  8
LAYER_1
 10
109.4787
 20
194.0916
  0
VERTEX
  8
LAYER_1
 10
110.0607
 20
196.711
  0
SEQEND
  0
POLYLINE
  8
LAYER_1
 40
0.0847
 41
0.0847
 66
1
 10
0
 20
0
 30
0
  0
VERTEX
  8
LAYER_1
 10
100.1389
 20
197.637
  0
VERTEX
  8
LAYER_1
 10
110.8809
 20
197.637
  0
SEQEND
  0
POLYLINE
  8
LAYER_1
 40
0.0847
 41
0.0847
 66
1
 10
0
 20
0
 30
0
  0
VERTEX
  8
LAYER_1
 10
98.9218
 20
198.0604
  0
VERTEX
  8
LAYER_1
 10
112.098
 20
198.0604
  0
SEQEND
  0
POLYLINE
  8
LAYER_1
 40
0.1693
 41
0.1693
 66
1
 10
0
 20
0
 30
0
  0
VERTEX
  8
LAYER_1
 10
101.8587
 20
189.9905
  0
VERTEX
  8
LAYER_1
 10
101.5412
 20
189.7259
  0
VERTEX
  8
LAYER_1
 10
101.8587
 20
189.4878
  0
VERTEX
  8
LAYER_1
 10
101.5412
 20
189.2232
  0
VERTEX
  8
LAYER_1
 10
101.8587
 20
188.9851
  0
VERTEX
  8
LAYER_1
 10
101.5412
 20
188.7205
  0
VERTEX
  8
LAYER_1
 10
101.8587
 20
188.4824
  0
VERTEX
  8
LAYER_1
 10
101.5412
 20
188.2178
  0
VERTEX
  8
LAYER_1
 10
101.8587
 20
187.9797
  0
VERTEX
  8
LAYER_1
 10
101.5412
 20
187.7151
  0
VERTEX
  8
LAYER_1
 10
101.8587
 20
187.477
  0
VERTEX
  8
LAYER_1
 10
101.5412
 20
187.2388
  0
VERTEX
  8
LAYER_1
 10
101.8587
 20
186.9743
  0
VERTEX
  8
LAYER_1
 10
101.5412
 20
186.7362
  0
VERTEX
  8
LAYER_1
 10
101.8587
 20
186.498
  0
VERTEX
  8
LAYER_1
 10
101.5412
 20
186.2334
  0
VERTEX
  8
LAYER_1
 10
101.8587
 20
185.9953
  0
VERTEX
  8
LAYER_1
 10
101.5412
 20
185.7307
  0
VERTEX
  8
LAYER_1
 10
101.8587
 20
185.4926
  0
VERTEX
  8
LAYER_1
 10
101.5412
 20
185.228
  0
VERTEX
  8
LAYER_1
 10
101.8587
 20
184.9899
  0
VERTEX
  8
LAYER_1
 10
101.5412
 20
184.7253
  0
VERTEX
  8
LAYER_1
 10
101.8587
 20
184.4872
  0
VERTEX
  8
LAYER_1
 10
101.5412
 20
184.2226
  0
VERTEX
  8
LAYER_1
 10
101.8587
 20
183.9845
  0
VERTEX
  8
LAYER_1
 10
101.5412
 20
183.7199
  0
VERTEX
  8
LAYER_1
 10
101.8587
 20
183.4818
  0
VERTEX
  8
LAYER_1
 10
101.5412
 20
183.2172
  0
VERTEX
  8
LAYER_1
 10
101.8587
 20
182.9791
  0
VERTEX
  8
LAYER_1
 10
101.5412
 20
182.741
  0
VERTEX
  8
LAYER_1
 10
101.8587
 20
182.4764
  0
VERTEX
  8
LAYER_1
 10
101.5412
 20
182.2382
  0
VERTEX
  8
LAYER_1
 10
101.8587
 20
181.9736
  0
VERTEX
  8
LAYER_1
 10
101.5412
 20
181.7355
  0
VERTEX
  8
LAYER_1
 10
101.8587
 20
181.4974
  0
VERTEX
  8
LAYER_1
 10
101.5412
 20
181.2328
  0
VERTEX
  8
LAYER_1
 10
101.8587
 20
180.9947
  0
VERTEX
  8
LAYER_1
 10
101.5412
 20
180.7301
  0
VERTEX
  8
LAYER_1
 10
101.8587
 20
180.492
  0
VERTEX
  8
LAYER_1
 10
101.5412
 20
180.2274
  0
VERTEX
  8
LAYER_1
 10
101.8587
 20
179.9893
  0
VERTEX
  8
LAYER_1
 10
101.5412
 20
179.7247
  0
VERTEX
  8
LAYER_1
 10
101.8587
 20
179.4866
  0
SEQEND
  0
POLYLINE
  8
LAYER_1
 40
0.1693
 41
0.1693
 66
1
 10
0
 20
0
 30
0
  0
VERTEX
  8
LAYER_1
 10
101.5412
 20
176.2322
  0
VERTEX
  8
LAYER_1
 10
101.8587
 20
175.9941
  0
VERTEX
  8
LAYER_1
 10
101.5412
 20
175.7295
  0
VERTEX
  8
LAYER_1
 10
101.8587
 20
175.4913
  0
VERTEX
  8
LAYER_1
 10
101.5412
 20
175.2268
  0
VERTEX
  8
LAYER_1
 10
101.8587
 20
174.9887
  0
VERTEX
  8
LAYER_1
 10
101.5412
 20
174.7241
  0
VERTEX
  8
LAYER_1
 10
101.8587
 20
174.4859
  0
VERTEX
  8
LAYER_1
 10
101.5412
 20
174.2213
  0
VERTEX
  8
LAYER_1
 10
101.8587
 20
173.9832
  0
SEQEND
  0
POLYLINE
  8
LAYER_1
 40
0.1693
 41
0.1693
 66
1
 10
0
 20
0
 30
0
  0
VERTEX
  8
LAYER_1
 10
109.4787
 20
189.9376
  0
VERTEX
  8
LAYER_1
 10
109.1612
 20
189.673
  0
VERTEX
  8
LAYER_1
 10
109.4787
 20
189.4349
  0
VERTEX
  8
LAYER_1
 10
109.1612
 20
189.1703
  0
VERTEX
  8
LAYER_1
 10
109.4787
 20
188.9322
  0
VERTEX
  8
LAYER_1
 10
109.1612
 20
188.6676
  0
VERTEX
  8
LAYER_1
 10
109.4787
 20
188.4295
  0
VERTEX
  8
LAYER_1
 10
109.1612
 20
188.1649
  0
VERTEX
  8
LAYER_1
 10
109.4787
 20
187.9268
  0
VERTEX
  8
LAYER_1
 10
109.1612
 20
187.6886
  0
VERTEX
  8
LAYER_1
 10
109.4787
 20
187.4241
  0
VERTEX
  8
LAYER_1
 10
109.1612
 20
187.1859
  0
VERTEX
  8
LAYER_1
 10
109.4787
 20
186.9478
  0
VERTEX
  8
LAYER_1
 10
109.1612
 20
186.6832
  0
VERTEX
  8
LAYER_1
 10
109.4787
 20
186.4451
  0
VERTEX
  8
LAYER_1
 10
109.1612
 20
186.1805
  0
VERTEX
  8
LAYER_1
 10
109.4787
 20
185.9424
  0
VERTEX
  8
LAYER_1
 10
109.1612
 20
185.6778
  0
VERTEX
  8
LAYER_1
 10
109.4787
 20
185.4397
  0
VERTEX
  8
LAYER_1
 10
109.1612
 20
185.1751
  0
VERTEX
  8
LAYER_1
 10
109.4787
 20
184.937
  0
VERTEX
  8
LAYER_1
 10
109.1612
 20
184.6724
  0
VERTEX
  8
LAYER_1
 10
109.4787
 20
184.4343
  0
VERTEX
  8
LAYER_1
 10
109.1612
 20
184.1697
  0
VERTEX
  8
LAYER_1
 10
109.4787
 20
183.9316
  0
VERTEX
  8
LAYER_1
 10
109.1612
 20
183.667
  0
VERTEX
  8
LAYER_1
 10
109.4787
 20
183.4289
  0
VERTEX
  8
LAYER_1
 10
109.1612
 20
183.1907
  0
VERTEX
  8
LAYER_1
 10
109.4787
 20
182.9262
  0
VERTEX
  8
LAYER_1
 10
109.1612
 20
182.688
  0
VERTEX
  8
LAYER_1
 10
109.4787
 20
182.4234
  0
VERTEX
  8
LAYER_1
 10
109.1612
 20
182.1853
  0
VERTEX
  8
LAYER_1
 10
109.4787
 20
181.9472
  0
VERTEX
  8
LAYER_1
 10
109.1612
 20
181.6826
  0
VERTEX
  8
LAYER_1
 10
109.4787
 20
181.4445
  0
VERTEX
  8
LAYER_1
 10
109.1612
 20
181.1799
  0
VERTEX
  8
LAYER_1
 10
109.4787
 20
180.9418
  0
VERTEX
  8
LAYER_1
 10
109.1612
 20
180.6772
  0
VERTEX
  8
LAYER_1
 10
109.4787
 20
180.4391
  0
VERTEX
  8
LAYER_1
 10
109.1612
 20
180.1745
  0
VERTEX
  8
LAYER_1
 10
109.4787
 20
179.9363
  0
VERTEX
  8
LAYER_1
 10
109.1612
 20
179.6718
  0
VERTEX
  8
LAYER_1
 10
109.4787
 20
179.4337
  0
SEQEND
  0
POLYLINE
  8
LAYER_1
 40
0.1693
 41
0.1693
 66
1
 10
0
 20
0
 30
0
  0
VERTEX
  8
LAYER_1
 10
109.1612
 20
176.1793
  0
VERTEX
  8
LAYER_1
 10
109.4787
 20
175.9411
  0
VERTEX
  8
LAYER_1
 10
109.1612
 20
175.6766
  0
VERTEX
  8
LAYER_1
 10
109.4787
 20
175.4384
  0
VERTEX
  8
LAYER_1
 10
109.1612
 20
175.1739
  0
VERTEX
  8
LAYER_1
 10
109.4787
 20
174.9357
  0
VERTEX
  8
LAYER_1
 10
109.1612
 20
174.6711
  0
VERTEX
  8
LAYER_1
 10
109.4787
 20
174.433
  0
VERTEX
  8
LAYER_1
 10
109.1612
 20
174.1684
  0
VERTEX
  8
LAYER_1
 10
109.4787
 20
173.9303
  0
SEQEND
  0
POLYLINE
  8
LAYER_1
 40
0.1693
 41
0.1693
 66
1
 10
0
 20
0
 30
0
  0
VERTEX
  8
LAYER_1
 10
109.1347
 20
173.6393
  0
VERTEX
  8
LAYER_1
 10
109.0024
 20
173.3482
  0
SEQEND
  0
POLYLINE
  8
LAYER_1
 40
0.1693
 41
0.1693
 66
1
 10
0
 20
0
 30
0
  0
VERTEX
  8
LAYER_1
 10
109.4787
 20
173.9303
  0
VERTEX
  8
LAYER_1
 10
109.1347
 20
173.6393
  0
SEQEND
  0
POLYLINE
  8
LAYER_1
 40
0.1693
 41
0.1693
 66
1
 10
0
 20
0
 30
0
  0
VERTEX
  8
LAYER_1
 10
101.8587
 20
173.9832
  0
VERTEX
  8
LAYER_1
 10
101.5412
 20
173.7186
  0
VERTEX
  8
LAYER_1
 10
109.2141
 20
173.7186
  0
SEQEND
  0
POLYLINE
  8
LAYER_1
 40
0.1693
 41
0.1693
 66
1
 10
0
 20
0
 30
0
  0
VERTEX
  8
LAYER_1
 10
101.8587
 20
173.7187
  0
VERTEX
  8
LAYER_1
 10
102.0174
 20
173.3482
  0
VERTEX
  8
LAYER_1
 10
109.0024
 20
173.3482
  0
SEQEND
  0
POLYLINE
  8
LAYER_1
 40
0.1693
 41
0.1693
 66
1
 10
0
 20
0
 30
0
  0
VERTEX
  8
LAYER_1
 10
109.267
 20
190.0964
  0
VERTEX
  8
LAYER_1
 10
109.4787
 20
189.9376
  0
SEQEND
  0
POLYLINE
  8
LAYER_1
 40
0.1693
 41
0.1693
 66
1
 10
0
 20
0
 30
0
  0
VERTEX
  8
LAYER_1
 10
101.6999
 20
190.0964
  0
VERTEX
  8
LAYER_1
 10
101.8587
 20
189.9905
  0
SEQEND
  0
POLYLINE
  8
LAYER_1
 40
0.1693
 41
0.1693
 66
1
 10
0
 20
0
 30
0
  0
VERTEX
  8
LAYER_1
 10
101.7793
 20
176.4174
  0
VERTEX
  8
LAYER_1
 10
101.5412
 20
176.2322
  0
SEQEND
  0
POLYLINE
  8
LAYER_1
 40
0.1693
 41
0.1693
 66
1
 10
0
 20
0
 30
0
  0
VERTEX
  8
LAYER_1
 10
109.4522
 20
176.4174
  0
VERTEX
  8
LAYER_1
 10
109.1612
 20
176.1793
  0
SEQEND
  0
POLYLINE
  8
LAYER_1
 40
0.1693
 41
0.1693
 66
1
 10
0
 20
0
 30
0
  0
VERTEX
  8
LAYER_1
 10
101.8587
 20
179.4866
  0
VERTEX
  8
LAYER_1
 10
101.5941
 20
179.2749
  0
SEQEND
  0
POLYLINE
  8
LAYER_1
 40
0.1693
 41
0.1693
 66
1
 10
0
 20
0
 30
0
  0
VERTEX
  8
LAYER_1
 10
109.4787
 20
179.4337
  0
VERTEX
  8
LAYER_1
 10
109.267
 20
179.2749
  0
SEQEND
  0
POLYLINE
  8
LAYER_1
 40
0.1693
 41
0.1693
 66
1
 10
0
 20
0
 30
0
  0
VERTEX
  8
LAYER_1
 10
101.2766
 20
200.0976
  0
VERTEX
  8
LAYER_1
 10
104.1605
 20
200.0976
  0
SEQEND
  0
POLYLINE
  8
LAYER_1
 40
0.1693
 41
0.1693
 66
1
 10
0
 20
0
 30
0
  0
VERTEX
  8
LAYER_1
 10
106.8593
 20
200.0976
  0
VERTEX
  8
LAYER_1
 10
109.7432
 20
200.0976
  0
SEQEND
  0
POLYLINE
  8
LAYER_1
 40
0.1693
 41
0.1693
 66
1
 10
0
 20
0
 30
0
  0
VERTEX
  8
LAYER_1
 10
98.763
 20
200.0976
  0
VERTEX
  8
LAYER_1
 10
112.2568
 20
200.0976
  0
SEQEND
  0
POLYLINE
  8
LAYER_1
 40
0.1693
 41
0.1693
 66
1
 10
0
 20
0
 30
0
  0
VERTEX
  8
LAYER_1
 10
98.763
 20
200.6003
  0
VERTEX
  8
LAYER_1
 10
112.2568
 20
200.6003
  0
SEQEND
  0
POLYLINE
  8
LAYER_1
 40
0.1693
 41
0.1693
 66
1
 10
0
 20
0
 30
0
  0
VERTEX
  8
LAYER_1
 10
98.763
 20
200.0976
  0
VERTEX
  8
LAYER_1
 10
98.763
 20
200.6532
  0
SEQEND
  0
POLYLINE
  8
LAYER_1
 40
0.1693
 41
0.1693
 66
1
 10
0
 20
0
 30
0
  0
VERTEX
  8
LAYER_1
 10
98.9483
 20
200.8914
 42
0.3749858319
  0
VERTEX
  8
LAYER_1
 10
98.7895
 20
200.6797
  0
SEQEND
  0
POLYLINE
  8
LAYER_1
 40
0.1693
 41
0.1693
 66
1
 10
0
 20
0
 30
0
  0
VERTEX
  8
LAYER_1
 10
112.2568
 20
200.0976
  0
VERTEX
  8
LAYER_1
 10
112.2568
 20
200.6532
  0
SEQEND
  0
POLYLINE
  8
LAYER_1
 40
0.1693
 41
0.1693
 66
1
 10
0
 20
0
 30
0
  0
VERTEX
  8
LAYER_1
 10
112.0451
 20
200.8914
 42
0.06273198285
  0
VERTEX
  8
LAYER_1
 10
107.2266
 20
201.8807
 42
0.02013693815
  0
VERTEX
  8
LAYER_1
 10
105.5099
 20
201.9497
 42
0.06028376759
  0
VERTEX
  8
LAYER_1
 10
100.4771
 20
201.3456
 42
0.02064106742
  0
VERTEX
  8
LAYER_1
 10
98.9218
 20
200.8914
  0
SEQEND
  0
POLYLINE
  8
LAYER_1
 40
0.1693
 41
0.1693
 66
1
 10
0
 20
0
 30
0
  0
VERTEX
  8
LAYER_1
 10
112.2303
 20
200.6797
 42
0.3287033972
  0
VERTEX
  8
LAYER_1
 10
112.0187
 20
200.8914
  0
SEQEND
  0
POLYLINE
  8
LAYER_1
 40
0.0847
 41
0.0847
 66
1
 10
0
 20
0
 30
0
  0
VERTEX
  8
LAYER_1
 10
98.8424
 20
200.8384
  0
VERTEX
  8
LAYER_1
 10
112.1774
 20
200.8384
  0
SEQEND
  0
POLYLINE
  8
LAYER_1
 40
0.1693
 41
0.1693
 66
1
 10
0
 20
0
 30
0
  0
VERTEX
  8
LAYER_1
 10
101.2766
 20
198.3514
  0
VERTEX
  8
LAYER_1
 10
101.2766
 20
200.0976
  0
SEQEND
  0
POLYLINE
  8
LAYER_1
 40
0.1693
 41
0.1693
 66
1
 10
0
 20
0
 30
0
  0
VERTEX
  8
LAYER_1
 10
104.1605
 20
198.3514
  0
VERTEX
  8
LAYER_1
 10
104.1605
 20
200.0976
  0
SEQEND
  0
POLYLINE
  8
LAYER_1
 40
0.1693
 41
0.1693
 66
1
 10
0
 20
0
 30
0
  0
VERTEX
  8
LAYER_1
 10
106.8593
 20
198.3514
  0
VERTEX
  8
LAYER_1
 10
106.8593
 20
200.0976
  0
SEQEND
  0
POLYLINE
  8
LAYER_1
 40
0.1693
 41
0.1693
 66
1
 10
0
 20
0
 30
0
  0
VERTEX
  8
LAYER_1
 10
109.7433
 20
198.3514
  0
VERTEX
  8
LAYER_1
 10
109.7433
 20
200.0976
  0
SEQEND
  0
TEXT
  8
LAYER_1
 10
157.8708
 20
211.1577
 11
157.8708
 21
211.1577
 40
3.2224
 41
0.5
  1
örÉàû┌ÄM
  0
POLYLINE
  8
LAYER_1
 40
0.1693
 41
0.1693
 66
1
 10
0
 20
0
 30
0
  0
VERTEX
  8
LAYER_1
 10
99.2658
 20
197.7958
  0
VERTEX
  8
LAYER_1
 10
111.7541
 20
197.7958
  0
SEQEND
  0
POLYLINE
  8
LAYER_1
 40
0.1693
 41
0.1693
 66
1
 10
0
 20
0
 30
0
  0
VERTEX
  8
LAYER_1
 10
99.2658
 20
197.7958
  0
VERTEX
  8
LAYER_1
 10
99.2658
 20
198.0603
  0
VERTEX
  8
LAYER_1
 10
111.7541
 20
198.0603
  0
SEQEND
  0
POLYLINE
  8
LAYER_1
 40
0.1693
 41
0.1693
 66
1
 10
0
 20
0
 30
0
  0
VERTEX
  8
LAYER_1
 10
111.7541
 20
197.7958
  0
VERTEX
  8
LAYER_1
 10
111.7541
 20
198.0603
  0
SEQEND
  0
POLYLINE
  8
LAYER_1
 40
0.0847
 41
0.0847
 66
1
 10
0
 20
0
 30
0
  0
VERTEX
  8
LAYER_1
 10
99.4774
 20
198.0603
  0
VERTEX
  8
LAYER_1
 10
99.7155
 20
197.7957
  0
SEQEND
  0
POLYLINE
  8
LAYER_1
 40
0.0847
 41
0.0847
 66
1
 10
0
 20
0
 30
0
  0
VERTEX
  8
LAYER_1
 10
100.5357
 20
198.0603
  0
VERTEX
  8
LAYER_1
 10
100.7739
 20
197.7957
  0
SEQEND
  0
POLYLINE
  8
LAYER_1
 40
0.0847
 41
0.0847
 66
1
 10
0
 20
0
 30
0
  0
VERTEX
  8
LAYER_1
 10
101.5941
 20
198.0603
  0
VERTEX
  8
LAYER_1
 10
101.8322
 20
197.7957
  0
SEQEND
  0
POLYLINE
  8
LAYER_1
 40
0.0847
 41
0.0847
 66
1
 10
0
 20
0
 30
0
  0
VERTEX
  8
LAYER_1
 10
102.6524
 20
198.0603
  0
VERTEX
  8
LAYER_1
 10
102.8905
 20
197.7957
  0
SEQEND
  0
POLYLINE
  8
LAYER_1
 40
0.0847
 41
0.0847
 66
1
 10
0
 20
0
 30
0
  0
VERTEX
  8
LAYER_1
 10
103.7107
 20
198.0603
  0
VERTEX
  8
LAYER_1
 10
103.9488
 20
197.7957
  0
SEQEND
  0
POLYLINE
  8
LAYER_1
 40
0.0847
 41
0.0847
 66
1
 10
0
 20
0
 30
0
  0
VERTEX
  8
LAYER_1
 10
104.7691
 20
198.0603
  0
VERTEX
  8
LAYER_1
 10
105.0072
 20
197.7957
  0
SEQEND
  0
POLYLINE
  8
LAYER_1
 40
0.0847
 41
0.0847
 66
1
 10
0
 20
0
 30
0
  0
VERTEX
  8
LAYER_1
 10
105.8009
 20
198.0603
  0
VERTEX
  8
LAYER_1
 10
106.0391
 20
197.7957
  0
SEQEND
  0
POLYLINE
  8
LAYER_1
 40
0.0847
 41
0.0847
 66
1
 10
0
 20
0
 30
0
  0
VERTEX
  8
LAYER_1
 10
106.8593
 20
198.0603
  0
VERTEX
  8
LAYER_1
 10
107.1238
 20
197.7957
  0
SEQEND
  0
POLYLINE
  8
LAYER_1
 40
0.0847
 41
0.0847
 66
1
 10
0
 20
0
 30
0
  0
VERTEX
  8
LAYER_1
 10
107.9176
 20
198.0603
  0
VERTEX
  8
LAYER_1
 10
108.1822
 20
197.7957
  0
SEQEND
  0
POLYLINE
  8
LAYER_1
 40
0.0847
 41
0.0847
 66
1
 10
0
 20
0
 30
0
  0
VERTEX
  8
LAYER_1
 10
108.9759
 20
198.0603
  0
VERTEX
  8
LAYER_1
 10
109.2405
 20
197.7957
  0
SEQEND
  0
POLYLINE
  8
LAYER_1
 40
0.0847
 41
0.0847
 66
1
 10
0
 20
0
 30
0
  0
VERTEX
  8
LAYER_1
 10
110.0343
 20
198.0603
  0
VERTEX
  8
LAYER_1
 10
110.2988
 20
197.7957
  0
SEQEND
  0
POLYLINE
  8
LAYER_1
 40
0.0847
 41
0.0847
 66
1
 10
0
 20
0
 30
0
  0
VERTEX
  8
LAYER_1
 10
111.0926
 20
198.0603
  0
VERTEX
  8
LAYER_1
 10
111.3572
 20
197.7957
  0
SEQEND
  0
POLYLINE
  8
LAYER_1
 40
0.1693
 41
0.1693
 66
1
 10
0
 20
0
 30
0
  0
VERTEX
  8
LAYER_1
 10
70.823
 20
218.8037
  0
VERTEX
  8
LAYER_1
 10
71.1405
 20
217.1897
  0
VERTEX
  8
LAYER_1
 10
71.4845
 20
215.6816
  0
VERTEX
  8
LAYER_1
 10
71.9078
 20
214.2528
  0
VERTEX
  8
LAYER_1
 10
72.3312
 20
212.9035
  0
VERTEX
  8
LAYER_1
 10
72.8339
 20
211.6335
  0
VERTEX
  8
LAYER_1
 10
73.363
 20
210.4428
  0
VERTEX
  8
LAYER_1
 10
73.9187
 20
209.3316
  0
VERTEX
  8
LAYER_1
 10
74.5272
 20
208.2733
  0
VERTEX
  8
LAYER_1
 10
75.1887
 20
207.2678
  0
VERTEX
  8
LAYER_1
 10
75.8766
 20
206.3153
  0
VERTEX
  8
LAYER_1
 10
76.591
 20
205.4422
  0
VERTEX
  8
LAYER_1
 10
77.3318
 20
204.622
  0
VERTEX
  8
LAYER_1
 10
78.0991
 20
203.8282
  0
VERTEX
  8
LAYER_1
 10
78.9193
 20
203.0874
  0
VERTEX
  8
LAYER_1
 10
79.7395
 20
202.3995
  0
VERTEX
  8
LAYER_1
 10
80.6126
 20
201.7645
  0
VERTEX
  8
LAYER_1
 10
81.5122
 20
201.156
  0
VERTEX
  8
LAYER_1
 10
82.4118
 20
200.5739
  0
VERTEX
  8
LAYER_1
 10
83.3643
 20
200.0447
  0
VERTEX
  8
LAYER_1
 10
84.3432
 20
199.542
  0
VERTEX
  8
LAYER_1
 10
85.3222
 20
199.0658
  0
VERTEX
  8
LAYER_1
 10
86.3541
 20
198.616
  0
VERTEX
  8
LAYER_1
 10
87.4124
 20
198.1926
  0
VERTEX
  8
LAYER_1
 10
88.4972
 20
197.8222
  0
VERTEX
  8
LAYER_1
 10
89.6349
 20
197.4518
  0
VERTEX
  8
LAYER_1
 10
90.7991
 20
197.1343
  0
VERTEX
  8
LAYER_1
 10
91.9897
 20
196.8168
  0
VERTEX
  8
LAYER_1
 10
93.2597
 20
196.5257
  0
VERTEX
  8
LAYER_1
 10
94.5562
 20
196.2876
  0
VERTEX
  8
LAYER_1
 10
95.9055
 20
196.0495
  0
VERTEX
  8
LAYER_1
 10
97.3343
 20
195.8378
  0
VERTEX
  8
LAYER_1
 10
98.816
 20
195.6526
  0
VERTEX
  8
LAYER_1
 10
100.4035
 20
195.4939
  0
VERTEX
  8
LAYER_1
 10
100.4035
 20
196.1553
  0
SEQEND
  0
POLYLINE
  8
LAYER_1
 40
0.1693
 41
0.1693
 66
1
 10
0
 20
0
 30
0
  0
VERTEX
  8
LAYER_1
 10
100.4035
 20
196.5787
  0
VERTEX
  8
LAYER_1
 10
100.4035
 20
197.2666
  0
SEQEND
  0
POLYLINE
  8
LAYER_1
 40
0.1693
 41
0.1693
 66
1
 10
0
 20
0
 30
0
  0
VERTEX
  8
LAYER_1
 10
100.1124
 20
197.293
  0
VERTEX
  8
LAYER_1
 10
100.2183
 20
197.293
  0
SEQEND
  0
POLYLINE
  8
LAYER_1
 40
0.1693
 41
0.1693
 66
1
 10
0
 20
0
 30
0
  0
VERTEX
  8
LAYER_1
 10
100.2712
 20
197.293
  0
VERTEX
  8
LAYER_1
 10
100.4035
 20
197.2666
  0
SEQEND
  0
POLYLINE
  8
LAYER_1
 40
0.1693
 41
0.1693
 66
1
 10
0
 20
0
 30
0
  0
VERTEX
  8
LAYER_1
 10
99.8214
 20
197.346
  0
VERTEX
  8
LAYER_1
 10
99.9272
 20
197.346
  0
SEQEND
  0
POLYLINE
  8
LAYER_1
 40
0.1693
 41
0.1693
 66
1
 10
0
 20
0
 30
0
  0
VERTEX
  8
LAYER_1
 10
99.9801
 20
197.3195
  0
VERTEX
  8
LAYER_1
 10
100.1124
 20
197.293
  0
SEQEND
  0
POLYLINE
  8
LAYER_1
 40
0.1693
 41
0.1693
 66
1
 10
0
 20
0
 30
0
  0
VERTEX
  8
LAYER_1
 10
99.5568
 20
197.4253
  0
VERTEX
  8
LAYER_1
 10
99.6362
 20
197.3988
  0
SEQEND
  0
POLYLINE
  8
LAYER_1
 40
0.1693
 41
0.1693
 66
1
 10
0
 20
0
 30
0
  0
VERTEX
  8
LAYER_1
 10
99.7155
 20
197.3989
  0
VERTEX
  8
LAYER_1
 10
99.8214
 20
197.3459
  0
SEQEND
  0
POLYLINE
  8
LAYER_1
 40
0.1693
 41
0.1693
 66
1
 10
0
 20
0
 30
0
  0
VERTEX
  8
LAYER_1
 10
99.3187
 20
197.5047
  0
VERTEX
  8
LAYER_1
 10
99.398
 20
197.4782
  0
SEQEND
  0
POLYLINE
  8
LAYER_1
 40
0.1693
 41
0.1693
 66
1
 10
0
 20
0
 30
0
  0
VERTEX
  8
LAYER_1
 10
99.451
 20
197.4782
  0
VERTEX
  8
LAYER_1
 10
99.5568
 20
197.4253
  0
SEQEND
  0
POLYLINE
  8
LAYER_1
 40
0.1693
 41
0.1693
 66
1
 10
0
 20
0
 30
0
  0
VERTEX
  8
LAYER_1
 10
99.107
 20
197.5841
  0
VERTEX
  8
LAYER_1
 10
99.1864
 20
197.5576
  0
SEQEND
  0
POLYLINE
  8
LAYER_1
 40
0.1693
 41
0.1693
 66
1
 10
0
 20
0
 30
0
  0
VERTEX
  8
LAYER_1
 10
99.2393
 20
197.5576
  0
VERTEX
  8
LAYER_1
 10
99.3187
 20
197.5047
  0
SEQEND
  0
POLYLINE
  8
LAYER_1
 40
0.1693
 41
0.1693
 66
1
 10
0
 20
0
 30
0
  0
VERTEX
  8
LAYER_1
 10
98.9218
 20
197.6899
  0
VERTEX
  8
LAYER_1
 10
98.9747
 20
197.6634
  0
SEQEND
  0
POLYLINE
  8
LAYER_1
 40
0.1693
 41
0.1693
 66
1
 10
0
 20
0
 30
0
  0
VERTEX
  8
LAYER_1
 10
99.0276
 20
197.637
  0
VERTEX
  8
LAYER_1
 10
99.107
 20
197.584
  0
SEQEND
  0
POLYLINE
  8
LAYER_1
 40
0.1693
 41
0.1693
 66
1
 10
0
 20
0
 30
0
  0
VERTEX
  8
LAYER_1
 10
98.7366
 20
197.7957
  0
VERTEX
  8
LAYER_1
 10
98.7895
 20
197.7692
  0
SEQEND
  0
POLYLINE
  8
LAYER_1
 40
0.1693
 41
0.1693
 66
1
 10
0
 20
0
 30
0
  0
VERTEX
  8
LAYER_1
 10
98.8424
 20
197.7428
  0
VERTEX
  8
LAYER_1
 10
98.9218
 20
197.6899
  0
SEQEND
  0
POLYLINE
  8
LAYER_1
 40
0.1693
 41
0.1693
 66
1
 10
0
 20
0
 30
0
  0
VERTEX
  8
LAYER_1
 10
98.5778
 20
197.9016
  0
VERTEX
  8
LAYER_1
 10
98.6307
 20
197.8751
  0
SEQEND
  0
POLYLINE
  8
LAYER_1
 40
0.1693
 41
0.1693
 66
1
 10
0
 20
0
 30
0
  0
VERTEX
  8
LAYER_1
 10
98.6572
 20
197.8486
  0
VERTEX
  8
LAYER_1
 10
98.7366
 20
197.7957
  0
SEQEND
  0
POLYLINE
  8
LAYER_1
 40
0.1693
 41
0.1693
 66
1
 10
0
 20
0
 30
0
  0
VERTEX
  8
LAYER_1
 10
98.4191
 20
198.0338
  0
VERTEX
  8
LAYER_1
 10
98.472
 20
198.0074
  0
SEQEND
  0
POLYLINE
  8
LAYER_1
 40
0.1693
 41
0.1693
 66
1
 10
0
 20
0
 30
0
  0
VERTEX
  8
LAYER_1
 10
98.4984
 20
197.9545
  0
VERTEX
  8
LAYER_1
 10
98.5778
 20
197.9015
  0
SEQEND
  0
POLYLINE
  8
LAYER_1
 40
0.1693
 41
0.1693
 66
1
 10
0
 20
0
 30
0
  0
VERTEX
  8
LAYER_1
 10
98.3132
 20
198.1926
  0
VERTEX
  8
LAYER_1
 10
98.3397
 20
198.1396
  0
SEQEND
  0
POLYLINE
  8
LAYER_1
 40
0.1693
 41
0.1693
 66
1
 10
0
 20
0
 30
0
  0
VERTEX
  8
LAYER_1
 10
98.3661
 20
198.1132
  0
VERTEX
  8
LAYER_1
 10
98.419
 20
198.0338
  0
SEQEND
  0
POLYLINE
  8
LAYER_1
 40
0.1693
 41
0.1693
 66
1
 10
0
 20
0
 30
0
  0
VERTEX
  8
LAYER_1
 10
98.2074
 20
198.3513
  0
VERTEX
  8
LAYER_1
 10
98.2338
 20
198.2984
  0
SEQEND
  0
POLYLINE
  8
LAYER_1
 40
0.1693
 41
0.1693
 66
1
 10
0
 20
0
 30
0
  0
VERTEX
  8
LAYER_1
 10
98.2603
 20
198.272
  0
VERTEX
  8
LAYER_1
 10
98.3132
 20
198.1926
  0
SEQEND
  0
POLYLINE
  8
LAYER_1
 40
0.1693
 41
0.1693
 66
1
 10
0
 20
0
 30
0
  0
VERTEX
  8
LAYER_1
 10
98.1016
 20
198.5101
  0
VERTEX
  8
LAYER_1
 10
98.128
 20
198.4571
  0
SEQEND
  0
POLYLINE
  8
LAYER_1
 40
0.1693
 41
0.1693
 66
1
 10
0
 20
0
 30
0
  0
VERTEX
  8
LAYER_1
 10
98.1545
 20
198.4307
  0
VERTEX
  8
LAYER_1
 10
98.2074
 20
198.3513
  0
SEQEND
  0
POLYLINE
  8
LAYER_1
 40
0.1693
 41
0.1693
 66
1
 10
0
 20
0
 30
0
  0
VERTEX
  8
LAYER_1
 10
98.0486
 20
198.6953
  0
VERTEX
  8
LAYER_1
 10
98.0486
 20
198.6423
  0
SEQEND
  0
POLYLINE
  8
LAYER_1
 40
0.1693
 41
0.1693
 66
1
 10
0
 20
0
 30
0
  0
VERTEX
  8
LAYER_1
 10
98.0751
 20
198.5894
  0
VERTEX
  8
LAYER_1
 10
98.1016
 20
198.51
  0
SEQEND
  0
POLYLINE
  8
LAYER_1
 40
0.1693
 41
0.1693
 66
1
 10
0
 20
0
 30
0
  0
VERTEX
  8
LAYER_1
 10
70.532
 20
220.4969
  0
VERTEX
  8
LAYER_1
 10
70.823
 20
218.8036
  0
SEQEND
  0
POLYLINE
  8
LAYER_1
 40
0.1693
 41
0.1693
 66
1
 10
0
 20
0
 30
0
  0
VERTEX
  8
LAYER_1
 10
70.532
 20
220.4969
  0
VERTEX
  8
LAYER_1
 10
140.4878
 20
220.4969
  0
VERTEX
  8
LAYER_1
 10
140.1968
 20
218.8036
  0
VERTEX
  8
LAYER_1
 10
139.8793
 20
217.1896
  0
VERTEX
  8
LAYER_1
 10
139.5353
 20
215.6815
  0
VERTEX
  8
LAYER_1
 10
139.112
 20
214.2528
  0
VERTEX
  8
LAYER_1
 10
138.6886
 20
212.9034
  0
VERTEX
  8
LAYER_1
 10
138.1859
 20
211.6334
  0
VERTEX
  8
LAYER_1
 10
137.6568
 20
210.4428
  0
VERTEX
  8
LAYER_1
 10
137.1011
 20
209.3315
  0
VERTEX
  8
LAYER_1
 10
136.4926
 20
208.2732
  0
VERTEX
  8
LAYER_1
 10
135.8311
 20
207.2678
  0
VERTEX
  8
LAYER_1
 10
135.1432
 20
206.3153
  0
VERTEX
  8
LAYER_1
 10
134.4288
 20
205.4421
  0
VERTEX
  8
LAYER_1
 10
133.688
 20
204.6219
  0
VERTEX
  8
LAYER_1
 10
132.9207
 20
203.8282
  0
VERTEX
  8
LAYER_1
 10
132.1005
 20
203.0873
  0
VERTEX
  8
LAYER_1
 10
131.2803
 20
202.3994
  0
VERTEX
  8
LAYER_1
 10
130.4072
 20
201.7644
  0
VERTEX
  8
LAYER_1
 10
129.5076
 20
201.1559
  0
VERTEX
  8
LAYER_1
 10
128.608
 20
200.5738
  0
VERTEX
  8
LAYER_1
 10
127.6555
 20
200.0446
  0
VERTEX
  8
LAYER_1
 10
126.6765
 20
199.5419
  0
VERTEX
  8
LAYER_1
 10
125.6976
 20
199.0657
  0
VERTEX
  8
LAYER_1
 10
124.6657
 20
198.6159
  0
VERTEX
  8
LAYER_1
 10
123.6074
 20
198.1926
  0
SEQEND
  0
POLYLINE
  8
LAYER_1
 40
0.1693
 41
0.1693
 66
1
 10
0
 20
0
 30
0
  0
VERTEX
  8
LAYER_1
 10
124.6657
 20
198.6159
  0
VERTEX
  8
LAYER_1
 10
123.6074
 20
198.1926
  0
SEQEND
  0
POLYLINE
  8
LAYER_1
 40
0.1693
 41
0.1693
 66
1
 10
0
 20
0
 30
0
  0
VERTEX
  8
LAYER_1
 10
125.6976
 20
199.0657
  0
VERTEX
  8
LAYER_1
 10
124.6657
 20
198.6159
  0
SEQEND
  0
POLYLINE
  8
LAYER_1
 40
0.1693
 41
0.1693
 66
1
 10
0
 20
0
 30
0
  0
VERTEX
  8
LAYER_1
 10
126.6766
 20
199.542
  0
VERTEX
  8
LAYER_1
 10
125.6976
 20
199.0657
  0
SEQEND
  0
POLYLINE
  8
LAYER_1
 40
0.1693
 41
0.1693
 66
1
 10
0
 20
0
 30
0
  0
VERTEX
  8
LAYER_1
 10
127.6555
 20
200.0447
  0
VERTEX
  8
LAYER_1
 10
126.6766
 20
199.542
  0
SEQEND
  0
POLYLINE
  8
LAYER_1
 40
0.1693
 41
0.1693
 66
1
 10
0
 20
0
 30
0
  0
VERTEX
  8
LAYER_1
 10
128.608
 20
200.5738
  0
VERTEX
  8
LAYER_1
 10
127.6555
 20
200.0447
  0
SEQEND
  0
POLYLINE
  8
LAYER_1
 40
0.1693
 41
0.1693
 66
1
 10
0
 20
0
 30
0
  0
VERTEX
  8
LAYER_1
 10
129.5076
 20
201.1559
  0
VERTEX
  8
LAYER_1
 10
128.608
 20
200.5738
  0
SEQEND
  0
POLYLINE
  8
LAYER_1
 40
0.1693
 41
0.1693
 66
1
 10
0
 20
0
 30
0
  0
VERTEX
  8
LAYER_1
 10
130.4072
 20
201.7645
  0
VERTEX
  8
LAYER_1
 10
129.5076
 20
201.1559
  0
SEQEND
  0
POLYLINE
  8
LAYER_1
 40
0.1693
 41
0.1693
 66
1
 10
0
 20
0
 30
0
  0
VERTEX
  8
LAYER_1
 10
131.2803
 20
202.3995
  0
VERTEX
  8
LAYER_1
 10
130.4072
 20
201.7645
  0
SEQEND
  0
POLYLINE
  8
LAYER_1
 40
0.1693
 41
0.1693
 66
1
 10
0
 20
0
 30
0
  0
VERTEX
  8
LAYER_1
 10
132.1005
 20
203.0874
  0
VERTEX
  8
LAYER_1
 10
131.2803
 20
202.3994
  0
SEQEND
  0
POLYLINE
  8
LAYER_1
 40
0.1693
 41
0.1693
 66
1
 10
0
 20
0
 30
0
  0
VERTEX
  8
LAYER_1
 10
132.9207
 20
203.8282
  0
VERTEX
  8
LAYER_1
 10
132.1005
 20
203.0874
  0
SEQEND
  0
POLYLINE
  8
LAYER_1
 40
0.1693
 41
0.1693
 66
1
 10
0
 20
0
 30
0
  0
VERTEX
  8
LAYER_1
 10
133.688
 20
204.622
  0
VERTEX
  8
LAYER_1
 10
132.9207
 20
203.8282
  0
SEQEND
  0
POLYLINE
  8
LAYER_1
 40
0.1693
 41
0.1693
 66
1
 10
0
 20
0
 30
0
  0
VERTEX
  8
LAYER_1
 10
134.4288
 20
205.4422
  0
VERTEX
  8
LAYER_1
 10
133.688
 20
204.6219
  0
SEQEND
  0
POLYLINE
  8
LAYER_1
 40
0.1693
 41
0.1693
 66
1
 10
0
 20
0
 30
0
  0
VERTEX
  8
LAYER_1
 10
135.1432
 20
206.3153
  0
VERTEX
  8
LAYER_1
 10
134.4288
 20
205.4421
  0
SEQEND
  0
POLYLINE
  8
LAYER_1
 40
0.1693
 41
0.1693
 66
1
 10
0
 20
0
 30
0
  0
VERTEX
  8
LAYER_1
 10
135.8311
 20
207.2678
  0
VERTEX
  8
LAYER_1
 10
135.1432
 20
206.3153
  0
SEQEND
  0
POLYLINE
  8
LAYER_1
 40
0.1693
 41
0.1693
 66
1
 10
0
 20
0
 30
0
  0
VERTEX
  8
LAYER_1
 10
136.4926
 20
208.2732
  0
VERTEX
  8
LAYER_1
 10
135.8311
 20
207.2678
  0
SEQEND
  0
POLYLINE
  8
LAYER_1
 40
0.1693
 41
0.1693
 66
1
 10
0
 20
0
 30
0
  0
VERTEX
  8
LAYER_1
 10
137.1011
 20
209.3315
  0
VERTEX
  8
LAYER_1
 10
136.4926
 20
208.2732
  0
SEQEND
  0
POLYLINE
  8
LAYER_1
 40
0.1693
 41
0.1693
 66
1
 10
0
 20
0
 30
0
  0
VERTEX
  8
LAYER_1
 10
137.6568
 20
210.4428
  0
VERTEX
  8
LAYER_1
 10
137.1011
 20
209.3315
  0
SEQEND
  0
POLYLINE
  8
LAYER_1
 40
0.1693
 41
0.1693
 66
1
 10
0
 20
0
 30
0
  0
VERTEX
  8
LAYER_1
 10
138.1859
 20
211.6334
  0
VERTEX
  8
LAYER_1
 10
137.6568
 20
210.4428
  0
SEQEND
  0
POLYLINE
  8
LAYER_1
 40
0.1693
 41
0.1693
 66
1
 10
0
 20
0
 30
0
  0
VERTEX
  8
LAYER_1
 10
138.6887
 20
212.9034
  0
VERTEX
  8
LAYER_1
 10
138.1859
 20
211.6334
  0
SEQEND
  0
POLYLINE
  8
LAYER_1
 40
0.1693
 41
0.1693
 66
1
 10
0
 20
0
 30
0
  0
VERTEX
  8
LAYER_1
 10
139.112
 20
214.2528
  0
VERTEX
  8
LAYER_1
 10
138.6886
 20
212.9034
  0
SEQEND
  0
POLYLINE
  8
LAYER_1
 40
0.1693
 41
0.1693
 66
1
 10
0
 20
0
 30
0
  0
VERTEX
  8
LAYER_1
 10
139.5353
 20
215.6816
  0
VERTEX
  8
LAYER_1
 10
139.112
 20
214.2528
  0
SEQEND
  0
POLYLINE
  8
LAYER_1
 40
0.1693
 41
0.1693
 66
1
 10
0
 20
0
 30
0
  0
VERTEX
  8
LAYER_1
 10
139.8793
 20
217.1897
  0
VERTEX
  8
LAYER_1
 10
139.5353
 20
215.6815
  0
SEQEND
  0
POLYLINE
  8
LAYER_1
 40
0.1693
 41
0.1693
 66
1
 10
0
 20
0
 30
0
  0
VERTEX
  8
LAYER_1
 10
140.1968
 20
218.8036
  0
VERTEX
  8
LAYER_1
 10
139.8793
 20
217.1896
  0
SEQEND
  0
POLYLINE
  8
LAYER_1
 40
0.1693
 41
0.1693
 66
1
 10
0
 20
0
 30
0
  0
VERTEX
  8
LAYER_1
 10
140.4878
 20
220.497
  0
VERTEX
  8
LAYER_1
 10
140.1968
 20
218.8036
  0
SEQEND
  0
POLYLINE
  8
LAYER_1
 40
0.1693
 41
0.1693
 66
1
 10
0
 20
0
 30
0
  0
VERTEX
  8
LAYER_1
 10
72.9926
 20
220.1265
  0
VERTEX
  8
LAYER_1
 10
73.0191
 20
219.8619
  0
SEQEND
  0
POLYLINE
  8
LAYER_1
 40
0.1693
 41
0.1693
 66
1
 10
0
 20
0
 30
0
  0
VERTEX
  8
LAYER_1
 10
73.072
 20
219.7032
  0
VERTEX
  8
LAYER_1
 10
73.1249
 20
219.4121
  0
VERTEX
  8
LAYER_1
 10
73.1513
 20
219.1476
  0
SEQEND
  0
POLYLINE
  8
LAYER_1
 40
0.1693
 41
0.1693
 66
1
 10
0
 20
0
 30
0
  0
VERTEX
  8
LAYER_1
 10
73.2043
 20
218.9624
  0
VERTEX
  8
LAYER_1
 10
73.2572
 20
218.6713
  0
VERTEX
  8
LAYER_1
 10
73.3101
 20
218.4067
  0
SEQEND
  0
POLYLINE
  8
LAYER_1
 40
0.1693
 41
0.1693
 66
1
 10
0
 20
0
 30
0
  0
VERTEX
  8
LAYER_1
 10
73.3366
 20
218.248
  0
VERTEX
  8
LAYER_1
 10
73.4159
 20
217.9569
  0
VERTEX
  8
LAYER_1
 10
73.4688
 20
217.6924
  0
SEQEND
  0
POLYLINE
  8
LAYER_1
 40
0.1693
 41
0.1693
 66
1
 10
0
 20
0
 30
0
  0
VERTEX
  8
LAYER_1
 10
73.4953
 20
217.5336
  0
VERTEX
  8
LAYER_1
 10
73.5747
 20
217.2426
  0
VERTEX
  8
LAYER_1
 10
73.6276
 20
216.978
  0
SEQEND
  0
POLYLINE
  8
LAYER_1
 40
0.1693
 41
0.1693
 66
1
 10
0
 20
0
 30
0
  0
VERTEX
  8
LAYER_1
 10
73.6541
 20
216.8192
  0
VERTEX
  8
LAYER_1
 10
73.7334
 20
216.5282
  0
VERTEX
  8
LAYER_1
 10
73.7599
 20
216.3959
  0
SEQEND
  0
POLYLINE
  8
LAYER_1
 40
0.1693
 41
0.1693
 66
1
 10
0
 20
0
 30
0
  0
VERTEX
  8
LAYER_1
 10
73.7864
 20
216.2901
  0
VERTEX
  8
LAYER_1
 10
73.8393
 20
216.1313
  0
VERTEX
  8
LAYER_1
 10
73.8922
 20
215.8932
  0
SEQEND
  0
POLYLINE
  8
LAYER_1
 40
0.1693
 41
0.1693
 66
1
 10
0
 20
0
 30
0
  0
VERTEX
  8
LAYER_1
 10
73.9451
 20
215.7344
  0
VERTEX
  8
LAYER_1
 10
74.0245
 20
215.4963
  0
VERTEX
  8
LAYER_1
 10
74.1568
 20
215.0994
  0
SEQEND
  0
POLYLINE
  8
LAYER_1
 40
0.1693
 41
0.1693
 66
1
 10
0
 20
0
 30
0
  0
VERTEX
  8
LAYER_1
 10
74.2362
 20
214.8349
  0
VERTEX
  8
LAYER_1
 10
74.3949
 20
214.4115
  0
VERTEX
  8
LAYER_1
 10
74.5272
 20
214.0146
  0
SEQEND
  0
POLYLINE
  8
LAYER_1
 40
0.1693
 41
0.1693
 66
1
 10
0
 20
0
 30
0
  0
VERTEX
  8
LAYER_1
 10
74.633
 20
213.7501
  0
VERTEX
  8
LAYER_1
 10
74.7918
 20
213.3532
  0
VERTEX
  8
LAYER_1
 10
74.9505
 20
212.9563
  0
SEQEND
  0
POLYLINE
  8
LAYER_1
 40
0.1693
 41
0.1693
 66
1
 10
0
 20
0
 30
0
  0
VERTEX
  8
LAYER_1
 10
75.0564
 20
212.6917
  0
VERTEX
  8
LAYER_1
 10
75.2151
 20
212.2948
  0
VERTEX
  8
LAYER_1
 10
75.3739
 20
211.9244
  0
SEQEND
  0
POLYLINE
  8
LAYER_1
 40
0.1693
 41
0.1693
 66
1
 10
0
 20
0
 30
0
  0
VERTEX
  8
LAYER_1
 10
75.5062
 20
211.6598
  0
VERTEX
  8
LAYER_1
 10
75.6914
 20
211.263
  0
VERTEX
  8
LAYER_1
 10
75.8501
 20
210.8925
  0
SEQEND
  0
POLYLINE
  8
LAYER_1
 40
0.1693
 41
0.1693
 66
1
 10
0
 20
0
 30
0
  0
VERTEX
  8
LAYER_1
 10
75.9824
 20
210.628
  0
VERTEX
  8
LAYER_1
 10
76.1676
 20
210.2311
  0
VERTEX
  8
LAYER_1
 10
76.2734
 20
210.0194
  0
SEQEND
  0
POLYLINE
  8
LAYER_1
 40
0.1693
 41
0.1693
 66
1
 10
0
 20
0
 30
0
  0
VERTEX
  8
LAYER_1
 10
76.3264
 20
209.8607
  0
VERTEX
  8
LAYER_1
 10
76.4586
 20
209.6225
  0
VERTEX
  8
LAYER_1
 10
76.5116
 20
209.5167
  0
SEQEND
  0
POLYLINE
  8
LAYER_1
 40
0.1693
 41
0.1693
 66
1
 10
0
 20
0
 30
0
  0
VERTEX
  8
LAYER_1
 10
76.538
 20
209.4638
  0
VERTEX
  8
LAYER_1
 10
76.6174
 20
209.3315
  0
VERTEX
  8
LAYER_1
 10
76.7232
 20
209.1463
  0
SEQEND
  0
POLYLINE
  8
LAYER_1
 40
0.1693
 41
0.1693
 66
1
 10
0
 20
0
 30
0
  0
VERTEX
  8
LAYER_1
 10
76.7761
 20
209.014
  0
VERTEX
  8
LAYER_1
 10
76.9084
 20
208.8023
  0
VERTEX
  8
LAYER_1
 10
77.0143
 20
208.6171
  0
SEQEND
  0
POLYLINE
  8
LAYER_1
 40
0.1693
 41
0.1693
 66
1
 10
0
 20
0
 30
0
  0
VERTEX
  8
LAYER_1
 10
77.0672
 20
208.4848
  0
VERTEX
  8
LAYER_1
 10
77.1995
 20
208.2731
  0
VERTEX
  8
LAYER_1
 10
77.3053
 20
208.0879
  0
SEQEND
  0
POLYLINE
  8
LAYER_1
 40
0.1693
 41
0.1693
 66
1
 10
0
 20
0
 30
0
  0
VERTEX
  8
LAYER_1
 10
77.3847
 20
207.9821
  0
VERTEX
  8
LAYER_1
 10
77.517
 20
207.7704
  0
VERTEX
  8
LAYER_1
 10
77.6228
 20
207.5852
  0
SEQEND
  0
POLYLINE
  8
LAYER_1
 40
0.1693
 41
0.1693
 66
1
 10
0
 20
0
 30
0
  0
VERTEX
  8
LAYER_1
 10
77.7022
 20
207.4794
  0
VERTEX
  8
LAYER_1
 10
77.8345
 20
207.2677
  0
VERTEX
  8
LAYER_1
 10
77.9668
 20
207.1089
  0
SEQEND
  0
POLYLINE
  8
LAYER_1
 40
0.1693
 41
0.1693
 66
1
 10
0
 20
0
 30
0
  0
VERTEX
  8
LAYER_1
 10
78.0462
 20
206.9767
  0
VERTEX
  8
LAYER_1
 10
78.2049
 20
206.7914
  0
VERTEX
  8
LAYER_1
 10
78.2843
 20
206.7121
  0
SEQEND
  0
POLYLINE
  8
LAYER_1
 40
0.1693
 41
0.1693
 66
1
 10
0
 20
0
 30
0
  0
VERTEX
  8
LAYER_1
 10
78.3372
 20
206.6327
  0
VERTEX
  8
LAYER_1
 10
78.4166
 20
206.5268
  0
VERTEX
  8
LAYER_1
 10
78.4695
 20
206.5004
  0
SEQEND
  0
POLYLINE
  8
LAYER_1
 40
0.1693
 41
0.1693
 66
1
 10
0
 20
0
 30
0
  0
VERTEX
  8
LAYER_1
 10
78.4959
 20
206.4475
  0
VERTEX
  8
LAYER_1
 10
78.5753
 20
206.3945
  0
VERTEX
  8
LAYER_1
 10
78.6547
 20
206.3152
  0
SEQEND
  0
POLYLINE
  8
LAYER_1
 40
0.1693
 41
0.1693
 66
1
 10
0
 20
0
 30
0
  0
VERTEX
  8
LAYER_1
 10
78.7341
 20
206.2358
  0
VERTEX
  8
LAYER_1
 10
78.8399
 20
206.13
  0
VERTEX
  8
LAYER_1
 10
78.9193
 20
206.0506
  0
SEQEND
  0
POLYLINE
  8
LAYER_1
 40
0.1693
 41
0.1693
 66
1
 10
0
 20
0
 30
0
  0
VERTEX
  8
LAYER_1
 10
78.9987
 20
205.9713
  0
VERTEX
  8
LAYER_1
 10
79.1045
 20
205.8654
  0
VERTEX
  8
LAYER_1
 10
79.1839
 20
205.786
  0
SEQEND
  0
POLYLINE
  8
LAYER_1
 40
0.1693
 41
0.1693
 66
1
 10
0
 20
0
 30
0
  0
VERTEX
  8
LAYER_1
 10
79.2632
 20
205.7331
  0
VERTEX
  8
LAYER_1
 10
79.3691
 20
205.6273
  0
VERTEX
  8
LAYER_1
 10
79.4749
 20
205.5479
  0
SEQEND
  0
POLYLINE
  8
LAYER_1
 40
0.1693
 41
0.1693
 66
1
 10
0
 20
0
 30
0
  0
VERTEX
  8
LAYER_1
 10
79.5278
 20
205.495
  0
VERTEX
  8
LAYER_1
 10
79.6601
 20
205.3892
  0
SEQEND
  0
POLYLINE
  8
LAYER_1
 40
0.1693
 41
0.1693
 66
1
 10
0
 20
0
 30
0
  0
VERTEX
  8
LAYER_1
 10
79.6601
 20
205.3893
  0
VERTEX
  8
LAYER_1
 10
79.766
 20
205.3099
  0
SEQEND
  0
POLYLINE
  8
LAYER_1
 40
0.1693
 41
0.1693
 66
1
 10
0
 20
0
 30
0
  0
VERTEX
  8
LAYER_1
 10
79.8189
 20
205.257
  0
VERTEX
  8
LAYER_1
 10
79.9512
 20
205.1511
  0
VERTEX
  8
LAYER_1
 10
80.0041
 20
205.1247
  0
SEQEND
  0
POLYLINE
  8
LAYER_1
 40
0.1693
 41
0.1693
 66
1
 10
0
 20
0
 30
0
  0
VERTEX
  8
LAYER_1
 10
80.0305
 20
205.0718
  0
VERTEX
  8
LAYER_1
 10
80.1099
 20
205.0189
  0
VERTEX
  8
LAYER_1
 10
80.2157
 20
204.9395
  0
SEQEND
  0
POLYLINE
  8
LAYER_1
 40
0.1693
 41
0.1693
 66
1
 10
0
 20
0
 30
0
  0
VERTEX
  8
LAYER_1
 10
80.2687
 20
204.8866
  0
VERTEX
  8
LAYER_1
 10
80.4009
 20
204.7807
  0
VERTEX
  8
LAYER_1
 10
80.5597
 20
204.6485
  0
SEQEND
  0
POLYLINE
  8
LAYER_1
 40
0.1693
 41
0.1693
 66
1
 10
0
 20
0
 30
0
  0
VERTEX
  8
LAYER_1
 10
80.692
 20
204.5426
  0
VERTEX
  8
LAYER_1
 10
80.8772
 20
204.3839
  0
VERTEX
  8
LAYER_1
 10
81.0624
 20
204.2516
  0
SEQEND
  0
POLYLINE
  8
LAYER_1
 40
0.1693
 41
0.1693
 66
1
 10
0
 20
0
 30
0
  0
VERTEX
  8
LAYER_1
 10
81.1682
 20
204.1457
  0
VERTEX
  8
LAYER_1
 10
81.3799
 20
203.987
  0
VERTEX
  8
LAYER_1
 10
81.5651
 20
203.8547
  0
SEQEND
  0
POLYLINE
  8
LAYER_1
 40
0.1693
 41
0.1693
 66
1
 10
0
 20
0
 30
0
  0
VERTEX
  8
LAYER_1
 10
81.671
 20
203.7753
  0
VERTEX
  8
LAYER_1
 10
81.8826
 20
203.6165
  0
VERTEX
  8
LAYER_1
 10
82.0678
 20
203.4842
  0
SEQEND
  0
POLYLINE
  8
LAYER_1
 40
0.1693
 41
0.1693
 66
1
 10
0
 20
0
 30
0
  0
VERTEX
  8
LAYER_1
 10
82.1737
 20
203.3784
  0
VERTEX
  8
LAYER_1
 10
82.3853
 20
203.2197
  0
VERTEX
  8
LAYER_1
 10
82.5705
 20
203.1138
  0
SEQEND
  0
POLYLINE
  8
LAYER_1
 40
0.1693
 41
0.1693
 66
1
 10
0
 20
0
 30
0
  0
VERTEX
  8
LAYER_1
 10
82.6764
 20
203.008
  0
VERTEX
  8
LAYER_1
 10
82.888
 20
202.8757
  0
VERTEX
  8
LAYER_1
 10
82.9939
 20
202.7963
  0
SEQEND
  0
POLYLINE
  8
LAYER_1
 40
0.1693
 41
0.1693
 66
1
 10
0
 20
0
 30
0
  0
VERTEX
  8
LAYER_1
 10
83.0732
 20
202.7434
  0
VERTEX
  8
LAYER_1
 10
83.2055
 20
202.664
  0
VERTEX
  8
LAYER_1
 10
83.2849
 20
202.6111
  0
SEQEND
  0
POLYLINE
  8
LAYER_1
 40
0.1693
 41
0.1693
 66
1
 10
0
 20
0
 30
0
  0
VERTEX
  8
LAYER_1
 10
83.3378
 20
202.5847
  0
VERTEX
  8
LAYER_1
 10
83.4437
 20
202.5053
  0
VERTEX
  8
LAYER_1
 10
83.6024
 20
202.4259
  0
SEQEND
  0
POLYLINE
  8
LAYER_1
 40
0.1693
 41
0.1693
 66
1
 10
0
 20
0
 30
0
  0
VERTEX
  8
LAYER_1
 10
83.7082
 20
202.3466
  0
VERTEX
  8
LAYER_1
 10
83.867
 20
202.2407
  0
VERTEX
  8
LAYER_1
 10
84.0257
 20
202.1613
  0
SEQEND
  0
POLYLINE
  8
LAYER_1
 40
0.1693
 41
0.1693
 66
1
 10
0
 20
0
 30
0
  0
VERTEX
  8
LAYER_1
 10
84.1316
 20
202.1084
  0
VERTEX
  8
LAYER_1
 10
84.2903
 20
202.0026
  0
VERTEX
  8
LAYER_1
 10
84.4491
 20
201.9232
  0
SEQEND
  0
POLYLINE
  8
LAYER_1
 40
0.1693
 41
0.1693
 66
1
 10
0
 20
0
 30
0
  0
VERTEX
  8
LAYER_1
 10
84.5549
 20
201.8439
  0
VERTEX
  8
LAYER_1
 10
84.7137
 20
201.738
  0
VERTEX
  8
LAYER_1
 10
84.8724
 20
201.6586
  0
SEQEND
  0
POLYLINE
  8
LAYER_1
 40
0.1693
 41
0.1693
 66
1
 10
0
 20
0
 30
0
  0
VERTEX
  8
LAYER_1
 10
84.9783
 20
201.6058
  0
VERTEX
  8
LAYER_1
 10
85.1635
 20
201.4999
  0
VERTEX
  8
LAYER_1
 10
85.3222
 20
201.4205
  0
SEQEND
  0
POLYLINE
  8
LAYER_1
 40
0.1693
 41
0.1693
 66
1
 10
0
 20
0
 30
0
  0
VERTEX
  8
LAYER_1
 10
85.428
 20
201.3676
  0
VERTEX
  8
LAYER_1
 10
85.6133
 20
201.2618
  0
VERTEX
  8
LAYER_1
 10
85.6926
 20
201.2353
  0
SEQEND
  0
POLYLINE
  8
LAYER_1
 40
0.1693
 41
0.1693
 66
1
 10
0
 20
0
 30
0
  0
VERTEX
  8
LAYER_1
 10
85.7455
 20
201.1824
  0
VERTEX
  8
LAYER_1
 10
85.8514
 20
201.1295
  0
VERTEX
  8
LAYER_1
 10
85.9837
 20
201.0766
  0
SEQEND
  0
POLYLINE
  8
LAYER_1
 40
0.1693
 41
0.1693
 66
1
 10
0
 20
0
 30
0
  0
VERTEX
  8
LAYER_1
 10
86.0895
 20
201.0237
  0
VERTEX
  8
LAYER_1
 10
86.2482
 20
200.9443
  0
VERTEX
  8
LAYER_1
 10
86.4864
 20
200.8385
  0
SEQEND
  0
POLYLINE
  8
LAYER_1
 40
0.1693
 41
0.1693
 66
1
 10
0
 20
0
 30
0
  0
VERTEX
  8
LAYER_1
 10
86.6451
 20
200.7591
  0
VERTEX
  8
LAYER_1
 10
86.9097
 20
200.6268
  0
VERTEX
  8
LAYER_1
 10
87.1478
 20
200.521
  0
SEQEND
  0
POLYLINE
  8
LAYER_1
 40
0.1693
 41
0.1693
 66
1
 10
0
 20
0
 30
0
  0
VERTEX
  8
LAYER_1
 10
87.3066
 20
200.4681
  0
VERTEX
  8
LAYER_1
 10
87.5712
 20
200.3358
  0
VERTEX
  8
LAYER_1
 10
87.8093
 20
200.2564
  0
SEQEND
  0
POLYLINE
  8
LAYER_1
 40
0.1693
 41
0.1693
 66
1
 10
0
 20
0
 30
0
  0
VERTEX
  8
LAYER_1
 10
87.9945
 20
200.1771
  0
VERTEX
  8
LAYER_1
 10
88.2591
 20
200.0712
  0
VERTEX
  8
LAYER_1
 10
88.4972
 20
199.9918
  0
SEQEND
  0
POLYLINE
  8
LAYER_1
 40
0.1693
 41
0.1693
 66
1
 10
0
 20
0
 30
0
  0
VERTEX
  8
LAYER_1
 10
88.6824
 20
199.939
  0
VERTEX
  8
LAYER_1
 10
88.947
 20
199.8331
  0
VERTEX
  8
LAYER_1
 10
89.1851
 20
199.7537
  0
SEQEND
  0
POLYLINE
  8
LAYER_1
 40
0.1693
 41
0.1693
 66
1
 10
0
 20
0
 30
0
  0
VERTEX
  8
LAYER_1
 10
89.3703
 20
199.7008
  0
VERTEX
  8
LAYER_1
 10
89.6349
 20
199.595
  0
VERTEX
  8
LAYER_1
 10
89.7937
 20
199.5685
  0
SEQEND
  0
POLYLINE
  8
LAYER_1
 40
0.1693
 41
0.1693
 66
1
 10
0
 20
0
 30
0
  0
VERTEX
  8
LAYER_1
 10
89.8995
 20
199.5421
  0
VERTEX
  8
LAYER_1
 10
90.0582
 20
199.4892
  0
VERTEX
  8
LAYER_1
 10
90.1641
 20
199.4892
  0
SEQEND
  0
POLYLINE
  8
LAYER_1
 40
0.1693
 41
0.1693
 66
1
 10
0
 20
0
 30
0
  0
VERTEX
  8
LAYER_1
 10
90.217
 20
199.4627
  0
VERTEX
  8
LAYER_1
 10
90.3493
 20
199.4362
  0
VERTEX
  8
LAYER_1
 10
90.5345
 20
199.4098
  0
SEQEND
  0
POLYLINE
  8
LAYER_1
 40
0.1693
 41
0.1693
 66
1
 10
0
 20
0
 30
0
  0
VERTEX
  8
LAYER_1
 10
90.6668
 20
199.3569
  0
VERTEX
  8
LAYER_1
 10
90.8785
 20
199.3039
  0
VERTEX
  8
LAYER_1
 10
91.0637
 20
199.2775
  0
SEQEND
  0
POLYLINE
  8
LAYER_1
 40
0.1693
 41
0.1693
 66
1
 10
0
 20
0
 30
0
  0
VERTEX
  8
LAYER_1
 10
91.196
 20
199.2775
  0
VERTEX
  8
LAYER_1
 10
91.4076
 20
199.2246
  0
VERTEX
  8
LAYER_1
 10
91.5928
 20
199.1981
  0
SEQEND
  0
POLYLINE
  8
LAYER_1
 40
0.1693
 41
0.1693
 66
1
 10
0
 20
0
 30
0
  0
VERTEX
  8
LAYER_1
 10
91.7251
 20
199.1981
  0
VERTEX
  8
LAYER_1
 10
91.9368
 20
199.1452
  0
VERTEX
  8
LAYER_1
 10
92.122
 20
199.1187
  0
SEQEND
  0
POLYLINE
  8
LAYER_1
 40
0.1693
 41
0.1693
 66
1
 10
0
 20
0
 30
0
  0
VERTEX
  8
LAYER_1
 10
92.2543
 20
199.1188
  0
VERTEX
  8
LAYER_1
 10
92.466
 20
199.0658
  0
VERTEX
  8
LAYER_1
 10
92.6512
 20
199.0394
  0
SEQEND
  0
POLYLINE
  8
LAYER_1
 40
0.1693
 41
0.1693
 66
1
 10
0
 20
0
 30
0
  0
VERTEX
  8
LAYER_1
 10
92.7835
 20
199.0394
  0
VERTEX
  8
LAYER_1
 10
92.9951
 20
198.9865
  0
VERTEX
  8
LAYER_1
 10
93.101
 20
198.9865
  0
SEQEND
  0
POLYLINE
  8
LAYER_1
 40
0.1693
 41
0.1693
 66
1
 10
0
 20
0
 30
0
  0
VERTEX
  8
LAYER_1
 10
93.1539
 20
198.9865
  0
VERTEX
  8
LAYER_1
 10
93.2862
 20
198.96
  0
VERTEX
  8
LAYER_1
 10
93.3656
 20
198.96
  0
SEQEND
  0
POLYLINE
  8
LAYER_1
 40
0.1693
 41
0.1693
 66
1
 10
0
 20
0
 30
0
  0
VERTEX
  8
LAYER_1
 10
93.4185
 20
198.9336
  0
VERTEX
  8
LAYER_1
 10
93.5243
 20
198.9071
  0
VERTEX
  8
LAYER_1
 10
93.6831
 20
198.9071
  0
SEQEND
  0
POLYLINE
  8
LAYER_1
 40
0.1693
 41
0.1693
 66
1
 10
0
 20
0
 30
0
  0
VERTEX
  8
LAYER_1
 10
93.7889
 20
198.8807
  0
VERTEX
  8
LAYER_1
 10
93.9476
 20
198.8542
  0
VERTEX
  8
LAYER_1
 10
94.1064
 20
198.8542
  0
SEQEND
  0
POLYLINE
  8
LAYER_1
 40
0.1693
 41
0.1693
 66
1
 10
0
 20
0
 30
0
  0
VERTEX
  8
LAYER_1
 10
94.2122
 20
198.8277
  0
VERTEX
  8
LAYER_1
 10
94.371
 20
198.8013
  0
VERTEX
  8
LAYER_1
 10
94.5033
 20
198.8013
  0
SEQEND
  0
POLYLINE
  8
LAYER_1
 40
0.1693
 41
0.1693
 66
1
 10
0
 20
0
 30
0
  0
VERTEX
  8
LAYER_1
 10
94.6091
 20
198.8013
  0
VERTEX
  8
LAYER_1
 10
94.7678
 20
198.7748
  0
VERTEX
  8
LAYER_1
 10
94.9266
 20
198.7748
  0
SEQEND
  0
POLYLINE
  8
LAYER_1
 40
0.1693
 41
0.1693
 66
1
 10
0
 20
0
 30
0
  0
VERTEX
  8
LAYER_1
 10
95.0324
 20
198.7484
  0
VERTEX
  8
LAYER_1
 10
95.1912
 20
198.7219
  0
VERTEX
  8
LAYER_1
 10
95.3235
 20
198.7219
  0
SEQEND
  0
POLYLINE
  8
LAYER_1
 40
0.1693
 41
0.1693
 66
1
 10
0
 20
0
 30
0
  0
VERTEX
  8
LAYER_1
 10
95.4293
 20
198.7219
  0
VERTEX
  8
LAYER_1
 10
95.588
 20
198.6954
  0
VERTEX
  8
LAYER_1
 10
95.6674
 20
198.6954
  0
SEQEND
  0
POLYLINE
  8
LAYER_1
 40
0.1693
 41
0.1693
 66
1
 10
0
 20
0
 30
0
  0
VERTEX
  8
LAYER_1
 10
95.7203
 20
198.6955
  0
VERTEX
  8
LAYER_1
 10
95.8262
 20
198.669
  0
VERTEX
  8
LAYER_1
 10
95.9055
 20
198.669
  0
SEQEND
  0
POLYLINE
  8
LAYER_1
 40
0.1693
 41
0.1693
 66
1
 10
0
 20
0
 30
0
  0
VERTEX
  8
LAYER_1
 10
95.9585
 20
198.669
  0
VERTEX
  8
LAYER_1
 10
96.0378
 20
198.669
  0
VERTEX
  8
LAYER_1
 10
96.1701
 20
198.669
  0
SEQEND
  0
POLYLINE
  8
LAYER_1
 40
0.1693
 41
0.1693
 66
1
 10
0
 20
0
 30
0
  0
VERTEX
  8
LAYER_1
 10
96.2495
 20
198.669
  0
VERTEX
  8
LAYER_1
 10
96.4083
 20
198.669
  0
VERTEX
  8
LAYER_1
 10
96.5141
 20
198.669
  0
SEQEND
  0
POLYLINE
  8
LAYER_1
 40
0.1693
 41
0.1693
 66
1
 10
0
 20
0
 30
0
  0
VERTEX
  8
LAYER_1
 10
96.6199
 20
198.669
  0
VERTEX
  8
LAYER_1
 10
96.7522
 20
198.669
  0
VERTEX
  8
LAYER_1
 10
96.858
 20
198.669
  0
SEQEND
  0
POLYLINE
  8
LAYER_1
 40
0.1693
 41
0.1693
 66
1
 10
0
 20
0
 30
0
  0
VERTEX
  8
LAYER_1
 10
96.9639
 20
198.669
  0
VERTEX
  8
LAYER_1
 10
97.0962
 20
198.669
  0
VERTEX
  8
LAYER_1
 10
97.2285
 20
198.669
  0
SEQEND
  0
POLYLINE
  8
LAYER_1
 40
0.1693
 41
0.1693
 66
1
 10
0
 20
0
 30
0
  0
VERTEX
  8
LAYER_1
 10
97.3078
 20
198.669
  0
VERTEX
  8
LAYER_1
 10
97.4666
 20
198.669
  0
VERTEX
  8
LAYER_1
 10
97.5724
 20
198.669
  0
SEQEND
  0
POLYLINE
  8
LAYER_1
 40
0.1693
 41
0.1693
 66
1
 10
0
 20
0
 30
0
  0
VERTEX
  8
LAYER_1
 10
97.6783
 20
198.669
  0
VERTEX
  8
LAYER_1
 10
97.8105
 20
198.669
  0
VERTEX
  8
LAYER_1
 10
97.8899
 20
198.669
  0
SEQEND
  0
POLYLINE
  8
LAYER_1
 40
0.1693
 41
0.1693
 66
1
 10
0
 20
0
 30
0
  0
VERTEX
  8
LAYER_1
 10
97.9428
 20
198.669
  0
VERTEX
  8
LAYER_1
 10
98.0222
 20
198.6955
  0
SEQEND
  0
POLYLINE
  8
LAYER_1
 40
0.1693
 41
0.1693
 66
1
 10
0
 20
0
 30
0
  0
VERTEX
  8
LAYER_1
 10
72.9133
 20
220.4971
  0
VERTEX
  8
LAYER_1
 10
72.9397
 20
220.3648
  0
SEQEND
  0
POLYLINE
  8
LAYER_1
 40
0.1693
 41
0.1693
 66
1
 10
0
 20
0
 30
0
  0
VERTEX
  8
LAYER_1
 10
72.9397
 20
220.2855
  0
VERTEX
  8
LAYER_1
 10
72.9926
 20
220.1267
  0
SEQEND
  0
POLYLINE
  8
LAYER_1
 40
0.1693
 41
0.1693
 66
1
 10
0
 20
0
 30
0
  0
VERTEX
  8
LAYER_1
 10
131.9154
 20
205.8657
  0
VERTEX
  8
LAYER_1
 10
131.836
 20
205.7863
  0
SEQEND
  0
POLYLINE
  8
LAYER_1
 40
0.1693
 41
0.1693
 66
1
 10
0
 20
0
 30
0
  0
VERTEX
  8
LAYER_1
 10
131.7566
 20
205.7334
  0
VERTEX
  8
LAYER_1
 10
131.6508
 20
205.6275
  0
VERTEX
  8
LAYER_1
 10
131.5449
 20
205.5482
  0
SEQEND
  0
POLYLINE
  8
LAYER_1
 40
0.1693
 41
0.1693
 66
1
 10
0
 20
0
 30
0
  0
VERTEX
  8
LAYER_1
 10
131.492
 20
205.4953
  0
VERTEX
  8
LAYER_1
 10
131.3597
 20
205.3894
  0
VERTEX
  8
LAYER_1
 10
131.2539
 20
205.31
  0
SEQEND
  0
POLYLINE
  8
LAYER_1
 40
0.1693
 41
0.1693
 66
1
 10
0
 20
0
 30
0
  0
VERTEX
  8
LAYER_1
 10
131.201
 20
205.2572
  0
VERTEX
  8
LAYER_1
 10
131.0687
 20
205.1513
  0
VERTEX
  8
LAYER_1
 10
131.0158
 20
205.1248
  0
SEQEND
  0
POLYLINE
  8
LAYER_1
 40
0.1693
 41
0.1693
 66
1
 10
0
 20
0
 30
0
  0
VERTEX
  8
LAYER_1
 10
130.9893
 20
205.072
  0
VERTEX
  8
LAYER_1
 10
130.9099
 20
205.019
  0
VERTEX
  8
LAYER_1
 10
130.8041
 20
204.9396
  0
SEQEND
  0
POLYLINE
  8
LAYER_1
 40
0.1693
 41
0.1693
 66
1
 10
0
 20
0
 30
0
  0
VERTEX
  8
LAYER_1
 10
130.7512
 20
204.8868
  0
VERTEX
  8
LAYER_1
 10
130.6189
 20
204.7809
  0
VERTEX
  8
LAYER_1
 10
130.4601
 20
204.6486
  0
SEQEND
  0
POLYLINE
  8
LAYER_1
 40
0.1693
 41
0.1693
 66
1
 10
0
 20
0
 30
0
  0
VERTEX
  8
LAYER_1
 10
130.3278
 20
204.5428
  0
VERTEX
  8
LAYER_1
 10
130.1426
 20
204.384
  0
VERTEX
  8
LAYER_1
 10
129.9574
 20
204.2517
  0
SEQEND
  0
POLYLINE
  8
LAYER_1
 40
0.1693
 41
0.1693
 66
1
 10
0
 20
0
 30
0
  0
VERTEX
  8
LAYER_1
 10
129.8516
 20
204.1459
  0
VERTEX
  8
LAYER_1
 10
129.6399
 20
203.9871
  0
VERTEX
  8
LAYER_1
 10
129.4547
 20
203.8548
  0
SEQEND
  0
POLYLINE
  8
LAYER_1
 40
0.1693
 41
0.1693
 66
1
 10
0
 20
0
 30
0
  0
VERTEX
  8
LAYER_1
 10
129.3489
 20
203.7755
  0
VERTEX
  8
LAYER_1
 10
129.1372
 20
203.6167
  0
VERTEX
  8
LAYER_1
 10
128.952
 20
203.4844
  0
SEQEND
  0
POLYLINE
  8
LAYER_1
 40
0.1693
 41
0.1693
 66
1
 10
0
 20
0
 30
0
  0
VERTEX
  8
LAYER_1
 10
128.8462
 20
203.3786
  0
VERTEX
  8
LAYER_1
 10
128.6345
 20
203.2198
  0
VERTEX
  8
LAYER_1
 10
128.4493
 20
203.114
  0
SEQEND
  0
POLYLINE
  8
LAYER_1
 40
0.1693
 41
0.1693
 66
1
 10
0
 20
0
 30
0
  0
VERTEX
  8
LAYER_1
 10
128.3435
 20
203.0082
  0
VERTEX
  8
LAYER_1
 10
128.1318
 20
202.8758
  0
VERTEX
  8
LAYER_1
 10
128.026
 20
202.7965
  0
SEQEND
  0
POLYLINE
  8
LAYER_1
 40
0.1693
 41
0.1693
 66
1
 10
0
 20
0
 30
0
  0
VERTEX
  8
LAYER_1
 10
127.9466
 20
202.7436
  0
VERTEX
  8
LAYER_1
 10
127.8143
 20
202.6642
  0
VERTEX
  8
LAYER_1
 10
127.7349
 20
202.6113
  0
SEQEND
  0
POLYLINE
  8
LAYER_1
 40
0.1693
 41
0.1693
 66
1
 10
0
 20
0
 30
0
  0
VERTEX
  8
LAYER_1
 10
127.682
 20
202.5848
  0
VERTEX
  8
LAYER_1
 10
127.5762
 20
202.5054
  0
VERTEX
  8
LAYER_1
 10
127.4174
 20
202.4261
  0
SEQEND
  0
POLYLINE
  8
LAYER_1
 40
0.1693
 41
0.1693
 66
1
 10
0
 20
0
 30
0
  0
VERTEX
  8
LAYER_1
 10
127.3116
 20
202.3467
  0
VERTEX
  8
LAYER_1
 10
127.1528
 20
202.2409
  0
VERTEX
  8
LAYER_1
 10
126.9941
 20
202.1615
  0
SEQEND
  0
POLYLINE
  8
LAYER_1
 40
0.1693
 41
0.1693
 66
1
 10
0
 20
0
 30
0
  0
VERTEX
  8
LAYER_1
 10
126.8883
 20
202.1086
  0
VERTEX
  8
LAYER_1
 10
126.7295
 20
202.0028
  0
VERTEX
  8
LAYER_1
 10
126.5708
 20
201.9234
  0
SEQEND
  0
POLYLINE
  8
LAYER_1
 40
0.1693
 41
0.1693
 66
1
 10
0
 20
0
 30
0
  0
VERTEX
  8
LAYER_1
 10
126.4649
 20
201.844
  0
VERTEX
  8
LAYER_1
 10
126.3062
 20
201.7382
  0
VERTEX
  8
LAYER_1
 10
126.1474
 20
201.6588
  0
SEQEND
  0
POLYLINE
  8
LAYER_1
 40
0.1693
 41
0.1693
 66
1
 10
0
 20
0
 30
0
  0
VERTEX
  8
LAYER_1
 10
126.0416
 20
201.6059
  0
VERTEX
  8
LAYER_1
 10
125.8564
 20
201.5001
  0
VERTEX
  8
LAYER_1
 10
125.6976
 20
201.4207
  0
SEQEND
  0
POLYLINE
  8
LAYER_1
 40
0.1693
 41
0.1693
 66
1
 10
0
 20
0
 30
0
  0
VERTEX
  8
LAYER_1
 10
125.5918
 20
201.3678
  0
VERTEX
  8
LAYER_1
 10
125.4066
 20
201.2619
  0
VERTEX
  8
LAYER_1
 10
125.3272
 20
201.2355
  0
SEQEND
  0
POLYLINE
  8
LAYER_1
 40
0.1693
 41
0.1693
 66
1
 10
0
 20
0
 30
0
  0
VERTEX
  8
LAYER_1
 10
125.2743
 20
201.1826
  0
VERTEX
  8
LAYER_1
 10
125.1685
 20
201.1297
  0
VERTEX
  8
LAYER_1
 10
125.0362
 20
201.0767
  0
SEQEND
  0
POLYLINE
  8
LAYER_1
 40
0.1693
 41
0.1693
 66
1
 10
0
 20
0
 30
0
  0
VERTEX
  8
LAYER_1
 10
124.9304
 20
201.0239
  0
VERTEX
  8
LAYER_1
 10
124.7716
 20
200.9445
  0
VERTEX
  8
LAYER_1
 10
124.5335
 20
200.8386
  0
SEQEND
  0
POLYLINE
  8
LAYER_1
 40
0.1693
 41
0.1693
 66
1
 10
0
 20
0
 30
0
  0
VERTEX
  8
LAYER_1
 10
124.3747
 20
200.7593
  0
VERTEX
  8
LAYER_1
 10
124.1101
 20
200.627
  0
VERTEX
  8
LAYER_1
 10
123.872
 20
200.5211
  0
SEQEND
  0
POLYLINE
  8
LAYER_1
 40
0.1693
 41
0.1693
 66
1
 10
0
 20
0
 30
0
  0
VERTEX
  8
LAYER_1
 10
123.7133
 20
200.4683
  0
VERTEX
  8
LAYER_1
 10
123.4487
 20
200.3359
  0
VERTEX
  8
LAYER_1
 10
123.2106
 20
200.2566
  0
SEQEND
  0
POLYLINE
  8
LAYER_1
 40
0.1693
 41
0.1693
 66
1
 10
0
 20
0
 30
0
  0
VERTEX
  8
LAYER_1
 10
123.0254
 20
200.1772
  0
VERTEX
  8
LAYER_1
 10
122.7608
 20
200.0714
  0
SEQEND
  0
POLYLINE
  8
LAYER_1
 40
0.1693
 41
0.1693
 66
1
 10
0
 20
0
 30
0
  0
VERTEX
  8
LAYER_1
 10
122.7608
 20
200.0712
  0
SEQEND
  0
POLYLINE
  8
LAYER_1
 40
0.1693
 41
0.1693
 66
1
 10
0
 20
0
 30
0
  0
VERTEX
  8
LAYER_1
 10
132.1799
 20
206.1301
  0
VERTEX
  8
LAYER_1
 10
132.1005
 20
206.0507
  0
SEQEND
  0
POLYLINE
  8
LAYER_1
 40
0.1693
 41
0.1693
 66
1
 10
0
 20
0
 30
0
  0
VERTEX
  8
LAYER_1
 10
132.0212
 20
205.9714
  0
VERTEX
  8
LAYER_1
 10
131.9153
 20
205.8655
  0
SEQEND
  0
POLYLINE
  8
LAYER_1
 40
0.1693
 41
0.1693
 66
1
 10
0
 20
0
 30
0
  0
VERTEX
  8
LAYER_1
 10
132.4445
 20
206.3947
  0
VERTEX
  8
LAYER_1
 10
132.3651
 20
206.3153
  0
SEQEND
  0
POLYLINE
  8
LAYER_1
 40
0.1693
 41
0.1693
 66
1
 10
0
 20
0
 30
0
  0
VERTEX
  8
LAYER_1
 10
132.2858
 20
206.236
  0
VERTEX
  8
LAYER_1
 10
132.1799
 20
206.1301
  0
SEQEND
  0
POLYLINE
  8
LAYER_1
 40
0.1693
 41
0.1693
 66
1
 10
0
 20
0
 30
0
  0
VERTEX
  8
LAYER_1
 10
132.6033
 20
206.527
  0
VERTEX
  8
LAYER_1
 10
132.5503
 20
206.5005
  0
SEQEND
  0
POLYLINE
  8
LAYER_1
 40
0.1693
 41
0.1693
 66
1
 10
0
 20
0
 30
0
  0
VERTEX
  8
LAYER_1
 10
132.5239
 20
206.4476
  0
VERTEX
  8
LAYER_1
 10
132.4445
 20
206.3947
  0
SEQEND
  0
POLYLINE
  8
LAYER_1
 40
0.1693
 41
0.1693
 66
1
 10
0
 20
0
 30
0
  0
VERTEX
  8
LAYER_1
 10
132.8149
 20
206.7916
  0
VERTEX
  8
LAYER_1
 10
132.7356
 20
206.7122
  0
SEQEND
  0
POLYLINE
  8
LAYER_1
 40
0.1693
 41
0.1693
 66
1
 10
0
 20
0
 30
0
  0
VERTEX
  8
LAYER_1
 10
132.6827
 20
206.6329
  0
VERTEX
  8
LAYER_1
 10
132.6033
 20
206.527
  0
SEQEND
  0
POLYLINE
  8
LAYER_1
 40
0.1693
 41
0.1693
 66
1
 10
0
 20
0
 30
0
  0
VERTEX
  8
LAYER_1
 10
133.1854
 20
207.2679
  0
VERTEX
  8
LAYER_1
 10
133.0531
 20
207.1091
  0
SEQEND
  0
POLYLINE
  8
LAYER_1
 40
0.1693
 41
0.1693
 66
1
 10
0
 20
0
 30
0
  0
VERTEX
  8
LAYER_1
 10
132.9737
 20
206.9768
  0
VERTEX
  8
LAYER_1
 10
132.8149
 20
206.7916
  0
SEQEND
  0
POLYLINE
  8
LAYER_1
 40
0.1693
 41
0.1693
 66
1
 10
0
 20
0
 30
0
  0
VERTEX
  8
LAYER_1
 10
133.5029
 20
207.7706
  0
VERTEX
  8
LAYER_1
 10
133.397
 20
207.5853
  0
SEQEND
  0
POLYLINE
  8
LAYER_1
 40
0.1693
 41
0.1693
 66
1
 10
0
 20
0
 30
0
  0
VERTEX
  8
LAYER_1
 10
133.3177
 20
207.4795
  0
VERTEX
  8
LAYER_1
 10
133.1854
 20
207.2679
  0
SEQEND
  0
POLYLINE
  8
LAYER_1
 40
0.1693
 41
0.1693
 66
1
 10
0
 20
0
 30
0
  0
VERTEX
  8
LAYER_1
 10
133.8204
 20
208.2733
  0
VERTEX
  8
LAYER_1
 10
133.7145
 20
208.0881
  0
SEQEND
  0
POLYLINE
  8
LAYER_1
 40
0.1693
 41
0.1693
 66
1
 10
0
 20
0
 30
0
  0
VERTEX
  8
LAYER_1
 10
133.6352
 20
207.9823
  0
VERTEX
  8
LAYER_1
 10
133.5029
 20
207.7706
  0
SEQEND
  0
POLYLINE
  8
LAYER_1
 40
0.1693
 41
0.1693
 66
1
 10
0
 20
0
 30
0
  0
VERTEX
  8
LAYER_1
 10
134.1114
 20
208.8025
  0
VERTEX
  8
LAYER_1
 10
134.0056
 20
208.6172
  0
SEQEND
  0
POLYLINE
  8
LAYER_1
 40
0.1693
 41
0.1693
 66
1
 10
0
 20
0
 30
0
  0
VERTEX
  8
LAYER_1
 10
133.9527
 20
208.485
  0
VERTEX
  8
LAYER_1
 10
133.8204
 20
208.2733
  0
SEQEND
  0
POLYLINE
  8
LAYER_1
 40
0.1693
 41
0.1693
 66
1
 10
0
 20
0
 30
0
  0
VERTEX
  8
LAYER_1
 10
134.4024
 20
209.3316
  0
VERTEX
  8
LAYER_1
 10
134.2966
 20
209.1464
  0
SEQEND
  0
POLYLINE
  8
LAYER_1
 40
0.1693
 41
0.1693
 66
1
 10
0
 20
0
 30
0
  0
VERTEX
  8
LAYER_1
 10
134.2437
 20
209.0141
  0
VERTEX
  8
LAYER_1
 10
134.1114
 20
208.8025
  0
SEQEND
  0
POLYLINE
  8
LAYER_1
 40
0.1693
 41
0.1693
 66
1
 10
0
 20
0
 30
0
  0
VERTEX
  8
LAYER_1
 10
134.5612
 20
209.6227
  0
VERTEX
  8
LAYER_1
 10
134.5083
 20
209.5168
  0
SEQEND
  0
POLYLINE
  8
LAYER_1
 40
0.1693
 41
0.1693
 66
1
 10
0
 20
0
 30
0
  0
VERTEX
  8
LAYER_1
 10
134.4818
 20
209.4639
  0
VERTEX
  8
LAYER_1
 10
134.4024
 20
209.3316
  0
SEQEND
  0
POLYLINE
  8
LAYER_1
 40
0.1693
 41
0.1693
 66
1
 10
0
 20
0
 30
0
  0
VERTEX
  8
LAYER_1
 10
134.8522
 20
210.2312
  0
VERTEX
  8
LAYER_1
 10
134.7464
 20
210.0195
  0
SEQEND
  0
POLYLINE
  8
LAYER_1
 40
0.1693
 41
0.1693
 66
1
 10
0
 20
0
 30
0
  0
VERTEX
  8
LAYER_1
 10
134.6935
 20
209.8608
  0
VERTEX
  8
LAYER_1
 10
134.5612
 20
209.6227
  0
SEQEND
  0
POLYLINE
  8
LAYER_1
 40
0.1693
 41
0.1693
 66
1
 10
0
 20
0
 30
0
  0
VERTEX
  8
LAYER_1
 10
135.3285
 20
211.2631
  0
VERTEX
  8
LAYER_1
 10
135.1697
 20
210.8927
  0
SEQEND
  0
POLYLINE
  8
LAYER_1
 40
0.1693
 41
0.1693
 66
1
 10
0
 20
0
 30
0
  0
VERTEX
  8
LAYER_1
 10
135.0375
 20
210.6281
  0
VERTEX
  8
LAYER_1
 10
134.8522
 20
210.2312
  0
SEQEND
  0
POLYLINE
  8
LAYER_1
 40
0.1693
 41
0.1693
 66
1
 10
0
 20
0
 30
0
  0
VERTEX
  8
LAYER_1
 10
135.8047
 20
212.295
  0
VERTEX
  8
LAYER_1
 10
135.646
 20
211.9245
  0
SEQEND
  0
POLYLINE
  8
LAYER_1
 40
0.1693
 41
0.1693
 66
1
 10
0
 20
0
 30
0
  0
VERTEX
  8
LAYER_1
 10
135.5137
 20
211.66
  0
VERTEX
  8
LAYER_1
 10
135.3285
 20
211.2631
  0
SEQEND
  0
POLYLINE
  8
LAYER_1
 40
0.1693
 41
0.1693
 66
1
 10
0
 20
0
 30
0
  0
VERTEX
  8
LAYER_1
 10
136.2281
 20
213.3533
  0
VERTEX
  8
LAYER_1
 10
136.0693
 20
212.9564
  0
SEQEND
  0
POLYLINE
  8
LAYER_1
 40
0.1693
 41
0.1693
 66
1
 10
0
 20
0
 30
0
  0
VERTEX
  8
LAYER_1
 10
135.9635
 20
212.6919
  0
VERTEX
  8
LAYER_1
 10
135.8047
 20
212.295
  0
SEQEND
  0
POLYLINE
  8
LAYER_1
 40
0.1693
 41
0.1693
 66
1
 10
0
 20
0
 30
0
  0
VERTEX
  8
LAYER_1
 10
136.6249
 20
214.4117
  0
VERTEX
  8
LAYER_1
 10
136.4926
 20
214.0148
  0
SEQEND
  0
POLYLINE
  8
LAYER_1
 40
0.1693
 41
0.1693
 66
1
 10
0
 20
0
 30
0
  0
VERTEX
  8
LAYER_1
 10
136.3868
 20
213.7502
  0
VERTEX
  8
LAYER_1
 10
136.2281
 20
213.3533
  0
SEQEND
  0
POLYLINE
  8
LAYER_1
 40
0.1693
 41
0.1693
 66
1
 10
0
 20
0
 30
0
  0
VERTEX
  8
LAYER_1
 10
136.9954
 20
215.4965
  0
VERTEX
  8
LAYER_1
 10
136.8631
 20
215.0996
  0
SEQEND
  0
POLYLINE
  8
LAYER_1
 40
0.1693
 41
0.1693
 66
1
 10
0
 20
0
 30
0
  0
VERTEX
  8
LAYER_1
 10
136.7837
 20
214.835
  0
VERTEX
  8
LAYER_1
 10
136.6249
 20
214.4117
  0
SEQEND
  0
POLYLINE
  8
LAYER_1
 40
0.1693
 41
0.1693
 66
1
 10
0
 20
0
 30
0
  0
VERTEX
  8
LAYER_1
 10
137.1806
 20
216.1315
  0
VERTEX
  8
LAYER_1
 10
137.1276
 20
215.8933
  0
SEQEND
  0
POLYLINE
  8
LAYER_1
 40
0.1693
 41
0.1693
 66
1
 10
0
 20
0
 30
0
  0
VERTEX
  8
LAYER_1
 10
137.0747
 20
215.7346
  0
VERTEX
  8
LAYER_1
 10
136.9953
 20
215.4964
  0
SEQEND
  0
POLYLINE
  8
LAYER_1
 40
0.1693
 41
0.1693
 66
1
 10
0
 20
0
 30
0
  0
VERTEX
  8
LAYER_1
 10
137.2864
 20
216.5283
  0
VERTEX
  8
LAYER_1
 10
137.2599
 20
216.396
  0
SEQEND
  0
POLYLINE
  8
LAYER_1
 40
0.1693
 41
0.1693
 66
1
 10
0
 20
0
 30
0
  0
VERTEX
  8
LAYER_1
 10
137.2335
 20
216.2902
  0
VERTEX
  8
LAYER_1
 10
137.1806
 20
216.1314
  0
SEQEND
  0
POLYLINE
  8
LAYER_1
 40
0.1693
 41
0.1693
 66
1
 10
0
 20
0
 30
0
  0
VERTEX
  8
LAYER_1
 10
137.4452
 20
217.2427
  0
VERTEX
  8
LAYER_1
 10
137.3922
 20
216.9781
  0
SEQEND
  0
POLYLINE
  8
LAYER_1
 40
0.1693
 41
0.1693
 66
1
 10
0
 20
0
 30
0
  0
VERTEX
  8
LAYER_1
 10
137.3658
 20
216.8194
  0
VERTEX
  8
LAYER_1
 10
137.2864
 20
216.5283
  0
SEQEND
  0
POLYLINE
  8
LAYER_1
 40
0.1693
 41
0.1693
 66
1
 10
0
 20
0
 30
0
  0
VERTEX
  8
LAYER_1
 10
137.6039
 20
217.9571
  0
VERTEX
  8
LAYER_1
 10
137.551
 20
217.6925
  0
SEQEND
  0
POLYLINE
  8
LAYER_1
 40
0.1693
 41
0.1693
 66
1
 10
0
 20
0
 30
0
  0
VERTEX
  8
LAYER_1
 10
137.5245
 20
217.5337
  0
VERTEX
  8
LAYER_1
 10
137.4452
 20
217.2427
  0
SEQEND
  0
POLYLINE
  8
LAYER_1
 40
0.1693
 41
0.1693
 66
1
 10
0
 20
0
 30
0
  0
VERTEX
  8
LAYER_1
 10
137.7627
 20
218.6714
  0
VERTEX
  8
LAYER_1
 10
137.7097
 20
218.4068
  0
SEQEND
  0
POLYLINE
  8
LAYER_1
 40
0.1693
 41
0.1693
 66
1
 10
0
 20
0
 30
0
  0
VERTEX
  8
LAYER_1
 10
137.6833
 20
218.2481
  0
VERTEX
  8
LAYER_1
 10
137.6039
 20
217.957
  0
SEQEND
  0
POLYLINE
  8
LAYER_1
 40
0.1693
 41
0.1693
 66
1
 10
0
 20
0
 30
0
  0
VERTEX
  8
LAYER_1
 10
137.895
 20
219.4123
  0
VERTEX
  8
LAYER_1
 10
137.8685
 20
219.1477
  0
SEQEND
  0
POLYLINE
  8
LAYER_1
 40
0.1693
 41
0.1693
 66
1
 10
0
 20
0
 30
0
  0
VERTEX
  8
LAYER_1
 10
137.8156
 20
218.9625
  0
VERTEX
  8
LAYER_1
 10
137.7627
 20
218.6714
  0
SEQEND
  0
POLYLINE
  8
LAYER_1
 40
0.1693
 41
0.1693
 66
1
 10
0
 20
0
 30
0
  0
VERTEX
  8
LAYER_1
 10
138.0273
 20
220.1266
  0
VERTEX
  8
LAYER_1
 10
138.0008
 20
219.862
  0
SEQEND
  0
POLYLINE
  8
LAYER_1
 40
0.1693
 41
0.1693
 66
1
 10
0
 20
0
 30
0
  0
VERTEX
  8
LAYER_1
 10
137.9479
 20
219.7033
  0
VERTEX
  8
LAYER_1
 10
137.895
 20
219.4122
  0
SEQEND
  0
POLYLINE
  8
LAYER_1
 40
0.1693
 41
0.1693
 66
1
 10
0
 20
0
 30
0
  0
VERTEX
  8
LAYER_1
 10
138.1066
 20
220.497
  0
VERTEX
  8
LAYER_1
 10
138.0802
 20
220.3647
  0
SEQEND
  0
POLYLINE
  8
LAYER_1
 40
0.1693
 41
0.1693
 66
1
 10
0
 20
0
 30
0
  0
VERTEX
  8
LAYER_1
 10
138.0802
 20
220.2854
  0
VERTEX
  8
LAYER_1
 10
138.0273
 20
220.1266
  0
SEQEND
  0
POLYLINE
  8
LAYER_1
 40
0.1693
 41
0.1693
 66
1
 10
0
 20
0
 30
0
  0
VERTEX
  8
LAYER_1
 10
113.6856
 20
195.8379
  0
VERTEX
  8
LAYER_1
 10
112.2039
 20
195.6527
  0
VERTEX
  8
LAYER_1
 10
110.6164
 20
195.4939
  0
VERTEX
  8
LAYER_1
 10
110.6164
 20
196.1554
  0
SEQEND
  0
POLYLINE
  8
LAYER_1
 40
0.1693
 41
0.1693
 66
1
 10
0
 20
0
 30
0
  0
VERTEX
  8
LAYER_1
 10
110.6164
 20
196.5787
  0
VERTEX
  8
LAYER_1
 10
110.6164
 20
197.2666
  0
SEQEND
  0
POLYLINE
  8
LAYER_1
 40
0.1693
 41
0.1693
 66
1
 10
0
 20
0
 30
0
  0
VERTEX
  8
LAYER_1
 10
112.8125
 20
198.3514
  0
VERTEX
  8
LAYER_1
 10
112.786
 20
198.2985
  0
SEQEND
  0
POLYLINE
  8
LAYER_1
 40
0.1693
 41
0.1693
 66
1
 10
0
 20
0
 30
0
  0
VERTEX
  8
LAYER_1
 10
112.7596
 20
198.2721
  0
VERTEX
  8
LAYER_1
 10
112.7066
 20
198.1927
  0
SEQEND
  0
POLYLINE
  8
LAYER_1
 40
0.1693
 41
0.1693
 66
1
 10
0
 20
0
 30
0
  0
VERTEX
  8
LAYER_1
 10
112.9183
 20
198.5102
  0
VERTEX
  8
LAYER_1
 10
112.8918
 20
198.4572
  0
SEQEND
  0
POLYLINE
  8
LAYER_1
 40
0.1693
 41
0.1693
 66
1
 10
0
 20
0
 30
0
  0
VERTEX
  8
LAYER_1
 10
112.8654
 20
198.4308
  0
VERTEX
  8
LAYER_1
 10
112.8125
 20
198.3514
  0
SEQEND
  0
POLYLINE
  8
LAYER_1
 40
0.1693
 41
0.1693
 66
1
 10
0
 20
0
 30
0
  0
VERTEX
  8
LAYER_1
 10
112.9712
 20
198.6954
  0
VERTEX
  8
LAYER_1
 10
112.9712
 20
198.6424
  0
SEQEND
  0
POLYLINE
  8
LAYER_1
 40
0.1693
 41
0.1693
 66
1
 10
0
 20
0
 30
0
  0
VERTEX
  8
LAYER_1
 10
112.9448
 20
198.5895
  0
VERTEX
  8
LAYER_1
 10
112.9183
 20
198.5102
  0
SEQEND
  0
POLYLINE
  8
LAYER_1
 40
0.1693
 41
0.1693
 66
1
 10
0
 20
0
 30
0
  0
VERTEX
  8
LAYER_1
 10
123.6075
 20
198.1927
  0
VERTEX
  8
LAYER_1
 10
122.5227
 20
197.8222
  0
VERTEX
  8
LAYER_1
 10
121.385
 20
197.4518
  0
SEQEND
  0
POLYLINE
  8
LAYER_1
 40
0.1693
 41
0.1693
 66
1
 10
0
 20
0
 30
0
  0
VERTEX
  8
LAYER_1
 10
120.2208
 20
197.1343
  0
VERTEX
  8
LAYER_1
 10
119.0302
 20
196.8168
  0
VERTEX
  8
LAYER_1
 10
117.7602
 20
196.5258
  0
VERTEX
  8
LAYER_1
 10
116.4637
 20
196.2876
  0
SEQEND
  0
POLYLINE
  8
LAYER_1
 40
0.1693
 41
0.1693
 66
1
 10
0
 20
0
 30
0
  0
VERTEX
  8
LAYER_1
 10
115.1144
 20
196.0495
  0
VERTEX
  8
LAYER_1
 10
113.6856
 20
195.8378
  0
SEQEND
  0
POLYLINE
  8
LAYER_1
 40
0.1693
 41
0.1693
 66
1
 10
0
 20
0
 30
0
  0
VERTEX
  8
LAYER_1
 10
112.9712
 20
198.6954
  0
VERTEX
  8
LAYER_1
 10
112.9712
 20
198.6424
  0
SEQEND
  0
POLYLINE
  8
LAYER_1
 40
0.1693
 41
0.1693
 66
1
 10
0
 20
0
 30
0
  0
VERTEX
  8
LAYER_1
 10
112.9448
 20
198.5895
  0
VERTEX
  8
LAYER_1
 10
112.9183
 20
198.5101
  0
VERTEX
  8
LAYER_1
 10
112.8919
 20
198.4572
  0
SEQEND
  0
POLYLINE
  8
LAYER_1
 40
0.1693
 41
0.1693
 66
1
 10
0
 20
0
 30
0
  0
VERTEX
  8
LAYER_1
 10
112.8654
 20
198.4308
  0
VERTEX
  8
LAYER_1
 10
112.8125
 20
198.3514
  0
VERTEX
  8
LAYER_1
 10
112.786
 20
198.2985
  0
SEQEND
  0
POLYLINE
  8
LAYER_1
 40
0.1693
 41
0.1693
 66
1
 10
0
 20
0
 30
0
  0
VERTEX
  8
LAYER_1
 10
112.7596
 20
198.272
  0
VERTEX
  8
LAYER_1
 10
112.7067
 20
198.1926
  0
VERTEX
  8
LAYER_1
 10
112.6802
 20
198.1397
  0
SEQEND
  0
POLYLINE
  8
LAYER_1
 40
0.1693
 41
0.1693
 66
1
 10
0
 20
0
 30
0
  0
VERTEX
  8
LAYER_1
 10
112.6538
 20
198.1133
  0
VERTEX
  8
LAYER_1
 10
112.6008
 20
198.0339
  0
SEQEND
  0
POLYLINE
  8
LAYER_1
 40
0.1693
 41
0.1693
 66
1
 10
0
 20
0
 30
0
  0
VERTEX
  8
LAYER_1
 10
123.6075
 20
198.1927
  0
VERTEX
  8
LAYER_1
 10
122.5227
 20
197.8222
  0
SEQEND
  0
POLYLINE
  8
LAYER_1
 40
0.1693
 41
0.1693
 66
1
 10
0
 20
0
 30
0
  0
VERTEX
  8
LAYER_1
 10
117.7602
 20
196.5258
  0
VERTEX
  8
LAYER_1
 10
116.4637
 20
196.2876
  0
SEQEND
  0
POLYLINE
  8
LAYER_1
 40
0.1693
 41
0.1693
 66
1
 10
0
 20
0
 30
0
  0
VERTEX
  8
LAYER_1
 10
122.7608
 20
200.0712
  0
VERTEX
  8
LAYER_1
 10
122.5227
 20
199.9918
  0
SEQEND
  0
POLYLINE
  8
LAYER_1
 40
0.1693
 41
0.1693
 66
1
 10
0
 20
0
 30
0
  0
VERTEX
  8
LAYER_1
 10
122.3375
 20
199.9389
  0
VERTEX
  8
LAYER_1
 10
122.0729
 20
199.833
  0
VERTEX
  8
LAYER_1
 10
121.8348
 20
199.7537
  0
SEQEND
  0
POLYLINE
  8
LAYER_1
 40
0.1693
 41
0.1693
 66
1
 10
0
 20
0
 30
0
  0
VERTEX
  8
LAYER_1
 10
121.6496
 20
199.7008
  0
VERTEX
  8
LAYER_1
 10
121.385
 20
199.5949
  0
VERTEX
  8
LAYER_1
 10
121.2262
 20
199.5685
  0
SEQEND
  0
POLYLINE
  8
LAYER_1
 40
0.1693
 41
0.1693
 66
1
 10
0
 20
0
 30
0
  0
VERTEX
  8
LAYER_1
 10
121.1204
 20
199.542
  0
VERTEX
  8
LAYER_1
 10
120.9617
 20
199.4891
  0
VERTEX
  8
LAYER_1
 10
120.8558
 20
199.4891
  0
SEQEND
  0
POLYLINE
  8
LAYER_1
 40
0.1693
 41
0.1693
 66
1
 10
0
 20
0
 30
0
  0
VERTEX
  8
LAYER_1
 10
120.8029
 20
199.4627
  0
VERTEX
  8
LAYER_1
 10
120.6706
 20
199.4362
  0
VERTEX
  8
LAYER_1
 10
120.4854
 20
199.4097
  0
SEQEND
  0
POLYLINE
  8
LAYER_1
 40
0.1693
 41
0.1693
 66
1
 10
0
 20
0
 30
0
  0
VERTEX
  8
LAYER_1
 10
120.3531
 20
199.3568
  0
VERTEX
  8
LAYER_1
 10
120.1415
 20
199.3039
  0
VERTEX
  8
LAYER_1
 10
119.9562
 20
199.2774
  0
SEQEND
  0
POLYLINE
  8
LAYER_1
 40
0.1693
 41
0.1693
 66
1
 10
0
 20
0
 30
0
  0
VERTEX
  8
LAYER_1
 10
119.824
 20
199.2775
  0
VERTEX
  8
LAYER_1
 10
119.6123
 20
199.2245
  0
VERTEX
  8
LAYER_1
 10
119.4271
 20
199.1981
  0
SEQEND
  0
POLYLINE
  8
LAYER_1
 40
0.1693
 41
0.1693
 66
1
 10
0
 20
0
 30
0
  0
VERTEX
  8
LAYER_1
 10
119.2948
 20
199.1981
  0
VERTEX
  8
LAYER_1
 10
119.0831
 20
199.1452
  0
VERTEX
  8
LAYER_1
 10
118.8979
 20
199.1187
  0
SEQEND
  0
POLYLINE
  8
LAYER_1
 40
0.1693
 41
0.1693
 66
1
 10
0
 20
0
 30
0
  0
VERTEX
  8
LAYER_1
 10
118.7656
 20
199.1187
  0
VERTEX
  8
LAYER_1
 10
118.5539
 20
199.0658
  0
VERTEX
  8
LAYER_1
 10
118.3687
 20
199.0393
  0
SEQEND
  0
POLYLINE
  8
LAYER_1
 40
0.1693
 41
0.1693
 66
1
 10
0
 20
0
 30
0
  0
VERTEX
  8
LAYER_1
 10
118.2364
 20
199.0394
  0
VERTEX
  8
LAYER_1
 10
118.0248
 20
198.9864
  0
VERTEX
  8
LAYER_1
 10
117.9189
 20
198.9864
  0
SEQEND
  0
POLYLINE
  8
LAYER_1
 40
0.1693
 41
0.1693
 66
1
 10
0
 20
0
 30
0
  0
VERTEX
  8
LAYER_1
 10
117.866
 20
198.9864
  0
VERTEX
  8
LAYER_1
 10
117.7337
 20
198.96
  0
VERTEX
  8
LAYER_1
 10
117.6544
 20
198.96
  0
SEQEND
  0
POLYLINE
  8
LAYER_1
 40
0.1693
 41
0.1693
 66
1
 10
0
 20
0
 30
0
  0
VERTEX
  8
LAYER_1
 10
117.6014
 20
198.9335
  0
VERTEX
  8
LAYER_1
 10
117.4956
 20
198.907
  0
VERTEX
  8
LAYER_1
 10
117.3369
 20
198.907
  0
SEQEND
  0
POLYLINE
  8
LAYER_1
 40
0.1693
 41
0.1693
 66
1
 10
0
 20
0
 30
0
  0
VERTEX
  8
LAYER_1
 10
117.231
 20
198.8806
  0
VERTEX
  8
LAYER_1
 10
117.0723
 20
198.8541
  0
VERTEX
  8
LAYER_1
 10
116.9135
 20
198.8541
  0
SEQEND
  0
POLYLINE
  8
LAYER_1
 40
0.1693
 41
0.1693
 66
1
 10
0
 20
0
 30
0
  0
VERTEX
  8
LAYER_1
 10
116.8077
 20
198.8277
  0
VERTEX
  8
LAYER_1
 10
116.6489
 20
198.8012
  0
VERTEX
  8
LAYER_1
 10
116.5166
 20
198.8012
  0
SEQEND
  0
POLYLINE
  8
LAYER_1
 40
0.1693
 41
0.1693
 66
1
 10
0
 20
0
 30
0
  0
VERTEX
  8
LAYER_1
 10
116.4108
 20
198.8012
  0
VERTEX
  8
LAYER_1
 10
116.2521
 20
198.7748
  0
VERTEX
  8
LAYER_1
 10
116.0933
 20
198.7748
  0
SEQEND
  0
POLYLINE
  8
LAYER_1
 40
0.1693
 41
0.1693
 66
1
 10
0
 20
0
 30
0
  0
VERTEX
  8
LAYER_1
 10
115.9875
 20
198.7483
  0
VERTEX
  8
LAYER_1
 10
115.8287
 20
198.7218
  0
VERTEX
  8
LAYER_1
 10
115.6964
 20
198.7218
  0
SEQEND
  0
POLYLINE
  8
LAYER_1
 40
0.1693
 41
0.1693
 66
1
 10
0
 20
0
 30
0
  0
VERTEX
  8
LAYER_1
 10
115.5906
 20
198.7219
  0
VERTEX
  8
LAYER_1
 10
115.4319
 20
198.6954
  0
VERTEX
  8
LAYER_1
 10
115.3525
 20
198.6954
  0
SEQEND
  0
POLYLINE
  8
LAYER_1
 40
0.1693
 41
0.1693
 66
1
 10
0
 20
0
 30
0
  0
VERTEX
  8
LAYER_1
 10
115.2996
 20
198.6954
  0
VERTEX
  8
LAYER_1
 10
115.1937
 20
198.6689
  0
VERTEX
  8
LAYER_1
 10
115.1144
 20
198.6689
  0
SEQEND
  0
POLYLINE
  8
LAYER_1
 40
0.1693
 41
0.1693
 66
1
 10
0
 20
0
 30
0
  0
VERTEX
  8
LAYER_1
 10
115.0614
 20
198.6689
  0
VERTEX
  8
LAYER_1
 10
114.9821
 20
198.6689
  0
VERTEX
  8
LAYER_1
 10
114.8498
 20
198.6689
  0
SEQEND
  0
POLYLINE
  8
LAYER_1
 40
0.1693
 41
0.1693
 66
1
 10
0
 20
0
 30
0
  0
VERTEX
  8
LAYER_1
 10
114.7704
 20
198.6689
  0
VERTEX
  8
LAYER_1
 10
114.6116
 20
198.6689
  0
VERTEX
  8
LAYER_1
 10
114.5058
 20
198.6689
  0
SEQEND
  0
POLYLINE
  8
LAYER_1
 40
0.1693
 41
0.1693
 66
1
 10
0
 20
0
 30
0
  0
VERTEX
  8
LAYER_1
 10
114.4
 20
198.6689
  0
VERTEX
  8
LAYER_1
 10
114.2677
 20
198.6689
  0
VERTEX
  8
LAYER_1
 10
114.1619
 20
198.6689
  0
SEQEND
  0
POLYLINE
  8
LAYER_1
 40
0.1693
 41
0.1693
 66
1
 10
0
 20
0
 30
0
  0
VERTEX
  8
LAYER_1
 10
114.056
 20
198.6689
  0
VERTEX
  8
LAYER_1
 10
113.9237
 20
198.6689
  0
VERTEX
  8
LAYER_1
 10
113.7914
 20
198.6689
  0
SEQEND
  0
POLYLINE
  8
LAYER_1
 40
0.1693
 41
0.1693
 66
1
 10
0
 20
0
 30
0
  0
VERTEX
  8
LAYER_1
 10
113.7121
 20
198.6689
  0
VERTEX
  8
LAYER_1
 10
113.5533
 20
198.6689
  0
VERTEX
  8
LAYER_1
 10
113.4475
 20
198.6689
  0
SEQEND
  0
POLYLINE
  8
LAYER_1
 40
0.1693
 41
0.1693
 66
1
 10
0
 20
0
 30
0
  0
VERTEX
  8
LAYER_1
 10
113.3417
 20
198.6689
  0
VERTEX
  8
LAYER_1
 10
113.2094
 20
198.6689
  0
VERTEX
  8
LAYER_1
 10
113.13
 20
198.6689
  0
SEQEND
  0
POLYLINE
  8
LAYER_1
 40
0.1693
 41
0.1693
 66
1
 10
0
 20
0
 30
0
  0
VERTEX
  8
LAYER_1
 10
113.0771
 20
198.6689
  0
VERTEX
  8
LAYER_1
 10
112.9977
 20
198.6954
  0
SEQEND
  0
POLYLINE
  8
LAYER_1
 40
0.1693
 41
0.1693
 66
1
 10
0
 20
0
 30
0
  0
VERTEX
  8
LAYER_1
 10
116.4637
 20
196.2877
  0
VERTEX
  8
LAYER_1
 10
115.1143
 20
196.0495
  0
SEQEND
  0
POLYLINE
  8
LAYER_1
 40
0.1693
 41
0.1693
 66
1
 10
0
 20
0
 30
0
  0
VERTEX
  8
LAYER_1
 10
116.4637
 20
196.2877
  0
VERTEX
  8
LAYER_1
 10
115.1143
 20
196.0495
  0
VERTEX
  8
LAYER_1
 10
113.6856
 20
195.8379
  0
SEQEND
  0
POLYLINE
  8
LAYER_1
 40
0.1693
 41
0.1693
 66
1
 10
0
 20
0
 30
0
  0
VERTEX
  8
LAYER_1
 10
121.385
 20
197.4519
  0
VERTEX
  8
LAYER_1
 10
120.2208
 20
197.1343
  0
SEQEND
  0
POLYLINE
  8
LAYER_1
 40
0.1693
 41
0.1693
 66
1
 10
0
 20
0
 30
0
  0
VERTEX
  8
LAYER_1
 10
121.385
 20
197.4519
  0
VERTEX
  8
LAYER_1
 10
120.2208
 20
197.1343
  0
VERTEX
  8
LAYER_1
 10
119.0302
 20
196.8169
  0
SEQEND
  0
POLYLINE
  8
LAYER_1
 40
0.1693
 41
0.1693
 66
1
 10
0
 20
0
 30
0
  0
VERTEX
  8
LAYER_1
 10
122.5227
 20
197.8223
  0
VERTEX
  8
LAYER_1
 10
121.385
 20
197.4519
  0
SEQEND
  0
POLYLINE
  8
LAYER_1
 40
0.1693
 41
0.1693
 66
1
 10
0
 20
0
 30
0
  0
VERTEX
  8
LAYER_1
 10
119.0302
 20
196.8169
  0
VERTEX
  8
LAYER_1
 10
117.7602
 20
196.5258
  0
SEQEND
  0
POLYLINE
  8
LAYER_1
 40
0.1693
 41
0.1693
 66
1
 10
0
 20
0
 30
0
  0
VERTEX
  8
LAYER_1
 10
111.4631
 20
197.4254
  0
VERTEX
  8
LAYER_1
 10
111.3837
 20
197.3989
  0
SEQEND
  0
POLYLINE
  8
LAYER_1
 40
0.1693
 41
0.1693
 66
1
 10
0
 20
0
 30
0
  0
VERTEX
  8
LAYER_1
 10
111.3044
 20
197.3989
  0
VERTEX
  8
LAYER_1
 10
111.1985
 20
197.346
  0
SEQEND
  0
POLYLINE
  8
LAYER_1
 40
0.1693
 41
0.1693
 66
1
 10
0
 20
0
 30
0
  0
VERTEX
  8
LAYER_1
 10
112.2833
 20
197.7958
  0
VERTEX
  8
LAYER_1
 10
112.2304
 20
197.7693
  0
SEQEND
  0
POLYLINE
  8
LAYER_1
 40
0.1693
 41
0.1693
 66
1
 10
0
 20
0
 30
0
  0
VERTEX
  8
LAYER_1
 10
112.1775
 20
197.7429
  0
VERTEX
  8
LAYER_1
 10
112.0981
 20
197.69
  0
SEQEND
  0
POLYLINE
  8
LAYER_1
 40
0.1693
 41
0.1693
 66
1
 10
0
 20
0
 30
0
  0
VERTEX
  8
LAYER_1
 10
111.7012
 20
197.5048
  0
VERTEX
  8
LAYER_1
 10
111.6219
 20
197.4783
  0
SEQEND
  0
POLYLINE
  8
LAYER_1
 40
0.1693
 41
0.1693
 66
1
 10
0
 20
0
 30
0
  0
VERTEX
  8
LAYER_1
 10
111.569
 20
197.4783
  0
VERTEX
  8
LAYER_1
 10
111.4631
 20
197.4254
  0
SEQEND
  0
POLYLINE
  8
LAYER_1
 40
0.1693
 41
0.1693
 66
1
 10
0
 20
0
 30
0
  0
VERTEX
  8
LAYER_1
 10
112.4421
 20
197.9017
  0
VERTEX
  8
LAYER_1
 10
112.3892
 20
197.8752
  0
SEQEND
  0
POLYLINE
  8
LAYER_1
 40
0.1693
 41
0.1693
 66
1
 10
0
 20
0
 30
0
  0
VERTEX
  8
LAYER_1
 10
112.3627
 20
197.8488
  0
VERTEX
  8
LAYER_1
 10
112.2833
 20
197.7958
  0
SEQEND
  0
POLYLINE
  8
LAYER_1
 40
0.1693
 41
0.1693
 66
1
 10
0
 20
0
 30
0
  0
VERTEX
  8
LAYER_1
 10
112.6008
 20
198.034
  0
VERTEX
  8
LAYER_1
 10
112.5479
 20
198.0075
  0
SEQEND
  0
POLYLINE
  8
LAYER_1
 40
0.1693
 41
0.1693
 66
1
 10
0
 20
0
 30
0
  0
VERTEX
  8
LAYER_1
 10
112.5214
 20
197.9545
  0
VERTEX
  8
LAYER_1
 10
112.442
 20
197.9016
  0
SEQEND
  0
POLYLINE
  8
LAYER_1
 40
0.1693
 41
0.1693
 66
1
 10
0
 20
0
 30
0
  0
VERTEX
  8
LAYER_1
 10
112.7066
 20
198.1926
  0
VERTEX
  8
LAYER_1
 10
112.6801
 20
198.1397
  0
SEQEND
  0
POLYLINE
  8
LAYER_1
 40
0.1693
 41
0.1693
 66
1
 10
0
 20
0
 30
0
  0
VERTEX
  8
LAYER_1
 10
112.6537
 20
198.1132
  0
VERTEX
  8
LAYER_1
 10
112.6007
 20
198.0338
  0
SEQEND
  0
POLYLINE
  8
LAYER_1
 40
0.1693
 41
0.1693
 66
1
 10
0
 20
0
 30
0
  0
VERTEX
  8
LAYER_1
 10
112.8124
 20
198.3514
  0
VERTEX
  8
LAYER_1
 10
112.7859
 20
198.2984
  0
SEQEND
  0
POLYLINE
  8
LAYER_1
 40
0.1693
 41
0.1693
 66
1
 10
0
 20
0
 30
0
  0
VERTEX
  8
LAYER_1
 10
112.7595
 20
198.272
  0
VERTEX
  8
LAYER_1
 10
112.7066
 20
198.1926
  0
SEQEND
  0
POLYLINE
  8
LAYER_1
 40
0.1693
 41
0.1693
 66
1
 10
0
 20
0
 30
0
  0
VERTEX
  8
LAYER_1
 10
112.9712
 20
198.6953
  0
VERTEX
  8
LAYER_1
 10
112.9712
 20
198.6424
  0
SEQEND
  0
POLYLINE
  8
LAYER_1
 40
0.1693
 41
0.1693
 66
1
 10
0
 20
0
 30
0
  0
VERTEX
  8
LAYER_1
 10
112.9447
 20
198.5895
  0
VERTEX
  8
LAYER_1
 10
112.9182
 20
198.5101
  0
VERTEX
  8
LAYER_1
 10
112.8918
 20
198.4572
  0
SEQEND
  0
POLYLINE
  8
LAYER_1
 40
0.1693
 41
0.1693
 66
1
 10
0
 20
0
 30
0
  0
VERTEX
  8
LAYER_1
 10
112.8653
 20
198.4308
  0
VERTEX
  8
LAYER_1
 10
112.8124
 20
198.3514
  0
SEQEND
  0
POLYLINE
  8
LAYER_1
 40
0.1693
 41
0.1693
 66
1
 10
0
 20
0
 30
0
  0
VERTEX
  8
LAYER_1
 10
111.1985
 20
197.346
  0
VERTEX
  8
LAYER_1
 10
111.0926
 20
197.346
  0
SEQEND
  0
POLYLINE
  8
LAYER_1
 40
0.1693
 41
0.1693
 66
1
 10
0
 20
0
 30
0
  0
VERTEX
  8
LAYER_1
 10
111.0397
 20
197.3195
  0
VERTEX
  8
LAYER_1
 10
110.9074
 20
197.293
  0
VERTEX
  8
LAYER_1
 10
110.8016
 20
197.293
  0
SEQEND
  0
POLYLINE
  8
LAYER_1
 40
0.1693
 41
0.1693
 66
1
 10
0
 20
0
 30
0
  0
VERTEX
  8
LAYER_1
 10
110.7487
 20
197.293
  0
VERTEX
  8
LAYER_1
 10
110.6164
 20
197.2666
  0
SEQEND
  0
POLYLINE
  8
LAYER_1
 40
0.1693
 41
0.1693
 66
1
 10
0
 20
0
 30
0
  0
VERTEX
  8
LAYER_1
 10
111.9129
 20
197.5841
  0
VERTEX
  8
LAYER_1
 10
111.8335
 20
197.5576
  0
SEQEND
  0
POLYLINE
  8
LAYER_1
 40
0.1693
 41
0.1693
 66
1
 10
0
 20
0
 30
0
  0
VERTEX
  8
LAYER_1
 10
111.7806
 20
197.5576
  0
VERTEX
  8
LAYER_1
 10
111.7012
 20
197.5047
  0
SEQEND
  0
POLYLINE
  8
LAYER_1
 40
0.1693
 41
0.1693
 66
1
 10
0
 20
0
 30
0
  0
VERTEX
  8
LAYER_1
 10
112.0981
 20
197.6899
  0
VERTEX
  8
LAYER_1
 10
112.0451
 20
197.6634
  0
SEQEND
  0
POLYLINE
  8
LAYER_1
 40
0.1693
 41
0.1693
 66
1
 10
0
 20
0
 30
0
  0
VERTEX
  8
LAYER_1
 10
111.9922
 20
197.637
  0
VERTEX
  8
LAYER_1
 10
111.9129
 20
197.584
  0
SEQEND
  0
POLYLINE
  8
LAYER_1
 40
0.0847
 41
0.0847
 66
1
 10
0
 20
0
 30
0
  0
VERTEX
  8
LAYER_1
 10
109.6374
 20
198.1926
  0
VERTEX
  8
LAYER_1
 10
157.1566
 20
211.7393
  0
SEQEND
  0
POLYLINE
  8
LAYER_1
 40
0.0847
 41
0.0847
 66
1
 10
0
 20
0
 30
0
  0
VERTEX
  8
LAYER_1
 10
110.7487
 20
197.8486
  0
VERTEX
  8
LAYER_1
 10
157.818
 20
206.9767
  0
SEQEND
  0
TEXT
  8
LAYER_1
 10
150.2244
 20
144.2441
 11
150.2244
 21
144.2441
 40
3.8024
 41
0.5
  1
örÉàâgâëâbâv%%c25
  0
TEXT
  8
LAYER_1
 10
31.2946
 20
158.8229
 11
31.2946
 21
158.8229
 40
3.2224
 41
0.5
  1
örÉàû┌ÄMùpâiâbâg
  0
TEXT
  8
LAYER_1
 10
23.3043
 20
148.9806
 11
23.3043
 21
148.9806
 40
3.2224
 41
0.5
  1
â{âEâïî┼ÆÞö┬üiâoâbâNâvâîü[âgüj
  0
ENDBLK
  0
BLOCK
  8
LAYER_1
  2
AIGNBL0101000D
 70
64
 10
0
 20
0
 30
0
  3
AIGNBL0101000D
  0
POLYLINE
  8
LAYER_1
 40
0.1693
 41
0.1693
 66
1
 10
0
 20
0
 30
0
  0
VERTEX
  8
LAYER_1
 10
29.1993
 20
114.0609
  0
VERTEX
  8
LAYER_1
 10
182.573
 20
114.0609
  0
SEQEND
  0
TEXT
  8
LAYER_1
 10
48.588
 20
72.7647
 11
48.588
 21
72.7647
 40
3.1022
 41
0.5
  1
üEörÉàâgâëâbâv
  0
TEXT
  8
LAYER_1
 10
48.588
 20
97.7416
 11
48.588
 21
97.7416
 40
3.6606
 41
0.5
  1
üEäOâèâôâOü~2üiô¹öÆüEìò èe1üj
  0
TEXT
  8
LAYER_1
 10
48.588
 20
102.737
 11
48.588
 21
102.737
 40
3.6606
 41
0.5
  1
üESUS304 Mimi â}âEâôâeâBâôâOâfâBâXâN
  0
TEXT
  8
LAYER_1
 10
48.9267
 20
107.5842
 11
48.9267
 21
107.5842
 40
3.1022
 41
0.5
  1
üyâZâbâgôÓùeüz
  0
TEXT
  8
LAYER_1
 10
48.588
 20
67.7486
 11
48.588
 21
67.7486
 40
3.1022
 41
0.5
  1
üEë╗Å¤âLâââbâvâëâEâôâhüiâNâìâÇüj
  0
TEXT
  8
LAYER_1
 10
48.588
 20
62.7529
 11
48.588
 21
62.7529
 40
3.6606
 41
0.5
  1
üEörÉàâgâëâbâvüiSâgâëâbâvé▄é¢é═Pâgâëâbâvé▄é¢é═â{âgâïâëâbâvüj
  0
TEXT
  8
LAYER_1
 10
143.7958
 20
115.6909
 11
143.7958
 21
115.6909
 40
3.6606
 41
0.5
  1
üªôVö┬î·ü@15055å@æ╬ë×
  0
TEXT
  8
LAYER_1
 10
48.588
 20
92.7462
 11
48.588
 21
92.7462
 40
3.6606
 41
0.5
  1
üEMimi âVâèü[âYü@örÉàÉ­üiörÉàû┌ÄMüjüi100å@üj
  0
TEXT
  8
LAYER_1
 10
48.588
 20
87.7508
 11
48.588
 21
87.7508
 40
3.1022
 41
0.5
  1
üEörÉàâpâbâLâôüiâXâ|âôâWâpâbâLâôüEÄOèpâpâbâLâôüEâXâèâbâvâpâbâLâôüj
  0
TEXT
  8
LAYER_1
 10
48.588
 20
82.7554
 11
48.588
 21
82.7554
 40
3.6606
 41
0.5
  1
üEörÉàû┌ÄMùpâiâbâgü~2
  0
TEXT
  8
LAYER_1
 10
48.588
 20
77.7601
 11
48.588
 21
77.7601
 40
3.1022
 41
0.5
  1
üEâ{âEâïî┼ÆÞö┬üiâoâbâNâvâîü[âgüj
  0
ENDBLK
  0
BLOCK
  8
LAYER_1
  2
AIGNBL0101000E
 70
64
 10
0
 20
0
 30
0
  3
AIGNBL0101000E
  0
INSERT
  8
LAYER_1
  2
AIGNBL0102000F
 10
0
 20
0
 30
0
  0
INSERT
  8
LAYER_1
  2
AIGNBL01020018
 10
0
 20
0
 30
0
  0
ENDBLK
  0
ENDSEC
  0
SECTION
  2
ENTITIES
  0
TEXT
  8
LAYER_1
 10
46.4327
 20
139.4081
 11
46.4327
 21
139.4081
 40
3.6606
 41
0.5
  1
üªÅÒïLÄµéÞòté»É}é═üASLAVIA CRYSTAL MimiâRâôâvâèü[âgâZâbâgé­ùpéóé¢éÓé╠éãé╚éÞé▄éÀüB
  0
INSERT
  8
LAYER_1
  2
AIGNBL01010002
 10
0
 20
0
 30
0
  0
INSERT
  8
LAYER_1
  2
AIGNBL0101000D
 10
0
 20
0
 30
0
  0
TEXT
  8
LAYER_1
 10
69.2033
 20
237.4843
 11
69.2033
 21
237.4843
 40
5.1558
 41
0.5
  1
Mimiüiâ~â~üj280É¶û╩â{âEâï ÄµéÞòté»É}
  0
TEXT
  8
LAYER_1
 10
186.826
 20
54.0008
 11
186.826
 21
54.0008
 40
3.3848
 41
0.5
  1
ü£TEL 0120-65-1232ü£FAX 06-6532-1580
  0
TEXT
  8
LAYER_1
 10
186.826
 20
50.4861
 11
186.826
 21
50.4861
 40
3.3848
 41
0.5
  1
hits@hiratatile.co.jp
  0
INSERT
  8
LAYER_1
  2
AIGNBL0101000E
 10
0
 20
0
 30
0
  0
ENDSEC
  0
EOF
