  0
SECTION
  2
HEADER
  9
$ACADVER
  1
AC1009
  9
$LUNITS
 70
2
  9
$LUPREC
 70
4
  9
$LTSCALE
 40
1.0
  9
$EXTMIN
 10
-33.2277
 20
49.7179
 30
0
  9
$EXTMAX
 10
245.4152
 20
241.0004
 30
0
  0
ENDSEC
  0
SECTION
  2
TABLES
  0
TABLE
  2
LTYPE
 70
256
  0
ENDTAB
  0
TABLE
  2
LAYER
 70
1
  0
LAYER
  2
LAYER_1
 70
64
 62
7
  6
CONTINUOUS
  0
ENDTAB
  0
TABLE
  2
STYLE
 70
6
  0
STYLE
  2
STANDARD
 70
0
 40
0
 50
0
 71
0
 41
0
 42
0
  3
TXT
  4
BIGFONT
  0
ENDTAB
  0
ENDSEC
  0
SECTION
  2
BLOCKS
  0
BLOCK
  8
LAYER_1
  2
AIGNBL01040011
 70
64
 10
0
 20
0
 30
0
  3
AIGNBL01040011
  0
POLYLINE
  8
LAYER_1
 40
0.05
 41
0.05
 66
1
 10
0
 20
0
 30
0
 70
1
  0
VERTEX
  8
LAYER_1
 10
157.5551
 20
53.6067
  0
VERTEX
  8
LAYER_1
 10
157.0662
 20
52.4216
  0
VERTEX
  8
LAYER_1
 10
156.4382
 20
52.4216
  0
VERTEX
  8
LAYER_1
 10
158.0377
 20
56.1874
  0
VERTEX
  8
LAYER_1
 10
158.7709
 20
56.1874
  0
VERTEX
  8
LAYER_1
 10
160.3773
 20
52.4216
  0
VERTEX
  8
LAYER_1
 10
159.7272
 20
52.4216
  0
VERTEX
  8
LAYER_1
 10
159.2246
 20
53.6067
  0
SEQEND
  0
POLYLINE
  8
LAYER_1
 40
0.05
 41
0.05
 66
1
 10
0
 20
0
 30
0
 70
1
  0
VERTEX
  8
LAYER_1
 10
159.0988
 20
53.9856
  0
VERTEX
  8
LAYER_1
 10
158.6379
 20
55.0705
  0
VERTEX
  8
LAYER_1
 10
158.3933
 20
55.7575
  0
VERTEX
  8
LAYER_1
 10
158.3795
 20
55.7575
  0
VERTEX
  8
LAYER_1
 10
158.1418
 20
55.075
  0
VERTEX
  8
LAYER_1
 10
157.6812
 20
53.9856
  0
SEQEND
  0
ENDBLK
  0
BLOCK
  8
LAYER_1
  2
AIGNBL01040012
 70
64
 10
0
 20
0
 30
0
  3
AIGNBL01040012
  0
POLYLINE
  8
LAYER_1
 40
0.05
 41
0.05
 66
1
 10
0
 20
0
 30
0
 70
1
  0
VERTEX
  8
LAYER_1
 10
164.7426
 20
51.8683
 42
-0.01559967508
  0
VERTEX
  8
LAYER_1
 10
162.9405
 20
52.3044
  0
VERTEX
  8
LAYER_1
 10
162.6538
 20
52.3599
 42
-0.08356944747
  0
VERTEX
  8
LAYER_1
 10
161.7898
 20
52.5261
 42
-0.0975043791
  0
VERTEX
  8
LAYER_1
 10
161.1286
 20
52.932
 42
-0.2129077902
  0
VERTEX
  8
LAYER_1
 10
160.5799
 20
54.2647
 42
-0.09684612991
  0
VERTEX
  8
LAYER_1
 10
160.7245
 20
55.0381
 42
-0.2046351071
  0
VERTEX
  8
LAYER_1
 10
161.772
 20
56.0624
 42
-0.09825619238
  0
VERTEX
  8
LAYER_1
 10
162.773
 20
56.2488
 42
-0.08554836282
  0
VERTEX
  8
LAYER_1
 10
163.6416
 20
56.1075
 42
-0.1004347897
  0
VERTEX
  8
LAYER_1
 10
164.3067
 20
55.7132
 42
-0.2140895568
  0
VERTEX
  8
LAYER_1
 10
164.8821
 20
54.3433
 42
-0.09539620281
  0
VERTEX
  8
LAYER_1
 10
164.7432
 20
53.5755
 42
-0.2143310008
  0
VERTEX
  8
LAYER_1
 10
163.7204
 20
52.597
 42
-0.02339132607
  0
VERTEX
  8
LAYER_1
 10
163.5413
 20
52.5387
  0
VERTEX
  8
LAYER_1
 10
163.5413
 20
52.5163
 42
0.01711831943
  0
VERTEX
  8
LAYER_1
 10
164.9176
 20
52.2762
  0
SEQEND
  0
POLYLINE
  8
LAYER_1
 40
0.05
 41
0.05
 66
1
 10
0
 20
0
 30
0
 70
1
  0
VERTEX
  8
LAYER_1
 10
164.2399
 20
54.3219
 42
0.1071511414
  0
VERTEX
  8
LAYER_1
 10
164.0886
 20
55.0267
 42
0.2976450246
  0
VERTEX
  8
LAYER_1
 10
162.7517
 20
55.8522
 42
0.1072291499
  0
VERTEX
  8
LAYER_1
 10
162.0618
 20
55.7127
 42
0.2386106109
  0
VERTEX
  8
LAYER_1
 10
161.2749
 20
54.7071
 42
0.05752849981
  0
VERTEX
  8
LAYER_1
 10
161.2293
 20
54.2771
 42
0.218096749
  0
VERTEX
  8
LAYER_1
 10
161.7599
 20
53.0817
 42
0.1772796408
  0
VERTEX
  8
LAYER_1
 10
162.7237
 20
52.7561
 42
0.1075185771
  0
VERTEX
  8
LAYER_1
 10
163.4051
 20
52.8951
 42
0.2370926009
  0
VERTEX
  8
LAYER_1
 10
164.1922
 20
53.8947
 42
0.05601310134
  0
SEQEND
  0
ENDBLK
  0
BLOCK
  8
LAYER_1
  2
AIGNBL01040013
 70
64
 10
0
 20
0
 30
0
  3
AIGNBL01040013
  0
POLYLINE
  8
LAYER_1
 40
0.05
 41
0.05
 66
1
 10
0
 20
0
 30
0
 70
1
  0
VERTEX
  8
LAYER_1
 10
166.2095
 20
56.1874
  0
VERTEX
  8
LAYER_1
 10
166.2095
 20
53.9581
 42
0.114533087
  0
VERTEX
  8
LAYER_1
 10
166.3434
 20
53.2923
 42
0.1464774934
  0
VERTEX
  8
LAYER_1
 10
166.6938
 20
52.9071
 42
0.1362552487
  0
VERTEX
  8
LAYER_1
 10
167.3061
 20
52.7561
 42
0.1219300979
  0
VERTEX
  8
LAYER_1
 10
167.9292
 20
52.8908
 42
0.1503016186
  0
VERTEX
  8
LAYER_1
 10
168.301
 20
53.2598
 42
0.1256239276
  0
VERTEX
  8
LAYER_1
 10
168.4516
 20
53.9581
  0
VERTEX
  8
LAYER_1
 10
168.4516
 20
56.1874
  0
VERTEX
  8
LAYER_1
 10
169.0662
 20
56.1874
  0
VERTEX
  8
LAYER_1
 10
169.0662
 20
53.9915
 42
-0.09997505101
  0
VERTEX
  8
LAYER_1
 10
168.9313
 20
53.2488
 42
-0.1214984503
  0
VERTEX
  8
LAYER_1
 10
168.558
 20
52.7421
 42
-0.1106235892
  0
VERTEX
  8
LAYER_1
 10
167.9326
 20
52.4355
 42
-0.06128954947
  0
VERTEX
  8
LAYER_1
 10
167.2851
 20
52.3599
 42
-0.09418508724
  0
VERTEX
  8
LAYER_1
 10
166.4659
 20
52.498
 42
-0.2431728796
  0
VERTEX
  8
LAYER_1
 10
165.6624
 20
53.4087
 42
-0.06320085329
  0
VERTEX
  8
LAYER_1
 10
165.5949
 20
53.9695
  0
VERTEX
  8
LAYER_1
 10
165.5949
 20
56.1874
  0
SEQEND
  0
ENDBLK
  0
BLOCK
  8
LAYER_1
  2
AIGNBL01040014
 70
64
 10
0
 20
0
 30
0
  3
AIGNBL01040014
  0
POLYLINE
  8
LAYER_1
 40
0.05
 41
0.05
 66
1
 10
0
 20
0
 30
0
 70
1
  0
VERTEX
  8
LAYER_1
 10
170.8125
 20
53.6067
  0
VERTEX
  8
LAYER_1
 10
170.3233
 20
52.4216
  0
VERTEX
  8
LAYER_1
 10
169.6953
 20
52.4216
  0
VERTEX
  8
LAYER_1
 10
171.2945
 20
56.1874
  0
VERTEX
  8
LAYER_1
 10
172.0276
 20
56.1874
  0
VERTEX
  8
LAYER_1
 10
173.634
 20
52.4216
  0
VERTEX
  8
LAYER_1
 10
172.9846
 20
52.4216
  0
VERTEX
  8
LAYER_1
 10
172.482
 20
53.6067
  0
SEQEND
  0
POLYLINE
  8
LAYER_1
 40
0.05
 41
0.05
 66
1
 10
0
 20
0
 30
0
 70
1
  0
VERTEX
  8
LAYER_1
 10
172.3559
 20
53.9856
  0
VERTEX
  8
LAYER_1
 10
171.8946
 20
55.0705
  0
VERTEX
  8
LAYER_1
 10
171.65
 20
55.7575
  0
VERTEX
  8
LAYER_1
 10
171.6362
 20
55.7575
  0
VERTEX
  8
LAYER_1
 10
171.3989
 20
55.075
  0
VERTEX
  8
LAYER_1
 10
170.9379
 20
53.9856
  0
SEQEND
  0
ENDBLK
  0
BLOCK
  8
LAYER_1
  2
AIGNBL01040015
 70
64
 10
0
 20
0
 30
0
  3
AIGNBL01040015
  0
POLYLINE
  8
LAYER_1
 40
0.05
 41
0.05
 66
1
 10
0
 20
0
 30
0
 70
1
  0
VERTEX
  8
LAYER_1
 10
174.6748
 20
56.1426
 42
-0.03245981043
  0
VERTEX
  8
LAYER_1
 10
175.8416
 20
56.2157
 42
-0.08081710393
  0
VERTEX
  8
LAYER_1
 10
176.7981
 20
56.0839
 42
-0.07812211839
  0
VERTEX
  8
LAYER_1
 10
177.1615
 20
55.9029
 42
-0.2483368586
  0
VERTEX
  8
LAYER_1
 10
177.5731
 20
55.1146
 42
-0.226147
  0
VERTEX
  8
LAYER_1
 10
177.21
 20
54.3105
 42
-0.1097236176
  0
VERTEX
  8
LAYER_1
 10
176.5818
 20
53.9972
 42
-0.06566039781
  0
VERTEX
  8
LAYER_1
 10
175.7714
 20
53.8968
 42
-0.06232747682
  0
VERTEX
  8
LAYER_1
 10
175.2828
 20
53.9302
  0
VERTEX
  8
LAYER_1
 10
175.2828
 20
52.4216
  0
VERTEX
  8
LAYER_1
 10
174.6748
 20
52.4216
  0
SEQEND
  0
POLYLINE
  8
LAYER_1
 40
0.05
 41
0.05
 66
1
 10
0
 20
0
 30
0
 70
1
  0
VERTEX
  8
LAYER_1
 10
175.2828
 20
54.3271
 42
0.04202445636
  0
VERTEX
  8
LAYER_1
 10
175.7852
 20
54.2878
 42
0.1032333559
  0
VERTEX
  8
LAYER_1
 10
176.5043
 20
54.4151
 42
0.1555698608
  0
VERTEX
  8
LAYER_1
 10
176.8691
 20
54.7196
 42
0.1352698132
  0
VERTEX
  8
LAYER_1
 10
176.9661
 20
55.0922
 42
0.1736824711
  0
VERTEX
  8
LAYER_1
 10
176.8313
 20
55.4995
 42
0.151721714
  0
VERTEX
  8
LAYER_1
 10
176.4102
 20
55.759
 42
0.06880216409
  0
VERTEX
  8
LAYER_1
 10
175.8558
 20
55.8298
 42
0.06336772289
  0
VERTEX
  8
LAYER_1
 10
175.2828
 20
55.7906
  0
SEQEND
  0
ENDBLK
  0
BLOCK
  8
LAYER_1
  2
AIGNBL01040016
 70
64
 10
0
 20
0
 30
0
  3
AIGNBL01040016
  0
POLYLINE
  8
LAYER_1
 40
0.05
 41
0.05
 66
1
 10
0
 20
0
 30
0
 70
1
  0
VERTEX
  8
LAYER_1
 10
179.1252
 20
55.8856
 42
-0.276560599
  0
VERTEX
  8
LAYER_1
 10
178.9856
 20
55.6455
 42
-0.1265502936
  0
VERTEX
  8
LAYER_1
 10
178.7335
 20
55.5838
 42
-0.22367962
  0
VERTEX
  8
LAYER_1
 10
178.4232
 20
55.7162
 42
-0.1709078449
  0
VERTEX
  8
LAYER_1
 10
178.3631
 20
55.8856
 42
-0.2643879937
  0
VERTEX
  8
LAYER_1
 10
178.5125
 20
56.1327
 42
-0.1290073663
  0
VERTEX
  8
LAYER_1
 10
178.7472
 20
56.1926
 42
-0.2253241111
  0
VERTEX
  8
LAYER_1
 10
179.0641
 20
56.0619
 42
-0.1691304651
  0
SEQEND
  0
POLYLINE
  8
LAYER_1
 40
0.05
 41
0.05
 66
1
 10
0
 20
0
 30
0
 70
1
  0
VERTEX
  8
LAYER_1
 10
178.4396
 20
52.4216
  0
VERTEX
  8
LAYER_1
 10
178.4396
 20
55.1256
  0
VERTEX
  8
LAYER_1
 10
179.0542
 20
55.1256
  0
VERTEX
  8
LAYER_1
 10
179.0542
 20
52.4216
  0
SEQEND
  0
ENDBLK
  0
BLOCK
  8
LAYER_1
  2
AIGNBL01040017
 70
64
 10
0
 20
0
 30
0
  3
AIGNBL01040017
  0
POLYLINE
  8
LAYER_1
 40
0.05
 41
0.05
 66
1
 10
0
 20
0
 30
0
 70
1
  0
VERTEX
  8
LAYER_1
 10
180.9259
 20
53.6067
  0
VERTEX
  8
LAYER_1
 10
180.4377
 20
52.4216
  0
VERTEX
  8
LAYER_1
 10
179.8087
 20
52.4216
  0
VERTEX
  8
LAYER_1
 10
181.4082
 20
56.1874
  0
VERTEX
  8
LAYER_1
 10
182.142
 20
56.1874
  0
VERTEX
  8
LAYER_1
 10
183.7485
 20
52.4216
  0
VERTEX
  8
LAYER_1
 10
183.0987
 20
52.4216
  0
VERTEX
  8
LAYER_1
 10
182.5961
 20
53.6067
  0
SEQEND
  0
POLYLINE
  8
LAYER_1
 40
0.05
 41
0.05
 66
1
 10
0
 20
0
 30
0
 70
1
  0
VERTEX
  8
LAYER_1
 10
182.47
 20
53.9856
  0
VERTEX
  8
LAYER_1
 10
182.009
 20
55.0705
  0
VERTEX
  8
LAYER_1
 10
181.7651
 20
55.7575
  0
VERTEX
  8
LAYER_1
 10
181.7503
 20
55.7575
  0
VERTEX
  8
LAYER_1
 10
181.5133
 20
55.075
  0
VERTEX
  8
LAYER_1
 10
181.0523
 20
53.9856
  0
SEQEND
  0
ENDBLK
  0
BLOCK
  8
LAYER_1
  2
AIGNBL01030010
 70
64
 10
0
 20
0
 30
0
  3
AIGNBL01030010
  0
INSERT
  8
LAYER_1
  2
AIGNBL01040011
 10
0
 20
0
 30
0
  0
INSERT
  8
LAYER_1
  2
AIGNBL01040012
 10
0
 20
0
 30
0
  0
INSERT
  8
LAYER_1
  2
AIGNBL01040013
 10
0
 20
0
 30
0
  0
INSERT
  8
LAYER_1
  2
AIGNBL01040014
 10
0
 20
0
 30
0
  0
INSERT
  8
LAYER_1
  2
AIGNBL01040015
 10
0
 20
0
 30
0
  0
INSERT
  8
LAYER_1
  2
AIGNBL01040016
 10
0
 20
0
 30
0
  0
INSERT
  8
LAYER_1
  2
AIGNBL01040017
 10
0
 20
0
 30
0
  0
ENDBLK
  0
BLOCK
  8
LAYER_1
  2
AIGNBL01030019
 70
64
 10
0
 20
0
 30
0
  3
AIGNBL01030019
  0
POLYLINE
  8
LAYER_1
 40
0.05
 41
0.05
 66
1
 10
0
 20
0
 30
0
 70
1
  0
VERTEX
  8
LAYER_1
 10
156.5481
 20
50.5223
  0
VERTEX
  8
LAYER_1
 10
157.1013
 20
50.5223
  0
VERTEX
  8
LAYER_1
 10
157.1013
 20
50.4286
  0
VERTEX
  8
LAYER_1
 10
156.443
 20
50.4286
  0
VERTEX
  8
LAYER_1
 10
156.443
 20
51.4618
  0
VERTEX
  8
LAYER_1
 10
157.0838
 20
51.4618
  0
VERTEX
  8
LAYER_1
 10
157.0838
 20
51.3684
  0
VERTEX
  8
LAYER_1
 10
156.5481
 20
51.3684
  0
VERTEX
  8
LAYER_1
 10
156.5481
 20
51.0139
  0
VERTEX
  8
LAYER_1
 10
157.0486
 20
51.0139
  0
VERTEX
  8
LAYER_1
 10
157.0486
 20
50.9206
  0
VERTEX
  8
LAYER_1
 10
156.5481
 20
50.9206
  0
SEQEND
  0
ENDBLK
  0
BLOCK
  8
LAYER_1
  2
AIGNBL0103001A
 70
64
 10
0
 20
0
 30
0
  3
AIGNBL0103001A
  0
POLYLINE
  8
LAYER_1
 40
0.05
 41
0.05
 66
1
 10
0
 20
0
 30
0
 70
1
  0
VERTEX
  8
LAYER_1
 10
158.241
 20
50.5819
  0
VERTEX
  8
LAYER_1
 10
158.2438
 20
50.5819
  0
VERTEX
  8
LAYER_1
 10
158.2438
 20
51.4618
  0
VERTEX
  8
LAYER_1
 10
158.3488
 20
51.4618
  0
VERTEX
  8
LAYER_1
 10
158.3488
 20
50.4286
  0
VERTEX
  8
LAYER_1
 10
158.2179
 20
50.4286
  0
VERTEX
  8
LAYER_1
 10
157.6168
 20
51.3174
  0
VERTEX
  8
LAYER_1
 10
157.6133
 20
51.3174
  0
VERTEX
  8
LAYER_1
 10
157.6133
 20
50.4286
  0
VERTEX
  8
LAYER_1
 10
157.5086
 20
50.4286
  0
VERTEX
  8
LAYER_1
 10
157.5086
 20
51.4618
  0
VERTEX
  8
LAYER_1
 10
157.6398
 20
51.4618
  0
SEQEND
  0
ENDBLK
  0
BLOCK
  8
LAYER_1
  2
AIGNBL0103001B
 70
64
 10
0
 20
0
 30
0
  3
AIGNBL0103001B
  0
POLYLINE
  8
LAYER_1
 40
0.05
 41
0.05
 66
1
 10
0
 20
0
 30
0
 70
1
  0
VERTEX
  8
LAYER_1
 10
158.8218
 20
50.6405
  0
VERTEX
  8
LAYER_1
 10
158.8763
 20
50.5375
 42
0.1809219053
  0
VERTEX
  8
LAYER_1
 10
158.9896
 20
50.4958
  0
VERTEX
  8
LAYER_1
 10
159.0788
 20
50.5154
  0
VERTEX
  8
LAYER_1
 10
159.135
 20
50.5688
  0
VERTEX
  8
LAYER_1
 10
159.1639
 20
50.6453
  0
VERTEX
  8
LAYER_1
 10
159.1722
 20
50.7349
  0
VERTEX
  8
LAYER_1
 10
159.1722
 20
51.4618
  0
VERTEX
  8
LAYER_1
 10
159.2773
 20
51.4618
  0
VERTEX
  8
LAYER_1
 10
159.2773
 20
50.7263
  0
VERTEX
  8
LAYER_1
 10
159.2659
 20
50.6184
  0
VERTEX
  8
LAYER_1
 10
159.2246
 20
50.5134
  0
VERTEX
  8
LAYER_1
 10
159.1398
 20
50.4338
  0
VERTEX
  8
LAYER_1
 10
159.001
 20
50.4024
 42
-0.1846674817
  0
VERTEX
  8
LAYER_1
 10
158.8163
 20
50.4624
 42
-0.1764563828
  0
VERTEX
  8
LAYER_1
 10
158.724
 20
50.6139
  0
SEQEND
  0
ENDBLK
  0
BLOCK
  8
LAYER_1
  2
AIGNBL0103001C
 70
64
 10
0
 20
0
 30
0
  3
AIGNBL0103001C
  0
POLYLINE
  8
LAYER_1
 40
0.05
 41
0.05
 66
1
 10
0
 20
0
 30
0
 70
1
  0
VERTEX
  8
LAYER_1
 10
160.7656
 20
50.9454
 42
-0.103587114
  0
VERTEX
  8
LAYER_1
 10
160.7246
 20
50.728
 42
-0.1000549391
  0
VERTEX
  8
LAYER_1
 10
160.6119
 20
50.5564
  0
VERTEX
  8
LAYER_1
 10
160.441
 20
50.4434
 42
-0.09506675375
  0
VERTEX
  8
LAYER_1
 10
160.2271
 20
50.4024
 42
-0.1010765979
  0
VERTEX
  8
LAYER_1
 10
160.0135
 20
50.4434
 42
-0.1005668876
  0
VERTEX
  8
LAYER_1
 10
159.8426
 20
50.5564
 42
-0.09506076213
  0
VERTEX
  8
LAYER_1
 10
159.7293
 20
50.728
 42
-0.0931359716
  0
VERTEX
  8
LAYER_1
 10
159.6886
 20
50.9454
 42
-0.1020962526
  0
VERTEX
  8
LAYER_1
 10
159.7293
 20
51.1628
 42
-0.1007559602
  0
VERTEX
  8
LAYER_1
 10
159.8426
 20
51.3343
 42
-0.09625543395
  0
VERTEX
  8
LAYER_1
 10
160.0135
 20
51.4473
 42
-0.0952064105
  0
VERTEX
  8
LAYER_1
 10
160.2271
 20
51.4883
 42
-0.101175466
  0
VERTEX
  8
LAYER_1
 10
160.441
 20
51.4473
 42
-0.09853409661
  0
VERTEX
  8
LAYER_1
 10
160.6119
 20
51.3343
 42
-0.09562840933
  0
VERTEX
  8
LAYER_1
 10
160.7246
 20
51.1628
 42
-0.09393796777
  0
SEQEND
  0
POLYLINE
  8
LAYER_1
 40
0.05
 41
0.05
 66
1
 10
0
 20
0
 30
0
 70
1
  0
VERTEX
  8
LAYER_1
 10
160.6546
 20
50.9447
  0
VERTEX
  8
LAYER_1
 10
160.6257
 20
51.1166
  0
VERTEX
  8
LAYER_1
 10
160.5409
 20
51.2599
  0
VERTEX
  8
LAYER_1
 10
160.4059
 20
51.3581
  0
VERTEX
  8
LAYER_1
 10
160.2271
 20
51.395
  0
VERTEX
  8
LAYER_1
 10
160.0483
 20
51.3581
  0
VERTEX
  8
LAYER_1
 10
159.9136
 20
51.2599
  0
VERTEX
  8
LAYER_1
 10
159.8289
 20
51.1166
  0
VERTEX
  8
LAYER_1
 10
159.7996
 20
50.9447
  0
VERTEX
  8
LAYER_1
 10
159.8289
 20
50.7728
  0
VERTEX
  8
LAYER_1
 10
159.9136
 20
50.6298
  0
VERTEX
  8
LAYER_1
 10
160.0483
 20
50.5323
 42
0.1008257054
  0
VERTEX
  8
LAYER_1
 10
160.2271
 20
50.4958
  0
VERTEX
  8
LAYER_1
 10
160.4059
 20
50.5323
  0
VERTEX
  8
LAYER_1
 10
160.5409
 20
50.6298
  0
VERTEX
  8
LAYER_1
 10
160.6257
 20
50.7728
  0
SEQEND
  0
ENDBLK
  0
BLOCK
  8
LAYER_1
  2
AIGNBL0103001D
 70
64
 10
0
 20
0
 30
0
  3
AIGNBL0103001D
  0
POLYLINE
  8
LAYER_1
 40
0.05
 41
0.05
 66
1
 10
0
 20
0
 30
0
 70
1
  0
VERTEX
  8
LAYER_1
 10
161.5404
 20
50.4286
  0
VERTEX
  8
LAYER_1
 10
161.4356
 20
50.4286
  0
VERTEX
  8
LAYER_1
 10
161.4356
 20
50.874
  0
VERTEX
  8
LAYER_1
 10
161.0488
 20
51.4618
  0
VERTEX
  8
LAYER_1
 10
161.18
 20
51.4618
  0
VERTEX
  8
LAYER_1
 10
161.4911
 20
50.9616
  0
VERTEX
  8
LAYER_1
 10
161.8046
 20
51.4618
  0
VERTEX
  8
LAYER_1
 10
161.9269
 20
51.4618
  0
VERTEX
  8
LAYER_1
 10
161.5404
 20
50.874
  0
SEQEND
  0
ENDBLK
  0
BLOCK
  8
LAYER_1
  2
AIGNBL0103001E
 70
64
 10
0
 20
0
 30
0
  3
AIGNBL0103001E
  0
POLYLINE
  8
LAYER_1
 40
0.05
 41
0.05
 66
1
 10
0
 20
0
 30
0
 70
1
  0
VERTEX
  8
LAYER_1
 10
162.8319
 20
51.4618
  0
VERTEX
  8
LAYER_1
 10
163.1396
 20
51.4618
  0
VERTEX
  8
LAYER_1
 10
163.2581
 20
51.4494
  0
VERTEX
  8
LAYER_1
 10
163.3649
 20
51.407
  0
VERTEX
  8
LAYER_1
 10
163.4427
 20
51.3261
  0
VERTEX
  8
LAYER_1
 10
163.4724
 20
51.1979
 42
-0.1787887146
  0
VERTEX
  8
LAYER_1
 10
163.4224
 20
51.0556
 42
-0.1642670326
  0
VERTEX
  8
LAYER_1
 10
163.2891
 20
50.976
  0
VERTEX
  8
LAYER_1
 10
163.2891
 20
50.9733
 42
-0.1734673322
  0
VERTEX
  8
LAYER_1
 10
163.4558
 20
50.8951
 42
-0.1923137572
  0
VERTEX
  8
LAYER_1
 10
163.522
 20
50.7146
  0
VERTEX
  8
LAYER_1
 10
163.4948
 20
50.5974
  0
VERTEX
  8
LAYER_1
 10
163.4186
 20
50.5068
  0
VERTEX
  8
LAYER_1
 10
163.2977
 20
50.4493
  0
VERTEX
  8
LAYER_1
 10
163.1379
 20
50.4286
  0
VERTEX
  8
LAYER_1
 10
162.8319
 20
50.4286
  0
SEQEND
  0
POLYLINE
  8
LAYER_1
 40
0.05
 41
0.05
 66
1
 10
0
 20
0
 30
0
 70
1
  0
VERTEX
  8
LAYER_1
 10
162.937
 20
51.0094
  0
VERTEX
  8
LAYER_1
 10
163.1485
 20
51.0094
  0
VERTEX
  8
LAYER_1
 10
163.2254
 20
51.0184
  0
VERTEX
  8
LAYER_1
 10
163.2956
 20
51.048
  0
VERTEX
  8
LAYER_1
 10
163.3477
 20
51.1045
  0
VERTEX
  8
LAYER_1
 10
163.3673
 20
51.1907
  0
VERTEX
  8
LAYER_1
 10
163.3477
 20
51.2744
  0
VERTEX
  8
LAYER_1
 10
163.2946
 20
51.3305
  0
VERTEX
  8
LAYER_1
 10
163.2157
 20
51.3619
  0
VERTEX
  8
LAYER_1
 10
163.1192
 20
51.3715
  0
VERTEX
  8
LAYER_1
 10
162.937
 20
51.3715
  0
SEQEND
  0
POLYLINE
  8
LAYER_1
 40
0.05
 41
0.05
 66
1
 10
0
 20
0
 30
0
 70
1
  0
VERTEX
  8
LAYER_1
 10
162.937
 20
50.5192
  0
VERTEX
  8
LAYER_1
 10
163.1327
 20
50.5192
  0
VERTEX
  8
LAYER_1
 10
163.2412
 20
50.5302
  0
VERTEX
  8
LAYER_1
 10
163.3318
 20
50.565
  0
VERTEX
  8
LAYER_1
 10
163.3935
 20
50.6281
  0
VERTEX
  8
LAYER_1
 10
163.4169
 20
50.7208
 42
0.2554060681
  0
VERTEX
  8
LAYER_1
 10
163.3477
 20
50.873
 42
0.1380642909
  0
VERTEX
  8
LAYER_1
 10
163.1516
 20
50.9233
  0
VERTEX
  8
LAYER_1
 10
162.937
 20
50.9233
  0
SEQEND
  0
ENDBLK
  0
BLOCK
  8
LAYER_1
  2
AIGNBL0103001F
 70
64
 10
0
 20
0
 30
0
  3
AIGNBL0103001F
  0
POLYLINE
  8
LAYER_1
 40
0.05
 41
0.05
 66
1
 10
0
 20
0
 30
0
 70
1
  0
VERTEX
  8
LAYER_1
 10
163.954
 20
50.4286
  0
VERTEX
  8
LAYER_1
 10
163.8386
 20
50.4286
  0
VERTEX
  8
LAYER_1
 10
164.2854
 20
51.4618
  0
VERTEX
  8
LAYER_1
 10
164.3877
 20
51.4618
  0
VERTEX
  8
LAYER_1
 10
164.8311
 20
50.4286
  0
VERTEX
  8
LAYER_1
 10
164.7143
 20
50.4286
  0
VERTEX
  8
LAYER_1
 10
164.6003
 20
50.7001
  0
VERTEX
  8
LAYER_1
 10
164.0663
 20
50.7001
  0
SEQEND
  0
POLYLINE
  8
LAYER_1
 40
0.05
 41
0.05
 66
1
 10
0
 20
0
 30
0
 70
1
  0
VERTEX
  8
LAYER_1
 10
164.1056
 20
50.7965
  0
VERTEX
  8
LAYER_1
 10
164.561
 20
50.7965
  0
VERTEX
  8
LAYER_1
 10
164.3333
 20
51.3454
  0
SEQEND
  0
ENDBLK
  0
BLOCK
  8
LAYER_1
  2
AIGNBL01030020
 70
64
 10
0
 20
0
 30
0
  3
AIGNBL01030020
  0
POLYLINE
  8
LAYER_1
 40
0.05
 41
0.05
 66
1
 10
0
 20
0
 30
0
 70
1
  0
VERTEX
  8
LAYER_1
 10
165.5157
 20
50.4286
  0
VERTEX
  8
LAYER_1
 10
165.4106
 20
50.4286
  0
VERTEX
  8
LAYER_1
 10
165.4106
 20
51.3684
  0
VERTEX
  8
LAYER_1
 10
165.0644
 20
51.3684
  0
VERTEX
  8
LAYER_1
 10
165.0644
 20
51.4618
  0
VERTEX
  8
LAYER_1
 10
165.8612
 20
51.4618
  0
VERTEX
  8
LAYER_1
 10
165.8612
 20
51.3684
  0
VERTEX
  8
LAYER_1
 10
165.5157
 20
51.3684
  0
SEQEND
  0
ENDBLK
  0
BLOCK
  8
LAYER_1
  2
AIGNBL01030021
 70
64
 10
0
 20
0
 30
0
  3
AIGNBL01030021
  0
POLYLINE
  8
LAYER_1
 40
0.05
 41
0.05
 66
1
 10
0
 20
0
 30
0
 70
1
  0
VERTEX
  8
LAYER_1
 10
166.2174
 20
51.4618
  0
VERTEX
  8
LAYER_1
 10
166.3221
 20
51.4618
  0
VERTEX
  8
LAYER_1
 10
166.3221
 20
51.0139
  0
VERTEX
  8
LAYER_1
 10
166.8858
 20
51.0139
  0
VERTEX
  8
LAYER_1
 10
166.8858
 20
51.4618
  0
VERTEX
  8
LAYER_1
 10
166.9908
 20
51.4618
  0
VERTEX
  8
LAYER_1
 10
166.9908
 20
50.4286
  0
VERTEX
  8
LAYER_1
 10
166.8858
 20
50.4286
  0
VERTEX
  8
LAYER_1
 10
166.8858
 20
50.9178
  0
VERTEX
  8
LAYER_1
 10
166.3221
 20
50.9178
  0
VERTEX
  8
LAYER_1
 10
166.3221
 20
50.4286
  0
VERTEX
  8
LAYER_1
 10
166.2174
 20
50.4286
  0
SEQEND
  0
ENDBLK
  0
BLOCK
  8
LAYER_1
  2
AIGNBL01030022
 70
64
 10
0
 20
0
 30
0
  3
AIGNBL01030022
  0
POLYLINE
  8
LAYER_1
 40
0.05
 41
0.05
 66
1
 10
0
 20
0
 30
0
 70
1
  0
VERTEX
  8
LAYER_1
 10
167.5713
 20
50.4286
  0
VERTEX
  8
LAYER_1
 10
167.4663
 20
50.4286
  0
VERTEX
  8
LAYER_1
 10
167.4663
 20
51.4618
  0
VERTEX
  8
LAYER_1
 10
167.7701
 20
51.4618
  0
VERTEX
  8
LAYER_1
 10
167.9107
 20
51.4473
  0
VERTEX
  8
LAYER_1
 10
168.0233
 20
51.3998
  0
VERTEX
  8
LAYER_1
 10
168.0967
 20
51.3143
  0
VERTEX
  8
LAYER_1
 10
168.1229
 20
51.1862
  0
VERTEX
  8
LAYER_1
 10
168.1029
 20
51.0825
  0
VERTEX
  8
LAYER_1
 10
168.0475
 20
51.0015
  0
VERTEX
  8
LAYER_1
 10
167.9641
 20
50.9467
  0
VERTEX
  8
LAYER_1
 10
167.859
 20
50.9206
  0
VERTEX
  8
LAYER_1
 10
168.1611
 20
50.4286
  0
VERTEX
  8
LAYER_1
 10
168.0327
 20
50.4286
  0
VERTEX
  8
LAYER_1
 10
167.7467
 20
50.9116
  0
VERTEX
  8
LAYER_1
 10
167.5713
 20
50.9116
  0
SEQEND
  0
POLYLINE
  8
LAYER_1
 40
0.05
 41
0.05
 66
1
 10
0
 20
0
 30
0
 70
1
  0
VERTEX
  8
LAYER_1
 10
167.5713
 20
51.0022
  0
VERTEX
  8
LAYER_1
 10
167.7539
 20
51.0022
 42
0.1657798624
  0
VERTEX
  8
LAYER_1
 10
167.9496
 20
51.048
 42
0.2503949893
  0
VERTEX
  8
LAYER_1
 10
168.0182
 20
51.1862
  0
VERTEX
  8
LAYER_1
 10
167.9989
 20
51.272
  0
VERTEX
  8
LAYER_1
 10
167.9465
 20
51.3292
  0
VERTEX
  8
LAYER_1
 10
167.8649
 20
51.3612
  0
VERTEX
  8
LAYER_1
 10
167.7584
 20
51.3715
  0
VERTEX
  8
LAYER_1
 10
167.5713
 20
51.3715
  0
SEQEND
  0
ENDBLK
  0
BLOCK
  8
LAYER_1
  2
AIGNBL01030023
 70
64
 10
0
 20
0
 30
0
  3
AIGNBL01030023
  0
POLYLINE
  8
LAYER_1
 40
0.05
 41
0.05
 66
1
 10
0
 20
0
 30
0
 70
1
  0
VERTEX
  8
LAYER_1
 10
169.5633
 20
50.9454
 42
-0.1000954639
  0
VERTEX
  8
LAYER_1
 10
169.5227
 20
50.728
 42
-0.1001905425
  0
VERTEX
  8
LAYER_1
 10
169.4093
 20
50.5564
 42
-0.09598116796
  0
VERTEX
  8
LAYER_1
 10
169.2388
 20
50.4434
 42
-0.09506675375
  0
VERTEX
  8
LAYER_1
 10
169.0249
 20
50.4024
 42
-0.1012184087
  0
VERTEX
  8
LAYER_1
 10
168.8109
 20
50.4434
 42
-0.1000476754
  0
VERTEX
  8
LAYER_1
 10
168.6404
 20
50.5564
 42
-0.09638651026
  0
VERTEX
  8
LAYER_1
 10
168.5274
 20
50.728
 42
-0.0931359716
  0
VERTEX
  8
LAYER_1
 10
168.4867
 20
50.9454
 42
-0.1020962526
  0
VERTEX
  8
LAYER_1
 10
168.5274
 20
51.1628
 42
-0.101889112
  0
VERTEX
  8
LAYER_1
 10
168.6404
 20
51.3343
 42
-0.09563682649
  0
VERTEX
  8
LAYER_1
 10
168.8109
 20
51.4473
 42
-0.0950295922
  0
VERTEX
  8
LAYER_1
 10
169.0249
 20
51.4883
 42
-0.101175466
  0
VERTEX
  8
LAYER_1
 10
169.2388
 20
51.4473
 42
-0.101575919
  0
VERTEX
  8
LAYER_1
 10
169.4093
 20
51.3343
 42
-0.09449174073
  0
VERTEX
  8
LAYER_1
 10
169.5227
 20
51.1628
 42
-0.09273041258
  0
SEQEND
  0
POLYLINE
  8
LAYER_1
 40
0.05
 41
0.05
 66
1
 10
0
 20
0
 30
0
 70
1
  0
VERTEX
  8
LAYER_1
 10
169.4524
 20
50.9447
  0
VERTEX
  8
LAYER_1
 10
169.4231
 20
51.1166
  0
VERTEX
  8
LAYER_1
 10
169.3383
 20
51.2599
  0
VERTEX
  8
LAYER_1
 10
169.2036
 20
51.3581
  0
VERTEX
  8
LAYER_1
 10
169.0249
 20
51.395
  0
VERTEX
  8
LAYER_1
 10
168.846
 20
51.3581
  0
VERTEX
  8
LAYER_1
 10
168.711
 20
51.2599
  0
VERTEX
  8
LAYER_1
 10
168.6262
 20
51.1166
  0
VERTEX
  8
LAYER_1
 10
168.5973
 20
50.9447
  0
VERTEX
  8
LAYER_1
 10
168.6262
 20
50.7728
  0
VERTEX
  8
LAYER_1
 10
168.711
 20
50.6298
  0
VERTEX
  8
LAYER_1
 10
168.846
 20
50.5323
  0
VERTEX
  8
LAYER_1
 10
169.0249
 20
50.4958
  0
VERTEX
  8
LAYER_1
 10
169.2036
 20
50.5323
  0
VERTEX
  8
LAYER_1
 10
169.3383
 20
50.6298
  0
VERTEX
  8
LAYER_1
 10
169.4231
 20
50.7728
  0
SEQEND
  0
ENDBLK
  0
BLOCK
  8
LAYER_1
  2
AIGNBL01030024
 70
64
 10
0
 20
0
 30
0
  3
AIGNBL01030024
  0
POLYLINE
  8
LAYER_1
 40
0.05
 41
0.05
 66
1
 10
0
 20
0
 30
0
 70
1
  0
VERTEX
  8
LAYER_1
 10
171.0051
 20
50.9454
 42
-0.1041417444
  0
VERTEX
  8
LAYER_1
 10
170.9641
 20
50.728
 42
-0.1000549391
  0
VERTEX
  8
LAYER_1
 10
170.8514
 20
50.5564
 42
-0.09536478376
  0
VERTEX
  8
LAYER_1
 10
170.6805
 20
50.4434
 42
-0.09507606236
  0
VERTEX
  8
LAYER_1
 10
170.4666
 20
50.4024
 42
-0.101822328
  0
VERTEX
  8
LAYER_1
 10
170.253
 20
50.4434
 42
-0.102112669
  0
VERTEX
  8
LAYER_1
 10
170.0821
 20
50.5564
 42
-0.09442769366
  0
VERTEX
  8
LAYER_1
 10
169.9688
 20
50.728
 42
-0.0931359716
  0
VERTEX
  8
LAYER_1
 10
169.9281
 20
50.9454
 42
-0.1020962526
  0
VERTEX
  8
LAYER_1
 10
169.9688
 20
51.1628
 42
-0.1007688052
  0
VERTEX
  8
LAYER_1
 10
170.0821
 20
51.3343
 42
-0.09625543395
  0
VERTEX
  8
LAYER_1
 10
170.253
 20
51.4473
 42
-0.09528409444
  0
VERTEX
  8
LAYER_1
 10
170.4666
 20
51.4883
 42
-0.101185532
  0
VERTEX
  8
LAYER_1
 10
170.6805
 20
51.4473
 42
-0.09904343471
  0
VERTEX
  8
LAYER_1
 10
170.8514
 20
51.3343
 42
-0.09562840933
  0
VERTEX
  8
LAYER_1
 10
170.9641
 20
51.1628
 42
-0.09397287008
  0
SEQEND
  0
POLYLINE
  8
LAYER_1
 40
0.05
 41
0.05
 66
1
 10
0
 20
0
 30
0
 70
1
  0
VERTEX
  8
LAYER_1
 10
170.8941
 20
50.9447
  0
VERTEX
  8
LAYER_1
 10
170.8652
 20
51.1166
  0
VERTEX
  8
LAYER_1
 10
170.7804
 20
51.2599
  0
VERTEX
  8
LAYER_1
 10
170.6454
 20
51.3581
  0
VERTEX
  8
LAYER_1
 10
170.4666
 20
51.395
  0
VERTEX
  8
LAYER_1
 10
170.2878
 20
51.3581
  0
VERTEX
  8
LAYER_1
 10
170.1531
 20
51.2599
  0
VERTEX
  8
LAYER_1
 10
170.0684
 20
51.1166
  0
VERTEX
  8
LAYER_1
 10
170.0391
 20
50.9447
  0
VERTEX
  8
LAYER_1
 10
170.0684
 20
50.7728
  0
VERTEX
  8
LAYER_1
 10
170.1531
 20
50.6298
  0
VERTEX
  8
LAYER_1
 10
170.2878
 20
50.5323
  0
VERTEX
  8
LAYER_1
 10
170.4666
 20
50.4958
  0
VERTEX
  8
LAYER_1
 10
170.6454
 20
50.5323
  0
VERTEX
  8
LAYER_1
 10
170.7804
 20
50.6298
  0
VERTEX
  8
LAYER_1
 10
170.8652
 20
50.7728
  0
SEQEND
  0
ENDBLK
  0
BLOCK
  8
LAYER_1
  2
AIGNBL01030025
 70
64
 10
0
 20
0
 30
0
  3
AIGNBL01030025
  0
POLYLINE
  8
LAYER_1
 40
0.05
 41
0.05
 66
1
 10
0
 20
0
 30
0
 70
1
  0
VERTEX
  8
LAYER_1
 10
171.9359
 20
50.6067
  0
VERTEX
  8
LAYER_1
 10
171.9377
 20
50.6067
  0
VERTEX
  8
LAYER_1
 10
172.2832
 20
51.4618
  0
VERTEX
  8
LAYER_1
 10
172.4441
 20
51.4618
  0
VERTEX
  8
LAYER_1
 10
172.4441
 20
50.4286
  0
VERTEX
  8
LAYER_1
 10
172.3387
 20
50.4286
  0
VERTEX
  8
LAYER_1
 10
172.3387
 20
51.3261
  0
VERTEX
  8
LAYER_1
 10
172.3359
 20
51.3261
  0
VERTEX
  8
LAYER_1
 10
171.9625
 20
50.4286
  0
VERTEX
  8
LAYER_1
 10
171.907
 20
50.4286
  0
VERTEX
  8
LAYER_1
 10
171.5332
 20
51.3261
  0
VERTEX
  8
LAYER_1
 10
171.5305
 20
51.3261
  0
VERTEX
  8
LAYER_1
 10
171.5305
 20
50.4286
  0
VERTEX
  8
LAYER_1
 10
171.4254
 20
50.4286
  0
VERTEX
  8
LAYER_1
 10
171.4254
 20
51.4618
  0
VERTEX
  8
LAYER_1
 10
171.5859
 20
51.4618
  0
SEQEND
  0
ENDBLK
  0
BLOCK
  8
LAYER_1
  2
AIGNBL01030026
 70
64
 10
0
 20
0
 30
0
  3
AIGNBL01030026
  0
POLYLINE
  8
LAYER_1
 40
0.05
 41
0.05
 66
1
 10
0
 20
0
 30
0
 70
1
  0
VERTEX
  8
LAYER_1
 10
173.5906
 20
50.5223
  0
VERTEX
  8
LAYER_1
 10
174.1439
 20
50.5223
  0
VERTEX
  8
LAYER_1
 10
174.1439
 20
50.4286
  0
VERTEX
  8
LAYER_1
 10
173.4855
 20
50.4286
  0
VERTEX
  8
LAYER_1
 10
173.4855
 20
51.4618
  0
VERTEX
  8
LAYER_1
 10
174.1263
 20
51.4618
  0
VERTEX
  8
LAYER_1
 10
174.1263
 20
51.3684
  0
VERTEX
  8
LAYER_1
 10
173.5906
 20
51.3684
  0
VERTEX
  8
LAYER_1
 10
173.5906
 20
51.0139
  0
VERTEX
  8
LAYER_1
 10
174.0912
 20
51.0139
  0
VERTEX
  8
LAYER_1
 10
174.0912
 20
50.9206
  0
VERTEX
  8
LAYER_1
 10
173.5906
 20
50.9206
  0
SEQEND
  0
ENDBLK
  0
BLOCK
  8
LAYER_1
  2
AIGNBL01030027
 70
64
 10
0
 20
0
 30
0
  3
AIGNBL01030027
  0
POLYLINE
  8
LAYER_1
 40
0.05
 41
0.05
 66
1
 10
0
 20
0
 30
0
 70
1
  0
VERTEX
  8
LAYER_1
 10
174.8891
 20
51.0446
  0
VERTEX
  8
LAYER_1
 10
175.1712
 20
51.4618
  0
VERTEX
  8
LAYER_1
 10
175.2963
 20
51.4618
  0
VERTEX
  8
LAYER_1
 10
174.9538
 20
50.9702
  0
VERTEX
  8
LAYER_1
 10
175.3332
 20
50.4286
  0
VERTEX
  8
LAYER_1
 10
175.2019
 20
50.4286
  0
VERTEX
  8
LAYER_1
 10
174.8863
 20
50.8944
  0
VERTEX
  8
LAYER_1
 10
174.5728
 20
50.4286
  0
VERTEX
  8
LAYER_1
 10
174.4412
 20
50.4286
  0
VERTEX
  8
LAYER_1
 10
174.8209
 20
50.9715
  0
VERTEX
  8
LAYER_1
 10
174.475
 20
51.4618
  0
VERTEX
  8
LAYER_1
 10
174.6066
 20
51.4618
  0
SEQEND
  0
ENDBLK
  0
BLOCK
  8
LAYER_1
  2
AIGNBL01030028
 70
64
 10
0
 20
0
 30
0
  3
AIGNBL01030028
  0
POLYLINE
  8
LAYER_1
 40
0.05
 41
0.05
 66
1
 10
0
 20
0
 30
0
 70
1
  0
VERTEX
  8
LAYER_1
 10
175.6994
 20
51.4618
  0
VERTEX
  8
LAYER_1
 10
175.9915
 20
51.4618
  0
VERTEX
  8
LAYER_1
 10
176.1345
 20
51.4453
  0
VERTEX
  8
LAYER_1
 10
176.2444
 20
51.3939
  0
VERTEX
  8
LAYER_1
 10
176.3154
 20
51.3078
  0
VERTEX
  8
LAYER_1
 10
176.3398
 20
51.1862
  0
VERTEX
  8
LAYER_1
 10
176.3147
 20
51.0642
  0
VERTEX
  8
LAYER_1
 10
176.243
 20
50.9781
  0
VERTEX
  8
LAYER_1
 10
176.1321
 20
50.9264
  0
VERTEX
  8
LAYER_1
 10
175.9884
 20
50.9089
  0
VERTEX
  8
LAYER_1
 10
175.8044
 20
50.9089
  0
VERTEX
  8
LAYER_1
 10
175.8044
 20
50.4286
  0
VERTEX
  8
LAYER_1
 10
175.6994
 20
50.4286
  0
SEQEND
  0
POLYLINE
  8
LAYER_1
 40
0.05
 41
0.05
 66
1
 10
0
 20
0
 30
0
 70
1
  0
VERTEX
  8
LAYER_1
 10
175.8044
 20
50.9977
  0
VERTEX
  8
LAYER_1
 10
175.9822
 20
50.9977
 42
0.1829203509
  0
VERTEX
  8
LAYER_1
 10
176.1706
 20
51.0459
 42
0.2347011275
  0
VERTEX
  8
LAYER_1
 10
176.2351
 20
51.1862
 42
0.26486771
  0
VERTEX
  8
LAYER_1
 10
176.1686
 20
51.3271
 42
0.126412566
  0
VERTEX
  8
LAYER_1
 10
175.9822
 20
51.3715
  0
VERTEX
  8
LAYER_1
 10
175.8044
 20
51.3715
  0
SEQEND
  0
ENDBLK
  0
BLOCK
  8
LAYER_1
  2
AIGNBL01030029
 70
64
 10
0
 20
0
 30
0
  3
AIGNBL01030029
  0
POLYLINE
  8
LAYER_1
 40
0.05
 41
0.05
 66
1
 10
0
 20
0
 30
0
 70
1
  0
VERTEX
  8
LAYER_1
 10
176.8521
 20
50.5223
  0
VERTEX
  8
LAYER_1
 10
177.4054
 20
50.5223
  0
VERTEX
  8
LAYER_1
 10
177.4054
 20
50.4286
  0
VERTEX
  8
LAYER_1
 10
176.747
 20
50.4286
  0
VERTEX
  8
LAYER_1
 10
176.747
 20
51.4618
  0
VERTEX
  8
LAYER_1
 10
177.3878
 20
51.4618
  0
VERTEX
  8
LAYER_1
 10
177.3878
 20
51.3684
  0
VERTEX
  8
LAYER_1
 10
176.8521
 20
51.3684
  0
VERTEX
  8
LAYER_1
 10
176.8521
 20
51.0139
  0
VERTEX
  8
LAYER_1
 10
177.3527
 20
51.0139
  0
VERTEX
  8
LAYER_1
 10
177.3527
 20
50.9206
  0
VERTEX
  8
LAYER_1
 10
176.8521
 20
50.9206
  0
SEQEND
  0
ENDBLK
  0
BLOCK
  8
LAYER_1
  2
AIGNBL0103002A
 70
64
 10
0
 20
0
 30
0
  3
AIGNBL0103002A
  0
POLYLINE
  8
LAYER_1
 40
0.05
 41
0.05
 66
1
 10
0
 20
0
 30
0
 70
1
  0
VERTEX
  8
LAYER_1
 10
177.9173
 20
50.4286
  0
VERTEX
  8
LAYER_1
 10
177.8122
 20
50.4286
  0
VERTEX
  8
LAYER_1
 10
177.8122
 20
51.4618
  0
VERTEX
  8
LAYER_1
 10
178.1161
 20
51.4618
  0
VERTEX
  8
LAYER_1
 10
178.2567
 20
51.4473
  0
VERTEX
  8
LAYER_1
 10
178.3693
 20
51.3998
  0
VERTEX
  8
LAYER_1
 10
178.443
 20
51.3143
  0
VERTEX
  8
LAYER_1
 10
178.4689
 20
51.1862
  0
VERTEX
  8
LAYER_1
 10
178.4489
 20
51.0825
  0
VERTEX
  8
LAYER_1
 10
178.3934
 20
51.0015
  0
VERTEX
  8
LAYER_1
 10
178.3101
 20
50.9467
  0
VERTEX
  8
LAYER_1
 10
178.205
 20
50.9206
  0
VERTEX
  8
LAYER_1
 10
178.5071
 20
50.4286
  0
VERTEX
  8
LAYER_1
 10
178.3786
 20
50.4286
  0
VERTEX
  8
LAYER_1
 10
178.0927
 20
50.9116
  0
VERTEX
  8
LAYER_1
 10
177.9173
 20
50.9116
  0
SEQEND
  0
POLYLINE
  8
LAYER_1
 40
0.05
 41
0.05
 66
1
 10
0
 20
0
 30
0
 70
1
  0
VERTEX
  8
LAYER_1
 10
177.9173
 20
51.0022
  0
VERTEX
  8
LAYER_1
 10
178.0999
 20
51.0022
 42
0.1667734107
  0
VERTEX
  8
LAYER_1
 10
178.2956
 20
51.048
 42
0.2503091692
  0
VERTEX
  8
LAYER_1
 10
178.3641
 20
51.1862
  0
VERTEX
  8
LAYER_1
 10
178.3452
 20
51.272
  0
VERTEX
  8
LAYER_1
 10
178.2925
 20
51.3292
  0
VERTEX
  8
LAYER_1
 10
178.2108
 20
51.3612
  0
VERTEX
  8
LAYER_1
 10
178.1044
 20
51.3715
  0
VERTEX
  8
LAYER_1
 10
177.9173
 20
51.3715
  0
SEQEND
  0
ENDBLK
  0
BLOCK
  8
LAYER_1
  2
AIGNBL0103002B
 70
64
 10
0
 20
0
 30
0
  3
AIGNBL0103002B
  0
POLYLINE
  8
LAYER_1
 40
0.05
 41
0.05
 66
1
 10
0
 20
0
 30
0
 70
1
  0
VERTEX
  8
LAYER_1
 10
178.9929
 20
50.4286
  0
VERTEX
  8
LAYER_1
 10
178.8882
 20
50.4286
  0
VERTEX
  8
LAYER_1
 10
178.8882
 20
51.4618
  0
VERTEX
  8
LAYER_1
 10
178.9929
 20
51.4618
  0
SEQEND
  0
ENDBLK
  0
BLOCK
  8
LAYER_1
  2
AIGNBL0103002C
 70
64
 10
0
 20
0
 30
0
  3
AIGNBL0103002C
  0
POLYLINE
  8
LAYER_1
 40
0.05
 41
0.05
 66
1
 10
0
 20
0
 30
0
 70
1
  0
VERTEX
  8
LAYER_1
 10
179.5737
 20
50.5223
  0
VERTEX
  8
LAYER_1
 10
180.1267
 20
50.5223
  0
VERTEX
  8
LAYER_1
 10
180.1267
 20
50.4286
  0
VERTEX
  8
LAYER_1
 10
179.4687
 20
50.4286
  0
VERTEX
  8
LAYER_1
 10
179.4687
 20
51.4618
  0
VERTEX
  8
LAYER_1
 10
180.1094
 20
51.4618
  0
VERTEX
  8
LAYER_1
 10
180.1094
 20
51.3684
  0
VERTEX
  8
LAYER_1
 10
179.5737
 20
51.3684
  0
VERTEX
  8
LAYER_1
 10
179.5737
 20
51.0139
  0
VERTEX
  8
LAYER_1
 10
180.0743
 20
51.0139
  0
VERTEX
  8
LAYER_1
 10
180.0743
 20
50.9206
  0
VERTEX
  8
LAYER_1
 10
179.5737
 20
50.9206
  0
SEQEND
  0
ENDBLK
  0
BLOCK
  8
LAYER_1
  2
AIGNBL0103002D
 70
64
 10
0
 20
0
 30
0
  3
AIGNBL0103002D
  0
POLYLINE
  8
LAYER_1
 40
0.05
 41
0.05
 66
1
 10
0
 20
0
 30
0
 70
1
  0
VERTEX
  8
LAYER_1
 10
181.2666
 20
50.5819
  0
VERTEX
  8
LAYER_1
 10
181.2694
 20
50.5819
  0
VERTEX
  8
LAYER_1
 10
181.2694
 20
51.4618
  0
VERTEX
  8
LAYER_1
 10
181.3745
 20
51.4618
  0
VERTEX
  8
LAYER_1
 10
181.3745
 20
50.4286
  0
VERTEX
  8
LAYER_1
 10
181.2432
 20
50.4286
  0
VERTEX
  8
LAYER_1
 10
180.642
 20
51.3174
  0
VERTEX
  8
LAYER_1
 10
180.6389
 20
51.3174
  0
VERTEX
  8
LAYER_1
 10
180.6389
 20
50.4286
  0
VERTEX
  8
LAYER_1
 10
180.5339
 20
50.4286
  0
VERTEX
  8
LAYER_1
 10
180.5339
 20
51.4618
  0
VERTEX
  8
LAYER_1
 10
180.6655
 20
51.4618
  0
SEQEND
  0
ENDBLK
  0
BLOCK
  8
LAYER_1
  2
AIGNBL0103002E
 70
64
 10
0
 20
0
 30
0
  3
AIGNBL0103002E
  0
POLYLINE
  8
LAYER_1
 40
0.05
 41
0.05
 66
1
 10
0
 20
0
 30
0
 70
1
  0
VERTEX
  8
LAYER_1
 10
182.7201
 20
50.5964
  0
VERTEX
  8
LAYER_1
 10
182.6564
 20
50.522
  0
VERTEX
  8
LAYER_1
 10
182.5703
 20
50.4603
  0
VERTEX
  8
LAYER_1
 10
182.4621
 20
50.4179
  0
VERTEX
  8
LAYER_1
 10
182.3333
 20
50.4024
 42
-0.100982896
  0
VERTEX
  8
LAYER_1
 10
182.1172
 20
50.4434
 42
-0.1036559164
  0
VERTEX
  8
LAYER_1
 10
181.9467
 20
50.5564
 42
-0.09812017057
  0
VERTEX
  8
LAYER_1
 10
181.8351
 20
50.728
 42
-0.09232404316
  0
VERTEX
  8
LAYER_1
 10
181.7948
 20
50.9454
 42
-0.1039024847
  0
VERTEX
  8
LAYER_1
 10
181.8358
 20
51.1628
 42
-0.1006255151
  0
VERTEX
  8
LAYER_1
 10
181.9484
 20
51.3343
 42
-0.09509197705
  0
VERTEX
  8
LAYER_1
 10
182.1193
 20
51.4473
 42
-0.0950295922
  0
VERTEX
  8
LAYER_1
 10
182.3333
 20
51.4883
  0
VERTEX
  8
LAYER_1
 10
182.4449
 20
51.4763
  0
VERTEX
  8
LAYER_1
 10
182.5479
 20
51.4428
  0
VERTEX
  8
LAYER_1
 10
182.6354
 20
51.3912
  0
VERTEX
  8
LAYER_1
 10
182.7012
 20
51.3233
  0
VERTEX
  8
LAYER_1
 10
182.6137
 20
51.2589
  0
VERTEX
  8
LAYER_1
 10
182.5703
 20
51.3088
  0
VERTEX
  8
LAYER_1
 10
182.5069
 20
51.3526
  0
VERTEX
  8
LAYER_1
 10
182.4273
 20
51.3832
  0
VERTEX
  8
LAYER_1
 10
182.3346
 20
51.395
  0
VERTEX
  8
LAYER_1
 10
182.1544
 20
51.3584
  0
VERTEX
  8
LAYER_1
 10
182.0194
 20
51.2603
  0
VERTEX
  8
LAYER_1
 10
181.9346
 20
51.1169
  0
VERTEX
  8
LAYER_1
 10
181.9057
 20
50.9454
  0
VERTEX
  8
LAYER_1
 10
181.9357
 20
50.7738
  0
VERTEX
  8
LAYER_1
 10
182.0211
 20
50.6305
  0
VERTEX
  8
LAYER_1
 10
182.1562
 20
50.5323
 42
0.1010490553
  0
VERTEX
  8
LAYER_1
 10
182.3346
 20
50.4958
  0
VERTEX
  8
LAYER_1
 10
182.5038
 20
50.5323
 42
0.1324826472
  0
VERTEX
  8
LAYER_1
 10
182.6381
 20
50.6491
  0
SEQEND
  0
ENDBLK
  0
BLOCK
  8
LAYER_1
  2
AIGNBL0103002F
 70
64
 10
0
 20
0
 30
0
  3
AIGNBL0103002F
  0
POLYLINE
  8
LAYER_1
 40
0.05
 41
0.05
 66
1
 10
0
 20
0
 30
0
 70
1
  0
VERTEX
  8
LAYER_1
 10
183.2073
 20
50.5223
  0
VERTEX
  8
LAYER_1
 10
183.7606
 20
50.5223
  0
VERTEX
  8
LAYER_1
 10
183.7606
 20
50.4286
  0
VERTEX
  8
LAYER_1
 10
183.1022
 20
50.4286
  0
VERTEX
  8
LAYER_1
 10
183.1022
 20
51.4618
  0
VERTEX
  8
LAYER_1
 10
183.743
 20
51.4618
  0
VERTEX
  8
LAYER_1
 10
183.743
 20
51.3684
  0
VERTEX
  8
LAYER_1
 10
183.2073
 20
51.3684
  0
VERTEX
  8
LAYER_1
 10
183.2073
 20
51.0139
  0
VERTEX
  8
LAYER_1
 10
183.7078
 20
51.0139
  0
VERTEX
  8
LAYER_1
 10
183.7078
 20
50.9206
  0
VERTEX
  8
LAYER_1
 10
183.2073
 20
50.9206
  0
SEQEND
  0
ENDBLK
  0
BLOCK
  8
LAYER_1
  2
AIGNBL01020003
 70
64
 10
0
 20
0
 30
0
  3
AIGNBL01020003
  0
POLYLINE
  8
LAYER_1
 40
0.05
 41
0.05
 66
1
 10
0
 20
0
 30
0
 70
1
  0
VERTEX
  8
LAYER_1
 10
99.2805
 20
195.0332
  0
VERTEX
  8
LAYER_1
 10
98.7778
 20
195.0332
  0
VERTEX
  8
LAYER_1
 10
98.7778
 20
194.6628
  0
VERTEX
  8
LAYER_1
 10
99.2805
 20
194.6628
  0
SEQEND
  0
ENDBLK
  0
BLOCK
  8
LAYER_1
  2
AIGNBL01020004
 70
64
 10
0
 20
0
 30
0
  3
AIGNBL01020004
  0
POLYLINE
  8
LAYER_1
 40
0.0847
 41
0.0847
 66
1
 10
0
 20
0
 30
0
 70
1
  0
VERTEX
  8
LAYER_1
 10
99.2805
 20
195.0332
  0
VERTEX
  8
LAYER_1
 10
98.7778
 20
195.0332
  0
VERTEX
  8
LAYER_1
 10
98.7778
 20
194.6628
  0
VERTEX
  8
LAYER_1
 10
99.2805
 20
194.6628
  0
SEQEND
  0
ENDBLK
  0
BLOCK
  8
LAYER_1
  2
AIGNBL01020005
 70
64
 10
0
 20
0
 30
0
  3
AIGNBL01020005
  0
POLYLINE
  8
LAYER_1
 40
0.05
 41
0.05
 66
1
 10
0
 20
0
 30
0
 70
1
  0
VERTEX
  8
LAYER_1
 10
95.8409
 20
192.9165
  0
VERTEX
  8
LAYER_1
 10
95.3382
 20
192.9165
  0
VERTEX
  8
LAYER_1
 10
95.3382
 20
192.5461
  0
VERTEX
  8
LAYER_1
 10
95.8409
 20
192.5461
  0
SEQEND
  0
ENDBLK
  0
BLOCK
  8
LAYER_1
  2
AIGNBL01020006
 70
64
 10
0
 20
0
 30
0
  3
AIGNBL01020006
  0
POLYLINE
  8
LAYER_1
 40
0.0847
 41
0.0847
 66
1
 10
0
 20
0
 30
0
 70
1
  0
VERTEX
  8
LAYER_1
 10
95.8409
 20
192.9165
  0
VERTEX
  8
LAYER_1
 10
95.3382
 20
192.9165
  0
VERTEX
  8
LAYER_1
 10
95.3382
 20
192.5461
  0
VERTEX
  8
LAYER_1
 10
95.8409
 20
192.5461
  0
SEQEND
  0
ENDBLK
  0
BLOCK
  8
LAYER_1
  2
AIGNBL01020007
 70
64
 10
0
 20
0
 30
0
  3
AIGNBL01020007
  0
POLYLINE
  8
LAYER_1
 40
0.05
 41
0.05
 66
1
 10
0
 20
0
 30
0
 70
1
  0
VERTEX
  8
LAYER_1
 10
112.1128
 20
195.0332
  0
VERTEX
  8
LAYER_1
 10
111.6101
 20
195.0332
  0
VERTEX
  8
LAYER_1
 10
111.6101
 20
194.6628
  0
VERTEX
  8
LAYER_1
 10
112.1128
 20
194.6628
  0
SEQEND
  0
ENDBLK
  0
BLOCK
  8
LAYER_1
  2
AIGNBL01020008
 70
64
 10
0
 20
0
 30
0
  3
AIGNBL01020008
  0
POLYLINE
  8
LAYER_1
 40
0.0847
 41
0.0847
 66
1
 10
0
 20
0
 30
0
 70
1
  0
VERTEX
  8
LAYER_1
 10
112.1128
 20
195.0332
  0
VERTEX
  8
LAYER_1
 10
111.6101
 20
195.0332
  0
VERTEX
  8
LAYER_1
 10
111.6101
 20
194.6628
  0
VERTEX
  8
LAYER_1
 10
112.1128
 20
194.6628
  0
SEQEND
  0
ENDBLK
  0
BLOCK
  8
LAYER_1
  2
AIGNBL01020009
 70
64
 10
0
 20
0
 30
0
  3
AIGNBL01020009
  0
POLYLINE
  8
LAYER_1
 40
0.05
 41
0.05
 66
1
 10
0
 20
0
 30
0
 70
1
  0
VERTEX
  8
LAYER_1
 10
115.5524
 20
192.9165
  0
VERTEX
  8
LAYER_1
 10
115.0496
 20
192.9165
  0
VERTEX
  8
LAYER_1
 10
115.0496
 20
192.5461
  0
VERTEX
  8
LAYER_1
 10
115.5524
 20
192.5461
  0
SEQEND
  0
ENDBLK
  0
BLOCK
  8
LAYER_1
  2
AIGNBL0102000A
 70
64
 10
0
 20
0
 30
0
  3
AIGNBL0102000A
  0
POLYLINE
  8
LAYER_1
 40
0.0847
 41
0.0847
 66
1
 10
0
 20
0
 30
0
 70
1
  0
VERTEX
  8
LAYER_1
 10
115.5524
 20
192.9165
  0
VERTEX
  8
LAYER_1
 10
115.0496
 20
192.9165
  0
VERTEX
  8
LAYER_1
 10
115.0496
 20
192.5461
  0
VERTEX
  8
LAYER_1
 10
115.5524
 20
192.5461
  0
SEQEND
  0
ENDBLK
  0
BLOCK
  8
LAYER_1
  2
AIGNBL0102000B
 70
64
 10
0
 20
0
 30
0
  3
AIGNBL0102000B
  0
POLYLINE
  8
LAYER_1
 40
0.05
 41
0.05
 66
1
 10
0
 20
0
 30
0
 70
1
  0
VERTEX
  8
LAYER_1
 10
111.6894
 20
191.8582
  0
VERTEX
  8
LAYER_1
 10
99.2011
 20
191.8582
  0
VERTEX
  8
LAYER_1
 10
99.2011
 20
191.7524
  0
VERTEX
  8
LAYER_1
 10
111.6894
 20
191.7524
  0
SEQEND
  0
ENDBLK
  0
BLOCK
  8
LAYER_1
  2
AIGNBL0102000C
 70
64
 10
0
 20
0
 30
0
  3
AIGNBL0102000C
  0
POLYLINE
  8
LAYER_1
 40
0.0847
 41
0.0847
 66
1
 10
0
 20
0
 30
0
 70
1
  0
VERTEX
  8
LAYER_1
 10
111.6894
 20
191.8582
  0
VERTEX
  8
LAYER_1
 10
99.2011
 20
191.8582
  0
VERTEX
  8
LAYER_1
 10
99.2011
 20
191.7524
  0
VERTEX
  8
LAYER_1
 10
111.6894
 20
191.7524
  0
SEQEND
  0
ENDBLK
  0
BLOCK
  8
LAYER_1
  2
AIGNBL0102000F
 70
64
 10
0
 20
0
 30
0
  3
AIGNBL0102000F
  0
INSERT
  8
LAYER_1
  2
AIGNBL01030010
 10
0
 20
0
 30
0
  0
ENDBLK
  0
BLOCK
  8
LAYER_1
  2
AIGNBL01020018
 70
64
 10
0
 20
0
 30
0
  3
AIGNBL01020018
  0
INSERT
  8
LAYER_1
  2
AIGNBL01030019
 10
0
 20
0
 30
0
  0
INSERT
  8
LAYER_1
  2
AIGNBL0103001A
 10
0
 20
0
 30
0
  0
INSERT
  8
LAYER_1
  2
AIGNBL0103001B
 10
0
 20
0
 30
0
  0
INSERT
  8
LAYER_1
  2
AIGNBL0103001C
 10
0
 20
0
 30
0
  0
INSERT
  8
LAYER_1
  2
AIGNBL0103001D
 10
0
 20
0
 30
0
  0
INSERT
  8
LAYER_1
  2
AIGNBL0103001E
 10
0
 20
0
 30
0
  0
INSERT
  8
LAYER_1
  2
AIGNBL0103001F
 10
0
 20
0
 30
0
  0
INSERT
  8
LAYER_1
  2
AIGNBL01030020
 10
0
 20
0
 30
0
  0
INSERT
  8
LAYER_1
  2
AIGNBL01030021
 10
0
 20
0
 30
0
  0
INSERT
  8
LAYER_1
  2
AIGNBL01030022
 10
0
 20
0
 30
0
  0
INSERT
  8
LAYER_1
  2
AIGNBL01030023
 10
0
 20
0
 30
0
  0
INSERT
  8
LAYER_1
  2
AIGNBL01030024
 10
0
 20
0
 30
0
  0
INSERT
  8
LAYER_1
  2
AIGNBL01030025
 10
0
 20
0
 30
0
  0
INSERT
  8
LAYER_1
  2
AIGNBL01030026
 10
0
 20
0
 30
0
  0
INSERT
  8
LAYER_1
  2
AIGNBL01030027
 10
0
 20
0
 30
0
  0
INSERT
  8
LAYER_1
  2
AIGNBL01030028
 10
0
 20
0
 30
0
  0
INSERT
  8
LAYER_1
  2
AIGNBL01030029
 10
0
 20
0
 30
0
  0
INSERT
  8
LAYER_1
  2
AIGNBL0103002A
 10
0
 20
0
 30
0
  0
INSERT
  8
LAYER_1
  2
AIGNBL0103002B
 10
0
 20
0
 30
0
  0
INSERT
  8
LAYER_1
  2
AIGNBL0103002C
 10
0
 20
0
 30
0
  0
INSERT
  8
LAYER_1
  2
AIGNBL0103002D
 10
0
 20
0
 30
0
  0
INSERT
  8
LAYER_1
  2
AIGNBL0103002E
 10
0
 20
0
 30
0
  0
INSERT
  8
LAYER_1
  2
AIGNBL0103002F
 10
0
 20
0
 30
0
  0
ENDBLK
  0
BLOCK
  8
LAYER_1
  2
AIGNBL01010002
 70
64
 10
0
 20
0
 30
0
  3
AIGNBL01010002
  0
INSERT
  8
LAYER_1
  2
AIGNBL01020003
 10
0
 20
0
 30
0
  0
INSERT
  8
LAYER_1
  2
AIGNBL01020004
 10
0
 20
0
 30
0
  0
INSERT
  8
LAYER_1
  2
AIGNBL01020005
 10
0
 20
0
 30
0
  0
INSERT
  8
LAYER_1
  2
AIGNBL01020006
 10
0
 20
0
 30
0
  0
INSERT
  8
LAYER_1
  2
AIGNBL01020007
 10
0
 20
0
 30
0
  0
INSERT
  8
LAYER_1
  2
AIGNBL01020008
 10
0
 20
0
 30
0
  0
INSERT
  8
LAYER_1
  2
AIGNBL01020009
 10
0
 20
0
 30
0
  0
INSERT
  8
LAYER_1
  2
AIGNBL0102000A
 10
0
 20
0
 30
0
  0
INSERT
  8
LAYER_1
  2
AIGNBL0102000B
 10
0
 20
0
 30
0
  0
INSERT
  8
LAYER_1
  2
AIGNBL0102000C
 10
0
 20
0
 30
0
  0
POLYLINE
  8
LAYER_1
 40
0.0847
 41
0.0847
 66
1
 10
0
 20
0
 30
0
  0
VERTEX
  8
LAYER_1
 10
95.8144
 20
192.7843
  0
VERTEX
  8
LAYER_1
 10
47.7397
 20
179.2111
  0
SEQEND
  0
TEXT
  8
LAYER_1
 10
25.8852
 20
178.0471
 11
25.8852
 21
178.0471
 40
3.2224
 41
0.5
  1
äOâèâôâOüiìòüj
  0
POLYLINE
  8
LAYER_1
 40
0.0847
 41
0.0847
 66
1
 10
0
 20
0
 30
0
  0
VERTEX
  8
LAYER_1
 10
102.5349
 20
184.2382
  0
VERTEX
  8
LAYER_1
 10
75.468
 20
159.1293
  0
SEQEND
  0
POLYLINE
  8
LAYER_1
 40
0.0847
 41
0.0847
 66
1
 10
0
 20
0
 30
0
  0
VERTEX
  8
LAYER_1
 10
96.2642
 20
186.0903
  0
VERTEX
  8
LAYER_1
 10
70.8113
 20
169.8713
  0
SEQEND
  0
POLYLINE
  8
LAYER_1
 40
0.0847
 41
0.0847
 66
1
 10
0
 20
0
 30
0
  0
VERTEX
  8
LAYER_1
 10
103.1963
 20
190.3765
  0
VERTEX
  8
LAYER_1
 10
75.468
 20
159.1292
  0
SEQEND
  0
TEXT
  8
LAYER_1
 10
158.6
 20
168.0195
 11
158.6
 21
168.0195
 40
3.2224
 41
0.5
  1
äOâèâôâOüiô¹öÆüj
  0
POLYLINE
  8
LAYER_1
 40
0.0847
 41
0.0847
 66
1
 10
0
 20
0
 30
0
  0
VERTEX
  8
LAYER_1
 10
111.8217
 20
194.8215
  0
VERTEX
  8
LAYER_1
 10
157.8857
 20
170.2153
  0
SEQEND
  0
TEXT
  8
LAYER_1
 10
163.4951
 20
160.3996
 11
163.4951
 21
160.3996
 40
3.2224
 41
0.5
  1
ÄOèpâpâbâLâô
  0
POLYLINE
  8
LAYER_1
 40
0.0847
 41
0.0847
 66
1
 10
0
 20
0
 30
0
  0
VERTEX
  8
LAYER_1
 10
107.2974
 20
192.7578
  0
VERTEX
  8
LAYER_1
 10
162.8863
 20
161.8809
  0
SEQEND
  0
TEXT
  8
LAYER_1
 10
151.6419
 20
154.9753
 11
151.6419
 21
154.9753
 40
3.2224
 41
0.5
  1
âXâèâbâvâpâbâLâô
  0
POLYLINE
  8
LAYER_1
 40
0.0847
 41
0.0847
 66
1
 10
0
 20
0
 30
0
  0
VERTEX
  8
LAYER_1
 10
105.8421
 20
191.8318
  0
VERTEX
  8
LAYER_1
 10
150.9536
 20
156.2982
  0
SEQEND
  0
POLYLINE
  8
LAYER_1
 40
0.0847
 41
0.0847
 66
1
 10
0
 20
0
 30
0
  0
VERTEX
  8
LAYER_1
 10
107.6149
 20
157.3566
  0
VERTEX
  8
LAYER_1
 10
107.6942
 20
157.3566
  0
SEQEND
  0
POLYLINE
  8
LAYER_1
 40
0.0847
 41
0.0847
 66
1
 10
0
 20
0
 30
0
  0
VERTEX
  8
LAYER_1
 10
107.853
 20
157.4095
  0
VERTEX
  8
LAYER_1
 10
107.9324
 20
157.4359
  0
SEQEND
  0
POLYLINE
  8
LAYER_1
 40
0.0847
 41
0.0847
 66
1
 10
0
 20
0
 30
0
  0
VERTEX
  8
LAYER_1
 10
107.2444
 20
157.3566
  0
VERTEX
  8
LAYER_1
 10
107.2709
 20
157.3566
  0
SEQEND
  0
POLYLINE
  8
LAYER_1
 40
0.0847
 41
0.0847
 66
1
 10
0
 20
0
 30
0
  0
VERTEX
  8
LAYER_1
 10
107.3767
 20
157.3566
  0
VERTEX
  8
LAYER_1
 10
107.4296
 20
157.3301
  0
VERTEX
  8
LAYER_1
 10
107.4561
 20
157.3301
  0
SEQEND
  0
POLYLINE
  8
LAYER_1
 40
0.0847
 41
0.0847
 66
1
 10
0
 20
0
 30
0
  0
VERTEX
  8
LAYER_1
 10
107.5619
 20
157.3301
  0
VERTEX
  8
LAYER_1
 10
107.6149
 20
157.3566
  0
SEQEND
  0
POLYLINE
  8
LAYER_1
 40
0.0847
 41
0.0847
 66
1
 10
0
 20
0
 30
0
  0
VERTEX
  8
LAYER_1
 10
102.6142
 20
159.5526
  0
VERTEX
  8
LAYER_1
 10
102.6936
 20
159.5791
  0
SEQEND
  0
POLYLINE
  8
LAYER_1
 40
0.0847
 41
0.0847
 66
1
 10
0
 20
0
 30
0
  0
VERTEX
  8
LAYER_1
 10
102.8524
 20
159.6584
  0
VERTEX
  8
LAYER_1
 10
102.9582
 20
159.7113
  0
VERTEX
  8
LAYER_1
 10
103.0376
 20
159.7378
  0
SEQEND
  0
POLYLINE
  8
LAYER_1
 40
0.0847
 41
0.0847
 66
1
 10
0
 20
0
 30
0
  0
VERTEX
  8
LAYER_1
 10
103.1963
 20
159.7907
  0
VERTEX
  8
LAYER_1
 10
103.2757
 20
159.8172
  0
VERTEX
  8
LAYER_1
 10
103.3021
 20
159.8172
  0
SEQEND
  0
POLYLINE
  8
LAYER_1
 40
0.0847
 41
0.0847
 66
1
 10
0
 20
0
 30
0
  0
VERTEX
  8
LAYER_1
 10
103.408
 20
159.8172
  0
VERTEX
  8
LAYER_1
 10
103.4609
 20
159.8436
  0
VERTEX
  8
LAYER_1
 10
103.4874
 20
159.8436
  0
SEQEND
  0
POLYLINE
  8
LAYER_1
 40
0.0847
 41
0.0847
 66
1
 10
0
 20
0
 30
0
  0
VERTEX
  8
LAYER_1
 10
103.5932
 20
159.8436
  0
VERTEX
  8
LAYER_1
 10
103.6461
 20
159.8171
  0
VERTEX
  8
LAYER_1
 10
103.7255
 20
159.7907
  0
SEQEND
  0
POLYLINE
  8
LAYER_1
 40
0.0847
 41
0.0847
 66
1
 10
0
 20
0
 30
0
  0
VERTEX
  8
LAYER_1
 10
103.8842
 20
159.7378
  0
VERTEX
  8
LAYER_1
 10
103.9636
 20
159.7113
  0
VERTEX
  8
LAYER_1
 10
104.043
 20
159.6849
  0
SEQEND
  0
POLYLINE
  8
LAYER_1
 40
0.0847
 41
0.0847
 66
1
 10
0
 20
0
 30
0
  0
VERTEX
  8
LAYER_1
 10
104.2017
 20
159.6055
  0
VERTEX
  8
LAYER_1
 10
104.3076
 20
159.5526
  0
VERTEX
  8
LAYER_1
 10
104.3869
 20
159.4997
  0
SEQEND
  0
POLYLINE
  8
LAYER_1
 40
0.0847
 41
0.0847
 66
1
 10
0
 20
0
 30
0
  0
VERTEX
  8
LAYER_1
 10
104.5457
 20
159.3939
  0
VERTEX
  8
LAYER_1
 10
104.6251
 20
159.3145
  0
VERTEX
  8
LAYER_1
 10
104.7044
 20
159.2615
  0
SEQEND
  0
POLYLINE
  8
LAYER_1
 40
0.0847
 41
0.0847
 66
1
 10
0
 20
0
 30
0
  0
VERTEX
  8
LAYER_1
 10
104.8632
 20
159.1293
  0
VERTEX
  8
LAYER_1
 10
104.9426
 20
159.0499
  0
VERTEX
  8
LAYER_1
 10
105.0219
 20
158.997
  0
SEQEND
  0
POLYLINE
  8
LAYER_1
 40
0.0847
 41
0.0847
 66
1
 10
0
 20
0
 30
0
  0
VERTEX
  8
LAYER_1
 10
105.1807
 20
158.8383
  0
VERTEX
  8
LAYER_1
 10
105.2601
 20
158.7589
  0
VERTEX
  8
LAYER_1
 10
105.3394
 20
158.6795
  0
SEQEND
  0
POLYLINE
  8
LAYER_1
 40
0.0847
 41
0.0847
 66
1
 10
0
 20
0
 30
0
  0
VERTEX
  8
LAYER_1
 10
105.5247
 20
158.5208
  0
VERTEX
  8
LAYER_1
 10
105.6305
 20
158.4149
  0
VERTEX
  8
LAYER_1
 10
105.7099
 20
158.362
  0
SEQEND
  0
POLYLINE
  8
LAYER_1
 40
0.0847
 41
0.0847
 66
1
 10
0
 20
0
 30
0
  0
VERTEX
  8
LAYER_1
 10
105.8686
 20
158.2033
  0
VERTEX
  8
LAYER_1
 10
105.948
 20
158.1239
  0
VERTEX
  8
LAYER_1
 10
106.0274
 20
158.071
  0
SEQEND
  0
POLYLINE
  8
LAYER_1
 40
0.0847
 41
0.0847
 66
1
 10
0
 20
0
 30
0
  0
VERTEX
  8
LAYER_1
 10
106.1861
 20
157.9387
  0
VERTEX
  8
LAYER_1
 10
106.2655
 20
157.8593
  0
VERTEX
  8
LAYER_1
 10
106.3449
 20
157.8064
  0
SEQEND
  0
POLYLINE
  8
LAYER_1
 40
0.0847
 41
0.0847
 66
1
 10
0
 20
0
 30
0
  0
VERTEX
  8
LAYER_1
 10
106.5036
 20
157.7006
  0
VERTEX
  8
LAYER_1
 10
106.583
 20
157.6212
  0
VERTEX
  8
LAYER_1
 10
106.6624
 20
157.5947
  0
SEQEND
  0
POLYLINE
  8
LAYER_1
 40
0.0847
 41
0.0847
 66
1
 10
0
 20
0
 30
0
  0
VERTEX
  8
LAYER_1
 10
106.8211
 20
157.4889
  0
VERTEX
  8
LAYER_1
 10
106.9269
 20
157.436
  0
VERTEX
  8
LAYER_1
 10
107.0063
 20
157.436
  0
SEQEND
  0
POLYLINE
  8
LAYER_1
 40
0.0847
 41
0.0847
 66
1
 10
0
 20
0
 30
0
  0
VERTEX
  8
LAYER_1
 10
107.1651
 20
157.3831
  0
VERTEX
  8
LAYER_1
 10
107.2444
 20
157.3566
  0
SEQEND
  0
POLYLINE
  8
LAYER_1
 40
0.0847
 41
0.0847
 66
1
 10
0
 20
0
 30
0
  0
VERTEX
  8
LAYER_1
 10
102.3232
 20
159.341
  0
VERTEX
  8
LAYER_1
 10
102.3761
 20
159.3939
  0
SEQEND
  0
POLYLINE
  8
LAYER_1
 40
0.0847
 41
0.0847
 66
1
 10
0
 20
0
 30
0
  0
VERTEX
  8
LAYER_1
 10
102.5349
 20
159.4998
  0
VERTEX
  8
LAYER_1
 10
102.6142
 20
159.5527
  0
SEQEND
  0
POLYLINE
  8
LAYER_1
 40
0.0847
 41
0.0847
 66
1
 10
0
 20
0
 30
0
  0
VERTEX
  8
LAYER_1
 10
107.9324
 20
157.436
  0
VERTEX
  8
LAYER_1
 10
108.0117
 20
157.4625
  0
SEQEND
  0
POLYLINE
  8
LAYER_1
 40
0.0847
 41
0.0847
 66
1
 10
0
 20
0
 30
0
  0
VERTEX
  8
LAYER_1
 10
108.1705
 20
157.5683
  0
VERTEX
  8
LAYER_1
 10
108.2763
 20
157.6212
  0
VERTEX
  8
LAYER_1
 10
108.3292
 20
157.6741
  0
SEQEND
  0
POLYLINE
  8
LAYER_1
 40
0.0847
 41
0.0847
 66
1
 10
0
 20
0
 30
0
  0
VERTEX
  8
LAYER_1
 10
108.488
 20
157.78
  0
VERTEX
  8
LAYER_1
 10
108.5674
 20
157.8329
  0
SEQEND
  0
POLYLINE
  8
LAYER_1
 40
0.0847
 41
0.0847
 66
1
 10
0
 20
0
 30
0
  0
VERTEX
  8
LAYER_1
 10
206.3309
 20
186.302
  0
VERTEX
  8
LAYER_1
 10
206.3309
 20
192.5462
  0
SEQEND
  0
POLYLINE
  8
LAYER_1
 40
0.1693
 41
0.1693
 66
1
 10
0
 20
0
 30
0
  0
VERTEX
  8
LAYER_1
 10
206.3309
 20
192.5461
  0
VERTEX
  8
LAYER_1
 10
205.8546
 20
194.3453
  0
SEQEND
  0
POLYLINE
  8
LAYER_1
 40
0.1693
 41
0.1693
 66
1
 10
0
 20
0
 30
0
  0
VERTEX
  8
LAYER_1
 10
206.3309
 20
192.5461
  0
VERTEX
  8
LAYER_1
 10
206.8336
 20
194.3453
  0
SEQEND
  0
POLYLINE
  8
LAYER_1
 40
0.1693
 41
0.1693
 66
1
 10
0
 20
0
 30
0
  0
VERTEX
  8
LAYER_1
 10
206.3309
 20
186.302
  0
VERTEX
  8
LAYER_1
 10
206.8336
 20
184.4764
  0
SEQEND
  0
POLYLINE
  8
LAYER_1
 40
0.1693
 41
0.1693
 66
1
 10
0
 20
0
 30
0
  0
VERTEX
  8
LAYER_1
 10
206.3309
 20
186.302
  0
VERTEX
  8
LAYER_1
 10
205.8546
 20
184.4764
  0
SEQEND
  0
POLYLINE
  8
LAYER_1
 40
0.0847
 41
0.0847
 66
1
 10
0
 20
0
 30
0
  0
VERTEX
  8
LAYER_1
 10
199.5576
 20
192.5461
  0
VERTEX
  8
LAYER_1
 10
206.3309
 20
192.5461
  0
SEQEND
  0
POLYLINE
  8
LAYER_1
 40
0.0847
 41
0.0847
 66
1
 10
0
 20
0
 30
0
  0
VERTEX
  8
LAYER_1
 10
199.5576
 20
186.302
  0
VERTEX
  8
LAYER_1
 10
206.3309
 20
186.302
  0
SEQEND
  0
TEXT
  8
LAYER_1
 10
205.4229
 20
187.3864
 11
205.4229
 21
187.3864
 40
4.5757
 41
0.5
 50
89.99999999
  1
25
  0
TEXT
  8
LAYER_1
 10
148.3608
 20
181.2752
 11
148.3608
 21
181.2752
 40
5.3169
 41
0.5
  1
ôVö┬èJî¹Éíû@üF53055
  0
POLYLINE
  8
LAYER_1
 40
0.0847
 41
0.0847
 66
1
 10
0
 20
0
 30
0
  0
VERTEX
  8
LAYER_1
 10
102.3232
 20
159.3409
  0
VERTEX
  8
LAYER_1
 10
102.3232
 20
160.6373
  0
SEQEND
  0
POLYLINE
  8
LAYER_1
 40
0.0847
 41
0.0847
 66
1
 10
0
 20
0
 30
0
  0
VERTEX
  8
LAYER_1
 10
102.3232
 20
163.2832
  0
VERTEX
  8
LAYER_1
 10
102.3232
 20
165.9026
  0
SEQEND
  0
POLYLINE
  8
LAYER_1
 40
0.0847
 41
0.0847
 66
1
 10
0
 20
0
 30
0
  0
VERTEX
  8
LAYER_1
 10
102.3232
 20
168.5484
  0
VERTEX
  8
LAYER_1
 10
102.3232
 20
171.1678
  0
SEQEND
  0
POLYLINE
  8
LAYER_1
 40
0.0847
 41
0.0847
 66
1
 10
0
 20
0
 30
0
  0
VERTEX
  8
LAYER_1
 10
102.3232
 20
173.8136
  0
VERTEX
  8
LAYER_1
 10
102.3232
 20
176.433
  0
SEQEND
  0
POLYLINE
  8
LAYER_1
 40
0.0847
 41
0.0847
 66
1
 10
0
 20
0
 30
0
  0
VERTEX
  8
LAYER_1
 10
102.3232
 20
179.0788
  0
VERTEX
  8
LAYER_1
 10
102.3232
 20
180.4018
  0
SEQEND
  0
POLYLINE
  8
LAYER_1
 40
0.0847
 41
0.0847
 66
1
 10
0
 20
0
 30
0
  0
VERTEX
  8
LAYER_1
 10
108.5674
 20
157.8328
  0
VERTEX
  8
LAYER_1
 10
108.5674
 20
158.944
  0
SEQEND
  0
POLYLINE
  8
LAYER_1
 40
0.0847
 41
0.0847
 66
1
 10
0
 20
0
 30
0
  0
VERTEX
  8
LAYER_1
 10
108.5674
 20
161.193
  0
VERTEX
  8
LAYER_1
 10
108.5674
 20
163.4684
  0
SEQEND
  0
POLYLINE
  8
LAYER_1
 40
0.0847
 41
0.0847
 66
1
 10
0
 20
0
 30
0
  0
VERTEX
  8
LAYER_1
 10
108.5674
 20
165.7174
  0
VERTEX
  8
LAYER_1
 10
108.5674
 20
167.9663
  0
SEQEND
  0
POLYLINE
  8
LAYER_1
 40
0.0847
 41
0.0847
 66
1
 10
0
 20
0
 30
0
  0
VERTEX
  8
LAYER_1
 10
108.5674
 20
170.2418
  0
VERTEX
  8
LAYER_1
 10
108.5674
 20
172.4907
  0
SEQEND
  0
POLYLINE
  8
LAYER_1
 40
0.0847
 41
0.0847
 66
1
 10
0
 20
0
 30
0
  0
VERTEX
  8
LAYER_1
 10
108.5674
 20
174.7397
  0
VERTEX
  8
LAYER_1
 10
108.5674
 20
177.0151
  0
SEQEND
  0
POLYLINE
  8
LAYER_1
 40
0.0847
 41
0.0847
 66
1
 10
0
 20
0
 30
0
  0
VERTEX
  8
LAYER_1
 10
108.5674
 20
179.2641
  0
VERTEX
  8
LAYER_1
 10
108.5674
 20
180.4018
  0
SEQEND
  0
POLYLINE
  8
LAYER_1
 40
0.0847
 41
0.0847
 66
1
 10
0
 20
0
 30
0
  0
VERTEX
  8
LAYER_1
 10
106.9534
 20
201.2245
  0
VERTEX
  8
LAYER_1
 10
127.194
 20
224.9311
  0
SEQEND
  0
TEXT
  8
LAYER_1
 10
128.0406
 20
225.2491
 11
128.0406
 21
225.2491
 40
3.2224
 41
0.5
  1
ë╗Å¤âLâââbâvâëâEâôâh
  0
TEXT
  8
LAYER_1
 10
157.7535
 20
205.4053
 11
157.7535
 21
205.4053
 40
3.2224
 41
0.5
  1
âXâ|âôâWâpâbâLâô
  0
POLYLINE
  8
LAYER_1
 40
0.0847
 41
0.0847
 66
1
 10
0
 20
0
 30
0
  0
VERTEX
  8
LAYER_1
 10
117.1663
 20
193.0224
  0
VERTEX
  8
LAYER_1
 10
158.3355
 20
201.9653
  0
SEQEND
  0
TEXT
  8
LAYER_1
 10
158.2034
 20
201.0128
 11
158.2034
 21
201.0128
 40
3.2224
 41
0.5
  1
â}âEâôâeâBâôâOâfâBâXâN
  0
POLYLINE
  8
LAYER_1
 40
0.0847
 41
0.0847
 66
1
 10
0
 20
0
 30
0
  0
VERTEX
  8
LAYER_1
 10
105.4453
 20
149.1016
  0
VERTEX
  8
LAYER_1
 10
105.4453
 20
151.959
  0
SEQEND
  0
POLYLINE
  8
LAYER_1
 40
0.0847
 41
0.0847
 66
1
 10
0
 20
0
 30
0
  0
VERTEX
  8
LAYER_1
 10
105.4453
 20
153.1232
  0
VERTEX
  8
LAYER_1
 10
105.4453
 20
154.2609
  0
SEQEND
  0
POLYLINE
  8
LAYER_1
 40
0.0847
 41
0.0847
 66
1
 10
0
 20
0
 30
0
  0
VERTEX
  8
LAYER_1
 10
105.4453
 20
155.4251
  0
VERTEX
  8
LAYER_1
 10
105.4453
 20
161.193
  0
SEQEND
  0
POLYLINE
  8
LAYER_1
 40
0.0847
 41
0.0847
 66
1
 10
0
 20
0
 30
0
  0
VERTEX
  8
LAYER_1
 10
105.4453
 20
162.3307
  0
VERTEX
  8
LAYER_1
 10
105.4453
 20
163.4948
  0
SEQEND
  0
POLYLINE
  8
LAYER_1
 40
0.0847
 41
0.0847
 66
1
 10
0
 20
0
 30
0
  0
VERTEX
  8
LAYER_1
 10
105.4453
 20
164.6326
  0
VERTEX
  8
LAYER_1
 10
105.4453
 20
170.4005
  0
SEQEND
  0
POLYLINE
  8
LAYER_1
 40
0.0847
 41
0.0847
 66
1
 10
0
 20
0
 30
0
  0
VERTEX
  8
LAYER_1
 10
105.4453
 20
171.5382
  0
VERTEX
  8
LAYER_1
 10
105.4453
 20
172.7023
  0
SEQEND
  0
POLYLINE
  8
LAYER_1
 40
0.0847
 41
0.0847
 66
1
 10
0
 20
0
 30
0
  0
VERTEX
  8
LAYER_1
 10
105.4453
 20
173.84
  0
VERTEX
  8
LAYER_1
 10
105.4453
 20
179.6079
  0
SEQEND
  0
POLYLINE
  8
LAYER_1
 40
0.0847
 41
0.0847
 66
1
 10
0
 20
0
 30
0
  0
VERTEX
  8
LAYER_1
 10
105.4453
 20
180.7721
  0
VERTEX
  8
LAYER_1
 10
105.4453
 20
181.9098
  0
SEQEND
  0
POLYLINE
  8
LAYER_1
 40
0.0847
 41
0.0847
 66
1
 10
0
 20
0
 30
0
  0
VERTEX
  8
LAYER_1
 10
105.4453
 20
183.074
  0
VERTEX
  8
LAYER_1
 10
105.4453
 20
188.8154
  0
SEQEND
  0
POLYLINE
  8
LAYER_1
 40
0.0847
 41
0.0847
 66
1
 10
0
 20
0
 30
0
  0
VERTEX
  8
LAYER_1
 10
105.4453
 20
189.9796
  0
VERTEX
  8
LAYER_1
 10
105.4453
 20
191.1173
  0
SEQEND
  0
POLYLINE
  8
LAYER_1
 40
0.0847
 41
0.0847
 66
1
 10
0
 20
0
 30
0
  0
VERTEX
  8
LAYER_1
 10
105.4453
 20
192.2814
  0
VERTEX
  8
LAYER_1
 10
105.4453
 20
198.0229
  0
SEQEND
  0
POLYLINE
  8
LAYER_1
 40
0.0847
 41
0.0847
 66
1
 10
0
 20
0
 30
0
  0
VERTEX
  8
LAYER_1
 10
105.4453
 20
199.1871
  0
VERTEX
  8
LAYER_1
 10
105.4453
 20
200.3247
  0
SEQEND
  0
POLYLINE
  8
LAYER_1
 40
0.0847
 41
0.0847
 66
1
 10
0
 20
0
 30
0
  0
VERTEX
  8
LAYER_1
 10
105.4453
 20
201.4889
  0
VERTEX
  8
LAYER_1
 10
105.4453
 20
207.2568
  0
SEQEND
  0
POLYLINE
  8
LAYER_1
 40
0.0847
 41
0.0847
 66
1
 10
0
 20
0
 30
0
  0
VERTEX
  8
LAYER_1
 10
105.4453
 20
208.3945
  0
VERTEX
  8
LAYER_1
 10
105.4453
 20
209.5587
  0
SEQEND
  0
POLYLINE
  8
LAYER_1
 40
0.0847
 41
0.0847
 66
1
 10
0
 20
0
 30
0
  0
VERTEX
  8
LAYER_1
 10
105.4453
 20
210.6964
  0
VERTEX
  8
LAYER_1
 10
105.4453
 20
216.4643
  0
SEQEND
  0
POLYLINE
  8
LAYER_1
 40
0.0847
 41
0.0847
 66
1
 10
0
 20
0
 30
0
  0
VERTEX
  8
LAYER_1
 10
105.4453
 20
217.602
  0
VERTEX
  8
LAYER_1
 10
105.4453
 20
218.7661
  0
SEQEND
  0
POLYLINE
  8
LAYER_1
 40
0.0847
 41
0.0847
 66
1
 10
0
 20
0
 30
0
  0
VERTEX
  8
LAYER_1
 10
105.4453
 20
219.9039
  0
VERTEX
  8
LAYER_1
 10
105.4453
 20
225.6718
  0
SEQEND
  0
POLYLINE
  8
LAYER_1
 40
0.0847
 41
0.0847
 66
1
 10
0
 20
0
 30
0
  0
VERTEX
  8
LAYER_1
 10
105.4453
 20
226.8359
  0
VERTEX
  8
LAYER_1
 10
105.4453
 20
227.9736
  0
SEQEND
  0
POLYLINE
  8
LAYER_1
 40
0.0847
 41
0.0847
 66
1
 10
0
 20
0
 30
0
  0
VERTEX
  8
LAYER_1
 10
105.4453
 20
229.1378
  0
VERTEX
  8
LAYER_1
 10
105.4453
 20
232.0217
  0
SEQEND
  0
POLYLINE
  8
LAYER_1
 40
0.0847
 41
0.0847
 66
1
 10
0
 20
0
 30
0
  0
VERTEX
  8
LAYER_1
 10
106.4771
 20
160.6636
  0
VERTEX
  8
LAYER_1
 10
148.0696
 20
149.7892
  0
SEQEND
  0
POLYLINE
  8
LAYER_1
 40
0.254
 41
0.254
 66
1
 10
0
 20
0
 30
0
  0
VERTEX
  8
LAYER_1
 10
16.5453
 20
192.5461
  0
VERTEX
  8
LAYER_1
 10
97.349
 20
192.5461
  0
SEQEND
  0
POLYLINE
  8
LAYER_1
 40
0.254
 41
0.254
 66
1
 10
0
 20
0
 30
0
  0
VERTEX
  8
LAYER_1
 10
16.1219
 20
186.302
  0
VERTEX
  8
LAYER_1
 10
97.349
 20
186.302
  0
VERTEX
  8
LAYER_1
 10
97.349
 20
192.5461
  0
SEQEND
  0
POLYLINE
  8
LAYER_1
 40
0.254
 41
0.254
 66
1
 10
0
 20
0
 30
0
  0
VERTEX
  8
LAYER_1
 10
113.5415
 20
192.5461
  0
VERTEX
  8
LAYER_1
 10
194.3453
 20
192.5461
  0
SEQEND
  0
POLYLINE
  8
LAYER_1
 40
0.254
 41
0.254
 66
1
 10
0
 20
0
 30
0
  0
VERTEX
  8
LAYER_1
 10
113.5415
 20
186.302
  0
VERTEX
  8
LAYER_1
 10
113.5415
 20
192.5461
  0
SEQEND
  0
POLYLINE
  8
LAYER_1
 40
0.254
 41
0.254
 66
1
 10
0
 20
0
 30
0
  0
VERTEX
  8
LAYER_1
 10
113.5415
 20
186.302
  0
VERTEX
  8
LAYER_1
 10
194.7686
 20
186.302
  0
SEQEND
  0
POLYLINE
  8
LAYER_1
 40
0.0847
 41
0.0847
 66
1
 10
0
 20
0
 30
0
  0
VERTEX
  8
LAYER_1
 10
17.5242
 20
188.498
  0
VERTEX
  8
LAYER_1
 10
21.5459
 20
192.5461
  0
SEQEND
  0
POLYLINE
  8
LAYER_1
 40
0.0847
 41
0.0847
 66
1
 10
0
 20
0
 30
0
  0
VERTEX
  8
LAYER_1
 10
17.1274
 20
191.6465
  0
VERTEX
  8
LAYER_1
 10
18.0269
 20
192.5461
  0
SEQEND
  0
POLYLINE
  8
LAYER_1
 40
0.0847
 41
0.0847
 66
1
 10
0
 20
0
 30
0
  0
VERTEX
  8
LAYER_1
 10
18.8471
 20
186.302
  0
VERTEX
  8
LAYER_1
 10
25.0913
 20
192.5461
  0
SEQEND
  0
POLYLINE
  8
LAYER_1
 40
0.0847
 41
0.0847
 66
1
 10
0
 20
0
 30
0
  0
VERTEX
  8
LAYER_1
 10
40.0403
 20
186.302
  0
VERTEX
  8
LAYER_1
 10
46.2844
 20
192.5461
  0
SEQEND
  0
POLYLINE
  8
LAYER_1
 40
0.0847
 41
0.0847
 66
1
 10
0
 20
0
 30
0
  0
VERTEX
  8
LAYER_1
 10
36.5213
 20
186.302
  0
VERTEX
  8
LAYER_1
 10
42.7655
 20
192.5461
  0
SEQEND
  0
POLYLINE
  8
LAYER_1
 40
0.0847
 41
0.0847
 66
1
 10
0
 20
0
 30
0
  0
VERTEX
  8
LAYER_1
 10
32.9759
 20
186.302
  0
VERTEX
  8
LAYER_1
 10
39.2201
 20
192.5461
  0
SEQEND
  0
POLYLINE
  8
LAYER_1
 40
0.0847
 41
0.0847
 66
1
 10
0
 20
0
 30
0
  0
VERTEX
  8
LAYER_1
 10
29.4569
 20
186.302
  0
VERTEX
  8
LAYER_1
 10
35.7011
 20
192.5461
  0
SEQEND
  0
POLYLINE
  8
LAYER_1
 40
0.0847
 41
0.0847
 66
1
 10
0
 20
0
 30
0
  0
VERTEX
  8
LAYER_1
 10
25.9115
 20
186.302
  0
VERTEX
  8
LAYER_1
 10
32.1557
 20
192.5461
  0
SEQEND
  0
POLYLINE
  8
LAYER_1
 40
0.0847
 41
0.0847
 66
1
 10
0
 20
0
 30
0
  0
VERTEX
  8
LAYER_1
 10
22.3661
 20
186.302
  0
VERTEX
  8
LAYER_1
 10
28.6367
 20
192.5461
  0
SEQEND
  0
POLYLINE
  8
LAYER_1
 40
0.0847
 41
0.0847
 66
1
 10
0
 20
0
 30
0
  0
VERTEX
  8
LAYER_1
 10
82.453
 20
186.302
  0
VERTEX
  8
LAYER_1
 10
88.6971
 20
192.5461
  0
SEQEND
  0
POLYLINE
  8
LAYER_1
 40
0.0847
 41
0.0847
 66
1
 10
0
 20
0
 30
0
  0
VERTEX
  8
LAYER_1
 10
78.934
 20
186.302
  0
VERTEX
  8
LAYER_1
 10
85.1782
 20
192.5461
  0
SEQEND
  0
POLYLINE
  8
LAYER_1
 40
0.0847
 41
0.0847
 66
1
 10
0
 20
0
 30
0
  0
VERTEX
  8
LAYER_1
 10
75.3886
 20
186.302
  0
VERTEX
  8
LAYER_1
 10
81.6328
 20
192.5461
  0
SEQEND
  0
POLYLINE
  8
LAYER_1
 40
0.0847
 41
0.0847
 66
1
 10
0
 20
0
 30
0
  0
VERTEX
  8
LAYER_1
 10
71.8432
 20
186.302
  0
VERTEX
  8
LAYER_1
 10
78.1138
 20
192.5461
  0
SEQEND
  0
POLYLINE
  8
LAYER_1
 40
0.0847
 41
0.0847
 66
1
 10
0
 20
0
 30
0
  0
VERTEX
  8
LAYER_1
 10
68.3242
 20
186.302
  0
VERTEX
  8
LAYER_1
 10
74.5684
 20
192.5461
  0
SEQEND
  0
POLYLINE
  8
LAYER_1
 40
0.0847
 41
0.0847
 66
1
 10
0
 20
0
 30
0
  0
VERTEX
  8
LAYER_1
 10
64.7788
 20
186.302
  0
VERTEX
  8
LAYER_1
 10
71.023
 20
192.5461
  0
SEQEND
  0
POLYLINE
  8
LAYER_1
 40
0.0847
 41
0.0847
 66
1
 10
0
 20
0
 30
0
  0
VERTEX
  8
LAYER_1
 10
61.2599
 20
186.302
  0
VERTEX
  8
LAYER_1
 10
67.504
 20
192.5461
  0
SEQEND
  0
POLYLINE
  8
LAYER_1
 40
0.0847
 41
0.0847
 66
1
 10
0
 20
0
 30
0
  0
VERTEX
  8
LAYER_1
 10
57.7145
 20
186.302
  0
VERTEX
  8
LAYER_1
 10
63.9586
 20
192.5461
  0
SEQEND
  0
POLYLINE
  8
LAYER_1
 40
0.0847
 41
0.0847
 66
1
 10
0
 20
0
 30
0
  0
VERTEX
  8
LAYER_1
 10
54.1955
 20
186.302
  0
VERTEX
  8
LAYER_1
 10
60.4397
 20
192.5461
  0
SEQEND
  0
POLYLINE
  8
LAYER_1
 40
0.0847
 41
0.0847
 66
1
 10
0
 20
0
 30
0
  0
VERTEX
  8
LAYER_1
 10
50.6501
 20
186.302
  0
VERTEX
  8
LAYER_1
 10
56.8942
 20
192.5461
  0
SEQEND
  0
POLYLINE
  8
LAYER_1
 40
0.0847
 41
0.0847
 66
1
 10
0
 20
0
 30
0
  0
VERTEX
  8
LAYER_1
 10
47.1047
 20
186.302
  0
VERTEX
  8
LAYER_1
 10
53.3753
 20
192.5461
  0
SEQEND
  0
POLYLINE
  8
LAYER_1
 40
0.0847
 41
0.0847
 66
1
 10
0
 20
0
 30
0
  0
VERTEX
  8
LAYER_1
 10
43.5857
 20
186.302
  0
VERTEX
  8
LAYER_1
 10
49.8299
 20
192.5461
  0
SEQEND
  0
POLYLINE
  8
LAYER_1
 40
0.0847
 41
0.0847
 66
1
 10
0
 20
0
 30
0
  0
VERTEX
  8
LAYER_1
 10
85.9984
 20
186.302
  0
VERTEX
  8
LAYER_1
 10
92.2426
 20
192.5461
  0
SEQEND
  0
POLYLINE
  8
LAYER_1
 40
0.0847
 41
0.0847
 66
1
 10
0
 20
0
 30
0
  0
VERTEX
  8
LAYER_1
 10
89.5174
 20
186.302
  0
VERTEX
  8
LAYER_1
 10
95.7615
 20
192.5461
  0
SEQEND
  0
POLYLINE
  8
LAYER_1
 40
0.0847
 41
0.0847
 66
1
 10
0
 20
0
 30
0
  0
VERTEX
  8
LAYER_1
 10
93.0628
 20
186.302
  0
VERTEX
  8
LAYER_1
 10
97.349
 20
190.5882
  0
SEQEND
  0
POLYLINE
  8
LAYER_1
 40
0.0847
 41
0.0847
 66
1
 10
0
 20
0
 30
0
  0
VERTEX
  8
LAYER_1
 10
96.5818
 20
186.302
  0
VERTEX
  8
LAYER_1
 10
97.3491
 20
187.0428
  0
SEQEND
  0
POLYLINE
  8
LAYER_1
 40
0.0847
 41
0.0847
 66
1
 10
0
 20
0
 30
0
  0
VERTEX
  8
LAYER_1
 10
138.968
 20
186.302
  0
VERTEX
  8
LAYER_1
 10
145.2122
 20
192.5461
  0
SEQEND
  0
POLYLINE
  8
LAYER_1
 40
0.0847
 41
0.0847
 66
1
 10
0
 20
0
 30
0
  0
VERTEX
  8
LAYER_1
 10
142.5134
 20
186.302
  0
VERTEX
  8
LAYER_1
 10
148.7576
 20
192.5461
  0
SEQEND
  0
POLYLINE
  8
LAYER_1
 40
0.0847
 41
0.0847
 66
1
 10
0
 20
0
 30
0
  0
VERTEX
  8
LAYER_1
 10
146.0324
 20
186.302
  0
VERTEX
  8
LAYER_1
 10
152.303
 20
192.5461
  0
SEQEND
  0
POLYLINE
  8
LAYER_1
 40
0.0847
 41
0.0847
 66
1
 10
0
 20
0
 30
0
  0
VERTEX
  8
LAYER_1
 10
149.5778
 20
186.302
  0
VERTEX
  8
LAYER_1
 10
155.822
 20
192.5461
  0
SEQEND
  0
POLYLINE
  8
LAYER_1
 40
0.0847
 41
0.0847
 66
1
 10
0
 20
0
 30
0
  0
VERTEX
  8
LAYER_1
 10
153.1232
 20
186.302
  0
VERTEX
  8
LAYER_1
 10
159.3674
 20
192.5461
  0
SEQEND
  0
POLYLINE
  8
LAYER_1
 40
0.0847
 41
0.0847
 66
1
 10
0
 20
0
 30
0
  0
VERTEX
  8
LAYER_1
 10
156.6422
 20
186.302
  0
VERTEX
  8
LAYER_1
 10
162.8864
 20
192.5461
  0
SEQEND
  0
POLYLINE
  8
LAYER_1
 40
0.0847
 41
0.0847
 66
1
 10
0
 20
0
 30
0
  0
VERTEX
  8
LAYER_1
 10
160.1876
 20
186.302
  0
VERTEX
  8
LAYER_1
 10
166.4318
 20
192.5461
  0
SEQEND
  0
POLYLINE
  8
LAYER_1
 40
0.0847
 41
0.0847
 66
1
 10
0
 20
0
 30
0
  0
VERTEX
  8
LAYER_1
 10
163.7066
 20
186.302
  0
VERTEX
  8
LAYER_1
 10
169.9507
 20
192.5461
  0
SEQEND
  0
POLYLINE
  8
LAYER_1
 40
0.0847
 41
0.0847
 66
1
 10
0
 20
0
 30
0
  0
VERTEX
  8
LAYER_1
 10
167.252
 20
186.302
  0
VERTEX
  8
LAYER_1
 10
173.4962
 20
192.5461
  0
SEQEND
  0
POLYLINE
  8
LAYER_1
 40
0.0847
 41
0.0847
 66
1
 10
0
 20
0
 30
0
  0
VERTEX
  8
LAYER_1
 10
170.771
 20
186.302
  0
VERTEX
  8
LAYER_1
 10
177.0416
 20
192.5461
  0
SEQEND
  0
POLYLINE
  8
LAYER_1
 40
0.0847
 41
0.0847
 66
1
 10
0
 20
0
 30
0
  0
VERTEX
  8
LAYER_1
 10
174.3164
 20
186.302
  0
VERTEX
  8
LAYER_1
 10
180.5605
 20
192.5461
  0
SEQEND
  0
POLYLINE
  8
LAYER_1
 40
0.0847
 41
0.0847
 66
1
 10
0
 20
0
 30
0
  0
VERTEX
  8
LAYER_1
 10
177.8618
 20
186.302
  0
VERTEX
  8
LAYER_1
 10
184.106
 20
192.5461
  0
SEQEND
  0
POLYLINE
  8
LAYER_1
 40
0.0847
 41
0.0847
 66
1
 10
0
 20
0
 30
0
  0
VERTEX
  8
LAYER_1
 10
181.3808
 20
186.302
  0
VERTEX
  8
LAYER_1
 10
187.6249
 20
192.5461
  0
SEQEND
  0
POLYLINE
  8
LAYER_1
 40
0.0847
 41
0.0847
 66
1
 10
0
 20
0
 30
0
  0
VERTEX
  8
LAYER_1
 10
184.9262
 20
186.302
  0
VERTEX
  8
LAYER_1
 10
191.1704
 20
192.5461
  0
SEQEND
  0
POLYLINE
  8
LAYER_1
 40
0.0847
 41
0.0847
 66
1
 10
0
 20
0
 30
0
  0
VERTEX
  8
LAYER_1
 10
188.4452
 20
186.302
  0
VERTEX
  8
LAYER_1
 10
193.6839
 20
191.5142
  0
SEQEND
  0
POLYLINE
  8
LAYER_1
 40
0.0847
 41
0.0847
 66
1
 10
0
 20
0
 30
0
  0
VERTEX
  8
LAYER_1
 10
191.9906
 20
186.302
  0
VERTEX
  8
LAYER_1
 10
193.6575
 20
187.9688
  0
SEQEND
  0
POLYLINE
  8
LAYER_1
 40
0.0847
 41
0.0847
 66
1
 10
0
 20
0
 30
0
  0
VERTEX
  8
LAYER_1
 10
16.5454
 20
192.5461
  0
VERTEX
  8
LAYER_1
 10
16.7306
 20
192.2815
  0
VERTEX
  8
LAYER_1
 10
17.0216
 20
191.8317
  0
VERTEX
  8
LAYER_1
 10
17.3127
 20
191.3555
  0
VERTEX
  8
LAYER_1
 10
17.5508
 20
190.9057
  0
VERTEX
  8
LAYER_1
 10
17.7095
 20
190.4559
  0
VERTEX
  8
LAYER_1
 10
17.8154
 20
190.0061
  0
VERTEX
  8
LAYER_1
 10
17.8418
 20
189.7415
  0
VERTEX
  8
LAYER_1
 10
17.8154
 20
189.4769
  0
VERTEX
  8
LAYER_1
 10
17.7095
 20
189.0007
  0
VERTEX
  8
LAYER_1
 10
17.5508
 20
188.5509
  0
VERTEX
  8
LAYER_1
 10
17.3127
 20
188.1011
  0
VERTEX
  8
LAYER_1
 10
17.0216
 20
187.6513
  0
VERTEX
  8
LAYER_1
 10
16.7306
 20
187.1751
  0
VERTEX
  8
LAYER_1
 10
16.3602
 20
186.6459
  0
VERTEX
  8
LAYER_1
 10
16.122
 20
186.3019
  0
SEQEND
  0
POLYLINE
  8
LAYER_1
 40
0.0847
 41
0.0847
 66
1
 10
0
 20
0
 30
0
  0
VERTEX
  8
LAYER_1
 10
194.5306
 20
186.6459
  0
VERTEX
  8
LAYER_1
 10
194.7687
 20
186.3019
  0
SEQEND
  0
POLYLINE
  8
LAYER_1
 40
0.0847
 41
0.0847
 66
1
 10
0
 20
0
 30
0
  0
VERTEX
  8
LAYER_1
 10
194.1602
 20
187.1751
  0
VERTEX
  8
LAYER_1
 10
194.5306
 20
186.6459
  0
SEQEND
  0
POLYLINE
  8
LAYER_1
 40
0.0847
 41
0.0847
 66
1
 10
0
 20
0
 30
0
  0
VERTEX
  8
LAYER_1
 10
193.8691
 20
187.6513
  0
VERTEX
  8
LAYER_1
 10
194.1602
 20
187.1751
  0
SEQEND
  0
POLYLINE
  8
LAYER_1
 40
0.0847
 41
0.0847
 66
1
 10
0
 20
0
 30
0
  0
VERTEX
  8
LAYER_1
 10
193.5781
 20
188.1011
  0
VERTEX
  8
LAYER_1
 10
193.8691
 20
187.6513
  0
SEQEND
  0
POLYLINE
  8
LAYER_1
 40
0.0847
 41
0.0847
 66
1
 10
0
 20
0
 30
0
  0
VERTEX
  8
LAYER_1
 10
193.34
 20
188.5509
  0
VERTEX
  8
LAYER_1
 10
193.5781
 20
188.1011
  0
SEQEND
  0
POLYLINE
  8
LAYER_1
 40
0.0847
 41
0.0847
 66
1
 10
0
 20
0
 30
0
  0
VERTEX
  8
LAYER_1
 10
193.1812
 20
189.0007
  0
VERTEX
  8
LAYER_1
 10
193.34
 20
188.5509
  0
SEQEND
  0
POLYLINE
  8
LAYER_1
 40
0.0847
 41
0.0847
 66
1
 10
0
 20
0
 30
0
  0
VERTEX
  8
LAYER_1
 10
193.0754
 20
189.477
  0
VERTEX
  8
LAYER_1
 10
193.1812
 20
189.0007
  0
SEQEND
  0
POLYLINE
  8
LAYER_1
 40
0.0847
 41
0.0847
 66
1
 10
0
 20
0
 30
0
  0
VERTEX
  8
LAYER_1
 10
193.0489
 20
189.7416
  0
VERTEX
  8
LAYER_1
 10
193.0754
 20
189.477
  0
SEQEND
  0
POLYLINE
  8
LAYER_1
 40
0.0847
 41
0.0847
 66
1
 10
0
 20
0
 30
0
  0
VERTEX
  8
LAYER_1
 10
193.0754
 20
190.0061
  0
VERTEX
  8
LAYER_1
 10
193.0489
 20
189.7415
  0
SEQEND
  0
POLYLINE
  8
LAYER_1
 40
0.0847
 41
0.0847
 66
1
 10
0
 20
0
 30
0
  0
VERTEX
  8
LAYER_1
 10
193.1812
 20
190.4559
  0
VERTEX
  8
LAYER_1
 10
193.0754
 20
190.0061
  0
SEQEND
  0
POLYLINE
  8
LAYER_1
 40
0.0847
 41
0.0847
 66
1
 10
0
 20
0
 30
0
  0
VERTEX
  8
LAYER_1
 10
193.34
 20
190.9057
  0
VERTEX
  8
LAYER_1
 10
193.1812
 20
190.4559
  0
SEQEND
  0
POLYLINE
  8
LAYER_1
 40
0.0847
 41
0.0847
 66
1
 10
0
 20
0
 30
0
  0
VERTEX
  8
LAYER_1
 10
193.5781
 20
191.3555
  0
VERTEX
  8
LAYER_1
 10
193.34
 20
190.9057
  0
SEQEND
  0
POLYLINE
  8
LAYER_1
 40
0.0847
 41
0.0847
 66
1
 10
0
 20
0
 30
0
  0
VERTEX
  8
LAYER_1
 10
193.8691
 20
191.8318
  0
VERTEX
  8
LAYER_1
 10
193.5781
 20
191.3555
  0
SEQEND
  0
POLYLINE
  8
LAYER_1
 40
0.0847
 41
0.0847
 66
1
 10
0
 20
0
 30
0
  0
VERTEX
  8
LAYER_1
 10
194.1602
 20
192.2816
  0
VERTEX
  8
LAYER_1
 10
193.8691
 20
191.8318
  0
SEQEND
  0
POLYLINE
  8
LAYER_1
 40
0.0847
 41
0.0847
 66
1
 10
0
 20
0
 30
0
  0
VERTEX
  8
LAYER_1
 10
194.3454
 20
192.5462
  0
VERTEX
  8
LAYER_1
 10
194.1602
 20
192.2816
  0
SEQEND
  0
POLYLINE
  8
LAYER_1
 40
0.0847
 41
0.0847
 66
1
 10
0
 20
0
 30
0
  0
VERTEX
  8
LAYER_1
 10
135.4491
 20
186.302
  0
VERTEX
  8
LAYER_1
 10
141.6933
 20
192.5462
  0
SEQEND
  0
POLYLINE
  8
LAYER_1
 40
0.0847
 41
0.0847
 66
1
 10
0
 20
0
 30
0
  0
VERTEX
  8
LAYER_1
 10
131.9037
 20
186.302
  0
VERTEX
  8
LAYER_1
 10
138.1479
 20
192.5462
  0
SEQEND
  0
POLYLINE
  8
LAYER_1
 40
0.0847
 41
0.0847
 66
1
 10
0
 20
0
 30
0
  0
VERTEX
  8
LAYER_1
 10
128.3848
 20
186.302
  0
VERTEX
  8
LAYER_1
 10
134.6289
 20
192.5462
  0
SEQEND
  0
POLYLINE
  8
LAYER_1
 40
0.0847
 41
0.0847
 66
1
 10
0
 20
0
 30
0
  0
VERTEX
  8
LAYER_1
 10
124.8393
 20
186.302
  0
VERTEX
  8
LAYER_1
 10
131.0835
 20
192.5462
  0
SEQEND
  0
POLYLINE
  8
LAYER_1
 40
0.0847
 41
0.0847
 66
1
 10
0
 20
0
 30
0
  0
VERTEX
  8
LAYER_1
 10
121.2939
 20
186.302
  0
VERTEX
  8
LAYER_1
 10
127.5645
 20
192.5462
  0
SEQEND
  0
POLYLINE
  8
LAYER_1
 40
0.0847
 41
0.0847
 66
1
 10
0
 20
0
 30
0
  0
VERTEX
  8
LAYER_1
 10
117.7749
 20
186.302
  0
VERTEX
  8
LAYER_1
 10
124.0191
 20
192.5462
  0
SEQEND
  0
POLYLINE
  8
LAYER_1
 40
0.0847
 41
0.0847
 66
1
 10
0
 20
0
 30
0
  0
VERTEX
  8
LAYER_1
 10
114.2295
 20
186.302
  0
VERTEX
  8
LAYER_1
 10
120.4737
 20
192.5462
  0
SEQEND
  0
POLYLINE
  8
LAYER_1
 40
0.0847
 41
0.0847
 66
1
 10
0
 20
0
 30
0
  0
VERTEX
  8
LAYER_1
 10
113.5416
 20
189.1595
  0
VERTEX
  8
LAYER_1
 10
116.9547
 20
192.5462
  0
SEQEND
  0
POLYLINE
  8
LAYER_1
 40
0.1693
 41
0.1693
 66
1
 10
0
 20
0
 30
0
  0
VERTEX
  8
LAYER_1
 10
95.4705
 20
185.5611
  0
VERTEX
  8
LAYER_1
 10
115.4201
 20
185.5611
  0
VERTEX
  8
LAYER_1
 10
115.4201
 20
186.302
  0
SEQEND
  0
POLYLINE
  8
LAYER_1
 40
0.1693
 41
0.1693
 66
1
 10
0
 20
0
 30
0
  0
VERTEX
  8
LAYER_1
 10
95.4705
 20
186.302
  0
VERTEX
  8
LAYER_1
 10
115.4201
 20
186.302
  0
SEQEND
  0
POLYLINE
  8
LAYER_1
 40
0.1693
 41
0.1693
 66
1
 10
0
 20
0
 30
0
  0
VERTEX
  8
LAYER_1
 10
95.4705
 20
185.5611
  0
VERTEX
  8
LAYER_1
 10
95.4705
 20
186.302
  0
SEQEND
  0
POLYLINE
  8
LAYER_1
 40
0.0847
 41
0.0847
 66
1
 10
0
 20
0
 30
0
  0
VERTEX
  8
LAYER_1
 10
101.3442
 20
185.5611
  0
VERTEX
  8
LAYER_1
 10
101.3442
 20
185.7463
  0
SEQEND
  0
POLYLINE
  8
LAYER_1
 40
0.0847
 41
0.0847
 66
1
 10
0
 20
0
 30
0
  0
VERTEX
  8
LAYER_1
 10
101.3442
 20
186.1168
  0
VERTEX
  8
LAYER_1
 10
101.3442
 20
186.302
  0
SEQEND
  0
POLYLINE
  8
LAYER_1
 40
0.0847
 41
0.0847
 66
1
 10
0
 20
0
 30
0
  0
VERTEX
  8
LAYER_1
 10
109.5463
 20
185.5611
  0
VERTEX
  8
LAYER_1
 10
109.5463
 20
185.7463
  0
SEQEND
  0
POLYLINE
  8
LAYER_1
 40
0.0847
 41
0.0847
 66
1
 10
0
 20
0
 30
0
  0
VERTEX
  8
LAYER_1
 10
109.5463
 20
186.1168
  0
VERTEX
  8
LAYER_1
 10
109.5463
 20
186.302
  0
SEQEND
  0
POLYLINE
  8
LAYER_1
 40
0.1693
 41
0.1693
 66
1
 10
0
 20
0
 30
0
  0
VERTEX
  8
LAYER_1
 10
99.3334
 20
191.1174
  0
VERTEX
  8
LAYER_1
 10
99.3334
 20
191.7523
  0
SEQEND
  0
POLYLINE
  8
LAYER_1
 40
0.1693
 41
0.1693
 66
1
 10
0
 20
0
 30
0
  0
VERTEX
  8
LAYER_1
 10
99.3334
 20
191.1174
  0
VERTEX
  8
LAYER_1
 10
111.5571
 20
191.1174
  0
VERTEX
  8
LAYER_1
 10
111.5571
 20
191.7523
  0
SEQEND
  0
POLYLINE
  8
LAYER_1
 40
0.1693
 41
0.1693
 66
1
 10
0
 20
0
 30
0
  0
VERTEX
  8
LAYER_1
 10
99.3334
 20
191.7524
  0
VERTEX
  8
LAYER_1
 10
111.5571
 20
191.7524
  0
SEQEND
  0
POLYLINE
  8
LAYER_1
 40
0.1693
 41
0.1693
 66
1
 10
0
 20
0
 30
0
  0
VERTEX
  8
LAYER_1
 10
100.7092
 20
189.6357
  0
VERTEX
  8
LAYER_1
 10
100.7092
 20
191.1174
  0
SEQEND
  0
POLYLINE
  8
LAYER_1
 40
0.1693
 41
0.1693
 66
1
 10
0
 20
0
 30
0
  0
VERTEX
  8
LAYER_1
 10
100.7092
 20
189.6357
  0
VERTEX
  8
LAYER_1
 10
110.1813
 20
189.6357
  0
VERTEX
  8
LAYER_1
 10
110.1813
 20
191.1174
  0
SEQEND
  0
POLYLINE
  8
LAYER_1
 40
0.1693
 41
0.1693
 66
1
 10
0
 20
0
 30
0
  0
VERTEX
  8
LAYER_1
 10
99.3334
 20
184.9261
  0
VERTEX
  8
LAYER_1
 10
111.5571
 20
184.9261
  0
SEQEND
  0
POLYLINE
  8
LAYER_1
 40
0.1693
 41
0.1693
 66
1
 10
0
 20
0
 30
0
  0
VERTEX
  8
LAYER_1
 10
99.3334
 20
185.5611
  0
VERTEX
  8
LAYER_1
 10
111.5571
 20
185.5611
  0
SEQEND
  0
POLYLINE
  8
LAYER_1
 40
0.1693
 41
0.1693
 66
1
 10
0
 20
0
 30
0
  0
VERTEX
  8
LAYER_1
 10
99.3334
 20
184.9261
  0
VERTEX
  8
LAYER_1
 10
99.3334
 20
185.5611
  0
SEQEND
  0
POLYLINE
  8
LAYER_1
 40
0.1693
 41
0.1693
 66
1
 10
0
 20
0
 30
0
  0
VERTEX
  8
LAYER_1
 10
100.7092
 20
183.4445
  0
VERTEX
  8
LAYER_1
 10
100.7092
 20
184.9261
  0
SEQEND
  0
POLYLINE
  8
LAYER_1
 40
0.1693
 41
0.1693
 66
1
 10
0
 20
0
 30
0
  0
VERTEX
  8
LAYER_1
 10
100.7092
 20
183.4445
  0
VERTEX
  8
LAYER_1
 10
110.1813
 20
183.4445
  0
SEQEND
  0
POLYLINE
  8
LAYER_1
 40
0.1693
 41
0.1693
 66
1
 10
0
 20
0
 30
0
  0
VERTEX
  8
LAYER_1
 10
111.5571
 20
184.9261
  0
VERTEX
  8
LAYER_1
 10
111.5571
 20
185.5611
  0
SEQEND
  0
POLYLINE
  8
LAYER_1
 40
0.1693
 41
0.1693
 66
1
 10
0
 20
0
 30
0
  0
VERTEX
  8
LAYER_1
 10
110.1813
 20
183.4445
  0
VERTEX
  8
LAYER_1
 10
110.1813
 20
184.9261
  0
SEQEND
  0
POLYLINE
  8
LAYER_1
 40
0.1693
 41
0.1693
 66
1
 10
0
 20
0
 30
0
  0
VERTEX
  8
LAYER_1
 10
101.5294
 20
193.7368
  0
VERTEX
  8
LAYER_1
 10
98.963
 20
192.2286
  0
SEQEND
  0
POLYLINE
  8
LAYER_1
 40
0.1693
 41
0.1693
 66
1
 10
0
 20
0
 30
0
  0
VERTEX
  8
LAYER_1
 10
98.963
 20
191.8582
  0
VERTEX
  8
LAYER_1
 10
98.963
 20
192.2286
  0
SEQEND
  0
POLYLINE
  8
LAYER_1
 40
0.1693
 41
0.1693
 66
1
 10
0
 20
0
 30
0
  0
VERTEX
  8
LAYER_1
 10
98.963
 20
191.8582
  0
VERTEX
  8
LAYER_1
 10
111.9276
 20
191.8582
  0
VERTEX
  8
LAYER_1
 10
111.9276
 20
192.2286
  0
SEQEND
  0
POLYLINE
  8
LAYER_1
 40
0.1693
 41
0.1693
 66
1
 10
0
 20
0
 30
0
  0
VERTEX
  8
LAYER_1
 10
109.3611
 20
193.7368
  0
VERTEX
  8
LAYER_1
 10
111.9275
 20
192.2286
  0
SEQEND
  0
POLYLINE
  8
LAYER_1
 40
0.1693
 41
0.1693
 66
1
 10
0
 20
0
 30
0
  0
VERTEX
  8
LAYER_1
 10
101.5294
 20
193.7368
  0
VERTEX
  8
LAYER_1
 10
109.3611
 20
193.7368
  0
SEQEND
  0
POLYLINE
  8
LAYER_1
 40
0.0847
 41
0.0847
 66
1
 10
0
 20
0
 30
0
  0
VERTEX
  8
LAYER_1
 10
98.963
 20
192.2286
  0
VERTEX
  8
LAYER_1
 10
111.9276
 20
192.2286
  0
SEQEND
  0
POLYLINE
  8
LAYER_1
 40
0.1693
 41
0.1693
 66
1
 10
0
 20
0
 30
0
  0
VERTEX
  8
LAYER_1
 10
99.2011
 20
191.7524
  0
VERTEX
  8
LAYER_1
 10
99.2011
 20
191.8582
  0
SEQEND
  0
POLYLINE
  8
LAYER_1
 40
0.1693
 41
0.1693
 66
1
 10
0
 20
0
 30
0
  0
VERTEX
  8
LAYER_1
 10
99.2011
 20
191.7524
  0
VERTEX
  8
LAYER_1
 10
111.6894
 20
191.7524
  0
VERTEX
  8
LAYER_1
 10
111.6894
 20
191.8582
  0
SEQEND
  0
POLYLINE
  8
LAYER_1
 40
0.1693
 41
0.1693
 66
1
 10
0
 20
0
 30
0
  0
VERTEX
  8
LAYER_1
 10
99.2011
 20
191.8582
  0
VERTEX
  8
LAYER_1
 10
111.6894
 20
191.8582
  0
SEQEND
  0
POLYLINE
  8
LAYER_1
 40
0.1693
 41
0.1693
 66
1
 10
0
 20
0
 30
0
  0
VERTEX
  8
LAYER_1
 10
97.7194
 20
193.7897
  0
VERTEX
  8
LAYER_1
 10
97.7194
 20
195.0332
  0
SEQEND
  0
POLYLINE
  8
LAYER_1
 40
0.1693
 41
0.1693
 66
1
 10
0
 20
0
 30
0
  0
VERTEX
  8
LAYER_1
 10
113.1711
 20
193.7897
  0
VERTEX
  8
LAYER_1
 10
113.1711
 20
195.0332
  0
SEQEND
  0
POLYLINE
  8
LAYER_1
 40
0.1693
 41
0.1693
 66
1
 10
0
 20
0
 30
0
  0
VERTEX
  8
LAYER_1
 10
94.2005
 20
193.7897
  0
VERTEX
  8
LAYER_1
 10
97.7194
 20
193.7897
  0
SEQEND
  0
POLYLINE
  8
LAYER_1
 40
0.1693
 41
0.1693
 66
1
 10
0
 20
0
 30
0
  0
VERTEX
  8
LAYER_1
 10
113.1711
 20
193.7897
  0
VERTEX
  8
LAYER_1
 10
116.6901
 20
193.7897
  0
SEQEND
  0
POLYLINE
  8
LAYER_1
 40
0.1693
 41
0.1693
 66
1
 10
0
 20
0
 30
0
  0
VERTEX
  8
LAYER_1
 10
94.174
 20
193.7897
 42
0.4238989793
  0
VERTEX
  8
LAYER_1
 10
92.957
 20
192.5726
  0
SEQEND
  0
POLYLINE
  8
LAYER_1
 40
0.1693
 41
0.1693
 66
1
 10
0
 20
0
 30
0
  0
VERTEX
  8
LAYER_1
 10
117.9336
 20
192.5726
 42
0.3810576144
  0
VERTEX
  8
LAYER_1
 10
116.6901
 20
193.7896
  0
VERTEX
  8
LAYER_1
 10
116.6636
 20
193.7896
  0
SEQEND
  0
POLYLINE
  8
LAYER_1
 40
0.0847
 41
0.0847
 66
1
 10
0
 20
0
 30
0
  0
VERTEX
  8
LAYER_1
 10
117.8278
 20
192.5461
  0
VERTEX
  8
LAYER_1
 10
117.9336
 20
192.652
  0
SEQEND
  0
POLYLINE
  8
LAYER_1
 40
0.0847
 41
0.0847
 66
1
 10
0
 20
0
 30
0
  0
VERTEX
  8
LAYER_1
 10
117.4574
 20
192.5461
  0
VERTEX
  8
LAYER_1
 10
117.8542
 20
192.943
  0
SEQEND
  0
POLYLINE
  8
LAYER_1
 40
0.0847
 41
0.0847
 66
1
 10
0
 20
0
 30
0
  0
VERTEX
  8
LAYER_1
 10
117.1134
 20
192.5461
  0
VERTEX
  8
LAYER_1
 10
117.7484
 20
193.1811
  0
SEQEND
  0
POLYLINE
  8
LAYER_1
 40
0.0847
 41
0.0847
 66
1
 10
0
 20
0
 30
0
  0
VERTEX
  8
LAYER_1
 10
116.7694
 20
192.5461
  0
VERTEX
  8
LAYER_1
 10
117.5896
 20
193.3928
  0
SEQEND
  0
POLYLINE
  8
LAYER_1
 40
0.0847
 41
0.0847
 66
1
 10
0
 20
0
 30
0
  0
VERTEX
  8
LAYER_1
 10
116.399
 20
192.5461
  0
VERTEX
  8
LAYER_1
 10
117.4044
 20
193.5515
  0
SEQEND
  0
POLYLINE
  8
LAYER_1
 40
0.0847
 41
0.0847
 66
1
 10
0
 20
0
 30
0
  0
VERTEX
  8
LAYER_1
 10
116.0551
 20
192.5461
  0
VERTEX
  8
LAYER_1
 10
117.1928
 20
193.6838
  0
SEQEND
  0
POLYLINE
  8
LAYER_1
 40
0.0847
 41
0.0847
 66
1
 10
0
 20
0
 30
0
  0
VERTEX
  8
LAYER_1
 10
115.7111
 20
192.5461
  0
VERTEX
  8
LAYER_1
 10
116.9282
 20
193.7632
  0
SEQEND
  0
POLYLINE
  8
LAYER_1
 40
0.0847
 41
0.0847
 66
1
 10
0
 20
0
 30
0
  0
VERTEX
  8
LAYER_1
 10
115.3407
 20
192.5461
  0
VERTEX
  8
LAYER_1
 10
116.5842
 20
193.7897
  0
SEQEND
  0
POLYLINE
  8
LAYER_1
 40
0.0847
 41
0.0847
 66
1
 10
0
 20
0
 30
0
  0
VERTEX
  8
LAYER_1
 10
114.9967
 20
192.5461
  0
VERTEX
  8
LAYER_1
 10
116.2403
 20
193.7897
  0
SEQEND
  0
POLYLINE
  8
LAYER_1
 40
0.0847
 41
0.0847
 66
1
 10
0
 20
0
 30
0
  0
VERTEX
  8
LAYER_1
 10
114.6528
 20
192.5461
  0
VERTEX
  8
LAYER_1
 10
115.8963
 20
193.7897
  0
SEQEND
  0
POLYLINE
  8
LAYER_1
 40
0.0847
 41
0.0847
 66
1
 10
0
 20
0
 30
0
  0
VERTEX
  8
LAYER_1
 10
114.2824
 20
192.5461
  0
VERTEX
  8
LAYER_1
 10
115.5259
 20
193.7897
  0
SEQEND
  0
POLYLINE
  8
LAYER_1
 40
0.0847
 41
0.0847
 66
1
 10
0
 20
0
 30
0
  0
VERTEX
  8
LAYER_1
 10
113.9384
 20
192.5461
  0
VERTEX
  8
LAYER_1
 10
115.1819
 20
193.7897
  0
SEQEND
  0
POLYLINE
  8
LAYER_1
 40
0.0847
 41
0.0847
 66
1
 10
0
 20
0
 30
0
  0
VERTEX
  8
LAYER_1
 10
113.568
 20
192.5461
  0
VERTEX
  8
LAYER_1
 10
114.838
 20
193.7897
  0
SEQEND
  0
POLYLINE
  8
LAYER_1
 40
0.0847
 41
0.0847
 66
1
 10
0
 20
0
 30
0
  0
VERTEX
  8
LAYER_1
 10
113.224
 20
192.5461
  0
VERTEX
  8
LAYER_1
 10
114.4676
 20
193.7897
  0
SEQEND
  0
POLYLINE
  8
LAYER_1
 40
0.0847
 41
0.0847
 66
1
 10
0
 20
0
 30
0
  0
VERTEX
  8
LAYER_1
 10
112.8801
 20
192.5461
  0
VERTEX
  8
LAYER_1
 10
114.1236
 20
193.7897
  0
SEQEND
  0
POLYLINE
  8
LAYER_1
 40
0.0847
 41
0.0847
 66
1
 10
0
 20
0
 30
0
  0
VERTEX
  8
LAYER_1
 10
112.5097
 20
192.5461
  0
VERTEX
  8
LAYER_1
 10
113.7796
 20
193.7897
  0
SEQEND
  0
POLYLINE
  8
LAYER_1
 40
0.0847
 41
0.0847
 66
1
 10
0
 20
0
 30
0
  0
VERTEX
  8
LAYER_1
 10
112.1657
 20
192.5461
  0
VERTEX
  8
LAYER_1
 10
113.4092
 20
193.7897
  0
SEQEND
  0
POLYLINE
  8
LAYER_1
 40
0.0847
 41
0.0847
 66
1
 10
0
 20
0
 30
0
  0
VERTEX
  8
LAYER_1
 10
111.8217
 20
192.5461
  0
VERTEX
  8
LAYER_1
 10
113.1711
 20
193.922
  0
SEQEND
  0
POLYLINE
  8
LAYER_1
 40
0.0847
 41
0.0847
 66
1
 10
0
 20
0
 30
0
  0
VERTEX
  8
LAYER_1
 10
97.0051
 20
192.5461
  0
VERTEX
  8
LAYER_1
 10
99.4922
 20
195.0332
  0
SEQEND
  0
POLYLINE
  8
LAYER_1
 40
0.0847
 41
0.0847
 66
1
 10
0
 20
0
 30
0
  0
VERTEX
  8
LAYER_1
 10
96.6347
 20
192.5461
  0
VERTEX
  8
LAYER_1
 10
99.1482
 20
195.0332
  0
SEQEND
  0
POLYLINE
  8
LAYER_1
 40
0.0847
 41
0.0847
 66
1
 10
0
 20
0
 30
0
  0
VERTEX
  8
LAYER_1
 10
96.2907
 20
192.5461
  0
VERTEX
  8
LAYER_1
 10
97.5342
 20
193.7897
  0
SEQEND
  0
POLYLINE
  8
LAYER_1
 40
0.0847
 41
0.0847
 66
1
 10
0
 20
0
 30
0
  0
VERTEX
  8
LAYER_1
 10
97.7194
 20
193.9749
  0
VERTEX
  8
LAYER_1
 10
98.7778
 20
195.0332
  0
SEQEND
  0
POLYLINE
  8
LAYER_1
 40
0.0847
 41
0.0847
 66
1
 10
0
 20
0
 30
0
  0
VERTEX
  8
LAYER_1
 10
95.9467
 20
192.5461
  0
VERTEX
  8
LAYER_1
 10
97.1903
 20
193.7897
  0
SEQEND
  0
POLYLINE
  8
LAYER_1
 40
0.0847
 41
0.0847
 66
1
 10
0
 20
0
 30
0
  0
VERTEX
  8
LAYER_1
 10
97.7194
 20
194.3189
  0
VERTEX
  8
LAYER_1
 10
98.4338
 20
195.0332
  0
SEQEND
  0
POLYLINE
  8
LAYER_1
 40
0.0847
 41
0.0847
 66
1
 10
0
 20
0
 30
0
  0
VERTEX
  8
LAYER_1
 10
95.5763
 20
192.5461
  0
VERTEX
  8
LAYER_1
 10
96.8199
 20
193.7897
  0
SEQEND
  0
POLYLINE
  8
LAYER_1
 40
0.0847
 41
0.0847
 66
1
 10
0
 20
0
 30
0
  0
VERTEX
  8
LAYER_1
 10
97.7194
 20
194.6628
  0
VERTEX
  8
LAYER_1
 10
98.0899
 20
195.0332
  0
SEQEND
  0
POLYLINE
  8
LAYER_1
 40
0.0847
 41
0.0847
 66
1
 10
0
 20
0
 30
0
  0
VERTEX
  8
LAYER_1
 10
95.2324
 20
192.5461
  0
VERTEX
  8
LAYER_1
 10
96.4759
 20
193.7897
  0
SEQEND
  0
POLYLINE
  8
LAYER_1
 40
0.0847
 41
0.0847
 66
1
 10
0
 20
0
 30
0
  0
VERTEX
  8
LAYER_1
 10
97.7194
 20
195.0332
  0
SEQEND
  0
POLYLINE
  8
LAYER_1
 40
0.0847
 41
0.0847
 66
1
 10
0
 20
0
 30
0
  0
VERTEX
  8
LAYER_1
 10
94.8884
 20
192.5461
  0
VERTEX
  8
LAYER_1
 10
96.1319
 20
193.7897
  0
SEQEND
  0
POLYLINE
  8
LAYER_1
 40
0.0847
 41
0.0847
 66
1
 10
0
 20
0
 30
0
  0
VERTEX
  8
LAYER_1
 10
94.518
 20
192.5461
  0
VERTEX
  8
LAYER_1
 10
95.7615
 20
193.7897
  0
SEQEND
  0
POLYLINE
  8
LAYER_1
 40
0.0847
 41
0.0847
 66
1
 10
0
 20
0
 30
0
  0
VERTEX
  8
LAYER_1
 10
94.174
 20
192.5461
  0
VERTEX
  8
LAYER_1
 10
95.4176
 20
193.7897
  0
SEQEND
  0
POLYLINE
  8
LAYER_1
 40
0.0847
 41
0.0847
 66
1
 10
0
 20
0
 30
0
  0
VERTEX
  8
LAYER_1
 10
93.8036
 20
192.5461
  0
VERTEX
  8
LAYER_1
 10
95.0736
 20
193.7897
  0
SEQEND
  0
POLYLINE
  8
LAYER_1
 40
0.0847
 41
0.0847
 66
1
 10
0
 20
0
 30
0
  0
VERTEX
  8
LAYER_1
 10
93.4597
 20
192.5461
  0
VERTEX
  8
LAYER_1
 10
94.7032
 20
193.7897
  0
SEQEND
  0
POLYLINE
  8
LAYER_1
 40
0.0847
 41
0.0847
 66
1
 10
0
 20
0
 30
0
  0
VERTEX
  8
LAYER_1
 10
93.1157
 20
192.5461
  0
VERTEX
  8
LAYER_1
 10
94.3592
 20
193.7897
  0
SEQEND
  0
POLYLINE
  8
LAYER_1
 40
0.0847
 41
0.0847
 66
1
 10
0
 20
0
 30
0
  0
VERTEX
  8
LAYER_1
 10
92.9834
 20
192.7843
  0
VERTEX
  8
LAYER_1
 10
93.9888
 20
193.7632
  0
SEQEND
  0
POLYLINE
  8
LAYER_1
 40
0.0847
 41
0.0847
 66
1
 10
0
 20
0
 30
0
  0
VERTEX
  8
LAYER_1
 10
111.1074
 20
192.8901
  0
VERTEX
  8
LAYER_1
 10
113.1711
 20
194.9803
  0
SEQEND
  0
POLYLINE
  8
LAYER_1
 40
0.1693
 41
0.1693
 66
1
 10
0
 20
0
 30
0
  0
VERTEX
  8
LAYER_1
 10
100.868
 20
193.6309
  0
VERTEX
  8
LAYER_1
 10
99.3334
 20
192.5461
  0
SEQEND
  0
POLYLINE
  8
LAYER_1
 40
0.1693
 41
0.1693
 66
1
 10
0
 20
0
 30
0
  0
VERTEX
  8
LAYER_1
 10
100.8415
 20
193.6309
 42
0.2069931293
  0
VERTEX
  8
LAYER_1
 10
100.9474
 20
193.8161
 42
0.2519989214
  0
VERTEX
  8
LAYER_1
 10
100.8415
 20
194.0013
  0
SEQEND
  0
POLYLINE
  8
LAYER_1
 40
0.1693
 41
0.1693
 66
1
 10
0
 20
0
 30
0
  0
VERTEX
  8
LAYER_1
 10
100.8944
 20
194.0013
  0
VERTEX
  8
LAYER_1
 10
99.7832
 20
195.0332
  0
SEQEND
  0
POLYLINE
  8
LAYER_1
 40
0.0847
 41
0.0847
 66
1
 10
0
 20
0
 30
0
  0
VERTEX
  8
LAYER_1
 10
97.693
 20
192.5461
  0
VERTEX
  8
LAYER_1
 10
99.9948
 20
194.848
  0
SEQEND
  0
POLYLINE
  8
LAYER_1
 40
0.0847
 41
0.0847
 66
1
 10
0
 20
0
 30
0
  0
VERTEX
  8
LAYER_1
 10
97.349
 20
192.5461
  0
VERTEX
  8
LAYER_1
 10
99.8096
 20
195.0068
  0
SEQEND
  0
POLYLINE
  8
LAYER_1
 40
0.0847
 41
0.0847
 66
1
 10
0
 20
0
 30
0
  0
VERTEX
  8
LAYER_1
 10
98.0634
 20
192.5461
  0
VERTEX
  8
LAYER_1
 10
100.1801
 20
194.6628
  0
SEQEND
  0
POLYLINE
  8
LAYER_1
 40
0.0847
 41
0.0847
 66
1
 10
0
 20
0
 30
0
  0
VERTEX
  8
LAYER_1
 10
98.4073
 20
192.5461
  0
VERTEX
  8
LAYER_1
 10
100.3653
 20
194.504
  0
SEQEND
  0
POLYLINE
  8
LAYER_1
 40
0.0847
 41
0.0847
 66
1
 10
0
 20
0
 30
0
  0
VERTEX
  8
LAYER_1
 10
98.7513
 20
192.5461
  0
VERTEX
  8
LAYER_1
 10
100.5505
 20
194.3188
  0
SEQEND
  0
POLYLINE
  8
LAYER_1
 40
0.0847
 41
0.0847
 66
1
 10
0
 20
0
 30
0
  0
VERTEX
  8
LAYER_1
 10
99.1217
 20
192.5461
  0
VERTEX
  8
LAYER_1
 10
100.7357
 20
194.1601
  0
SEQEND
  0
POLYLINE
  8
LAYER_1
 40
0.0847
 41
0.0847
 66
1
 10
0
 20
0
 30
0
  0
VERTEX
  8
LAYER_1
 10
99.8096
 20
192.8901
  0
VERTEX
  8
LAYER_1
 10
100.8944
 20
193.9749
  0
SEQEND
  0
POLYLINE
  8
LAYER_1
 40
0.1693
 41
0.1693
 66
1
 10
0
 20
0
 30
0
  0
VERTEX
  8
LAYER_1
 10
109.9961
 20
194.0013
  0
VERTEX
  8
LAYER_1
 10
111.1073
 20
195.0332
  0
SEQEND
  0
POLYLINE
  8
LAYER_1
 40
0.1693
 41
0.1693
 66
1
 10
0
 20
0
 30
0
  0
VERTEX
  8
LAYER_1
 10
109.9961
 20
194.0013
 42
0.2089292205
  0
VERTEX
  8
LAYER_1
 10
109.9432
 20
193.8161
 42
0.2710212879
  0
VERTEX
  8
LAYER_1
 10
110.0226
 20
193.6574
  0
SEQEND
  0
POLYLINE
  8
LAYER_1
 40
0.1693
 41
0.1693
 66
1
 10
0
 20
0
 30
0
  0
VERTEX
  8
LAYER_1
 10
110.0226
 20
193.6309
  0
VERTEX
  8
LAYER_1
 10
111.5571
 20
192.5461
  0
SEQEND
  0
POLYLINE
  8
LAYER_1
 40
0.0847
 41
0.0847
 66
1
 10
0
 20
0
 30
0
  0
VERTEX
  8
LAYER_1
 10
110.049
 20
193.6045
  0
VERTEX
  8
LAYER_1
 10
111.4778
 20
195.0332
  0
SEQEND
  0
POLYLINE
  8
LAYER_1
 40
0.0847
 41
0.0847
 66
1
 10
0
 20
0
 30
0
  0
VERTEX
  8
LAYER_1
 10
110.4724
 20
193.3134
  0
VERTEX
  8
LAYER_1
 10
112.1921
 20
195.0332
  0
SEQEND
  0
POLYLINE
  8
LAYER_1
 40
0.0847
 41
0.0847
 66
1
 10
0
 20
0
 30
0
  0
VERTEX
  8
LAYER_1
 10
110.2607
 20
193.4722
  0
VERTEX
  8
LAYER_1
 10
111.8482
 20
195.0332
  0
SEQEND
  0
POLYLINE
  8
LAYER_1
 40
0.0847
 41
0.0847
 66
1
 10
0
 20
0
 30
0
  0
VERTEX
  8
LAYER_1
 10
110.684
 20
193.1811
  0
VERTEX
  8
LAYER_1
 10
112.5361
 20
195.0332
  0
SEQEND
  0
POLYLINE
  8
LAYER_1
 40
0.0847
 41
0.0847
 66
1
 10
0
 20
0
 30
0
  0
VERTEX
  8
LAYER_1
 10
110.8692
 20
193.0224
  0
VERTEX
  8
LAYER_1
 10
112.9065
 20
195.0332
  0
SEQEND
  0
POLYLINE
  8
LAYER_1
 40
0.0847
 41
0.0847
 66
1
 10
0
 20
0
 30
0
  0
VERTEX
  8
LAYER_1
 10
109.9167
 20
193.8426
  0
VERTEX
  8
LAYER_1
 10
111.1338
 20
195.0332
  0
SEQEND
  0
POLYLINE
  8
LAYER_1
 40
0.0847
 41
0.0847
 66
1
 10
0
 20
0
 30
0
  0
VERTEX
  8
LAYER_1
 10
111.2926
 20
192.7313
  0
VERTEX
  8
LAYER_1
 10
113.1711
 20
194.6099
  0
SEQEND
  0
POLYLINE
  8
LAYER_1
 40
0.0847
 41
0.0847
 66
1
 10
0
 20
0
 30
0
  0
VERTEX
  8
LAYER_1
 10
111.5042
 20
192.5991
  0
VERTEX
  8
LAYER_1
 10
113.1711
 20
194.2659
  0
SEQEND
  0
POLYLINE
  8
LAYER_1
 40
0.0847
 41
0.0847
 66
1
 10
0
 20
0
 30
0
  0
VERTEX
  8
LAYER_1
 10
99.2805
 20
194.6628
  0
VERTEX
  8
LAYER_1
 10
99.2805
 20
194.7422
  0
SEQEND
  0
POLYLINE
  8
LAYER_1
 40
0.0847
 41
0.0847
 66
1
 10
0
 20
0
 30
0
  0
VERTEX
  8
LAYER_1
 10
99.2805
 20
194.9274
  0
VERTEX
  8
LAYER_1
 10
99.2805
 20
195.0332
  0
SEQEND
  0
POLYLINE
  8
LAYER_1
 40
0.0847
 41
0.0847
 66
1
 10
0
 20
0
 30
0
  0
VERTEX
  8
LAYER_1
 10
98.7778
 20
194.6628
  0
VERTEX
  8
LAYER_1
 10
98.7778
 20
194.7422
  0
SEQEND
  0
POLYLINE
  8
LAYER_1
 40
0.0847
 41
0.0847
 66
1
 10
0
 20
0
 30
0
  0
VERTEX
  8
LAYER_1
 10
98.7778
 20
194.9274
  0
VERTEX
  8
LAYER_1
 10
98.7778
 20
195.0332
  0
SEQEND
  0
POLYLINE
  8
LAYER_1
 40
0.0847
 41
0.0847
 66
1
 10
0
 20
0
 30
0
  0
VERTEX
  8
LAYER_1
 10
98.7778
 20
194.6628
  0
VERTEX
  8
LAYER_1
 10
98.8836
 20
194.6628
  0
SEQEND
  0
POLYLINE
  8
LAYER_1
 40
0.0847
 41
0.0847
 66
1
 10
0
 20
0
 30
0
  0
VERTEX
  8
LAYER_1
 10
99.1482
 20
194.6628
  0
VERTEX
  8
LAYER_1
 10
99.2805
 20
194.6628
  0
SEQEND
  0
POLYLINE
  8
LAYER_1
 40
0.0847
 41
0.0847
 66
1
 10
0
 20
0
 30
0
  0
VERTEX
  8
LAYER_1
 10
95.3382
 20
192.5461
  0
VERTEX
  8
LAYER_1
 10
95.3382
 20
192.6255
  0
SEQEND
  0
POLYLINE
  8
LAYER_1
 40
0.0847
 41
0.0847
 66
1
 10
0
 20
0
 30
0
  0
VERTEX
  8
LAYER_1
 10
95.3382
 20
192.8107
  0
VERTEX
  8
LAYER_1
 10
95.3382
 20
192.9165
  0
VERTEX
  8
LAYER_1
 10
95.444
 20
192.9165
  0
SEQEND
  0
POLYLINE
  8
LAYER_1
 40
0.0847
 41
0.0847
 66
1
 10
0
 20
0
 30
0
  0
VERTEX
  8
LAYER_1
 10
95.7086
 20
192.9165
  0
VERTEX
  8
LAYER_1
 10
95.8409
 20
192.9165
  0
SEQEND
  0
POLYLINE
  8
LAYER_1
 40
0.0847
 41
0.0847
 66
1
 10
0
 20
0
 30
0
  0
VERTEX
  8
LAYER_1
 10
95.8409
 20
192.5461
  0
VERTEX
  8
LAYER_1
 10
95.8409
 20
192.6255
  0
SEQEND
  0
POLYLINE
  8
LAYER_1
 40
0.0847
 41
0.0847
 66
1
 10
0
 20
0
 30
0
  0
VERTEX
  8
LAYER_1
 10
95.8409
 20
192.8107
  0
VERTEX
  8
LAYER_1
 10
95.8409
 20
192.9165
  0
SEQEND
  0
POLYLINE
  8
LAYER_1
 40
0.0847
 41
0.0847
 66
1
 10
0
 20
0
 30
0
  0
VERTEX
  8
LAYER_1
 10
111.61
 20
194.6628
  0
VERTEX
  8
LAYER_1
 10
111.61
 20
194.7422
  0
SEQEND
  0
POLYLINE
  8
LAYER_1
 40
0.0847
 41
0.0847
 66
1
 10
0
 20
0
 30
0
  0
VERTEX
  8
LAYER_1
 10
111.61
 20
194.9274
  0
VERTEX
  8
LAYER_1
 10
111.61
 20
195.0332
  0
SEQEND
  0
POLYLINE
  8
LAYER_1
 40
0.0847
 41
0.0847
 66
1
 10
0
 20
0
 30
0
  0
VERTEX
  8
LAYER_1
 10
111.61
 20
194.6628
  0
VERTEX
  8
LAYER_1
 10
111.7159
 20
194.6628
  0
SEQEND
  0
POLYLINE
  8
LAYER_1
 40
0.0847
 41
0.0847
 66
1
 10
0
 20
0
 30
0
  0
VERTEX
  8
LAYER_1
 10
111.9805
 20
194.6628
  0
VERTEX
  8
LAYER_1
 10
112.1127
 20
194.6628
  0
VERTEX
  8
LAYER_1
 10
112.1127
 20
194.7422
  0
SEQEND
  0
POLYLINE
  8
LAYER_1
 40
0.0847
 41
0.0847
 66
1
 10
0
 20
0
 30
0
  0
VERTEX
  8
LAYER_1
 10
112.1127
 20
194.9274
  0
VERTEX
  8
LAYER_1
 10
112.1127
 20
195.0332
  0
SEQEND
  0
POLYLINE
  8
LAYER_1
 40
0.0847
 41
0.0847
 66
1
 10
0
 20
0
 30
0
  0
VERTEX
  8
LAYER_1
 10
115.0496
 20
192.5461
  0
VERTEX
  8
LAYER_1
 10
115.0496
 20
192.6255
  0
SEQEND
  0
POLYLINE
  8
LAYER_1
 40
0.0847
 41
0.0847
 66
1
 10
0
 20
0
 30
0
  0
VERTEX
  8
LAYER_1
 10
115.0496
 20
192.8107
  0
VERTEX
  8
LAYER_1
 10
115.0496
 20
192.9165
  0
VERTEX
  8
LAYER_1
 10
115.1555
 20
192.9165
  0
SEQEND
  0
POLYLINE
  8
LAYER_1
 40
0.0847
 41
0.0847
 66
1
 10
0
 20
0
 30
0
  0
VERTEX
  8
LAYER_1
 10
115.42
 20
192.9165
  0
VERTEX
  8
LAYER_1
 10
115.5523
 20
192.9165
  0
SEQEND
  0
POLYLINE
  8
LAYER_1
 40
0.0847
 41
0.0847
 66
1
 10
0
 20
0
 30
0
  0
VERTEX
  8
LAYER_1
 10
115.5523
 20
192.5461
  0
VERTEX
  8
LAYER_1
 10
115.5523
 20
192.6254
  0
SEQEND
  0
POLYLINE
  8
LAYER_1
 40
0.0847
 41
0.0847
 66
1
 10
0
 20
0
 30
0
  0
VERTEX
  8
LAYER_1
 10
115.5523
 20
192.8106
  0
VERTEX
  8
LAYER_1
 10
115.5523
 20
192.9165
  0
SEQEND
  0
POLYLINE
  8
LAYER_1
 40
0.1693
 41
0.1693
 66
1
 10
0
 20
0
 30
0
  0
VERTEX
  8
LAYER_1
 10
97.7194
 20
195.0332
  0
VERTEX
  8
LAYER_1
 10
101.159
 20
195.0332
  0
SEQEND
  0
POLYLINE
  8
LAYER_1
 40
0.1693
 41
0.1693
 66
1
 10
0
 20
0
 30
0
  0
VERTEX
  8
LAYER_1
 10
109.7315
 20
195.0332
  0
VERTEX
  8
LAYER_1
 10
113.1711
 20
195.0332
  0
SEQEND
  0
POLYLINE
  8
LAYER_1
 40
0.1693
 41
0.1693
 66
1
 10
0
 20
0
 30
0
  0
VERTEX
  8
LAYER_1
 10
92.9569
 20
192.5461
  0
VERTEX
  8
LAYER_1
 10
99.4921
 20
192.5461
  0
SEQEND
  0
POLYLINE
  8
LAYER_1
 40
0.1693
 41
0.1693
 66
1
 10
0
 20
0
 30
0
  0
VERTEX
  8
LAYER_1
 10
111.3984
 20
192.5461
  0
VERTEX
  8
LAYER_1
 10
117.9336
 20
192.5461
  0
SEQEND
  0
POLYLINE
  8
LAYER_1
 40
0.0847
 41
0.0847
 66
1
 10
0
 20
0
 30
0
  0
VERTEX
  8
LAYER_1
 10
105.4453
 20
183.4445
  0
VERTEX
  8
LAYER_1
 10
105.4453
 20
184.9261
  0
SEQEND
  0
POLYLINE
  8
LAYER_1
 40
0.0847
 41
0.0847
 66
1
 10
0
 20
0
 30
0
  0
VERTEX
  8
LAYER_1
 10
105.4453
 20
189.6357
  0
VERTEX
  8
LAYER_1
 10
105.4453
 20
191.1174
  0
SEQEND
  0
POLYLINE
  8
LAYER_1
 40
0.1693
 41
0.1693
 66
1
 10
0
 20
0
 30
0
  0
VERTEX
  8
LAYER_1
 10
98.9101
 20
197.8907
  0
VERTEX
  8
LAYER_1
 10
111.9805
 20
197.8907
  0
SEQEND
  0
POLYLINE
  8
LAYER_1
 40
0.1693
 41
0.1693
 66
1
 10
0
 20
0
 30
0
  0
VERTEX
  8
LAYER_1
 10
98.8836
 20
197.8907
 42
0.390056353
  0
VERTEX
  8
LAYER_1
 10
98.7513
 20
197.7849
  0
SEQEND
  0
POLYLINE
  8
LAYER_1
 40
0.1693
 41
0.1693
 66
1
 10
0
 20
0
 30
0
  0
VERTEX
  8
LAYER_1
 10
98.7513
 20
197.732
  0
VERTEX
  8
LAYER_1
 10
98.7513
 20
197.7055
 42
0.2987960569
  0
VERTEX
  8
LAYER_1
 10
98.8307
 20
197.5997
  0
SEQEND
  0
POLYLINE
  8
LAYER_1
 40
0.1693
 41
0.1693
 66
1
 10
0
 20
0
 30
0
  0
VERTEX
  8
LAYER_1
 10
98.7513
 20
197.7055
  0
VERTEX
  8
LAYER_1
 10
98.7513
 20
197.7584
  0
SEQEND
  0
POLYLINE
  8
LAYER_1
 40
0.1693
 41
0.1693
 66
1
 10
0
 20
0
 30
0
  0
VERTEX
  8
LAYER_1
 10
98.8571
 20
197.5997
  0
VERTEX
  8
LAYER_1
 10
100.0742
 20
197.1764
  0
SEQEND
  0
POLYLINE
  8
LAYER_1
 40
0.1693
 41
0.1693
 66
1
 10
0
 20
0
 30
0
  0
VERTEX
  8
LAYER_1
 10
100.8415
 20
196.2503
 42
0.2767774771
  0
VERTEX
  8
LAYER_1
 10
100.0213
 20
197.1764
  0
SEQEND
  0
POLYLINE
  8
LAYER_1
 40
0.1693
 41
0.1693
 66
1
 10
0
 20
0
 30
0
  0
VERTEX
  8
LAYER_1
 10
98.9101
 20
197.8907
  0
VERTEX
  8
LAYER_1
 10
111.9805
 20
197.8907
  0
SEQEND
  0
POLYLINE
  8
LAYER_1
 40
0.1693
 41
0.1693
 66
1
 10
0
 20
0
 30
0
  0
VERTEX
  8
LAYER_1
 10
112.1128
 20
197.7849
 42
0.4413484084
  0
VERTEX
  8
LAYER_1
 10
112.0069
 20
197.8907
  0
VERTEX
  8
LAYER_1
 10
111.954
 20
197.8907
  0
SEQEND
  0
POLYLINE
  8
LAYER_1
 40
0.1693
 41
0.1693
 66
1
 10
0
 20
0
 30
0
  0
VERTEX
  8
LAYER_1
 10
112.0069
 20
197.5997
 42
0.390056353
  0
VERTEX
  8
LAYER_1
 10
112.1392
 20
197.7055
 42
0.5046189213
  0
VERTEX
  8
LAYER_1
 10
112.1128
 20
197.732
  0
SEQEND
  0
POLYLINE
  8
LAYER_1
 40
0.1693
 41
0.1693
 66
1
 10
0
 20
0
 30
0
  0
VERTEX
  8
LAYER_1
 10
112.1392
 20
197.7055
  0
VERTEX
  8
LAYER_1
 10
112.1392
 20
197.7584
  0
SEQEND
  0
POLYLINE
  8
LAYER_1
 40
0.1693
 41
0.1693
 66
1
 10
0
 20
0
 30
0
  0
VERTEX
  8
LAYER_1
 10
112.0334
 20
197.5997
  0
VERTEX
  8
LAYER_1
 10
110.8163
 20
197.1764
 42
0.2568398166
  0
VERTEX
  8
LAYER_1
 10
110.0226
 20
196.2503
  0
SEQEND
  0
POLYLINE
  8
LAYER_1
 40
0.1693
 41
0.1693
 66
1
 10
0
 20
0
 30
0
  0
VERTEX
  8
LAYER_1
 10
101.4765
 20
193.6309
  0
VERTEX
  8
LAYER_1
 10
100.8944
 20
196.2503
  0
SEQEND
  0
POLYLINE
  8
LAYER_1
 40
0.1693
 41
0.1693
 66
1
 10
0
 20
0
 30
0
  0
VERTEX
  8
LAYER_1
 10
109.414
 20
193.6309
  0
VERTEX
  8
LAYER_1
 10
109.9961
 20
196.2503
  0
SEQEND
  0
POLYLINE
  8
LAYER_1
 40
0.0847
 41
0.0847
 66
1
 10
0
 20
0
 30
0
  0
VERTEX
  8
LAYER_1
 10
100.0742
 20
197.1764
  0
VERTEX
  8
LAYER_1
 10
110.8163
 20
197.1764
  0
SEQEND
  0
POLYLINE
  8
LAYER_1
 40
0.0847
 41
0.0847
 66
1
 10
0
 20
0
 30
0
  0
VERTEX
  8
LAYER_1
 10
98.8571
 20
197.5997
  0
VERTEX
  8
LAYER_1
 10
112.0334
 20
197.5997
  0
SEQEND
  0
POLYLINE
  8
LAYER_1
 40
0.1693
 41
0.1693
 66
1
 10
0
 20
0
 30
0
  0
VERTEX
  8
LAYER_1
 10
101.4765
 20
188.2599
  0
VERTEX
  8
LAYER_1
 10
101.794
 20
188.0217
  0
VERTEX
  8
LAYER_1
 10
101.4765
 20
187.7572
  0
VERTEX
  8
LAYER_1
 10
101.794
 20
187.519
  0
VERTEX
  8
LAYER_1
 10
101.4765
 20
187.2545
  0
VERTEX
  8
LAYER_1
 10
101.794
 20
187.0163
  0
VERTEX
  8
LAYER_1
 10
101.4765
 20
186.7782
  0
VERTEX
  8
LAYER_1
 10
101.794
 20
186.5136
  0
SEQEND
  0
POLYLINE
  8
LAYER_1
 40
0.1693
 41
0.1693
 66
1
 10
0
 20
0
 30
0
  0
VERTEX
  8
LAYER_1
 10
101.4765
 20
183.2592
  0
VERTEX
  8
LAYER_1
 10
101.794
 20
183.0211
  0
VERTEX
  8
LAYER_1
 10
101.4765
 20
182.7565
  0
VERTEX
  8
LAYER_1
 10
101.794
 20
182.5184
  0
VERTEX
  8
LAYER_1
 10
101.4765
 20
182.2803
  0
VERTEX
  8
LAYER_1
 10
101.794
 20
182.0157
  0
VERTEX
  8
LAYER_1
 10
101.4765
 20
181.7776
  0
VERTEX
  8
LAYER_1
 10
101.794
 20
181.513
  0
VERTEX
  8
LAYER_1
 10
101.4765
 20
181.2749
  0
VERTEX
  8
LAYER_1
 10
101.794
 20
181.0367
  0
VERTEX
  8
LAYER_1
 10
101.4765
 20
180.7722
  0
SEQEND
  0
POLYLINE
  8
LAYER_1
 40
0.1693
 41
0.1693
 66
1
 10
0
 20
0
 30
0
  0
VERTEX
  8
LAYER_1
 10
109.0965
 20
188.2069
  0
VERTEX
  8
LAYER_1
 10
109.414
 20
187.9688
  0
VERTEX
  8
LAYER_1
 10
109.0965
 20
187.7042
  0
VERTEX
  8
LAYER_1
 10
109.414
 20
187.4661
  0
VERTEX
  8
LAYER_1
 10
109.0965
 20
187.228
  0
VERTEX
  8
LAYER_1
 10
109.414
 20
186.9634
  0
VERTEX
  8
LAYER_1
 10
109.0965
 20
186.7253
  0
VERTEX
  8
LAYER_1
 10
109.414
 20
186.4871
  0
SEQEND
  0
POLYLINE
  8
LAYER_1
 40
0.1693
 41
0.1693
 66
1
 10
0
 20
0
 30
0
  0
VERTEX
  8
LAYER_1
 10
109.0965
 20
183.2063
  0
VERTEX
  8
LAYER_1
 10
109.414
 20
182.9682
  0
VERTEX
  8
LAYER_1
 10
109.0965
 20
182.73
  0
VERTEX
  8
LAYER_1
 10
109.414
 20
182.4654
  0
VERTEX
  8
LAYER_1
 10
109.0965
 20
182.2273
  0
VERTEX
  8
LAYER_1
 10
109.414
 20
181.9628
  0
VERTEX
  8
LAYER_1
 10
109.0965
 20
181.7246
  0
VERTEX
  8
LAYER_1
 10
109.414
 20
181.4865
  0
VERTEX
  8
LAYER_1
 10
109.0965
 20
181.2219
  0
VERTEX
  8
LAYER_1
 10
109.414
 20
180.9838
  0
SEQEND
  0
POLYLINE
  8
LAYER_1
 40
0.1693
 41
0.1693
 66
1
 10
0
 20
0
 30
0
  0
VERTEX
  8
LAYER_1
 10
101.8205
 20
180.6928
  0
VERTEX
  8
LAYER_1
 10
101.9528
 20
180.4017
  0
SEQEND
  0
POLYLINE
  8
LAYER_1
 40
0.1693
 41
0.1693
 66
1
 10
0
 20
0
 30
0
  0
VERTEX
  8
LAYER_1
 10
109.0701
 20
180.6928
  0
VERTEX
  8
LAYER_1
 10
108.9378
 20
180.4017
  0
SEQEND
  0
POLYLINE
  8
LAYER_1
 40
0.1693
 41
0.1693
 66
1
 10
0
 20
0
 30
0
  0
VERTEX
  8
LAYER_1
 10
101.9528
 20
180.4017
  0
VERTEX
  8
LAYER_1
 10
108.9378
 20
180.4017
  0
SEQEND
  0
POLYLINE
  8
LAYER_1
 40
0.1693
 41
0.1693
 66
1
 10
0
 20
0
 30
0
  0
VERTEX
  8
LAYER_1
 10
109.414
 20
180.9838
  0
VERTEX
  8
LAYER_1
 10
109.0436
 20
180.6928
  0
SEQEND
  0
POLYLINE
  8
LAYER_1
 40
0.1693
 41
0.1693
 66
1
 10
0
 20
0
 30
0
  0
VERTEX
  8
LAYER_1
 10
101.4765
 20
180.7722
  0
VERTEX
  8
LAYER_1
 10
101.5824
 20
180.6928
  0
VERTEX
  8
LAYER_1
 10
109.0436
 20
180.6928
  0
SEQEND
  0
POLYLINE
  8
LAYER_1
 40
0.1693
 41
0.1693
 66
1
 10
0
 20
0
 30
0
  0
VERTEX
  8
LAYER_1
 10
101.7147
 20
188.4451
  0
VERTEX
  8
LAYER_1
 10
101.4765
 20
188.2599
  0
SEQEND
  0
POLYLINE
  8
LAYER_1
 40
0.1693
 41
0.1693
 66
1
 10
0
 20
0
 30
0
  0
VERTEX
  8
LAYER_1
 10
109.3611
 20
188.4451
  0
VERTEX
  8
LAYER_1
 10
109.0965
 20
188.2069
  0
SEQEND
  0
POLYLINE
  8
LAYER_1
 40
0.1693
 41
0.1693
 66
1
 10
0
 20
0
 30
0
  0
VERTEX
  8
LAYER_1
 10
101.794
 20
186.5136
  0
VERTEX
  8
LAYER_1
 10
101.5294
 20
186.3019
  0
SEQEND
  0
POLYLINE
  8
LAYER_1
 40
0.1693
 41
0.1693
 66
1
 10
0
 20
0
 30
0
  0
VERTEX
  8
LAYER_1
 10
109.414
 20
186.4872
  0
VERTEX
  8
LAYER_1
 10
109.2024
 20
186.3019
  0
SEQEND
  0
POLYLINE
  8
LAYER_1
 40
0.1693
 41
0.1693
 66
1
 10
0
 20
0
 30
0
  0
VERTEX
  8
LAYER_1
 10
109.3611
 20
183.4444
  0
VERTEX
  8
LAYER_1
 10
109.0965
 20
183.2063
  0
SEQEND
  0
POLYLINE
  8
LAYER_1
 40
0.1693
 41
0.1693
 66
1
 10
0
 20
0
 30
0
  0
VERTEX
  8
LAYER_1
 10
101.7147
 20
183.4444
  0
VERTEX
  8
LAYER_1
 10
101.4765
 20
183.2592
  0
SEQEND
  0
POLYLINE
  8
LAYER_1
 40
0.1693
 41
0.1693
 66
1
 10
0
 20
0
 30
0
  0
VERTEX
  8
LAYER_1
 10
101.794
 20
189.5299
  0
VERTEX
  8
LAYER_1
 10
101.4765
 20
189.2653
  0
VERTEX
  8
LAYER_1
 10
101.794
 20
189.0271
  0
VERTEX
  8
LAYER_1
 10
101.4765
 20
188.7625
  0
VERTEX
  8
LAYER_1
 10
101.794
 20
188.5244
  0
VERTEX
  8
LAYER_1
 10
101.4765
 20
188.2599
  0
VERTEX
  8
LAYER_1
 10
101.794
 20
188.0217
  0
SEQEND
  0
POLYLINE
  8
LAYER_1
 40
0.1693
 41
0.1693
 66
1
 10
0
 20
0
 30
0
  0
VERTEX
  8
LAYER_1
 10
109.414
 20
189.4769
  0
VERTEX
  8
LAYER_1
 10
109.0965
 20
189.2123
  0
VERTEX
  8
LAYER_1
 10
109.414
 20
188.9742
  0
VERTEX
  8
LAYER_1
 10
109.0965
 20
188.7096
  0
VERTEX
  8
LAYER_1
 10
109.414
 20
188.4715
  0
VERTEX
  8
LAYER_1
 10
109.0965
 20
188.2069
  0
VERTEX
  8
LAYER_1
 10
109.414
 20
187.9688
  0
SEQEND
  0
POLYLINE
  8
LAYER_1
 40
0.1693
 41
0.1693
 66
1
 10
0
 20
0
 30
0
  0
VERTEX
  8
LAYER_1
 10
101.794
 20
188.0217
  0
VERTEX
  8
LAYER_1
 10
101.5294
 20
187.8101
  0
SEQEND
  0
POLYLINE
  8
LAYER_1
 40
0.1693
 41
0.1693
 66
1
 10
0
 20
0
 30
0
  0
VERTEX
  8
LAYER_1
 10
109.414
 20
187.9688
  0
VERTEX
  8
LAYER_1
 10
109.2024
 20
187.8101
  0
SEQEND
  0
POLYLINE
  8
LAYER_1
 40
0.1693
 41
0.1693
 66
1
 10
0
 20
0
 30
0
  0
VERTEX
  8
LAYER_1
 10
101.6353
 20
189.6357
  0
VERTEX
  8
LAYER_1
 10
101.794
 20
189.5299
  0
SEQEND
  0
POLYLINE
  8
LAYER_1
 40
0.1693
 41
0.1693
 66
1
 10
0
 20
0
 30
0
  0
VERTEX
  8
LAYER_1
 10
109.2024
 20
189.6357
  0
VERTEX
  8
LAYER_1
 10
109.414
 20
189.4769
  0
SEQEND
  0
POLYLINE
  8
LAYER_1
 40
0.0847
 41
0.0847
 66
1
 10
0
 20
0
 30
0
  0
VERTEX
  8
LAYER_1
 10
101.6617
 20
193.4457
  0
VERTEX
  8
LAYER_1
 10
102.2703
 20
193.4457
  0
SEQEND
  0
POLYLINE
  8
LAYER_1
 40
0.0847
 41
0.0847
 66
1
 10
0
 20
0
 30
0
  0
VERTEX
  8
LAYER_1
 10
103.5403
 20
193.4457
  0
VERTEX
  8
LAYER_1
 10
104.8103
 20
193.4457
  0
SEQEND
  0
POLYLINE
  8
LAYER_1
 40
0.0847
 41
0.0847
 66
1
 10
0
 20
0
 30
0
  0
VERTEX
  8
LAYER_1
 10
106.0538
 20
193.4457
  0
VERTEX
  8
LAYER_1
 10
107.3238
 20
193.4457
  0
SEQEND
  0
POLYLINE
  8
LAYER_1
 40
0.0847
 41
0.0847
 66
1
 10
0
 20
0
 30
0
  0
VERTEX
  8
LAYER_1
 10
108.5938
 20
193.4457
  0
VERTEX
  8
LAYER_1
 10
109.2288
 20
193.4457
  0
SEQEND
  0
POLYLINE
  8
LAYER_1
 40
0.0847
 41
0.0847
 66
1
 10
0
 20
0
 30
0
  0
VERTEX
  8
LAYER_1
 10
101.4765
 20
193.6309
  0
VERTEX
  8
LAYER_1
 10
102.138
 20
193.6309
  0
SEQEND
  0
POLYLINE
  8
LAYER_1
 40
0.0847
 41
0.0847
 66
1
 10
0
 20
0
 30
0
  0
VERTEX
  8
LAYER_1
 10
103.4609
 20
193.6309
  0
VERTEX
  8
LAYER_1
 10
104.7838
 20
193.6309
  0
SEQEND
  0
POLYLINE
  8
LAYER_1
 40
0.0847
 41
0.0847
 66
1
 10
0
 20
0
 30
0
  0
VERTEX
  8
LAYER_1
 10
106.1067
 20
193.6309
  0
VERTEX
  8
LAYER_1
 10
107.4297
 20
193.6309
  0
SEQEND
  0
POLYLINE
  8
LAYER_1
 40
0.0847
 41
0.0847
 66
1
 10
0
 20
0
 30
0
  0
VERTEX
  8
LAYER_1
 10
108.7526
 20
193.6309
  0
VERTEX
  8
LAYER_1
 10
109.414
 20
193.6309
  0
SEQEND
  0
POLYLINE
  8
LAYER_1
 40
0.0847
 41
0.0847
 66
1
 10
0
 20
0
 30
0
  0
VERTEX
  8
LAYER_1
 10
101.6618
 20
193.4457
  0
VERTEX
  8
LAYER_1
 10
101.6353
 20
193.4722
  0
SEQEND
  0
POLYLINE
  8
LAYER_1
 40
0.0847
 41
0.0847
 66
1
 10
0
 20
0
 30
0
  0
VERTEX
  8
LAYER_1
 10
101.5295
 20
193.578
  0
VERTEX
  8
LAYER_1
 10
101.4765
 20
193.6309
  0
SEQEND
  0
POLYLINE
  8
LAYER_1
 40
0.0847
 41
0.0847
 66
1
 10
0
 20
0
 30
0
  0
VERTEX
  8
LAYER_1
 10
109.2288
 20
193.4457
  0
VERTEX
  8
LAYER_1
 10
109.2553
 20
193.4722
  0
SEQEND
  0
POLYLINE
  8
LAYER_1
 40
0.0847
 41
0.0847
 66
1
 10
0
 20
0
 30
0
  0
VERTEX
  8
LAYER_1
 10
109.3611
 20
193.578
  0
VERTEX
  8
LAYER_1
 10
109.414
 20
193.6309
  0
SEQEND
  0
POLYLINE
  8
LAYER_1
 40
0.1693
 41
0.1693
 66
1
 10
0
 20
0
 30
0
  0
VERTEX
  8
LAYER_1
 10
101.2119
 20
199.637
  0
VERTEX
  8
LAYER_1
 10
104.0959
 20
199.637
  0
SEQEND
  0
POLYLINE
  8
LAYER_1
 40
0.1693
 41
0.1693
 66
1
 10
0
 20
0
 30
0
  0
VERTEX
  8
LAYER_1
 10
106.7946
 20
199.637
  0
VERTEX
  8
LAYER_1
 10
109.6786
 20
199.637
  0
SEQEND
  0
POLYLINE
  8
LAYER_1
 40
0.1693
 41
0.1693
 66
1
 10
0
 20
0
 30
0
  0
VERTEX
  8
LAYER_1
 10
98.6984
 20
199.637
  0
VERTEX
  8
LAYER_1
 10
112.1921
 20
199.637
  0
SEQEND
  0
POLYLINE
  8
LAYER_1
 40
0.1693
 41
0.1693
 66
1
 10
0
 20
0
 30
0
  0
VERTEX
  8
LAYER_1
 10
98.6984
 20
200.1397
  0
VERTEX
  8
LAYER_1
 10
112.1921
 20
200.1397
  0
SEQEND
  0
POLYLINE
  8
LAYER_1
 40
0.1693
 41
0.1693
 66
1
 10
0
 20
0
 30
0
  0
VERTEX
  8
LAYER_1
 10
98.6984
 20
199.637
  0
VERTEX
  8
LAYER_1
 10
98.6984
 20
200.1926
  0
SEQEND
  0
POLYLINE
  8
LAYER_1
 40
0.1693
 41
0.1693
 66
1
 10
0
 20
0
 30
0
  0
VERTEX
  8
LAYER_1
 10
98.8836
 20
200.4307
 42
0.3749527951
  0
VERTEX
  8
LAYER_1
 10
98.7248
 20
200.219
  0
SEQEND
  0
POLYLINE
  8
LAYER_1
 40
0.1693
 41
0.1693
 66
1
 10
0
 20
0
 30
0
  0
VERTEX
  8
LAYER_1
 10
112.1921
 20
199.637
  0
VERTEX
  8
LAYER_1
 10
112.1921
 20
200.1926
  0
SEQEND
  0
POLYLINE
  8
LAYER_1
 40
0.1693
 41
0.1693
 66
1
 10
0
 20
0
 30
0
  0
VERTEX
  8
LAYER_1
 10
111.9805
 20
200.4307
 42
0.06274937182
  0
VERTEX
  8
LAYER_1
 10
107.162
 20
201.42
 42
0.020133
  0
VERTEX
  8
LAYER_1
 10
105.4453
 20
201.489
 42
0.06028214968
  0
VERTEX
  8
LAYER_1
 10
100.4125
 20
200.8849
 42
0.0206475449
  0
VERTEX
  8
LAYER_1
 10
98.8571
 20
200.4307
  0
SEQEND
  0
POLYLINE
  8
LAYER_1
 40
0.1693
 41
0.1693
 66
1
 10
0
 20
0
 30
0
  0
VERTEX
  8
LAYER_1
 10
112.1657
 20
200.219
 42
0.3288127921
  0
VERTEX
  8
LAYER_1
 10
111.954
 20
200.4307
  0
SEQEND
  0
POLYLINE
  8
LAYER_1
 40
0.0847
 41
0.0847
 66
1
 10
0
 20
0
 30
0
  0
VERTEX
  8
LAYER_1
 10
98.7778
 20
200.3778
  0
VERTEX
  8
LAYER_1
 10
112.1128
 20
200.3778
  0
SEQEND
  0
POLYLINE
  8
LAYER_1
 40
0.1693
 41
0.1693
 66
1
 10
0
 20
0
 30
0
  0
VERTEX
  8
LAYER_1
 10
101.2119
 20
197.8907
  0
VERTEX
  8
LAYER_1
 10
101.2119
 20
199.637
  0
SEQEND
  0
POLYLINE
  8
LAYER_1
 40
0.1693
 41
0.1693
 66
1
 10
0
 20
0
 30
0
  0
VERTEX
  8
LAYER_1
 10
104.0959
 20
197.8907
  0
VERTEX
  8
LAYER_1
 10
104.0959
 20
199.637
  0
SEQEND
  0
POLYLINE
  8
LAYER_1
 40
0.1693
 41
0.1693
 66
1
 10
0
 20
0
 30
0
  0
VERTEX
  8
LAYER_1
 10
106.7946
 20
197.8907
  0
VERTEX
  8
LAYER_1
 10
106.7946
 20
199.637
  0
SEQEND
  0
POLYLINE
  8
LAYER_1
 40
0.1693
 41
0.1693
 66
1
 10
0
 20
0
 30
0
  0
VERTEX
  8
LAYER_1
 10
109.6786
 20
197.8907
  0
VERTEX
  8
LAYER_1
 10
109.6786
 20
199.637
  0
SEQEND
  0
TEXT
  8
LAYER_1
 10
157.8062
 20
210.697
 11
157.8062
 21
210.697
 40
3.2224
 41
0.5
  1
örÉàû┌ÄM
  0
POLYLINE
  8
LAYER_1
 40
0.1693
 41
0.1693
 66
1
 10
0
 20
0
 30
0
  0
VERTEX
  8
LAYER_1
 10
99.2011
 20
197.5997
  0
VERTEX
  8
LAYER_1
 10
111.6894
 20
197.5997
  0
SEQEND
  0
POLYLINE
  8
LAYER_1
 40
0.1693
 41
0.1693
 66
1
 10
0
 20
0
 30
0
  0
VERTEX
  8
LAYER_1
 10
99.2011
 20
197.3351
  0
VERTEX
  8
LAYER_1
 10
99.2011
 20
197.5997
  0
SEQEND
  0
POLYLINE
  8
LAYER_1
 40
0.1693
 41
0.1693
 66
1
 10
0
 20
0
 30
0
  0
VERTEX
  8
LAYER_1
 10
111.6894
 20
197.3351
  0
VERTEX
  8
LAYER_1
 10
111.6894
 20
197.5997
  0
SEQEND
  0
POLYLINE
  8
LAYER_1
 40
0.0847
 41
0.0847
 66
1
 10
0
 20
0
 30
0
  0
VERTEX
  8
LAYER_1
 10
99.4128
 20
197.5997
  0
VERTEX
  8
LAYER_1
 10
99.6509
 20
197.3351
  0
SEQEND
  0
POLYLINE
  8
LAYER_1
 40
0.0847
 41
0.0847
 66
1
 10
0
 20
0
 30
0
  0
VERTEX
  8
LAYER_1
 10
100.4711
 20
197.5997
  0
VERTEX
  8
LAYER_1
 10
100.7092
 20
197.3351
  0
SEQEND
  0
POLYLINE
  8
LAYER_1
 40
0.0847
 41
0.0847
 66
1
 10
0
 20
0
 30
0
  0
VERTEX
  8
LAYER_1
 10
101.5294
 20
197.5997
  0
VERTEX
  8
LAYER_1
 10
101.7675
 20
197.3351
  0
SEQEND
  0
POLYLINE
  8
LAYER_1
 40
0.0847
 41
0.0847
 66
1
 10
0
 20
0
 30
0
  0
VERTEX
  8
LAYER_1
 10
102.5878
 20
197.5997
  0
VERTEX
  8
LAYER_1
 10
102.8259
 20
197.3351
  0
SEQEND
  0
POLYLINE
  8
LAYER_1
 40
0.0847
 41
0.0847
 66
1
 10
0
 20
0
 30
0
  0
VERTEX
  8
LAYER_1
 10
103.6461
 20
197.5997
  0
VERTEX
  8
LAYER_1
 10
103.8842
 20
197.3351
  0
SEQEND
  0
POLYLINE
  8
LAYER_1
 40
0.0847
 41
0.0847
 66
1
 10
0
 20
0
 30
0
  0
VERTEX
  8
LAYER_1
 10
104.7044
 20
197.5997
  0
VERTEX
  8
LAYER_1
 10
104.9425
 20
197.3351
  0
SEQEND
  0
POLYLINE
  8
LAYER_1
 40
0.0847
 41
0.0847
 66
1
 10
0
 20
0
 30
0
  0
VERTEX
  8
LAYER_1
 10
106.7946
 20
197.5997
  0
VERTEX
  8
LAYER_1
 10
107.0592
 20
197.3351
  0
SEQEND
  0
POLYLINE
  8
LAYER_1
 40
0.1693
 41
0.1693
 66
1
 10
0
 20
0
 30
0
  0
VERTEX
  8
LAYER_1
 10
99.2011
 20
197.3351
  0
VERTEX
  8
LAYER_1
 10
111.6894
 20
197.3351
  0
SEQEND
  0
POLYLINE
  8
LAYER_1
 40
0.0847
 41
0.0847
 66
1
 10
0
 20
0
 30
0
  0
VERTEX
  8
LAYER_1
 10
105.7363
 20
197.5997
  0
VERTEX
  8
LAYER_1
 10
105.9744
 20
197.3351
  0
SEQEND
  0
POLYLINE
  8
LAYER_1
 40
0.0847
 41
0.0847
 66
1
 10
0
 20
0
 30
0
  0
VERTEX
  8
LAYER_1
 10
107.853
 20
197.5997
  0
VERTEX
  8
LAYER_1
 10
108.1176
 20
197.3351
  0
SEQEND
  0
POLYLINE
  8
LAYER_1
 40
0.0847
 41
0.0847
 66
1
 10
0
 20
0
 30
0
  0
VERTEX
  8
LAYER_1
 10
108.9113
 20
197.5997
  0
VERTEX
  8
LAYER_1
 10
109.1759
 20
197.3351
  0
SEQEND
  0
POLYLINE
  8
LAYER_1
 40
0.0847
 41
0.0847
 66
1
 10
0
 20
0
 30
0
  0
VERTEX
  8
LAYER_1
 10
109.9696
 20
197.5997
  0
VERTEX
  8
LAYER_1
 10
110.2342
 20
197.3351
  0
SEQEND
  0
POLYLINE
  8
LAYER_1
 40
0.0847
 41
0.0847
 66
1
 10
0
 20
0
 30
0
  0
VERTEX
  8
LAYER_1
 10
111.028
 20
197.5997
  0
VERTEX
  8
LAYER_1
 10
111.2925
 20
197.3351
  0
SEQEND
  0
POLYLINE
  8
LAYER_1
 40
0.1693
 41
0.1693
 66
1
 10
0
 20
0
 30
0
  0
VERTEX
  8
LAYER_1
 10
70.7584
 20
218.343
  0
VERTEX
  8
LAYER_1
 10
71.0759
 20
216.729
  0
VERTEX
  8
LAYER_1
 10
71.4199
 20
215.2209
  0
VERTEX
  8
LAYER_1
 10
71.8432
 20
213.7922
  0
VERTEX
  8
LAYER_1
 10
72.2665
 20
212.4428
  0
VERTEX
  8
LAYER_1
 10
72.7692
 20
211.1728
  0
VERTEX
  8
LAYER_1
 10
73.2984
 20
209.9822
  0
VERTEX
  8
LAYER_1
 10
73.854
 20
208.8709
  0
VERTEX
  8
LAYER_1
 10
74.4626
 20
207.8126
  0
VERTEX
  8
LAYER_1
 10
75.124
 20
206.8072
  0
VERTEX
  8
LAYER_1
 10
75.8119
 20
205.8547
  0
VERTEX
  8
LAYER_1
 10
76.5263
 20
204.9815
  0
VERTEX
  8
LAYER_1
 10
77.2671
 20
204.1613
  0
VERTEX
  8
LAYER_1
 10
78.0344
 20
203.3676
  0
VERTEX
  8
LAYER_1
 10
78.8546
 20
202.6268
  0
VERTEX
  8
LAYER_1
 10
79.6749
 20
201.9388
  0
VERTEX
  8
LAYER_1
 10
80.548
 20
201.3038
  0
VERTEX
  8
LAYER_1
 10
81.4476
 20
200.6953
  0
VERTEX
  8
LAYER_1
 10
82.3471
 20
200.1132
  0
VERTEX
  8
LAYER_1
 10
83.2996
 20
199.584
  0
VERTEX
  8
LAYER_1
 10
84.2786
 20
199.0813
  0
VERTEX
  8
LAYER_1
 10
85.2576
 20
198.6051
  0
VERTEX
  8
LAYER_1
 10
86.2894
 20
198.1553
  0
VERTEX
  8
LAYER_1
 10
87.3478
 20
197.732
  0
VERTEX
  8
LAYER_1
 10
88.4326
 20
197.3616
  0
VERTEX
  8
LAYER_1
 10
89.5703
 20
196.9911
  0
VERTEX
  8
LAYER_1
 10
90.7344
 20
196.6736
  0
VERTEX
  8
LAYER_1
 10
91.9251
 20
196.3561
  0
VERTEX
  8
LAYER_1
 10
93.1951
 20
196.0651
  0
VERTEX
  8
LAYER_1
 10
94.4915
 20
195.827
  0
VERTEX
  8
LAYER_1
 10
95.8409
 20
195.5888
  0
VERTEX
  8
LAYER_1
 10
97.2696
 20
195.3772
  0
VERTEX
  8
LAYER_1
 10
98.7513
 20
195.192
  0
VERTEX
  8
LAYER_1
 10
100.3388
 20
195.0332
  0
VERTEX
  8
LAYER_1
 10
100.3388
 20
195.6947
  0
SEQEND
  0
POLYLINE
  8
LAYER_1
 40
0.1693
 41
0.1693
 66
1
 10
0
 20
0
 30
0
  0
VERTEX
  8
LAYER_1
 10
100.3388
 20
196.118
  0
VERTEX
  8
LAYER_1
 10
100.3388
 20
196.8059
  0
SEQEND
  0
POLYLINE
  8
LAYER_1
 40
0.1693
 41
0.1693
 66
1
 10
0
 20
0
 30
0
  0
VERTEX
  8
LAYER_1
 10
100.0478
 20
196.8324
  0
VERTEX
  8
LAYER_1
 10
100.1536
 20
196.8324
  0
SEQEND
  0
POLYLINE
  8
LAYER_1
 40
0.1693
 41
0.1693
 66
1
 10
0
 20
0
 30
0
  0
VERTEX
  8
LAYER_1
 10
100.2065
 20
196.8324
  0
VERTEX
  8
LAYER_1
 10
100.3388
 20
196.8059
  0
SEQEND
  0
POLYLINE
  8
LAYER_1
 40
0.1693
 41
0.1693
 66
1
 10
0
 20
0
 30
0
  0
VERTEX
  8
LAYER_1
 10
99.7567
 20
196.8853
  0
VERTEX
  8
LAYER_1
 10
99.8626
 20
196.8853
  0
SEQEND
  0
POLYLINE
  8
LAYER_1
 40
0.1693
 41
0.1693
 66
1
 10
0
 20
0
 30
0
  0
VERTEX
  8
LAYER_1
 10
99.9155
 20
196.8588
  0
VERTEX
  8
LAYER_1
 10
100.0478
 20
196.8324
  0
SEQEND
  0
POLYLINE
  8
LAYER_1
 40
0.1693
 41
0.1693
 66
1
 10
0
 20
0
 30
0
  0
VERTEX
  8
LAYER_1
 10
99.4922
 20
196.9647
  0
VERTEX
  8
LAYER_1
 10
99.5715
 20
196.9382
  0
SEQEND
  0
POLYLINE
  8
LAYER_1
 40
0.1693
 41
0.1693
 66
1
 10
0
 20
0
 30
0
  0
VERTEX
  8
LAYER_1
 10
99.6509
 20
196.9382
  0
VERTEX
  8
LAYER_1
 10
99.7567
 20
196.8853
  0
SEQEND
  0
POLYLINE
  8
LAYER_1
 40
0.1693
 41
0.1693
 66
1
 10
0
 20
0
 30
0
  0
VERTEX
  8
LAYER_1
 10
99.254
 20
197.044
  0
VERTEX
  8
LAYER_1
 10
99.3334
 20
197.0176
  0
SEQEND
  0
POLYLINE
  8
LAYER_1
 40
0.1693
 41
0.1693
 66
1
 10
0
 20
0
 30
0
  0
VERTEX
  8
LAYER_1
 10
99.3863
 20
197.0176
  0
VERTEX
  8
LAYER_1
 10
99.4921
 20
196.9646
  0
SEQEND
  0
POLYLINE
  8
LAYER_1
 40
0.1693
 41
0.1693
 66
1
 10
0
 20
0
 30
0
  0
VERTEX
  8
LAYER_1
 10
99.0424
 20
197.1234
  0
VERTEX
  8
LAYER_1
 10
99.1217
 20
197.0969
  0
SEQEND
  0
POLYLINE
  8
LAYER_1
 40
0.1693
 41
0.1693
 66
1
 10
0
 20
0
 30
0
  0
VERTEX
  8
LAYER_1
 10
99.1746
 20
197.097
  0
VERTEX
  8
LAYER_1
 10
99.254
 20
197.044
  0
SEQEND
  0
POLYLINE
  8
LAYER_1
 40
0.1693
 41
0.1693
 66
1
 10
0
 20
0
 30
0
  0
VERTEX
  8
LAYER_1
 10
98.8571
 20
197.2292
  0
VERTEX
  8
LAYER_1
 10
98.9101
 20
197.2028
  0
SEQEND
  0
POLYLINE
  8
LAYER_1
 40
0.1693
 41
0.1693
 66
1
 10
0
 20
0
 30
0
  0
VERTEX
  8
LAYER_1
 10
98.963
 20
197.1763
  0
VERTEX
  8
LAYER_1
 10
99.0423
 20
197.1234
  0
SEQEND
  0
POLYLINE
  8
LAYER_1
 40
0.1693
 41
0.1693
 66
1
 10
0
 20
0
 30
0
  0
VERTEX
  8
LAYER_1
 10
98.6719
 20
197.3351
  0
VERTEX
  8
LAYER_1
 10
98.7248
 20
197.3086
  0
SEQEND
  0
POLYLINE
  8
LAYER_1
 40
0.1693
 41
0.1693
 66
1
 10
0
 20
0
 30
0
  0
VERTEX
  8
LAYER_1
 10
98.7778
 20
197.2822
  0
VERTEX
  8
LAYER_1
 10
98.8571
 20
197.2292
  0
SEQEND
  0
POLYLINE
  8
LAYER_1
 40
0.1693
 41
0.1693
 66
1
 10
0
 20
0
 30
0
  0
VERTEX
  8
LAYER_1
 10
98.5132
 20
197.4409
  0
VERTEX
  8
LAYER_1
 10
98.5661
 20
197.4144
  0
SEQEND
  0
POLYLINE
  8
LAYER_1
 40
0.1693
 41
0.1693
 66
1
 10
0
 20
0
 30
0
  0
VERTEX
  8
LAYER_1
 10
98.5925
 20
197.388
  0
VERTEX
  8
LAYER_1
 10
98.6719
 20
197.335
  0
SEQEND
  0
POLYLINE
  8
LAYER_1
 40
0.1693
 41
0.1693
 66
1
 10
0
 20
0
 30
0
  0
VERTEX
  8
LAYER_1
 10
98.3544
 20
197.5732
  0
VERTEX
  8
LAYER_1
 10
98.4073
 20
197.5467
  0
SEQEND
  0
POLYLINE
  8
LAYER_1
 40
0.1693
 41
0.1693
 66
1
 10
0
 20
0
 30
0
  0
VERTEX
  8
LAYER_1
 10
98.4338
 20
197.4938
  0
VERTEX
  8
LAYER_1
 10
98.5132
 20
197.4409
  0
SEQEND
  0
POLYLINE
  8
LAYER_1
 40
0.1693
 41
0.1693
 66
1
 10
0
 20
0
 30
0
  0
VERTEX
  8
LAYER_1
 10
98.2486
 20
197.7319
  0
VERTEX
  8
LAYER_1
 10
98.275
 20
197.679
  0
SEQEND
  0
POLYLINE
  8
LAYER_1
 40
0.1693
 41
0.1693
 66
1
 10
0
 20
0
 30
0
  0
VERTEX
  8
LAYER_1
 10
98.3015
 20
197.6526
  0
VERTEX
  8
LAYER_1
 10
98.3544
 20
197.5732
  0
SEQEND
  0
POLYLINE
  8
LAYER_1
 40
0.1693
 41
0.1693
 66
1
 10
0
 20
0
 30
0
  0
VERTEX
  8
LAYER_1
 10
98.1427
 20
197.8907
  0
VERTEX
  8
LAYER_1
 10
98.1692
 20
197.8377
  0
SEQEND
  0
POLYLINE
  8
LAYER_1
 40
0.1693
 41
0.1693
 66
1
 10
0
 20
0
 30
0
  0
VERTEX
  8
LAYER_1
 10
98.1957
 20
197.8113
  0
VERTEX
  8
LAYER_1
 10
98.2486
 20
197.7319
  0
SEQEND
  0
POLYLINE
  8
LAYER_1
 40
0.1693
 41
0.1693
 66
1
 10
0
 20
0
 30
0
  0
VERTEX
  8
LAYER_1
 10
98.0369
 20
198.0494
  0
VERTEX
  8
LAYER_1
 10
98.0634
 20
197.9965
  0
SEQEND
  0
POLYLINE
  8
LAYER_1
 40
0.1693
 41
0.1693
 66
1
 10
0
 20
0
 30
0
  0
VERTEX
  8
LAYER_1
 10
98.0898
 20
197.97
  0
VERTEX
  8
LAYER_1
 10
98.1427
 20
197.8906
  0
SEQEND
  0
POLYLINE
  8
LAYER_1
 40
0.1693
 41
0.1693
 66
1
 10
0
 20
0
 30
0
  0
VERTEX
  8
LAYER_1
 10
97.984
 20
198.2346
  0
VERTEX
  8
LAYER_1
 10
97.984
 20
198.1817
  0
SEQEND
  0
POLYLINE
  8
LAYER_1
 40
0.1693
 41
0.1693
 66
1
 10
0
 20
0
 30
0
  0
VERTEX
  8
LAYER_1
 10
98.0105
 20
198.1288
  0
VERTEX
  8
LAYER_1
 10
98.0369
 20
198.0494
  0
SEQEND
  0
POLYLINE
  8
LAYER_1
 40
0.1693
 41
0.1693
 66
1
 10
0
 20
0
 30
0
  0
VERTEX
  8
LAYER_1
 10
70.4673
 20
220.0363
  0
VERTEX
  8
LAYER_1
 10
70.7584
 20
218.3429
  0
SEQEND
  0
POLYLINE
  8
LAYER_1
 40
0.1693
 41
0.1693
 66
1
 10
0
 20
0
 30
0
  0
VERTEX
  8
LAYER_1
 10
70.4673
 20
220.0363
  0
VERTEX
  8
LAYER_1
 10
140.4232
 20
220.0363
  0
VERTEX
  8
LAYER_1
 10
140.1321
 20
218.3429
  0
VERTEX
  8
LAYER_1
 10
139.8146
 20
216.729
  0
VERTEX
  8
LAYER_1
 10
139.4707
 20
215.2208
  0
VERTEX
  8
LAYER_1
 10
139.0473
 20
213.7921
  0
VERTEX
  8
LAYER_1
 10
138.624
 20
212.4427
  0
VERTEX
  8
LAYER_1
 10
138.1213
 20
211.1727
  0
VERTEX
  8
LAYER_1
 10
137.5921
 20
209.9821
  0
VERTEX
  8
LAYER_1
 10
137.0365
 20
208.8709
  0
VERTEX
  8
LAYER_1
 10
136.4279
 20
207.8125
  0
VERTEX
  8
LAYER_1
 10
135.7665
 20
206.8071
  0
VERTEX
  8
LAYER_1
 10
135.0786
 20
205.8546
  0
VERTEX
  8
LAYER_1
 10
134.3642
 20
204.9815
  0
VERTEX
  8
LAYER_1
 10
133.6234
 20
204.1613
  0
VERTEX
  8
LAYER_1
 10
132.8561
 20
203.3675
  0
VERTEX
  8
LAYER_1
 10
132.0359
 20
202.6267
  0
VERTEX
  8
LAYER_1
 10
131.2157
 20
201.9388
  0
VERTEX
  8
LAYER_1
 10
130.3425
 20
201.3038
  0
VERTEX
  8
LAYER_1
 10
129.4429
 20
200.6952
  0
VERTEX
  8
LAYER_1
 10
128.5434
 20
200.1131
  0
VERTEX
  8
LAYER_1
 10
127.5909
 20
199.584
  0
VERTEX
  8
LAYER_1
 10
126.6119
 20
199.0813
  0
VERTEX
  8
LAYER_1
 10
125.6329
 20
198.605
  0
VERTEX
  8
LAYER_1
 10
124.6011
 20
198.1552
  0
VERTEX
  8
LAYER_1
 10
123.5427
 20
197.7319
  0
SEQEND
  0
POLYLINE
  8
LAYER_1
 40
0.1693
 41
0.1693
 66
1
 10
0
 20
0
 30
0
  0
VERTEX
  8
LAYER_1
 10
124.6011
 20
198.1552
  0
VERTEX
  8
LAYER_1
 10
123.5427
 20
197.7319
  0
SEQEND
  0
POLYLINE
  8
LAYER_1
 40
0.1693
 41
0.1693
 66
1
 10
0
 20
0
 30
0
  0
VERTEX
  8
LAYER_1
 10
125.633
 20
198.605
  0
VERTEX
  8
LAYER_1
 10
124.6011
 20
198.1552
  0
SEQEND
  0
POLYLINE
  8
LAYER_1
 40
0.1693
 41
0.1693
 66
1
 10
0
 20
0
 30
0
  0
VERTEX
  8
LAYER_1
 10
126.6119
 20
199.0813
  0
VERTEX
  8
LAYER_1
 10
125.633
 20
198.605
  0
SEQEND
  0
POLYLINE
  8
LAYER_1
 40
0.1693
 41
0.1693
 66
1
 10
0
 20
0
 30
0
  0
VERTEX
  8
LAYER_1
 10
127.5909
 20
199.584
  0
VERTEX
  8
LAYER_1
 10
126.6119
 20
199.0813
  0
SEQEND
  0
POLYLINE
  8
LAYER_1
 40
0.1693
 41
0.1693
 66
1
 10
0
 20
0
 30
0
  0
VERTEX
  8
LAYER_1
 10
128.5434
 20
200.1132
  0
VERTEX
  8
LAYER_1
 10
127.5909
 20
199.584
  0
SEQEND
  0
POLYLINE
  8
LAYER_1
 40
0.1693
 41
0.1693
 66
1
 10
0
 20
0
 30
0
  0
VERTEX
  8
LAYER_1
 10
129.443
 20
200.6953
  0
VERTEX
  8
LAYER_1
 10
128.5434
 20
200.1132
  0
SEQEND
  0
POLYLINE
  8
LAYER_1
 40
0.1693
 41
0.1693
 66
1
 10
0
 20
0
 30
0
  0
VERTEX
  8
LAYER_1
 10
130.3426
 20
201.3038
  0
VERTEX
  8
LAYER_1
 10
129.443
 20
200.6953
  0
SEQEND
  0
POLYLINE
  8
LAYER_1
 40
0.1693
 41
0.1693
 66
1
 10
0
 20
0
 30
0
  0
VERTEX
  8
LAYER_1
 10
131.2157
 20
201.9388
  0
VERTEX
  8
LAYER_1
 10
130.3426
 20
201.3038
  0
SEQEND
  0
POLYLINE
  8
LAYER_1
 40
0.1693
 41
0.1693
 66
1
 10
0
 20
0
 30
0
  0
VERTEX
  8
LAYER_1
 10
132.0359
 20
202.6267
  0
VERTEX
  8
LAYER_1
 10
131.2157
 20
201.9388
  0
SEQEND
  0
POLYLINE
  8
LAYER_1
 40
0.1693
 41
0.1693
 66
1
 10
0
 20
0
 30
0
  0
VERTEX
  8
LAYER_1
 10
132.8561
 20
203.3676
  0
VERTEX
  8
LAYER_1
 10
132.0359
 20
202.6267
  0
SEQEND
  0
POLYLINE
  8
LAYER_1
 40
0.1693
 41
0.1693
 66
1
 10
0
 20
0
 30
0
  0
VERTEX
  8
LAYER_1
 10
133.6234
 20
204.1613
  0
VERTEX
  8
LAYER_1
 10
132.8561
 20
203.3675
  0
SEQEND
  0
POLYLINE
  8
LAYER_1
 40
0.1693
 41
0.1693
 66
1
 10
0
 20
0
 30
0
  0
VERTEX
  8
LAYER_1
 10
134.3642
 20
204.9815
  0
VERTEX
  8
LAYER_1
 10
133.6234
 20
204.1613
  0
SEQEND
  0
POLYLINE
  8
LAYER_1
 40
0.1693
 41
0.1693
 66
1
 10
0
 20
0
 30
0
  0
VERTEX
  8
LAYER_1
 10
135.0786
 20
205.8546
  0
VERTEX
  8
LAYER_1
 10
134.3642
 20
204.9815
  0
SEQEND
  0
POLYLINE
  8
LAYER_1
 40
0.1693
 41
0.1693
 66
1
 10
0
 20
0
 30
0
  0
VERTEX
  8
LAYER_1
 10
135.7665
 20
206.8071
  0
VERTEX
  8
LAYER_1
 10
135.0786
 20
205.8546
  0
SEQEND
  0
POLYLINE
  8
LAYER_1
 40
0.1693
 41
0.1693
 66
1
 10
0
 20
0
 30
0
  0
VERTEX
  8
LAYER_1
 10
136.4279
 20
207.8125
  0
VERTEX
  8
LAYER_1
 10
135.7665
 20
206.8071
  0
SEQEND
  0
POLYLINE
  8
LAYER_1
 40
0.1693
 41
0.1693
 66
1
 10
0
 20
0
 30
0
  0
VERTEX
  8
LAYER_1
 10
137.0365
 20
208.8709
  0
VERTEX
  8
LAYER_1
 10
136.4279
 20
207.8125
  0
SEQEND
  0
POLYLINE
  8
LAYER_1
 40
0.1693
 41
0.1693
 66
1
 10
0
 20
0
 30
0
  0
VERTEX
  8
LAYER_1
 10
137.5921
 20
209.9821
  0
VERTEX
  8
LAYER_1
 10
137.0365
 20
208.8709
  0
SEQEND
  0
POLYLINE
  8
LAYER_1
 40
0.1693
 41
0.1693
 66
1
 10
0
 20
0
 30
0
  0
VERTEX
  8
LAYER_1
 10
138.1213
 20
211.1728
  0
VERTEX
  8
LAYER_1
 10
137.5921
 20
209.9821
  0
SEQEND
  0
POLYLINE
  8
LAYER_1
 40
0.1693
 41
0.1693
 66
1
 10
0
 20
0
 30
0
  0
VERTEX
  8
LAYER_1
 10
138.624
 20
212.4428
  0
VERTEX
  8
LAYER_1
 10
138.1213
 20
211.1728
  0
SEQEND
  0
POLYLINE
  8
LAYER_1
 40
0.1693
 41
0.1693
 66
1
 10
0
 20
0
 30
0
  0
VERTEX
  8
LAYER_1
 10
139.0473
 20
213.7922
  0
VERTEX
  8
LAYER_1
 10
138.624
 20
212.4428
  0
SEQEND
  0
POLYLINE
  8
LAYER_1
 40
0.1693
 41
0.1693
 66
1
 10
0
 20
0
 30
0
  0
VERTEX
  8
LAYER_1
 10
139.4707
 20
215.2209
  0
VERTEX
  8
LAYER_1
 10
139.0473
 20
213.7921
  0
SEQEND
  0
POLYLINE
  8
LAYER_1
 40
0.1693
 41
0.1693
 66
1
 10
0
 20
0
 30
0
  0
VERTEX
  8
LAYER_1
 10
139.8146
 20
216.729
  0
VERTEX
  8
LAYER_1
 10
139.4707
 20
215.2209
  0
SEQEND
  0
POLYLINE
  8
LAYER_1
 40
0.1693
 41
0.1693
 66
1
 10
0
 20
0
 30
0
  0
VERTEX
  8
LAYER_1
 10
140.1321
 20
218.343
  0
VERTEX
  8
LAYER_1
 10
139.8146
 20
216.729
  0
SEQEND
  0
POLYLINE
  8
LAYER_1
 40
0.1693
 41
0.1693
 66
1
 10
0
 20
0
 30
0
  0
VERTEX
  8
LAYER_1
 10
140.4232
 20
220.0363
  0
VERTEX
  8
LAYER_1
 10
140.1321
 20
218.343
  0
SEQEND
  0
POLYLINE
  8
LAYER_1
 40
0.1693
 41
0.1693
 66
1
 10
0
 20
0
 30
0
  0
VERTEX
  8
LAYER_1
 10
72.928
 20
219.6659
  0
VERTEX
  8
LAYER_1
 10
72.9544
 20
219.4013
  0
SEQEND
  0
POLYLINE
  8
LAYER_1
 40
0.1693
 41
0.1693
 66
1
 10
0
 20
0
 30
0
  0
VERTEX
  8
LAYER_1
 10
73.0073
 20
219.2425
  0
VERTEX
  8
LAYER_1
 10
73.0602
 20
218.9515
  0
VERTEX
  8
LAYER_1
 10
73.0867
 20
218.6869
  0
SEQEND
  0
POLYLINE
  8
LAYER_1
 40
0.1693
 41
0.1693
 66
1
 10
0
 20
0
 30
0
  0
VERTEX
  8
LAYER_1
 10
73.1396
 20
218.5017
  0
VERTEX
  8
LAYER_1
 10
73.1925
 20
218.2107
  0
VERTEX
  8
LAYER_1
 10
73.2455
 20
217.9461
  0
SEQEND
  0
POLYLINE
  8
LAYER_1
 40
0.1693
 41
0.1693
 66
1
 10
0
 20
0
 30
0
  0
VERTEX
  8
LAYER_1
 10
73.2719
 20
217.7873
  0
VERTEX
  8
LAYER_1
 10
73.3513
 20
217.4963
  0
VERTEX
  8
LAYER_1
 10
73.4042
 20
217.2317
  0
SEQEND
  0
POLYLINE
  8
LAYER_1
 40
0.1693
 41
0.1693
 66
1
 10
0
 20
0
 30
0
  0
VERTEX
  8
LAYER_1
 10
73.4307
 20
217.073
  0
VERTEX
  8
LAYER_1
 10
73.51
 20
216.7819
  0
VERTEX
  8
LAYER_1
 10
73.563
 20
216.5173
  0
SEQEND
  0
POLYLINE
  8
LAYER_1
 40
0.1693
 41
0.1693
 66
1
 10
0
 20
0
 30
0
  0
VERTEX
  8
LAYER_1
 10
73.5894
 20
216.3586
  0
VERTEX
  8
LAYER_1
 10
73.6688
 20
216.0675
  0
VERTEX
  8
LAYER_1
 10
73.6952
 20
215.9352
  0
SEQEND
  0
POLYLINE
  8
LAYER_1
 40
0.1693
 41
0.1693
 66
1
 10
0
 20
0
 30
0
  0
VERTEX
  8
LAYER_1
 10
73.7217
 20
215.8294
  0
VERTEX
  8
LAYER_1
 10
73.7746
 20
215.6706
  0
VERTEX
  8
LAYER_1
 10
73.8275
 20
215.4325
  0
SEQEND
  0
POLYLINE
  8
LAYER_1
 40
0.1693
 41
0.1693
 66
1
 10
0
 20
0
 30
0
  0
VERTEX
  8
LAYER_1
 10
73.8805
 20
215.2738
  0
VERTEX
  8
LAYER_1
 10
73.9598
 20
215.0356
  0
VERTEX
  8
LAYER_1
 10
74.0921
 20
214.6388
  0
SEQEND
  0
POLYLINE
  8
LAYER_1
 40
0.1693
 41
0.1693
 66
1
 10
0
 20
0
 30
0
  0
VERTEX
  8
LAYER_1
 10
74.1715
 20
214.3742
  0
VERTEX
  8
LAYER_1
 10
74.3302
 20
213.9509
  0
VERTEX
  8
LAYER_1
 10
74.4625
 20
213.554
  0
SEQEND
  0
POLYLINE
  8
LAYER_1
 40
0.1693
 41
0.1693
 66
1
 10
0
 20
0
 30
0
  0
VERTEX
  8
LAYER_1
 10
74.5684
 20
213.2894
  0
VERTEX
  8
LAYER_1
 10
74.7271
 20
212.8925
  0
VERTEX
  8
LAYER_1
 10
74.8859
 20
212.4956
  0
SEQEND
  0
POLYLINE
  8
LAYER_1
 40
0.1693
 41
0.1693
 66
1
 10
0
 20
0
 30
0
  0
VERTEX
  8
LAYER_1
 10
74.9917
 20
212.2311
  0
VERTEX
  8
LAYER_1
 10
75.1505
 20
211.8342
  0
VERTEX
  8
LAYER_1
 10
75.3092
 20
211.4638
  0
SEQEND
  0
POLYLINE
  8
LAYER_1
 40
0.1693
 41
0.1693
 66
1
 10
0
 20
0
 30
0
  0
VERTEX
  8
LAYER_1
 10
75.4415
 20
211.1992
  0
VERTEX
  8
LAYER_1
 10
75.6267
 20
210.8023
  0
VERTEX
  8
LAYER_1
 10
75.7855
 20
210.4319
  0
SEQEND
  0
POLYLINE
  8
LAYER_1
 40
0.1693
 41
0.1693
 66
1
 10
0
 20
0
 30
0
  0
VERTEX
  8
LAYER_1
 10
75.9178
 20
210.1673
  0
VERTEX
  8
LAYER_1
 10
76.103
 20
209.7704
  0
VERTEX
  8
LAYER_1
 10
76.2088
 20
209.5588
  0
SEQEND
  0
POLYLINE
  8
LAYER_1
 40
0.1693
 41
0.1693
 66
1
 10
0
 20
0
 30
0
  0
VERTEX
  8
LAYER_1
 10
76.2617
 20
209.4
  0
VERTEX
  8
LAYER_1
 10
76.394
 20
209.1619
  0
VERTEX
  8
LAYER_1
 10
76.4469
 20
209.056
  0
SEQEND
  0
POLYLINE
  8
LAYER_1
 40
0.1693
 41
0.1693
 66
1
 10
0
 20
0
 30
0
  0
VERTEX
  8
LAYER_1
 10
76.4734
 20
209.0031
  0
VERTEX
  8
LAYER_1
 10
76.5528
 20
208.8708
  0
VERTEX
  8
LAYER_1
 10
76.6586
 20
208.6856
  0
SEQEND
  0
POLYLINE
  8
LAYER_1
 40
0.1693
 41
0.1693
 66
1
 10
0
 20
0
 30
0
  0
VERTEX
  8
LAYER_1
 10
76.7115
 20
208.5533
  0
VERTEX
  8
LAYER_1
 10
76.8438
 20
208.3416
  0
VERTEX
  8
LAYER_1
 10
76.9496
 20
208.1564
  0
SEQEND
  0
POLYLINE
  8
LAYER_1
 40
0.1693
 41
0.1693
 66
1
 10
0
 20
0
 30
0
  0
VERTEX
  8
LAYER_1
 10
77.0025
 20
208.0242
  0
VERTEX
  8
LAYER_1
 10
77.1348
 20
207.8125
  0
VERTEX
  8
LAYER_1
 10
77.2407
 20
207.6273
  0
SEQEND
  0
POLYLINE
  8
LAYER_1
 40
0.1693
 41
0.1693
 66
1
 10
0
 20
0
 30
0
  0
VERTEX
  8
LAYER_1
 10
77.32
 20
207.5214
  0
VERTEX
  8
LAYER_1
 10
77.4523
 20
207.3098
  0
VERTEX
  8
LAYER_1
 10
77.5582
 20
207.1246
  0
SEQEND
  0
POLYLINE
  8
LAYER_1
 40
0.1693
 41
0.1693
 66
1
 10
0
 20
0
 30
0
  0
VERTEX
  8
LAYER_1
 10
77.6375
 20
207.0187
  0
VERTEX
  8
LAYER_1
 10
77.7698
 20
206.807
  0
VERTEX
  8
LAYER_1
 10
77.9021
 20
206.6483
  0
SEQEND
  0
POLYLINE
  8
LAYER_1
 40
0.1693
 41
0.1693
 66
1
 10
0
 20
0
 30
0
  0
VERTEX
  8
LAYER_1
 10
77.9815
 20
206.516
  0
VERTEX
  8
LAYER_1
 10
78.1402
 20
206.3308
  0
VERTEX
  8
LAYER_1
 10
78.2196
 20
206.2514
  0
SEQEND
  0
POLYLINE
  8
LAYER_1
 40
0.1693
 41
0.1693
 66
1
 10
0
 20
0
 30
0
  0
VERTEX
  8
LAYER_1
 10
78.2725
 20
206.172
  0
VERTEX
  8
LAYER_1
 10
78.3519
 20
206.0662
  0
VERTEX
  8
LAYER_1
 10
78.4048
 20
206.0397
  0
SEQEND
  0
POLYLINE
  8
LAYER_1
 40
0.1693
 41
0.1693
 66
1
 10
0
 20
0
 30
0
  0
VERTEX
  8
LAYER_1
 10
78.4313
 20
205.9868
  0
VERTEX
  8
LAYER_1
 10
78.5107
 20
205.9339
  0
VERTEX
  8
LAYER_1
 10
78.59
 20
205.8545
  0
SEQEND
  0
POLYLINE
  8
LAYER_1
 40
0.1693
 41
0.1693
 66
1
 10
0
 20
0
 30
0
  0
VERTEX
  8
LAYER_1
 10
78.6694
 20
205.7752
  0
VERTEX
  8
LAYER_1
 10
78.7753
 20
205.6693
  0
VERTEX
  8
LAYER_1
 10
78.8546
 20
205.5899
  0
SEQEND
  0
POLYLINE
  8
LAYER_1
 40
0.1693
 41
0.1693
 66
1
 10
0
 20
0
 30
0
  0
VERTEX
  8
LAYER_1
 10
78.934
 20
205.5106
  0
VERTEX
  8
LAYER_1
 10
79.0398
 20
205.4047
  0
VERTEX
  8
LAYER_1
 10
79.1192
 20
205.3254
  0
SEQEND
  0
POLYLINE
  8
LAYER_1
 40
0.1693
 41
0.1693
 66
1
 10
0
 20
0
 30
0
  0
VERTEX
  8
LAYER_1
 10
79.1986
 20
205.2725
  0
VERTEX
  8
LAYER_1
 10
79.3044
 20
205.1666
  0
VERTEX
  8
LAYER_1
 10
79.4103
 20
205.0873
  0
SEQEND
  0
POLYLINE
  8
LAYER_1
 40
0.1693
 41
0.1693
 66
1
 10
0
 20
0
 30
0
  0
VERTEX
  8
LAYER_1
 10
79.4632
 20
205.0344
  0
VERTEX
  8
LAYER_1
 10
79.5955
 20
204.9285
  0
SEQEND
  0
POLYLINE
  8
LAYER_1
 40
0.1693
 41
0.1693
 66
1
 10
0
 20
0
 30
0
  0
VERTEX
  8
LAYER_1
 10
79.5955
 20
204.9286
  0
VERTEX
  8
LAYER_1
 10
79.7013
 20
204.8492
  0
SEQEND
  0
POLYLINE
  8
LAYER_1
 40
0.1693
 41
0.1693
 66
1
 10
0
 20
0
 30
0
  0
VERTEX
  8
LAYER_1
 10
79.7542
 20
204.7963
  0
VERTEX
  8
LAYER_1
 10
79.8865
 20
204.6905
  0
VERTEX
  8
LAYER_1
 10
79.9394
 20
204.664
  0
SEQEND
  0
POLYLINE
  8
LAYER_1
 40
0.1693
 41
0.1693
 66
1
 10
0
 20
0
 30
0
  0
VERTEX
  8
LAYER_1
 10
79.9659
 20
204.6111
  0
VERTEX
  8
LAYER_1
 10
80.0453
 20
204.5582
  0
VERTEX
  8
LAYER_1
 10
80.1511
 20
204.4788
  0
SEQEND
  0
POLYLINE
  8
LAYER_1
 40
0.1693
 41
0.1693
 66
1
 10
0
 20
0
 30
0
  0
VERTEX
  8
LAYER_1
 10
80.204
 20
204.4259
  0
VERTEX
  8
LAYER_1
 10
80.3363
 20
204.3201
  0
VERTEX
  8
LAYER_1
 10
80.4951
 20
204.1878
  0
SEQEND
  0
POLYLINE
  8
LAYER_1
 40
0.1693
 41
0.1693
 66
1
 10
0
 20
0
 30
0
  0
VERTEX
  8
LAYER_1
 10
80.6274
 20
204.082
  0
VERTEX
  8
LAYER_1
 10
80.8126
 20
203.9232
  0
VERTEX
  8
LAYER_1
 10
80.9978
 20
203.7909
  0
SEQEND
  0
POLYLINE
  8
LAYER_1
 40
0.1693
 41
0.1693
 66
1
 10
0
 20
0
 30
0
  0
VERTEX
  8
LAYER_1
 10
81.1036
 20
203.6851
  0
VERTEX
  8
LAYER_1
 10
81.3153
 20
203.5263
  0
VERTEX
  8
LAYER_1
 10
81.5005
 20
203.394
  0
SEQEND
  0
POLYLINE
  8
LAYER_1
 40
0.1693
 41
0.1693
 66
1
 10
0
 20
0
 30
0
  0
VERTEX
  8
LAYER_1
 10
81.6063
 20
203.3147
  0
VERTEX
  8
LAYER_1
 10
81.818
 20
203.1559
  0
VERTEX
  8
LAYER_1
 10
82.0032
 20
203.0236
  0
SEQEND
  0
POLYLINE
  8
LAYER_1
 40
0.1693
 41
0.1693
 66
1
 10
0
 20
0
 30
0
  0
VERTEX
  8
LAYER_1
 10
82.109
 20
202.9178
  0
VERTEX
  8
LAYER_1
 10
82.3207
 20
202.759
  0
VERTEX
  8
LAYER_1
 10
82.5059
 20
202.6532
  0
SEQEND
  0
POLYLINE
  8
LAYER_1
 40
0.1693
 41
0.1693
 66
1
 10
0
 20
0
 30
0
  0
VERTEX
  8
LAYER_1
 10
82.6117
 20
202.5473
  0
VERTEX
  8
LAYER_1
 10
82.8234
 20
202.415
  0
VERTEX
  8
LAYER_1
 10
82.9292
 20
202.3357
  0
SEQEND
  0
POLYLINE
  8
LAYER_1
 40
0.1693
 41
0.1693
 66
1
 10
0
 20
0
 30
0
  0
VERTEX
  8
LAYER_1
 10
83.0086
 20
202.2828
  0
VERTEX
  8
LAYER_1
 10
83.1409
 20
202.2034
  0
VERTEX
  8
LAYER_1
 10
83.2203
 20
202.1505
  0
SEQEND
  0
POLYLINE
  8
LAYER_1
 40
0.1693
 41
0.1693
 66
1
 10
0
 20
0
 30
0
  0
VERTEX
  8
LAYER_1
 10
83.2732
 20
202.124
  0
VERTEX
  8
LAYER_1
 10
83.379
 20
202.0446
  0
VERTEX
  8
LAYER_1
 10
83.5378
 20
201.9653
  0
SEQEND
  0
POLYLINE
  8
LAYER_1
 40
0.1693
 41
0.1693
 66
1
 10
0
 20
0
 30
0
  0
VERTEX
  8
LAYER_1
 10
83.6436
 20
201.8859
  0
VERTEX
  8
LAYER_1
 10
83.8023
 20
201.7801
  0
VERTEX
  8
LAYER_1
 10
83.9611
 20
201.7007
  0
SEQEND
  0
POLYLINE
  8
LAYER_1
 40
0.1693
 41
0.1693
 66
1
 10
0
 20
0
 30
0
  0
VERTEX
  8
LAYER_1
 10
84.0669
 20
201.6478
  0
VERTEX
  8
LAYER_1
 10
84.2257
 20
201.5419
  0
VERTEX
  8
LAYER_1
 10
84.3844
 20
201.4626
  0
SEQEND
  0
POLYLINE
  8
LAYER_1
 40
0.1693
 41
0.1693
 66
1
 10
0
 20
0
 30
0
  0
VERTEX
  8
LAYER_1
 10
84.4903
 20
201.3832
  0
VERTEX
  8
LAYER_1
 10
84.649
 20
201.2774
  0
VERTEX
  8
LAYER_1
 10
84.8078
 20
201.198
  0
SEQEND
  0
POLYLINE
  8
LAYER_1
 40
0.1693
 41
0.1693
 66
1
 10
0
 20
0
 30
0
  0
VERTEX
  8
LAYER_1
 10
84.9136
 20
201.1451
  0
VERTEX
  8
LAYER_1
 10
85.0988
 20
201.0392
  0
VERTEX
  8
LAYER_1
 10
85.2576
 20
200.9599
  0
SEQEND
  0
POLYLINE
  8
LAYER_1
 40
0.1693
 41
0.1693
 66
1
 10
0
 20
0
 30
0
  0
VERTEX
  8
LAYER_1
 10
85.3634
 20
200.907
  0
VERTEX
  8
LAYER_1
 10
85.5486
 20
200.8011
  0
VERTEX
  8
LAYER_1
 10
85.628
 20
200.7747
  0
SEQEND
  0
POLYLINE
  8
LAYER_1
 40
0.1693
 41
0.1693
 66
1
 10
0
 20
0
 30
0
  0
VERTEX
  8
LAYER_1
 10
85.6809
 20
200.7218
  0
VERTEX
  8
LAYER_1
 10
85.7867
 20
200.6688
  0
VERTEX
  8
LAYER_1
 10
85.919
 20
200.6159
  0
SEQEND
  0
POLYLINE
  8
LAYER_1
 40
0.1693
 41
0.1693
 66
1
 10
0
 20
0
 30
0
  0
VERTEX
  8
LAYER_1
 10
86.0249
 20
200.563
  0
VERTEX
  8
LAYER_1
 10
86.1836
 20
200.4836
  0
VERTEX
  8
LAYER_1
 10
86.4217
 20
200.3778
  0
SEQEND
  0
POLYLINE
  8
LAYER_1
 40
0.1693
 41
0.1693
 66
1
 10
0
 20
0
 30
0
  0
VERTEX
  8
LAYER_1
 10
86.5805
 20
200.2985
  0
VERTEX
  8
LAYER_1
 10
86.8451
 20
200.1662
  0
VERTEX
  8
LAYER_1
 10
87.0832
 20
200.0603
  0
SEQEND
  0
POLYLINE
  8
LAYER_1
 40
0.1693
 41
0.1693
 66
1
 10
0
 20
0
 30
0
  0
VERTEX
  8
LAYER_1
 10
87.2419
 20
200.0074
  0
VERTEX
  8
LAYER_1
 10
87.5065
 20
199.8751
  0
VERTEX
  8
LAYER_1
 10
87.7446
 20
199.7958
  0
SEQEND
  0
POLYLINE
  8
LAYER_1
 40
0.1693
 41
0.1693
 66
1
 10
0
 20
0
 30
0
  0
VERTEX
  8
LAYER_1
 10
87.9299
 20
199.7164
  0
VERTEX
  8
LAYER_1
 10
88.1944
 20
199.6106
  0
VERTEX
  8
LAYER_1
 10
88.4326
 20
199.5312
  0
SEQEND
  0
POLYLINE
  8
LAYER_1
 40
0.1693
 41
0.1693
 66
1
 10
0
 20
0
 30
0
  0
VERTEX
  8
LAYER_1
 10
88.6178
 20
199.4783
  0
VERTEX
  8
LAYER_1
 10
88.8823
 20
199.3724
  0
VERTEX
  8
LAYER_1
 10
89.1205
 20
199.2931
  0
SEQEND
  0
POLYLINE
  8
LAYER_1
 40
0.1693
 41
0.1693
 66
1
 10
0
 20
0
 30
0
  0
VERTEX
  8
LAYER_1
 10
89.3057
 20
199.2402
  0
VERTEX
  8
LAYER_1
 10
89.5703
 20
199.1343
  0
VERTEX
  8
LAYER_1
 10
89.729
 20
199.1079
  0
SEQEND
  0
POLYLINE
  8
LAYER_1
 40
0.1693
 41
0.1693
 66
1
 10
0
 20
0
 30
0
  0
VERTEX
  8
LAYER_1
 10
89.8349
 20
199.0814
  0
VERTEX
  8
LAYER_1
 10
89.9936
 20
199.0285
  0
VERTEX
  8
LAYER_1
 10
90.0994
 20
199.0285
  0
SEQEND
  0
POLYLINE
  8
LAYER_1
 40
0.1693
 41
0.1693
 66
1
 10
0
 20
0
 30
0
  0
VERTEX
  8
LAYER_1
 10
90.1524
 20
199.0021
  0
VERTEX
  8
LAYER_1
 10
90.2846
 20
198.9756
  0
VERTEX
  8
LAYER_1
 10
90.4698
 20
198.9491
  0
SEQEND
  0
POLYLINE
  8
LAYER_1
 40
0.1693
 41
0.1693
 66
1
 10
0
 20
0
 30
0
  0
VERTEX
  8
LAYER_1
 10
90.6021
 20
198.8962
  0
VERTEX
  8
LAYER_1
 10
90.8138
 20
198.8433
  0
VERTEX
  8
LAYER_1
 10
90.999
 20
198.8168
  0
SEQEND
  0
POLYLINE
  8
LAYER_1
 40
0.1693
 41
0.1693
 66
1
 10
0
 20
0
 30
0
  0
VERTEX
  8
LAYER_1
 10
91.1313
 20
198.8169
  0
VERTEX
  8
LAYER_1
 10
91.343
 20
198.7639
  0
VERTEX
  8
LAYER_1
 10
91.5282
 20
198.7375
  0
SEQEND
  0
POLYLINE
  8
LAYER_1
 40
0.1693
 41
0.1693
 66
1
 10
0
 20
0
 30
0
  0
VERTEX
  8
LAYER_1
 10
91.6605
 20
198.7375
  0
VERTEX
  8
LAYER_1
 10
91.8722
 20
198.6846
  0
VERTEX
  8
LAYER_1
 10
92.0574
 20
198.6581
  0
SEQEND
  0
POLYLINE
  8
LAYER_1
 40
0.1693
 41
0.1693
 66
1
 10
0
 20
0
 30
0
  0
VERTEX
  8
LAYER_1
 10
92.1897
 20
198.6581
  0
VERTEX
  8
LAYER_1
 10
92.4013
 20
198.6052
  0
VERTEX
  8
LAYER_1
 10
92.5865
 20
198.5787
  0
SEQEND
  0
POLYLINE
  8
LAYER_1
 40
0.1693
 41
0.1693
 66
1
 10
0
 20
0
 30
0
  0
VERTEX
  8
LAYER_1
 10
92.7188
 20
198.5787
  0
VERTEX
  8
LAYER_1
 10
92.9305
 20
198.5258
  0
VERTEX
  8
LAYER_1
 10
93.0363
 20
198.5258
  0
SEQEND
  0
POLYLINE
  8
LAYER_1
 40
0.1693
 41
0.1693
 66
1
 10
0
 20
0
 30
0
  0
VERTEX
  8
LAYER_1
 10
93.0893
 20
198.5258
  0
VERTEX
  8
LAYER_1
 10
93.2215
 20
198.4994
  0
VERTEX
  8
LAYER_1
 10
93.3009
 20
198.4994
  0
SEQEND
  0
POLYLINE
  8
LAYER_1
 40
0.1693
 41
0.1693
 66
1
 10
0
 20
0
 30
0
  0
VERTEX
  8
LAYER_1
 10
93.3538
 20
198.4729
  0
VERTEX
  8
LAYER_1
 10
93.4597
 20
198.4464
  0
VERTEX
  8
LAYER_1
 10
93.6184
 20
198.4464
  0
SEQEND
  0
POLYLINE
  8
LAYER_1
 40
0.1693
 41
0.1693
 66
1
 10
0
 20
0
 30
0
  0
VERTEX
  8
LAYER_1
 10
93.7243
 20
198.42
  0
VERTEX
  8
LAYER_1
 10
93.883
 20
198.3935
  0
VERTEX
  8
LAYER_1
 10
94.0417
 20
198.3935
  0
SEQEND
  0
POLYLINE
  8
LAYER_1
 40
0.1693
 41
0.1693
 66
1
 10
0
 20
0
 30
0
  0
VERTEX
  8
LAYER_1
 10
94.1476
 20
198.3671
  0
VERTEX
  8
LAYER_1
 10
94.3063
 20
198.3406
  0
VERTEX
  8
LAYER_1
 10
94.4386
 20
198.3406
  0
SEQEND
  0
POLYLINE
  8
LAYER_1
 40
0.1693
 41
0.1693
 66
1
 10
0
 20
0
 30
0
  0
VERTEX
  8
LAYER_1
 10
94.5445
 20
198.3406
  0
VERTEX
  8
LAYER_1
 10
94.7032
 20
198.3141
  0
VERTEX
  8
LAYER_1
 10
94.8619
 20
198.3141
  0
SEQEND
  0
POLYLINE
  8
LAYER_1
 40
0.1693
 41
0.1693
 66
1
 10
0
 20
0
 30
0
  0
VERTEX
  8
LAYER_1
 10
94.9678
 20
198.2877
  0
VERTEX
  8
LAYER_1
 10
95.1265
 20
198.2612
  0
VERTEX
  8
LAYER_1
 10
95.2588
 20
198.2612
  0
SEQEND
  0
POLYLINE
  8
LAYER_1
 40
0.1693
 41
0.1693
 66
1
 10
0
 20
0
 30
0
  0
VERTEX
  8
LAYER_1
 10
95.3647
 20
198.2613
  0
VERTEX
  8
LAYER_1
 10
95.5234
 20
198.2348
  0
VERTEX
  8
LAYER_1
 10
95.6028
 20
198.2348
  0
SEQEND
  0
POLYLINE
  8
LAYER_1
 40
0.1693
 41
0.1693
 66
1
 10
0
 20
0
 30
0
  0
VERTEX
  8
LAYER_1
 10
95.6557
 20
198.2348
  0
VERTEX
  8
LAYER_1
 10
95.7615
 20
198.2083
  0
VERTEX
  8
LAYER_1
 10
95.8409
 20
198.2083
  0
SEQEND
  0
POLYLINE
  8
LAYER_1
 40
0.1693
 41
0.1693
 66
1
 10
0
 20
0
 30
0
  0
VERTEX
  8
LAYER_1
 10
95.8938
 20
198.2083
  0
VERTEX
  8
LAYER_1
 10
95.9732
 20
198.2083
  0
VERTEX
  8
LAYER_1
 10
96.1055
 20
198.2083
  0
SEQEND
  0
POLYLINE
  8
LAYER_1
 40
0.1693
 41
0.1693
 66
1
 10
0
 20
0
 30
0
  0
VERTEX
  8
LAYER_1
 10
96.1849
 20
198.2083
  0
VERTEX
  8
LAYER_1
 10
96.3436
 20
198.2083
  0
VERTEX
  8
LAYER_1
 10
96.4494
 20
198.2083
  0
SEQEND
  0
POLYLINE
  8
LAYER_1
 40
0.1693
 41
0.1693
 66
1
 10
0
 20
0
 30
0
  0
VERTEX
  8
LAYER_1
 10
96.5553
 20
198.2083
  0
VERTEX
  8
LAYER_1
 10
96.6876
 20
198.2083
  0
VERTEX
  8
LAYER_1
 10
96.7934
 20
198.2083
  0
SEQEND
  0
POLYLINE
  8
LAYER_1
 40
0.1693
 41
0.1693
 66
1
 10
0
 20
0
 30
0
  0
VERTEX
  8
LAYER_1
 10
96.8992
 20
198.2083
  0
VERTEX
  8
LAYER_1
 10
97.0315
 20
198.2083
  0
VERTEX
  8
LAYER_1
 10
97.1638
 20
198.2083
  0
SEQEND
  0
POLYLINE
  8
LAYER_1
 40
0.1693
 41
0.1693
 66
1
 10
0
 20
0
 30
0
  0
VERTEX
  8
LAYER_1
 10
97.2432
 20
198.2083
  0
VERTEX
  8
LAYER_1
 10
97.4019
 20
198.2083
  0
VERTEX
  8
LAYER_1
 10
97.5078
 20
198.2083
  0
SEQEND
  0
POLYLINE
  8
LAYER_1
 40
0.1693
 41
0.1693
 66
1
 10
0
 20
0
 30
0
  0
VERTEX
  8
LAYER_1
 10
97.6136
 20
198.2083
  0
VERTEX
  8
LAYER_1
 10
97.7459
 20
198.2083
  0
VERTEX
  8
LAYER_1
 10
97.8253
 20
198.2083
  0
SEQEND
  0
POLYLINE
  8
LAYER_1
 40
0.1693
 41
0.1693
 66
1
 10
0
 20
0
 30
0
  0
VERTEX
  8
LAYER_1
 10
97.8782
 20
198.2083
  0
VERTEX
  8
LAYER_1
 10
97.9576
 20
198.2348
  0
SEQEND
  0
POLYLINE
  8
LAYER_1
 40
0.1693
 41
0.1693
 66
1
 10
0
 20
0
 30
0
  0
VERTEX
  8
LAYER_1
 10
72.8486
 20
220.0365
  0
VERTEX
  8
LAYER_1
 10
72.8751
 20
219.9042
  0
SEQEND
  0
POLYLINE
  8
LAYER_1
 40
0.1693
 41
0.1693
 66
1
 10
0
 20
0
 30
0
  0
VERTEX
  8
LAYER_1
 10
72.8751
 20
219.8248
  0
VERTEX
  8
LAYER_1
 10
72.928
 20
219.666
  0
SEQEND
  0
POLYLINE
  8
LAYER_1
 40
0.1693
 41
0.1693
 66
1
 10
0
 20
0
 30
0
  0
VERTEX
  8
LAYER_1
 10
131.8507
 20
205.405
  0
VERTEX
  8
LAYER_1
 10
131.7713
 20
205.3256
  0
SEQEND
  0
POLYLINE
  8
LAYER_1
 40
0.1693
 41
0.1693
 66
1
 10
0
 20
0
 30
0
  0
VERTEX
  8
LAYER_1
 10
131.692
 20
205.2727
  0
VERTEX
  8
LAYER_1
 10
131.5861
 20
205.1669
  0
VERTEX
  8
LAYER_1
 10
131.4803
 20
205.0875
  0
SEQEND
  0
POLYLINE
  8
LAYER_1
 40
0.1693
 41
0.1693
 66
1
 10
0
 20
0
 30
0
  0
VERTEX
  8
LAYER_1
 10
131.4274
 20
205.0346
  0
VERTEX
  8
LAYER_1
 10
131.2951
 20
204.9288
  0
VERTEX
  8
LAYER_1
 10
131.1892
 20
204.8494
  0
SEQEND
  0
POLYLINE
  8
LAYER_1
 40
0.1693
 41
0.1693
 66
1
 10
0
 20
0
 30
0
  0
VERTEX
  8
LAYER_1
 10
131.1363
 20
204.7965
  0
VERTEX
  8
LAYER_1
 10
131.004
 20
204.6906
  0
VERTEX
  8
LAYER_1
 10
130.9511
 20
204.6642
  0
SEQEND
  0
POLYLINE
  8
LAYER_1
 40
0.1693
 41
0.1693
 66
1
 10
0
 20
0
 30
0
  0
VERTEX
  8
LAYER_1
 10
130.9247
 20
204.6113
  0
VERTEX
  8
LAYER_1
 10
130.8453
 20
204.5584
  0
VERTEX
  8
LAYER_1
 10
130.7394
 20
204.479
  0
SEQEND
  0
POLYLINE
  8
LAYER_1
 40
0.1693
 41
0.1693
 66
1
 10
0
 20
0
 30
0
  0
VERTEX
  8
LAYER_1
 10
130.6865
 20
204.4261
  0
VERTEX
  8
LAYER_1
 10
130.5542
 20
204.3202
  0
VERTEX
  8
LAYER_1
 10
130.3955
 20
204.188
  0
SEQEND
  0
POLYLINE
  8
LAYER_1
 40
0.1693
 41
0.1693
 66
1
 10
0
 20
0
 30
0
  0
VERTEX
  8
LAYER_1
 10
130.2632
 20
204.0821
  0
VERTEX
  8
LAYER_1
 10
130.078
 20
203.9234
  0
VERTEX
  8
LAYER_1
 10
129.8928
 20
203.7911
  0
SEQEND
  0
POLYLINE
  8
LAYER_1
 40
0.1693
 41
0.1693
 66
1
 10
0
 20
0
 30
0
  0
VERTEX
  8
LAYER_1
 10
129.787
 20
203.6852
  0
VERTEX
  8
LAYER_1
 10
129.5753
 20
203.5265
  0
VERTEX
  8
LAYER_1
 10
129.3901
 20
203.3942
  0
SEQEND
  0
POLYLINE
  8
LAYER_1
 40
0.1693
 41
0.1693
 66
1
 10
0
 20
0
 30
0
  0
VERTEX
  8
LAYER_1
 10
129.2842
 20
203.3148
  0
VERTEX
  8
LAYER_1
 10
129.0726
 20
203.156
  0
VERTEX
  8
LAYER_1
 10
128.8874
 20
203.0238
  0
SEQEND
  0
POLYLINE
  8
LAYER_1
 40
0.1693
 41
0.1693
 66
1
 10
0
 20
0
 30
0
  0
VERTEX
  8
LAYER_1
 10
128.7815
 20
202.9179
  0
VERTEX
  8
LAYER_1
 10
128.5699
 20
202.7592
  0
VERTEX
  8
LAYER_1
 10
128.3846
 20
202.6533
  0
SEQEND
  0
POLYLINE
  8
LAYER_1
 40
0.1693
 41
0.1693
 66
1
 10
0
 20
0
 30
0
  0
VERTEX
  8
LAYER_1
 10
128.2788
 20
202.5475
  0
VERTEX
  8
LAYER_1
 10
128.0671
 20
202.4152
  0
VERTEX
  8
LAYER_1
 10
127.9613
 20
202.3358
  0
SEQEND
  0
POLYLINE
  8
LAYER_1
 40
0.1693
 41
0.1693
 66
1
 10
0
 20
0
 30
0
  0
VERTEX
  8
LAYER_1
 10
127.8819
 20
202.2829
  0
VERTEX
  8
LAYER_1
 10
127.7496
 20
202.2035
  0
VERTEX
  8
LAYER_1
 10
127.6703
 20
202.1506
  0
SEQEND
  0
POLYLINE
  8
LAYER_1
 40
0.1693
 41
0.1693
 66
1
 10
0
 20
0
 30
0
  0
VERTEX
  8
LAYER_1
 10
127.6174
 20
202.1242
  0
VERTEX
  8
LAYER_1
 10
127.5115
 20
202.0448
  0
VERTEX
  8
LAYER_1
 10
127.3528
 20
201.9654
  0
SEQEND
  0
POLYLINE
  8
LAYER_1
 40
0.1693
 41
0.1693
 66
1
 10
0
 20
0
 30
0
  0
VERTEX
  8
LAYER_1
 10
127.2469
 20
201.8861
  0
VERTEX
  8
LAYER_1
 10
127.0882
 20
201.7802
  0
VERTEX
  8
LAYER_1
 10
126.9294
 20
201.7008
  0
SEQEND
  0
POLYLINE
  8
LAYER_1
 40
0.1693
 41
0.1693
 66
1
 10
0
 20
0
 30
0
  0
VERTEX
  8
LAYER_1
 10
126.8236
 20
201.648
  0
VERTEX
  8
LAYER_1
 10
126.6649
 20
201.5421
  0
VERTEX
  8
LAYER_1
 10
126.5061
 20
201.4627
  0
SEQEND
  0
POLYLINE
  8
LAYER_1
 40
0.1693
 41
0.1693
 66
1
 10
0
 20
0
 30
0
  0
VERTEX
  8
LAYER_1
 10
126.4003
 20
201.3834
  0
VERTEX
  8
LAYER_1
 10
126.2415
 20
201.2775
  0
VERTEX
  8
LAYER_1
 10
126.0828
 20
201.1982
  0
SEQEND
  0
POLYLINE
  8
LAYER_1
 40
0.1693
 41
0.1693
 66
1
 10
0
 20
0
 30
0
  0
VERTEX
  8
LAYER_1
 10
125.977
 20
201.1453
  0
VERTEX
  8
LAYER_1
 10
125.7917
 20
201.0394
  0
VERTEX
  8
LAYER_1
 10
125.633
 20
200.96
  0
SEQEND
  0
POLYLINE
  8
LAYER_1
 40
0.1693
 41
0.1693
 66
1
 10
0
 20
0
 30
0
  0
VERTEX
  8
LAYER_1
 10
125.5272
 20
200.9071
  0
VERTEX
  8
LAYER_1
 10
125.342
 20
200.8013
  0
VERTEX
  8
LAYER_1
 10
125.2626
 20
200.7748
  0
SEQEND
  0
POLYLINE
  8
LAYER_1
 40
0.1693
 41
0.1693
 66
1
 10
0
 20
0
 30
0
  0
VERTEX
  8
LAYER_1
 10
125.2097
 20
200.7219
  0
VERTEX
  8
LAYER_1
 10
125.1038
 20
200.669
  0
VERTEX
  8
LAYER_1
 10
124.9715
 20
200.6161
  0
SEQEND
  0
POLYLINE
  8
LAYER_1
 40
0.1693
 41
0.1693
 66
1
 10
0
 20
0
 30
0
  0
VERTEX
  8
LAYER_1
 10
124.8657
 20
200.5632
  0
VERTEX
  8
LAYER_1
 10
124.707
 20
200.4838
  0
VERTEX
  8
LAYER_1
 10
124.4688
 20
200.378
  0
SEQEND
  0
POLYLINE
  8
LAYER_1
 40
0.1693
 41
0.1693
 66
1
 10
0
 20
0
 30
0
  0
VERTEX
  8
LAYER_1
 10
124.3101
 20
200.2986
  0
VERTEX
  8
LAYER_1
 10
124.0455
 20
200.1663
  0
VERTEX
  8
LAYER_1
 10
123.8074
 20
200.0605
  0
SEQEND
  0
POLYLINE
  8
LAYER_1
 40
0.1693
 41
0.1693
 66
1
 10
0
 20
0
 30
0
  0
VERTEX
  8
LAYER_1
 10
123.6486
 20
200.0076
  0
VERTEX
  8
LAYER_1
 10
123.384
 20
199.8753
  0
VERTEX
  8
LAYER_1
 10
123.1459
 20
199.7959
  0
SEQEND
  0
POLYLINE
  8
LAYER_1
 40
0.1693
 41
0.1693
 66
1
 10
0
 20
0
 30
0
  0
VERTEX
  8
LAYER_1
 10
122.9607
 20
199.7166
  0
VERTEX
  8
LAYER_1
 10
122.6961
 20
199.6107
  0
SEQEND
  0
POLYLINE
  8
LAYER_1
 40
0.1693
 41
0.1693
 66
1
 10
0
 20
0
 30
0
  0
VERTEX
  8
LAYER_1
 10
122.6961
 20
199.6105
  0
SEQEND
  0
POLYLINE
  8
LAYER_1
 40
0.1693
 41
0.1693
 66
1
 10
0
 20
0
 30
0
  0
VERTEX
  8
LAYER_1
 10
132.1153
 20
205.6695
  0
VERTEX
  8
LAYER_1
 10
132.0359
 20
205.5901
  0
SEQEND
  0
POLYLINE
  8
LAYER_1
 40
0.1693
 41
0.1693
 66
1
 10
0
 20
0
 30
0
  0
VERTEX
  8
LAYER_1
 10
131.9565
 20
205.5107
  0
VERTEX
  8
LAYER_1
 10
131.8507
 20
205.4049
  0
SEQEND
  0
POLYLINE
  8
LAYER_1
 40
0.1693
 41
0.1693
 66
1
 10
0
 20
0
 30
0
  0
VERTEX
  8
LAYER_1
 10
132.3799
 20
205.9341
  0
VERTEX
  8
LAYER_1
 10
132.3005
 20
205.8547
  0
SEQEND
  0
POLYLINE
  8
LAYER_1
 40
0.1693
 41
0.1693
 66
1
 10
0
 20
0
 30
0
  0
VERTEX
  8
LAYER_1
 10
132.2211
 20
205.7753
  0
VERTEX
  8
LAYER_1
 10
132.1153
 20
205.6695
  0
SEQEND
  0
POLYLINE
  8
LAYER_1
 40
0.1693
 41
0.1693
 66
1
 10
0
 20
0
 30
0
  0
VERTEX
  8
LAYER_1
 10
132.5386
 20
206.0663
  0
VERTEX
  8
LAYER_1
 10
132.4857
 20
206.0399
  0
SEQEND
  0
POLYLINE
  8
LAYER_1
 40
0.1693
 41
0.1693
 66
1
 10
0
 20
0
 30
0
  0
VERTEX
  8
LAYER_1
 10
132.4593
 20
205.987
  0
VERTEX
  8
LAYER_1
 10
132.3799
 20
205.934
  0
SEQEND
  0
POLYLINE
  8
LAYER_1
 40
0.1693
 41
0.1693
 66
1
 10
0
 20
0
 30
0
  0
VERTEX
  8
LAYER_1
 10
132.7503
 20
206.3309
  0
VERTEX
  8
LAYER_1
 10
132.6709
 20
206.2515
  0
SEQEND
  0
POLYLINE
  8
LAYER_1
 40
0.1693
 41
0.1693
 66
1
 10
0
 20
0
 30
0
  0
VERTEX
  8
LAYER_1
 10
132.618
 20
206.1722
  0
VERTEX
  8
LAYER_1
 10
132.5386
 20
206.0663
  0
SEQEND
  0
POLYLINE
  8
LAYER_1
 40
0.1693
 41
0.1693
 66
1
 10
0
 20
0
 30
0
  0
VERTEX
  8
LAYER_1
 10
133.1207
 20
206.8072
  0
VERTEX
  8
LAYER_1
 10
132.9884
 20
206.6484
  0
SEQEND
  0
POLYLINE
  8
LAYER_1
 40
0.1693
 41
0.1693
 66
1
 10
0
 20
0
 30
0
  0
VERTEX
  8
LAYER_1
 10
132.9091
 20
206.5162
  0
VERTEX
  8
LAYER_1
 10
132.7503
 20
206.3309
  0
SEQEND
  0
POLYLINE
  8
LAYER_1
 40
0.1693
 41
0.1693
 66
1
 10
0
 20
0
 30
0
  0
VERTEX
  8
LAYER_1
 10
133.4382
 20
207.3099
  0
VERTEX
  8
LAYER_1
 10
133.3324
 20
207.1247
  0
SEQEND
  0
POLYLINE
  8
LAYER_1
 40
0.1693
 41
0.1693
 66
1
 10
0
 20
0
 30
0
  0
VERTEX
  8
LAYER_1
 10
133.253
 20
207.0189
  0
VERTEX
  8
LAYER_1
 10
133.1207
 20
206.8072
  0
SEQEND
  0
POLYLINE
  8
LAYER_1
 40
0.1693
 41
0.1693
 66
1
 10
0
 20
0
 30
0
  0
VERTEX
  8
LAYER_1
 10
133.7557
 20
207.8126
  0
VERTEX
  8
LAYER_1
 10
133.6499
 20
207.6274
  0
SEQEND
  0
POLYLINE
  8
LAYER_1
 40
0.1693
 41
0.1693
 66
1
 10
0
 20
0
 30
0
  0
VERTEX
  8
LAYER_1
 10
133.5705
 20
207.5216
  0
VERTEX
  8
LAYER_1
 10
133.4382
 20
207.3099
  0
SEQEND
  0
POLYLINE
  8
LAYER_1
 40
0.1693
 41
0.1693
 66
1
 10
0
 20
0
 30
0
  0
VERTEX
  8
LAYER_1
 10
134.0468
 20
208.3418
  0
VERTEX
  8
LAYER_1
 10
133.9409
 20
208.1566
  0
SEQEND
  0
POLYLINE
  8
LAYER_1
 40
0.1693
 41
0.1693
 66
1
 10
0
 20
0
 30
0
  0
VERTEX
  8
LAYER_1
 10
133.888
 20
208.0243
  0
VERTEX
  8
LAYER_1
 10
133.7557
 20
207.8126
  0
SEQEND
  0
POLYLINE
  8
LAYER_1
 40
0.1693
 41
0.1693
 66
1
 10
0
 20
0
 30
0
  0
VERTEX
  8
LAYER_1
 10
134.3378
 20
208.871
  0
VERTEX
  8
LAYER_1
 10
134.232
 20
208.6857
  0
SEQEND
  0
POLYLINE
  8
LAYER_1
 40
0.1693
 41
0.1693
 66
1
 10
0
 20
0
 30
0
  0
VERTEX
  8
LAYER_1
 10
134.1791
 20
208.5535
  0
VERTEX
  8
LAYER_1
 10
134.0468
 20
208.3418
  0
SEQEND
  0
POLYLINE
  8
LAYER_1
 40
0.1693
 41
0.1693
 66
1
 10
0
 20
0
 30
0
  0
VERTEX
  8
LAYER_1
 10
134.4966
 20
209.162
  0
VERTEX
  8
LAYER_1
 10
134.4436
 20
209.0562
  0
SEQEND
  0
POLYLINE
  8
LAYER_1
 40
0.1693
 41
0.1693
 66
1
 10
0
 20
0
 30
0
  0
VERTEX
  8
LAYER_1
 10
134.4172
 20
209.0033
  0
VERTEX
  8
LAYER_1
 10
134.3378
 20
208.871
  0
SEQEND
  0
POLYLINE
  8
LAYER_1
 40
0.1693
 41
0.1693
 66
1
 10
0
 20
0
 30
0
  0
VERTEX
  8
LAYER_1
 10
134.7876
 20
209.7706
  0
VERTEX
  8
LAYER_1
 10
134.6818
 20
209.5589
  0
SEQEND
  0
POLYLINE
  8
LAYER_1
 40
0.1693
 41
0.1693
 66
1
 10
0
 20
0
 30
0
  0
VERTEX
  8
LAYER_1
 10
134.6289
 20
209.4001
  0
VERTEX
  8
LAYER_1
 10
134.4966
 20
209.162
  0
SEQEND
  0
POLYLINE
  8
LAYER_1
 40
0.1693
 41
0.1693
 66
1
 10
0
 20
0
 30
0
  0
VERTEX
  8
LAYER_1
 10
135.2639
 20
210.8024
  0
VERTEX
  8
LAYER_1
 10
135.1051
 20
210.432
  0
SEQEND
  0
POLYLINE
  8
LAYER_1
 40
0.1693
 41
0.1693
 66
1
 10
0
 20
0
 30
0
  0
VERTEX
  8
LAYER_1
 10
134.9728
 20
210.1674
  0
VERTEX
  8
LAYER_1
 10
134.7876
 20
209.7705
  0
SEQEND
  0
POLYLINE
  8
LAYER_1
 40
0.1693
 41
0.1693
 66
1
 10
0
 20
0
 30
0
  0
VERTEX
  8
LAYER_1
 10
135.7401
 20
211.8343
  0
VERTEX
  8
LAYER_1
 10
135.5813
 20
211.4639
  0
SEQEND
  0
POLYLINE
  8
LAYER_1
 40
0.1693
 41
0.1693
 66
1
 10
0
 20
0
 30
0
  0
VERTEX
  8
LAYER_1
 10
135.4491
 20
211.1993
  0
VERTEX
  8
LAYER_1
 10
135.2638
 20
210.8024
  0
SEQEND
  0
POLYLINE
  8
LAYER_1
 40
0.1693
 41
0.1693
 66
1
 10
0
 20
0
 30
0
  0
VERTEX
  8
LAYER_1
 10
136.1634
 20
212.8927
  0
VERTEX
  8
LAYER_1
 10
136.0047
 20
212.4958
  0
SEQEND
  0
POLYLINE
  8
LAYER_1
 40
0.1693
 41
0.1693
 66
1
 10
0
 20
0
 30
0
  0
VERTEX
  8
LAYER_1
 10
135.8988
 20
212.2312
  0
VERTEX
  8
LAYER_1
 10
135.7401
 20
211.8343
  0
SEQEND
  0
POLYLINE
  8
LAYER_1
 40
0.1693
 41
0.1693
 66
1
 10
0
 20
0
 30
0
  0
VERTEX
  8
LAYER_1
 10
136.5603
 20
213.951
  0
VERTEX
  8
LAYER_1
 10
136.428
 20
213.5541
  0
SEQEND
  0
POLYLINE
  8
LAYER_1
 40
0.1693
 41
0.1693
 66
1
 10
0
 20
0
 30
0
  0
VERTEX
  8
LAYER_1
 10
136.3222
 20
213.2895
  0
VERTEX
  8
LAYER_1
 10
136.1634
 20
212.8927
  0
SEQEND
  0
POLYLINE
  8
LAYER_1
 40
0.1693
 41
0.1693
 66
1
 10
0
 20
0
 30
0
  0
VERTEX
  8
LAYER_1
 10
136.9307
 20
215.0358
  0
VERTEX
  8
LAYER_1
 10
136.7984
 20
214.6389
  0
SEQEND
  0
POLYLINE
  8
LAYER_1
 40
0.1693
 41
0.1693
 66
1
 10
0
 20
0
 30
0
  0
VERTEX
  8
LAYER_1
 10
136.719
 20
214.3744
  0
VERTEX
  8
LAYER_1
 10
136.5603
 20
213.951
  0
SEQEND
  0
POLYLINE
  8
LAYER_1
 40
0.1693
 41
0.1693
 66
1
 10
0
 20
0
 30
0
  0
VERTEX
  8
LAYER_1
 10
137.1159
 20
215.6708
  0
VERTEX
  8
LAYER_1
 10
137.063
 20
215.4327
  0
SEQEND
  0
POLYLINE
  8
LAYER_1
 40
0.1693
 41
0.1693
 66
1
 10
0
 20
0
 30
0
  0
VERTEX
  8
LAYER_1
 10
137.0101
 20
215.2739
  0
VERTEX
  8
LAYER_1
 10
136.9307
 20
215.0358
  0
SEQEND
  0
POLYLINE
  8
LAYER_1
 40
0.1693
 41
0.1693
 66
1
 10
0
 20
0
 30
0
  0
VERTEX
  8
LAYER_1
 10
137.2218
 20
216.0677
  0
VERTEX
  8
LAYER_1
 10
137.1953
 20
215.9354
  0
SEQEND
  0
POLYLINE
  8
LAYER_1
 40
0.1693
 41
0.1693
 66
1
 10
0
 20
0
 30
0
  0
VERTEX
  8
LAYER_1
 10
137.1688
 20
215.8296
  0
VERTEX
  8
LAYER_1
 10
137.1159
 20
215.6708
  0
SEQEND
  0
POLYLINE
  8
LAYER_1
 40
0.1693
 41
0.1693
 66
1
 10
0
 20
0
 30
0
  0
VERTEX
  8
LAYER_1
 10
137.3805
 20
216.782
  0
VERTEX
  8
LAYER_1
 10
137.3276
 20
216.5174
  0
SEQEND
  0
POLYLINE
  8
LAYER_1
 40
0.1693
 41
0.1693
 66
1
 10
0
 20
0
 30
0
  0
VERTEX
  8
LAYER_1
 10
137.3011
 20
216.3587
  0
VERTEX
  8
LAYER_1
 10
137.2218
 20
216.0676
  0
SEQEND
  0
POLYLINE
  8
LAYER_1
 40
0.1693
 41
0.1693
 66
1
 10
0
 20
0
 30
0
  0
VERTEX
  8
LAYER_1
 10
137.5393
 20
217.4964
  0
VERTEX
  8
LAYER_1
 10
137.4863
 20
217.2318
  0
SEQEND
  0
POLYLINE
  8
LAYER_1
 40
0.1693
 41
0.1693
 66
1
 10
0
 20
0
 30
0
  0
VERTEX
  8
LAYER_1
 10
137.4599
 20
217.0731
  0
VERTEX
  8
LAYER_1
 10
137.3805
 20
216.782
  0
SEQEND
  0
POLYLINE
  8
LAYER_1
 40
0.1693
 41
0.1693
 66
1
 10
0
 20
0
 30
0
  0
VERTEX
  8
LAYER_1
 10
137.698
 20
218.2108
  0
VERTEX
  8
LAYER_1
 10
137.6451
 20
217.9462
  0
SEQEND
  0
POLYLINE
  8
LAYER_1
 40
0.1693
 41
0.1693
 66
1
 10
0
 20
0
 30
0
  0
VERTEX
  8
LAYER_1
 10
137.6187
 20
217.7874
  0
VERTEX
  8
LAYER_1
 10
137.5393
 20
217.4964
  0
SEQEND
  0
POLYLINE
  8
LAYER_1
 40
0.1693
 41
0.1693
 66
1
 10
0
 20
0
 30
0
  0
VERTEX
  8
LAYER_1
 10
137.8303
 20
218.9516
  0
VERTEX
  8
LAYER_1
 10
137.8039
 20
218.687
  0
SEQEND
  0
POLYLINE
  8
LAYER_1
 40
0.1693
 41
0.1693
 66
1
 10
0
 20
0
 30
0
  0
VERTEX
  8
LAYER_1
 10
137.751
 20
218.5018
  0
VERTEX
  8
LAYER_1
 10
137.698
 20
218.2108
  0
SEQEND
  0
POLYLINE
  8
LAYER_1
 40
0.1693
 41
0.1693
 66
1
 10
0
 20
0
 30
0
  0
VERTEX
  8
LAYER_1
 10
137.9626
 20
219.666
  0
VERTEX
  8
LAYER_1
 10
137.9362
 20
219.4014
  0
SEQEND
  0
POLYLINE
  8
LAYER_1
 40
0.1693
 41
0.1693
 66
1
 10
0
 20
0
 30
0
  0
VERTEX
  8
LAYER_1
 10
137.8833
 20
219.2426
  0
VERTEX
  8
LAYER_1
 10
137.8303
 20
218.9516
  0
SEQEND
  0
POLYLINE
  8
LAYER_1
 40
0.1693
 41
0.1693
 66
1
 10
0
 20
0
 30
0
  0
VERTEX
  8
LAYER_1
 10
138.042
 20
220.0364
  0
VERTEX
  8
LAYER_1
 10
138.0155
 20
219.9041
  0
SEQEND
  0
POLYLINE
  8
LAYER_1
 40
0.1693
 41
0.1693
 66
1
 10
0
 20
0
 30
0
  0
VERTEX
  8
LAYER_1
 10
138.0155
 20
219.8247
  0
VERTEX
  8
LAYER_1
 10
137.9626
 20
219.666
  0
SEQEND
  0
POLYLINE
  8
LAYER_1
 40
0.1693
 41
0.1693
 66
1
 10
0
 20
0
 30
0
  0
VERTEX
  8
LAYER_1
 10
113.621
 20
195.3772
  0
VERTEX
  8
LAYER_1
 10
112.1393
 20
195.192
  0
VERTEX
  8
LAYER_1
 10
110.5518
 20
195.0333
  0
VERTEX
  8
LAYER_1
 10
110.5518
 20
195.6947
  0
SEQEND
  0
POLYLINE
  8
LAYER_1
 40
0.1693
 41
0.1693
 66
1
 10
0
 20
0
 30
0
  0
VERTEX
  8
LAYER_1
 10
110.5518
 20
196.1181
  0
VERTEX
  8
LAYER_1
 10
110.5518
 20
196.806
  0
SEQEND
  0
POLYLINE
  8
LAYER_1
 40
0.1693
 41
0.1693
 66
1
 10
0
 20
0
 30
0
  0
VERTEX
  8
LAYER_1
 10
112.7478
 20
197.8908
  0
VERTEX
  8
LAYER_1
 10
112.7214
 20
197.8378
  0
SEQEND
  0
POLYLINE
  8
LAYER_1
 40
0.1693
 41
0.1693
 66
1
 10
0
 20
0
 30
0
  0
VERTEX
  8
LAYER_1
 10
112.6949
 20
197.8114
  0
VERTEX
  8
LAYER_1
 10
112.642
 20
197.732
  0
SEQEND
  0
POLYLINE
  8
LAYER_1
 40
0.1693
 41
0.1693
 66
1
 10
0
 20
0
 30
0
  0
VERTEX
  8
LAYER_1
 10
112.8537
 20
198.0495
  0
VERTEX
  8
LAYER_1
 10
112.8272
 20
197.9966
  0
SEQEND
  0
POLYLINE
  8
LAYER_1
 40
0.1693
 41
0.1693
 66
1
 10
0
 20
0
 30
0
  0
VERTEX
  8
LAYER_1
 10
112.8008
 20
197.9702
  0
VERTEX
  8
LAYER_1
 10
112.7478
 20
197.8908
  0
SEQEND
  0
POLYLINE
  8
LAYER_1
 40
0.1693
 41
0.1693
 66
1
 10
0
 20
0
 30
0
  0
VERTEX
  8
LAYER_1
 10
112.9066
 20
198.2347
  0
VERTEX
  8
LAYER_1
 10
112.9066
 20
198.1818
  0
SEQEND
  0
POLYLINE
  8
LAYER_1
 40
0.1693
 41
0.1693
 66
1
 10
0
 20
0
 30
0
  0
VERTEX
  8
LAYER_1
 10
112.8801
 20
198.1289
  0
VERTEX
  8
LAYER_1
 10
112.8537
 20
198.0495
  0
SEQEND
  0
POLYLINE
  8
LAYER_1
 40
0.1693
 41
0.1693
 66
1
 10
0
 20
0
 30
0
  0
VERTEX
  8
LAYER_1
 10
123.5428
 20
197.732
  0
VERTEX
  8
LAYER_1
 10
122.458
 20
197.3616
  0
VERTEX
  8
LAYER_1
 10
121.3203
 20
196.9912
  0
SEQEND
  0
POLYLINE
  8
LAYER_1
 40
0.1693
 41
0.1693
 66
1
 10
0
 20
0
 30
0
  0
VERTEX
  8
LAYER_1
 10
120.1562
 20
196.6737
  0
VERTEX
  8
LAYER_1
 10
118.9655
 20
196.3562
  0
VERTEX
  8
LAYER_1
 10
117.6955
 20
196.0651
  0
VERTEX
  8
LAYER_1
 10
116.3991
 20
195.827
  0
SEQEND
  0
POLYLINE
  8
LAYER_1
 40
0.1693
 41
0.1693
 66
1
 10
0
 20
0
 30
0
  0
VERTEX
  8
LAYER_1
 10
115.0497
 20
195.5889
  0
VERTEX
  8
LAYER_1
 10
113.621
 20
195.3772
  0
SEQEND
  0
POLYLINE
  8
LAYER_1
 40
0.1693
 41
0.1693
 66
1
 10
0
 20
0
 30
0
  0
VERTEX
  8
LAYER_1
 10
112.9066
 20
198.2347
  0
VERTEX
  8
LAYER_1
 10
112.9066
 20
198.1818
  0
SEQEND
  0
POLYLINE
  8
LAYER_1
 40
0.1693
 41
0.1693
 66
1
 10
0
 20
0
 30
0
  0
VERTEX
  8
LAYER_1
 10
112.8801
 20
198.1289
  0
VERTEX
  8
LAYER_1
 10
112.8537
 20
198.0495
  0
VERTEX
  8
LAYER_1
 10
112.8272
 20
197.9966
  0
SEQEND
  0
POLYLINE
  8
LAYER_1
 40
0.1693
 41
0.1693
 66
1
 10
0
 20
0
 30
0
  0
VERTEX
  8
LAYER_1
 10
112.8008
 20
197.9701
  0
VERTEX
  8
LAYER_1
 10
112.7478
 20
197.8907
  0
VERTEX
  8
LAYER_1
 10
112.7214
 20
197.8378
  0
SEQEND
  0
POLYLINE
  8
LAYER_1
 40
0.1693
 41
0.1693
 66
1
 10
0
 20
0
 30
0
  0
VERTEX
  8
LAYER_1
 10
112.6949
 20
197.8114
  0
VERTEX
  8
LAYER_1
 10
112.642
 20
197.732
  0
VERTEX
  8
LAYER_1
 10
112.6156
 20
197.6791
  0
SEQEND
  0
POLYLINE
  8
LAYER_1
 40
0.1693
 41
0.1693
 66
1
 10
0
 20
0
 30
0
  0
VERTEX
  8
LAYER_1
 10
112.5891
 20
197.6526
  0
VERTEX
  8
LAYER_1
 10
112.5362
 20
197.5732
  0
SEQEND
  0
POLYLINE
  8
LAYER_1
 40
0.1693
 41
0.1693
 66
1
 10
0
 20
0
 30
0
  0
VERTEX
  8
LAYER_1
 10
123.5429
 20
197.732
  0
VERTEX
  8
LAYER_1
 10
122.4581
 20
197.3616
  0
SEQEND
  0
POLYLINE
  8
LAYER_1
 40
0.1693
 41
0.1693
 66
1
 10
0
 20
0
 30
0
  0
VERTEX
  8
LAYER_1
 10
117.6956
 20
196.0651
  0
VERTEX
  8
LAYER_1
 10
116.3991
 20
195.827
  0
SEQEND
  0
POLYLINE
  8
LAYER_1
 40
0.1693
 41
0.1693
 66
1
 10
0
 20
0
 30
0
  0
VERTEX
  8
LAYER_1
 10
122.6962
 20
199.6105
  0
VERTEX
  8
LAYER_1
 10
122.4581
 20
199.5311
  0
SEQEND
  0
POLYLINE
  8
LAYER_1
 40
0.1693
 41
0.1693
 66
1
 10
0
 20
0
 30
0
  0
VERTEX
  8
LAYER_1
 10
122.2729
 20
199.4782
  0
VERTEX
  8
LAYER_1
 10
122.0083
 20
199.3724
  0
VERTEX
  8
LAYER_1
 10
121.7701
 20
199.293
  0
SEQEND
  0
POLYLINE
  8
LAYER_1
 40
0.1693
 41
0.1693
 66
1
 10
0
 20
0
 30
0
  0
VERTEX
  8
LAYER_1
 10
121.5849
 20
199.2401
  0
VERTEX
  8
LAYER_1
 10
121.3204
 20
199.1343
  0
VERTEX
  8
LAYER_1
 10
121.1616
 20
199.1078
  0
SEQEND
  0
POLYLINE
  8
LAYER_1
 40
0.1693
 41
0.1693
 66
1
 10
0
 20
0
 30
0
  0
VERTEX
  8
LAYER_1
 10
121.0558
 20
199.0814
  0
VERTEX
  8
LAYER_1
 10
120.897
 20
199.0284
  0
VERTEX
  8
LAYER_1
 10
120.7912
 20
199.0284
  0
SEQEND
  0
POLYLINE
  8
LAYER_1
 40
0.1693
 41
0.1693
 66
1
 10
0
 20
0
 30
0
  0
VERTEX
  8
LAYER_1
 10
120.7383
 20
199.002
  0
VERTEX
  8
LAYER_1
 10
120.606
 20
198.9755
  0
VERTEX
  8
LAYER_1
 10
120.4208
 20
198.9491
  0
SEQEND
  0
POLYLINE
  8
LAYER_1
 40
0.1693
 41
0.1693
 66
1
 10
0
 20
0
 30
0
  0
VERTEX
  8
LAYER_1
 10
120.2885
 20
198.8962
  0
VERTEX
  8
LAYER_1
 10
120.0768
 20
198.8432
  0
VERTEX
  8
LAYER_1
 10
119.8916
 20
198.8168
  0
SEQEND
  0
POLYLINE
  8
LAYER_1
 40
0.1693
 41
0.1693
 66
1
 10
0
 20
0
 30
0
  0
VERTEX
  8
LAYER_1
 10
119.7593
 20
198.8168
  0
VERTEX
  8
LAYER_1
 10
119.5476
 20
198.7639
  0
VERTEX
  8
LAYER_1
 10
119.3624
 20
198.7374
  0
SEQEND
  0
POLYLINE
  8
LAYER_1
 40
0.1693
 41
0.1693
 66
1
 10
0
 20
0
 30
0
  0
VERTEX
  8
LAYER_1
 10
119.2301
 20
198.7374
  0
VERTEX
  8
LAYER_1
 10
119.0185
 20
198.6845
  0
VERTEX
  8
LAYER_1
 10
118.8333
 20
198.658
  0
SEQEND
  0
POLYLINE
  8
LAYER_1
 40
0.1693
 41
0.1693
 66
1
 10
0
 20
0
 30
0
  0
VERTEX
  8
LAYER_1
 10
118.701
 20
198.6581
  0
VERTEX
  8
LAYER_1
 10
118.4893
 20
198.6051
  0
VERTEX
  8
LAYER_1
 10
118.3041
 20
198.5787
  0
SEQEND
  0
POLYLINE
  8
LAYER_1
 40
0.1693
 41
0.1693
 66
1
 10
0
 20
0
 30
0
  0
VERTEX
  8
LAYER_1
 10
118.1718
 20
198.5787
  0
VERTEX
  8
LAYER_1
 10
117.9601
 20
198.5258
  0
VERTEX
  8
LAYER_1
 10
117.8543
 20
198.5258
  0
SEQEND
  0
POLYLINE
  8
LAYER_1
 40
0.1693
 41
0.1693
 66
1
 10
0
 20
0
 30
0
  0
VERTEX
  8
LAYER_1
 10
117.8014
 20
198.5258
  0
VERTEX
  8
LAYER_1
 10
117.6691
 20
198.4993
  0
VERTEX
  8
LAYER_1
 10
117.5897
 20
198.4993
  0
SEQEND
  0
POLYLINE
  8
LAYER_1
 40
0.1693
 41
0.1693
 66
1
 10
0
 20
0
 30
0
  0
VERTEX
  8
LAYER_1
 10
117.5368
 20
198.4729
  0
VERTEX
  8
LAYER_1
 10
117.431
 20
198.4464
  0
VERTEX
  8
LAYER_1
 10
117.2722
 20
198.4464
  0
SEQEND
  0
POLYLINE
  8
LAYER_1
 40
0.1693
 41
0.1693
 66
1
 10
0
 20
0
 30
0
  0
VERTEX
  8
LAYER_1
 10
117.1664
 20
198.42
  0
VERTEX
  8
LAYER_1
 10
117.0076
 20
198.3935
  0
VERTEX
  8
LAYER_1
 10
116.8489
 20
198.3935
  0
SEQEND
  0
POLYLINE
  8
LAYER_1
 40
0.1693
 41
0.1693
 66
1
 10
0
 20
0
 30
0
  0
VERTEX
  8
LAYER_1
 10
116.743
 20
198.367
  0
VERTEX
  8
LAYER_1
 10
116.5843
 20
198.3406
  0
VERTEX
  8
LAYER_1
 10
116.452
 20
198.3406
  0
SEQEND
  0
POLYLINE
  8
LAYER_1
 40
0.1693
 41
0.1693
 66
1
 10
0
 20
0
 30
0
  0
VERTEX
  8
LAYER_1
 10
116.3462
 20
198.3406
  0
VERTEX
  8
LAYER_1
 10
116.1874
 20
198.3141
  0
VERTEX
  8
LAYER_1
 10
116.0287
 20
198.3141
  0
SEQEND
  0
POLYLINE
  8
LAYER_1
 40
0.1693
 41
0.1693
 66
1
 10
0
 20
0
 30
0
  0
VERTEX
  8
LAYER_1
 10
115.9228
 20
198.2877
  0
VERTEX
  8
LAYER_1
 10
115.7641
 20
198.2612
  0
VERTEX
  8
LAYER_1
 10
115.6318
 20
198.2612
  0
SEQEND
  0
POLYLINE
  8
LAYER_1
 40
0.1693
 41
0.1693
 66
1
 10
0
 20
0
 30
0
  0
VERTEX
  8
LAYER_1
 10
115.526
 20
198.2612
  0
VERTEX
  8
LAYER_1
 10
115.3672
 20
198.2347
  0
VERTEX
  8
LAYER_1
 10
115.2878
 20
198.2347
  0
SEQEND
  0
POLYLINE
  8
LAYER_1
 40
0.1693
 41
0.1693
 66
1
 10
0
 20
0
 30
0
  0
VERTEX
  8
LAYER_1
 10
115.2349
 20
198.2348
  0
VERTEX
  8
LAYER_1
 10
115.1291
 20
198.2083
  0
VERTEX
  8
LAYER_1
 10
115.0497
 20
198.2083
  0
SEQEND
  0
POLYLINE
  8
LAYER_1
 40
0.1693
 41
0.1693
 66
1
 10
0
 20
0
 30
0
  0
VERTEX
  8
LAYER_1
 10
114.9968
 20
198.2083
  0
VERTEX
  8
LAYER_1
 10
114.9174
 20
198.2083
  0
VERTEX
  8
LAYER_1
 10
114.7851
 20
198.2083
  0
SEQEND
  0
POLYLINE
  8
LAYER_1
 40
0.1693
 41
0.1693
 66
1
 10
0
 20
0
 30
0
  0
VERTEX
  8
LAYER_1
 10
114.7058
 20
198.2083
  0
VERTEX
  8
LAYER_1
 10
114.547
 20
198.2083
  0
VERTEX
  8
LAYER_1
 10
114.4412
 20
198.2083
  0
SEQEND
  0
POLYLINE
  8
LAYER_1
 40
0.1693
 41
0.1693
 66
1
 10
0
 20
0
 30
0
  0
VERTEX
  8
LAYER_1
 10
114.3353
 20
198.2083
  0
VERTEX
  8
LAYER_1
 10
114.203
 20
198.2083
  0
VERTEX
  8
LAYER_1
 10
114.0972
 20
198.2083
  0
SEQEND
  0
POLYLINE
  8
LAYER_1
 40
0.1693
 41
0.1693
 66
1
 10
0
 20
0
 30
0
  0
VERTEX
  8
LAYER_1
 10
113.9914
 20
198.2083
  0
VERTEX
  8
LAYER_1
 10
113.8591
 20
198.2083
  0
VERTEX
  8
LAYER_1
 10
113.7268
 20
198.2083
  0
SEQEND
  0
POLYLINE
  8
LAYER_1
 40
0.1693
 41
0.1693
 66
1
 10
0
 20
0
 30
0
  0
VERTEX
  8
LAYER_1
 10
113.6474
 20
198.2083
  0
VERTEX
  8
LAYER_1
 10
113.4887
 20
198.2083
  0
VERTEX
  8
LAYER_1
 10
113.3828
 20
198.2083
  0
SEQEND
  0
POLYLINE
  8
LAYER_1
 40
0.1693
 41
0.1693
 66
1
 10
0
 20
0
 30
0
  0
VERTEX
  8
LAYER_1
 10
113.277
 20
198.2083
  0
VERTEX
  8
LAYER_1
 10
113.1447
 20
198.2083
  0
VERTEX
  8
LAYER_1
 10
113.0653
 20
198.2083
  0
SEQEND
  0
POLYLINE
  8
LAYER_1
 40
0.1693
 41
0.1693
 66
1
 10
0
 20
0
 30
0
  0
VERTEX
  8
LAYER_1
 10
113.0124
 20
198.2083
  0
VERTEX
  8
LAYER_1
 10
112.933
 20
198.2348
  0
SEQEND
  0
POLYLINE
  8
LAYER_1
 40
0.1693
 41
0.1693
 66
1
 10
0
 20
0
 30
0
  0
VERTEX
  8
LAYER_1
 10
116.3991
 20
195.827
  0
VERTEX
  8
LAYER_1
 10
115.0497
 20
195.5889
  0
SEQEND
  0
POLYLINE
  8
LAYER_1
 40
0.1693
 41
0.1693
 66
1
 10
0
 20
0
 30
0
  0
VERTEX
  8
LAYER_1
 10
116.3991
 20
195.827
  0
VERTEX
  8
LAYER_1
 10
115.0497
 20
195.5889
  0
VERTEX
  8
LAYER_1
 10
113.621
 20
195.3772
  0
SEQEND
  0
POLYLINE
  8
LAYER_1
 40
0.1693
 41
0.1693
 66
1
 10
0
 20
0
 30
0
  0
VERTEX
  8
LAYER_1
 10
121.3203
 20
196.9912
  0
VERTEX
  8
LAYER_1
 10
120.1562
 20
196.6737
  0
SEQEND
  0
POLYLINE
  8
LAYER_1
 40
0.1693
 41
0.1693
 66
1
 10
0
 20
0
 30
0
  0
VERTEX
  8
LAYER_1
 10
121.3203
 20
196.9912
  0
VERTEX
  8
LAYER_1
 10
120.1562
 20
196.6737
  0
VERTEX
  8
LAYER_1
 10
118.9655
 20
196.3562
  0
SEQEND
  0
POLYLINE
  8
LAYER_1
 40
0.1693
 41
0.1693
 66
1
 10
0
 20
0
 30
0
  0
VERTEX
  8
LAYER_1
 10
122.458
 20
197.3616
  0
VERTEX
  8
LAYER_1
 10
121.3203
 20
196.9912
  0
SEQEND
  0
POLYLINE
  8
LAYER_1
 40
0.1693
 41
0.1693
 66
1
 10
0
 20
0
 30
0
  0
VERTEX
  8
LAYER_1
 10
118.9655
 20
196.3562
  0
VERTEX
  8
LAYER_1
 10
117.6955
 20
196.0651
  0
SEQEND
  0
POLYLINE
  8
LAYER_1
 40
0.1693
 41
0.1693
 66
1
 10
0
 20
0
 30
0
  0
VERTEX
  8
LAYER_1
 10
111.3985
 20
196.9647
  0
VERTEX
  8
LAYER_1
 10
111.3191
 20
196.9383
  0
SEQEND
  0
POLYLINE
  8
LAYER_1
 40
0.1693
 41
0.1693
 66
1
 10
0
 20
0
 30
0
  0
VERTEX
  8
LAYER_1
 10
111.2397
 20
196.9383
  0
VERTEX
  8
LAYER_1
 10
111.1339
 20
196.8853
  0
SEQEND
  0
POLYLINE
  8
LAYER_1
 40
0.1693
 41
0.1693
 66
1
 10
0
 20
0
 30
0
  0
VERTEX
  8
LAYER_1
 10
112.2187
 20
197.3352
  0
VERTEX
  8
LAYER_1
 10
112.1657
 20
197.3087
  0
SEQEND
  0
POLYLINE
  8
LAYER_1
 40
0.1693
 41
0.1693
 66
1
 10
0
 20
0
 30
0
  0
VERTEX
  8
LAYER_1
 10
112.1128
 20
197.2823
  0
VERTEX
  8
LAYER_1
 10
112.0335
 20
197.2293
  0
SEQEND
  0
POLYLINE
  8
LAYER_1
 40
0.1693
 41
0.1693
 66
1
 10
0
 20
0
 30
0
  0
VERTEX
  8
LAYER_1
 10
111.6366
 20
197.0441
  0
VERTEX
  8
LAYER_1
 10
111.5572
 20
197.0177
  0
SEQEND
  0
POLYLINE
  8
LAYER_1
 40
0.1693
 41
0.1693
 66
1
 10
0
 20
0
 30
0
  0
VERTEX
  8
LAYER_1
 10
111.5043
 20
197.0177
  0
VERTEX
  8
LAYER_1
 10
111.3985
 20
196.9647
  0
SEQEND
  0
POLYLINE
  8
LAYER_1
 40
0.1693
 41
0.1693
 66
1
 10
0
 20
0
 30
0
  0
VERTEX
  8
LAYER_1
 10
112.3774
 20
197.441
  0
VERTEX
  8
LAYER_1
 10
112.3245
 20
197.4145
  0
SEQEND
  0
POLYLINE
  8
LAYER_1
 40
0.1693
 41
0.1693
 66
1
 10
0
 20
0
 30
0
  0
VERTEX
  8
LAYER_1
 10
112.2981
 20
197.3881
  0
VERTEX
  8
LAYER_1
 10
112.2187
 20
197.3352
  0
SEQEND
  0
POLYLINE
  8
LAYER_1
 40
0.1693
 41
0.1693
 66
1
 10
0
 20
0
 30
0
  0
VERTEX
  8
LAYER_1
 10
112.5362
 20
197.5733
  0
VERTEX
  8
LAYER_1
 10
112.4833
 20
197.5468
  0
SEQEND
  0
POLYLINE
  8
LAYER_1
 40
0.1693
 41
0.1693
 66
1
 10
0
 20
0
 30
0
  0
VERTEX
  8
LAYER_1
 10
112.4567
 20
197.4938
  0
VERTEX
  8
LAYER_1
 10
112.3773
 20
197.4409
  0
SEQEND
  0
POLYLINE
  8
LAYER_1
 40
0.1693
 41
0.1693
 66
1
 10
0
 20
0
 30
0
  0
VERTEX
  8
LAYER_1
 10
112.6419
 20
197.732
  0
VERTEX
  8
LAYER_1
 10
112.6155
 20
197.679
  0
SEQEND
  0
POLYLINE
  8
LAYER_1
 40
0.1693
 41
0.1693
 66
1
 10
0
 20
0
 30
0
  0
VERTEX
  8
LAYER_1
 10
112.589
 20
197.6526
  0
VERTEX
  8
LAYER_1
 10
112.5361
 20
197.5732
  0
SEQEND
  0
POLYLINE
  8
LAYER_1
 40
0.1693
 41
0.1693
 66
1
 10
0
 20
0
 30
0
  0
VERTEX
  8
LAYER_1
 10
112.7478
 20
197.8907
  0
VERTEX
  8
LAYER_1
 10
112.7213
 20
197.8378
  0
SEQEND
  0
POLYLINE
  8
LAYER_1
 40
0.1693
 41
0.1693
 66
1
 10
0
 20
0
 30
0
  0
VERTEX
  8
LAYER_1
 10
112.6949
 20
197.8113
  0
VERTEX
  8
LAYER_1
 10
112.6419
 20
197.7319
  0
SEQEND
  0
POLYLINE
  8
LAYER_1
 40
0.1693
 41
0.1693
 66
1
 10
0
 20
0
 30
0
  0
VERTEX
  8
LAYER_1
 10
112.9065
 20
198.2347
  0
VERTEX
  8
LAYER_1
 10
112.9065
 20
198.1817
  0
SEQEND
  0
POLYLINE
  8
LAYER_1
 40
0.1693
 41
0.1693
 66
1
 10
0
 20
0
 30
0
  0
VERTEX
  8
LAYER_1
 10
112.8801
 20
198.1288
  0
VERTEX
  8
LAYER_1
 10
112.8536
 20
198.0494
  0
VERTEX
  8
LAYER_1
 10
112.8271
 20
197.9965
  0
SEQEND
  0
POLYLINE
  8
LAYER_1
 40
0.1693
 41
0.1693
 66
1
 10
0
 20
0
 30
0
  0
VERTEX
  8
LAYER_1
 10
112.8007
 20
197.9701
  0
VERTEX
  8
LAYER_1
 10
112.7478
 20
197.8907
  0
SEQEND
  0
POLYLINE
  8
LAYER_1
 40
0.1693
 41
0.1693
 66
1
 10
0
 20
0
 30
0
  0
VERTEX
  8
LAYER_1
 10
111.1338
 20
196.8853
  0
VERTEX
  8
LAYER_1
 10
111.028
 20
196.8853
  0
SEQEND
  0
POLYLINE
  8
LAYER_1
 40
0.1693
 41
0.1693
 66
1
 10
0
 20
0
 30
0
  0
VERTEX
  8
LAYER_1
 10
110.9751
 20
196.8588
  0
VERTEX
  8
LAYER_1
 10
110.8428
 20
196.8324
  0
VERTEX
  8
LAYER_1
 10
110.737
 20
196.8324
  0
SEQEND
  0
POLYLINE
  8
LAYER_1
 40
0.1693
 41
0.1693
 66
1
 10
0
 20
0
 30
0
  0
VERTEX
  8
LAYER_1
 10
110.684
 20
196.8324
  0
VERTEX
  8
LAYER_1
 10
110.5517
 20
196.8059
  0
SEQEND
  0
POLYLINE
  8
LAYER_1
 40
0.1693
 41
0.1693
 66
1
 10
0
 20
0
 30
0
  0
VERTEX
  8
LAYER_1
 10
111.8482
 20
197.1234
  0
VERTEX
  8
LAYER_1
 10
111.7688
 20
197.0969
  0
SEQEND
  0
POLYLINE
  8
LAYER_1
 40
0.1693
 41
0.1693
 66
1
 10
0
 20
0
 30
0
  0
VERTEX
  8
LAYER_1
 10
111.7159
 20
197.097
  0
VERTEX
  8
LAYER_1
 10
111.6365
 20
197.044
  0
SEQEND
  0
POLYLINE
  8
LAYER_1
 40
0.1693
 41
0.1693
 66
1
 10
0
 20
0
 30
0
  0
VERTEX
  8
LAYER_1
 10
112.0334
 20
197.2292
  0
VERTEX
  8
LAYER_1
 10
111.9805
 20
197.2028
  0
SEQEND
  0
POLYLINE
  8
LAYER_1
 40
0.1693
 41
0.1693
 66
1
 10
0
 20
0
 30
0
  0
VERTEX
  8
LAYER_1
 10
111.9276
 20
197.1763
  0
VERTEX
  8
LAYER_1
 10
111.8482
 20
197.1234
  0
SEQEND
  0
POLYLINE
  8
LAYER_1
 40
0.0847
 41
0.0847
 66
1
 10
0
 20
0
 30
0
  0
VERTEX
  8
LAYER_1
 10
109.7051
 20
197.7055
  0
VERTEX
  8
LAYER_1
 10
157.0919
 20
211.2786
  0
SEQEND
  0
POLYLINE
  8
LAYER_1
 40
0.0847
 41
0.0847
 66
1
 10
0
 20
0
 30
0
  0
VERTEX
  8
LAYER_1
 10
110.3136
 20
197.4674
  0
VERTEX
  8
LAYER_1
 10
157.7534
 20
206.5161
  0
SEQEND
  0
TEXT
  8
LAYER_1
 10
150.1598
 20
148.0696
 11
150.1598
 21
148.0696
 40
3.8024
 41
0.5
  1
örÉàâgâëâbâv%%c25
  0
TEXT
  8
LAYER_1
 10
23.8213
 20
168.1514
 11
23.8213
 21
168.1514
 40
3.2224
 41
0.5
  1
â{âEâïî┼ÆÞö┬üiâoâbâNâvâîü[âgüj
  0
TEXT
  8
LAYER_1
 10
40.6227
 20
157.6742
 11
40.6227
 21
157.6742
 40
3.2224
 41
0.5
  1
örÉàû┌ÄMùpâpâCâvâiâbâg
  0
ENDBLK
  0
BLOCK
  8
LAYER_1
  2
AIGNBL0101000D
 70
64
 10
0
 20
0
 30
0
  3
AIGNBL0101000D
  0
POLYLINE
  8
LAYER_1
 40
0.1693
 41
0.1693
 66
1
 10
0
 20
0
 30
0
  0
VERTEX
  8
LAYER_1
 10
29.4869
 20
114.4676
  0
VERTEX
  8
LAYER_1
 10
182.8605
 20
114.4676
  0
SEQEND
  0
TEXT
  8
LAYER_1
 10
48.8756
 20
73.1714
 11
48.8756
 21
73.1714
 40
3.1022
 41
0.5
  1
üEörÉàâgâëâbâv
  0
TEXT
  8
LAYER_1
 10
48.8756
 20
93.153
 11
48.8756
 21
93.153
 40
3.6606
 41
0.5
  1
üEMimi âVâèü[âYü@örÉàÉ­üiörÉàû┌ÄMüjüi70å@üj
  0
TEXT
  8
LAYER_1
 10
48.8756
 20
98.1484
 11
48.8756
 21
98.1484
 40
3.6606
 41
0.5
  1
üEäOâèâôâOü~2üiô¹öÆüEìò èe1üj
  0
TEXT
  8
LAYER_1
 10
48.8756
 20
103.1437
 11
48.8756
 21
103.1437
 40
3.6606
 41
0.5
  1
üESUS304 Mimi â}âEâôâeâBâôâOâfâBâXâN
  0
TEXT
  8
LAYER_1
 10
49.2142
 20
107.991
 11
49.2142
 21
107.991
 40
3.1022
 41
0.5
  1
üyâZâbâgôÓùeüz
  0
TEXT
  8
LAYER_1
 10
144.0834
 20
116.098
 11
144.0834
 21
116.098
 40
3.6606
 41
0.5
  1
üªôVö┬î·ü@15025å@æ╬ë×
  0
TEXT
  8
LAYER_1
 10
48.8756
 20
68.1554
 11
48.8756
 21
68.1554
 40
3.1022
 41
0.5
  1
üEë╗Å¤âLâââbâvâëâEâôâhüiâNâìâÇüj
  0
TEXT
  8
LAYER_1
 10
48.8756
 20
63.1596
 11
48.8756
 21
63.1596
 40
3.6606
 41
0.5
  1
üEörÉàâgâëâbâvüiSâgâëâbâvé▄é¢é═Pâgâëâbâvé▄é¢é═â{âgâïâëâbâvüj
  0
TEXT
  8
LAYER_1
 10
48.8756
 20
88.1576
 11
48.8756
 21
88.1576
 40
3.1022
 41
0.5
  1
üEÉ¶û╩èÝörÉàâpâbâLâôüiâXâ|âôâWâpâbâLâôüEÄOèpâpâbâLâôüEâXâèâbâvâpâbâLâôüj
  0
TEXT
  8
LAYER_1
 10
48.8756
 20
83.1622
 11
48.8756
 21
83.1622
 40
3.6606
 41
0.5
  1
üEörÉàû┌ÄMùpâiâbâgü~2
  0
TEXT
  8
LAYER_1
 10
48.8756
 20
78.1668
 11
48.8756
 21
78.1668
 40
3.1022
 41
0.5
  1
üEâ{âEâïî┼ÆÞö┬üiâoâbâNâvâîü[âgüj
  0
ENDBLK
  0
BLOCK
  8
LAYER_1
  2
AIGNBL0101000E
 70
64
 10
0
 20
0
 30
0
  3
AIGNBL0101000E
  0
INSERT
  8
LAYER_1
  2
AIGNBL0102000F
 10
0
 20
0
 30
0
  0
INSERT
  8
LAYER_1
  2
AIGNBL01020018
 10
0
 20
0
 30
0
  0
ENDBLK
  0
ENDSEC
  0
SECTION
  2
ENTITIES
  0
POLYLINE
  8
LAYER_1
 40
0.0847
 41
0.0847
 66
1
 10
0
 20
0
 30
0
  0
VERTEX
  8
LAYER_1
 10
105.6321
 20
226.7346
  0
VERTEX
  8
LAYER_1
 10
105.6321
 20
227.8723
  0
SEQEND
  0
POLYLINE
  8
LAYER_1
 40
0.0847
 41
0.0847
 66
1
 10
0
 20
0
 30
0
  0
VERTEX
  8
LAYER_1
 10
105.6321
 20
229.0365
  0
VERTEX
  8
LAYER_1
 10
105.6321
 20
231.9205
  0
SEQEND
  0
TEXT
  8
LAYER_1
 10
69.0271
 20
237.1057
 11
69.0271
 21
237.1057
 40
5.1558
 41
0.5
  1
Mimiüiâ~â~üj280É¶û╩â{âEâï ÄµéÞòté»É}
  0
TEXT
  8
LAYER_1
 10
46.4327
 20
139.4081
 11
46.4327
 21
139.4081
 40
3.6606
 41
0.5
  1
üªÅÒïLÄµéÞòté»É}é═üASLAVIA CRYSTAL MimiâRâôâvâèü[âgâZâbâgé­ùpéóé¢éÓé╠éãé╚éÞé▄éÀüB
  0
INSERT
  8
LAYER_1
  2
AIGNBL01010002
 10
0
 20
0
 30
0
  0
INSERT
  8
LAYER_1
  2
AIGNBL0101000D
 10
0
 20
0
 30
0
  0
TEXT
  8
LAYER_1
 10
186.826
 20
54.0008
 11
186.826
 21
54.0008
 40
3.3848
 41
0.5
  1
ü£TEL 0120-65-1232ü£FAX 06-6532-1580
  0
TEXT
  8
LAYER_1
 10
186.826
 20
50.4861
 11
186.826
 21
50.4861
 40
3.3848
 41
0.5
  1
hits@hiratatile.co.jp
  0
INSERT
  8
LAYER_1
  2
AIGNBL0101000E
 10
0
 20
0
 30
0
  0
ENDSEC
  0
EOF
