  0
SECTION
  2
HEADER
  9
$ACADVER
  1
AC1009
  9
$LUNITS
 70
2
  9
$LUPREC
 70
4
  9
$LTSCALE
 40
1.0
  9
$EXTMIN
 10
-33.2277
 20
49.7179
 30
0
  9
$EXTMAX
 10
245.4165
 20
241.0004
 30
0
  0
ENDSEC
  0
SECTION
  2
TABLES
  0
TABLE
  2
LTYPE
 70
256
  0
ENDTAB
  0
TABLE
  2
LAYER
 70
1
  0
LAYER
  2
LAYER_1
 70
64
 62
7
  6
CONTINUOUS
  0
ENDTAB
  0
TABLE
  2
STYLE
 70
6
  0
STYLE
  2
STANDARD
 70
0
 40
0
 50
0
 71
0
 41
0
 42
0
  3
TXT
  4
BIGFONT
  0
ENDTAB
  0
ENDSEC
  0
SECTION
  2
BLOCKS
  0
BLOCK
  8
LAYER_1
  2
AIGNBL01040010
 70
64
 10
0
 20
0
 30
0
  3
AIGNBL01040010
  0
POLYLINE
  8
LAYER_1
 40
0.05
 41
0.05
 66
1
 10
0
 20
0
 30
0
 70
1
  0
VERTEX
  8
LAYER_1
 10
157.5551
 20
53.6067
  0
VERTEX
  8
LAYER_1
 10
157.0662
 20
52.4216
  0
VERTEX
  8
LAYER_1
 10
156.4382
 20
52.4216
  0
VERTEX
  8
LAYER_1
 10
158.0377
 20
56.1874
  0
VERTEX
  8
LAYER_1
 10
158.7709
 20
56.1874
  0
VERTEX
  8
LAYER_1
 10
160.3773
 20
52.4216
  0
VERTEX
  8
LAYER_1
 10
159.7272
 20
52.4216
  0
VERTEX
  8
LAYER_1
 10
159.2246
 20
53.6067
  0
SEQEND
  0
POLYLINE
  8
LAYER_1
 40
0.05
 41
0.05
 66
1
 10
0
 20
0
 30
0
 70
1
  0
VERTEX
  8
LAYER_1
 10
159.0988
 20
53.9856
  0
VERTEX
  8
LAYER_1
 10
158.6379
 20
55.0705
  0
VERTEX
  8
LAYER_1
 10
158.3933
 20
55.7575
  0
VERTEX
  8
LAYER_1
 10
158.3795
 20
55.7575
  0
VERTEX
  8
LAYER_1
 10
158.1418
 20
55.075
  0
VERTEX
  8
LAYER_1
 10
157.6812
 20
53.9856
  0
SEQEND
  0
ENDBLK
  0
BLOCK
  8
LAYER_1
  2
AIGNBL01040011
 70
64
 10
0
 20
0
 30
0
  3
AIGNBL01040011
  0
POLYLINE
  8
LAYER_1
 40
0.05
 41
0.05
 66
1
 10
0
 20
0
 30
0
 70
1
  0
VERTEX
  8
LAYER_1
 10
164.7426
 20
51.8683
 42
-0.01559967508
  0
VERTEX
  8
LAYER_1
 10
162.9405
 20
52.3044
  0
VERTEX
  8
LAYER_1
 10
162.6538
 20
52.3599
 42
-0.08356944747
  0
VERTEX
  8
LAYER_1
 10
161.7898
 20
52.5261
 42
-0.0975043791
  0
VERTEX
  8
LAYER_1
 10
161.1286
 20
52.932
 42
-0.2129077902
  0
VERTEX
  8
LAYER_1
 10
160.5799
 20
54.2647
 42
-0.09684612991
  0
VERTEX
  8
LAYER_1
 10
160.7245
 20
55.0381
 42
-0.2046351071
  0
VERTEX
  8
LAYER_1
 10
161.772
 20
56.0624
 42
-0.09825619238
  0
VERTEX
  8
LAYER_1
 10
162.773
 20
56.2488
 42
-0.08554836282
  0
VERTEX
  8
LAYER_1
 10
163.6416
 20
56.1075
 42
-0.1004347897
  0
VERTEX
  8
LAYER_1
 10
164.3067
 20
55.7132
 42
-0.2140895568
  0
VERTEX
  8
LAYER_1
 10
164.8821
 20
54.3433
 42
-0.09539620281
  0
VERTEX
  8
LAYER_1
 10
164.7432
 20
53.5755
 42
-0.2143310008
  0
VERTEX
  8
LAYER_1
 10
163.7204
 20
52.597
 42
-0.02339132607
  0
VERTEX
  8
LAYER_1
 10
163.5413
 20
52.5387
  0
VERTEX
  8
LAYER_1
 10
163.5413
 20
52.5163
 42
0.01711831943
  0
VERTEX
  8
LAYER_1
 10
164.9176
 20
52.2762
  0
SEQEND
  0
POLYLINE
  8
LAYER_1
 40
0.05
 41
0.05
 66
1
 10
0
 20
0
 30
0
 70
1
  0
VERTEX
  8
LAYER_1
 10
164.2399
 20
54.3219
 42
0.1071511414
  0
VERTEX
  8
LAYER_1
 10
164.0886
 20
55.0267
 42
0.2976450246
  0
VERTEX
  8
LAYER_1
 10
162.7517
 20
55.8522
 42
0.1072291499
  0
VERTEX
  8
LAYER_1
 10
162.0618
 20
55.7127
 42
0.2386106109
  0
VERTEX
  8
LAYER_1
 10
161.2749
 20
54.7071
 42
0.05752849981
  0
VERTEX
  8
LAYER_1
 10
161.2293
 20
54.2771
 42
0.218096749
  0
VERTEX
  8
LAYER_1
 10
161.7599
 20
53.0817
 42
0.1772796408
  0
VERTEX
  8
LAYER_1
 10
162.7237
 20
52.7561
 42
0.1075185771
  0
VERTEX
  8
LAYER_1
 10
163.4051
 20
52.8951
 42
0.2370926009
  0
VERTEX
  8
LAYER_1
 10
164.1922
 20
53.8947
 42
0.05601310134
  0
SEQEND
  0
ENDBLK
  0
BLOCK
  8
LAYER_1
  2
AIGNBL01040012
 70
64
 10
0
 20
0
 30
0
  3
AIGNBL01040012
  0
POLYLINE
  8
LAYER_1
 40
0.05
 41
0.05
 66
1
 10
0
 20
0
 30
0
 70
1
  0
VERTEX
  8
LAYER_1
 10
166.2095
 20
56.1874
  0
VERTEX
  8
LAYER_1
 10
166.2095
 20
53.9581
 42
0.114533087
  0
VERTEX
  8
LAYER_1
 10
166.3434
 20
53.2923
 42
0.1464774934
  0
VERTEX
  8
LAYER_1
 10
166.6938
 20
52.9071
 42
0.1362552487
  0
VERTEX
  8
LAYER_1
 10
167.3061
 20
52.7561
 42
0.1219300979
  0
VERTEX
  8
LAYER_1
 10
167.9292
 20
52.8908
 42
0.1503016186
  0
VERTEX
  8
LAYER_1
 10
168.301
 20
53.2598
 42
0.1256239276
  0
VERTEX
  8
LAYER_1
 10
168.4516
 20
53.9581
  0
VERTEX
  8
LAYER_1
 10
168.4516
 20
56.1874
  0
VERTEX
  8
LAYER_1
 10
169.0662
 20
56.1874
  0
VERTEX
  8
LAYER_1
 10
169.0662
 20
53.9915
 42
-0.09997505101
  0
VERTEX
  8
LAYER_1
 10
168.9313
 20
53.2488
 42
-0.1214984503
  0
VERTEX
  8
LAYER_1
 10
168.558
 20
52.7421
 42
-0.1106235892
  0
VERTEX
  8
LAYER_1
 10
167.9326
 20
52.4355
 42
-0.06128954947
  0
VERTEX
  8
LAYER_1
 10
167.2851
 20
52.3599
 42
-0.09418508724
  0
VERTEX
  8
LAYER_1
 10
166.4659
 20
52.498
 42
-0.2431728796
  0
VERTEX
  8
LAYER_1
 10
165.6624
 20
53.4087
 42
-0.06320085329
  0
VERTEX
  8
LAYER_1
 10
165.5949
 20
53.9695
  0
VERTEX
  8
LAYER_1
 10
165.5949
 20
56.1874
  0
SEQEND
  0
ENDBLK
  0
BLOCK
  8
LAYER_1
  2
AIGNBL01040013
 70
64
 10
0
 20
0
 30
0
  3
AIGNBL01040013
  0
POLYLINE
  8
LAYER_1
 40
0.05
 41
0.05
 66
1
 10
0
 20
0
 30
0
 70
1
  0
VERTEX
  8
LAYER_1
 10
170.8125
 20
53.6067
  0
VERTEX
  8
LAYER_1
 10
170.3233
 20
52.4216
  0
VERTEX
  8
LAYER_1
 10
169.6953
 20
52.4216
  0
VERTEX
  8
LAYER_1
 10
171.2945
 20
56.1874
  0
VERTEX
  8
LAYER_1
 10
172.0276
 20
56.1874
  0
VERTEX
  8
LAYER_1
 10
173.634
 20
52.4216
  0
VERTEX
  8
LAYER_1
 10
172.9846
 20
52.4216
  0
VERTEX
  8
LAYER_1
 10
172.482
 20
53.6067
  0
SEQEND
  0
POLYLINE
  8
LAYER_1
 40
0.05
 41
0.05
 66
1
 10
0
 20
0
 30
0
 70
1
  0
VERTEX
  8
LAYER_1
 10
172.3559
 20
53.9856
  0
VERTEX
  8
LAYER_1
 10
171.8946
 20
55.0705
  0
VERTEX
  8
LAYER_1
 10
171.65
 20
55.7575
  0
VERTEX
  8
LAYER_1
 10
171.6362
 20
55.7575
  0
VERTEX
  8
LAYER_1
 10
171.3989
 20
55.075
  0
VERTEX
  8
LAYER_1
 10
170.9379
 20
53.9856
  0
SEQEND
  0
ENDBLK
  0
BLOCK
  8
LAYER_1
  2
AIGNBL01040014
 70
64
 10
0
 20
0
 30
0
  3
AIGNBL01040014
  0
POLYLINE
  8
LAYER_1
 40
0.05
 41
0.05
 66
1
 10
0
 20
0
 30
0
 70
1
  0
VERTEX
  8
LAYER_1
 10
174.6748
 20
56.1426
 42
-0.03245981043
  0
VERTEX
  8
LAYER_1
 10
175.8416
 20
56.2157
 42
-0.08081710393
  0
VERTEX
  8
LAYER_1
 10
176.7981
 20
56.0839
 42
-0.07812211839
  0
VERTEX
  8
LAYER_1
 10
177.1615
 20
55.9029
 42
-0.2483368586
  0
VERTEX
  8
LAYER_1
 10
177.5731
 20
55.1146
 42
-0.226147
  0
VERTEX
  8
LAYER_1
 10
177.21
 20
54.3105
 42
-0.1097236176
  0
VERTEX
  8
LAYER_1
 10
176.5818
 20
53.9972
 42
-0.06566039781
  0
VERTEX
  8
LAYER_1
 10
175.7714
 20
53.8968
 42
-0.06232747682
  0
VERTEX
  8
LAYER_1
 10
175.2828
 20
53.9302
  0
VERTEX
  8
LAYER_1
 10
175.2828
 20
52.4216
  0
VERTEX
  8
LAYER_1
 10
174.6748
 20
52.4216
  0
SEQEND
  0
POLYLINE
  8
LAYER_1
 40
0.05
 41
0.05
 66
1
 10
0
 20
0
 30
0
 70
1
  0
VERTEX
  8
LAYER_1
 10
175.2828
 20
54.3271
 42
0.04202445636
  0
VERTEX
  8
LAYER_1
 10
175.7852
 20
54.2878
 42
0.1032333559
  0
VERTEX
  8
LAYER_1
 10
176.5043
 20
54.4151
 42
0.1555698608
  0
VERTEX
  8
LAYER_1
 10
176.8691
 20
54.7196
 42
0.1352698132
  0
VERTEX
  8
LAYER_1
 10
176.9661
 20
55.0922
 42
0.1736824711
  0
VERTEX
  8
LAYER_1
 10
176.8313
 20
55.4995
 42
0.151721714
  0
VERTEX
  8
LAYER_1
 10
176.4102
 20
55.759
 42
0.06880216409
  0
VERTEX
  8
LAYER_1
 10
175.8558
 20
55.8298
 42
0.06336772289
  0
VERTEX
  8
LAYER_1
 10
175.2828
 20
55.7906
  0
SEQEND
  0
ENDBLK
  0
BLOCK
  8
LAYER_1
  2
AIGNBL01040015
 70
64
 10
0
 20
0
 30
0
  3
AIGNBL01040015
  0
POLYLINE
  8
LAYER_1
 40
0.05
 41
0.05
 66
1
 10
0
 20
0
 30
0
 70
1
  0
VERTEX
  8
LAYER_1
 10
179.1252
 20
55.8856
 42
-0.276560599
  0
VERTEX
  8
LAYER_1
 10
178.9856
 20
55.6455
 42
-0.1265502936
  0
VERTEX
  8
LAYER_1
 10
178.7335
 20
55.5838
 42
-0.22367962
  0
VERTEX
  8
LAYER_1
 10
178.4232
 20
55.7162
 42
-0.1709078449
  0
VERTEX
  8
LAYER_1
 10
178.3631
 20
55.8856
 42
-0.2643879937
  0
VERTEX
  8
LAYER_1
 10
178.5125
 20
56.1327
 42
-0.1290073663
  0
VERTEX
  8
LAYER_1
 10
178.7472
 20
56.1926
 42
-0.2253241111
  0
VERTEX
  8
LAYER_1
 10
179.0641
 20
56.0619
 42
-0.1691304651
  0
SEQEND
  0
POLYLINE
  8
LAYER_1
 40
0.05
 41
0.05
 66
1
 10
0
 20
0
 30
0
 70
1
  0
VERTEX
  8
LAYER_1
 10
178.4396
 20
52.4216
  0
VERTEX
  8
LAYER_1
 10
178.4396
 20
55.1256
  0
VERTEX
  8
LAYER_1
 10
179.0542
 20
55.1256
  0
VERTEX
  8
LAYER_1
 10
179.0542
 20
52.4216
  0
SEQEND
  0
ENDBLK
  0
BLOCK
  8
LAYER_1
  2
AIGNBL01040016
 70
64
 10
0
 20
0
 30
0
  3
AIGNBL01040016
  0
POLYLINE
  8
LAYER_1
 40
0.05
 41
0.05
 66
1
 10
0
 20
0
 30
0
 70
1
  0
VERTEX
  8
LAYER_1
 10
180.9259
 20
53.6067
  0
VERTEX
  8
LAYER_1
 10
180.4377
 20
52.4216
  0
VERTEX
  8
LAYER_1
 10
179.8087
 20
52.4216
  0
VERTEX
  8
LAYER_1
 10
181.4082
 20
56.1874
  0
VERTEX
  8
LAYER_1
 10
182.142
 20
56.1874
  0
VERTEX
  8
LAYER_1
 10
183.7485
 20
52.4216
  0
VERTEX
  8
LAYER_1
 10
183.0987
 20
52.4216
  0
VERTEX
  8
LAYER_1
 10
182.5961
 20
53.6067
  0
SEQEND
  0
POLYLINE
  8
LAYER_1
 40
0.05
 41
0.05
 66
1
 10
0
 20
0
 30
0
 70
1
  0
VERTEX
  8
LAYER_1
 10
182.47
 20
53.9856
  0
VERTEX
  8
LAYER_1
 10
182.009
 20
55.0705
  0
VERTEX
  8
LAYER_1
 10
181.7651
 20
55.7575
  0
VERTEX
  8
LAYER_1
 10
181.7503
 20
55.7575
  0
VERTEX
  8
LAYER_1
 10
181.5133
 20
55.075
  0
VERTEX
  8
LAYER_1
 10
181.0523
 20
53.9856
  0
SEQEND
  0
ENDBLK
  0
BLOCK
  8
LAYER_1
  2
AIGNBL0103000F
 70
64
 10
0
 20
0
 30
0
  3
AIGNBL0103000F
  0
INSERT
  8
LAYER_1
  2
AIGNBL01040010
 10
0
 20
0
 30
0
  0
INSERT
  8
LAYER_1
  2
AIGNBL01040011
 10
0
 20
0
 30
0
  0
INSERT
  8
LAYER_1
  2
AIGNBL01040012
 10
0
 20
0
 30
0
  0
INSERT
  8
LAYER_1
  2
AIGNBL01040013
 10
0
 20
0
 30
0
  0
INSERT
  8
LAYER_1
  2
AIGNBL01040014
 10
0
 20
0
 30
0
  0
INSERT
  8
LAYER_1
  2
AIGNBL01040015
 10
0
 20
0
 30
0
  0
INSERT
  8
LAYER_1
  2
AIGNBL01040016
 10
0
 20
0
 30
0
  0
ENDBLK
  0
BLOCK
  8
LAYER_1
  2
AIGNBL01030018
 70
64
 10
0
 20
0
 30
0
  3
AIGNBL01030018
  0
POLYLINE
  8
LAYER_1
 40
0.05
 41
0.05
 66
1
 10
0
 20
0
 30
0
 70
1
  0
VERTEX
  8
LAYER_1
 10
156.5481
 20
50.5223
  0
VERTEX
  8
LAYER_1
 10
157.1013
 20
50.5223
  0
VERTEX
  8
LAYER_1
 10
157.1013
 20
50.4286
  0
VERTEX
  8
LAYER_1
 10
156.443
 20
50.4286
  0
VERTEX
  8
LAYER_1
 10
156.443
 20
51.4618
  0
VERTEX
  8
LAYER_1
 10
157.0838
 20
51.4618
  0
VERTEX
  8
LAYER_1
 10
157.0838
 20
51.3684
  0
VERTEX
  8
LAYER_1
 10
156.5481
 20
51.3684
  0
VERTEX
  8
LAYER_1
 10
156.5481
 20
51.0139
  0
VERTEX
  8
LAYER_1
 10
157.0486
 20
51.0139
  0
VERTEX
  8
LAYER_1
 10
157.0486
 20
50.9206
  0
VERTEX
  8
LAYER_1
 10
156.5481
 20
50.9206
  0
SEQEND
  0
ENDBLK
  0
BLOCK
  8
LAYER_1
  2
AIGNBL01030019
 70
64
 10
0
 20
0
 30
0
  3
AIGNBL01030019
  0
POLYLINE
  8
LAYER_1
 40
0.05
 41
0.05
 66
1
 10
0
 20
0
 30
0
 70
1
  0
VERTEX
  8
LAYER_1
 10
158.241
 20
50.5819
  0
VERTEX
  8
LAYER_1
 10
158.2438
 20
50.5819
  0
VERTEX
  8
LAYER_1
 10
158.2438
 20
51.4618
  0
VERTEX
  8
LAYER_1
 10
158.3488
 20
51.4618
  0
VERTEX
  8
LAYER_1
 10
158.3488
 20
50.4286
  0
VERTEX
  8
LAYER_1
 10
158.2179
 20
50.4286
  0
VERTEX
  8
LAYER_1
 10
157.6168
 20
51.3174
  0
VERTEX
  8
LAYER_1
 10
157.6133
 20
51.3174
  0
VERTEX
  8
LAYER_1
 10
157.6133
 20
50.4286
  0
VERTEX
  8
LAYER_1
 10
157.5086
 20
50.4286
  0
VERTEX
  8
LAYER_1
 10
157.5086
 20
51.4618
  0
VERTEX
  8
LAYER_1
 10
157.6398
 20
51.4618
  0
SEQEND
  0
ENDBLK
  0
BLOCK
  8
LAYER_1
  2
AIGNBL0103001A
 70
64
 10
0
 20
0
 30
0
  3
AIGNBL0103001A
  0
POLYLINE
  8
LAYER_1
 40
0.05
 41
0.05
 66
1
 10
0
 20
0
 30
0
 70
1
  0
VERTEX
  8
LAYER_1
 10
158.8218
 20
50.6405
  0
VERTEX
  8
LAYER_1
 10
158.8763
 20
50.5375
 42
0.1809219053
  0
VERTEX
  8
LAYER_1
 10
158.9896
 20
50.4958
  0
VERTEX
  8
LAYER_1
 10
159.0788
 20
50.5154
  0
VERTEX
  8
LAYER_1
 10
159.135
 20
50.5688
  0
VERTEX
  8
LAYER_1
 10
159.1639
 20
50.6453
  0
VERTEX
  8
LAYER_1
 10
159.1722
 20
50.7349
  0
VERTEX
  8
LAYER_1
 10
159.1722
 20
51.4618
  0
VERTEX
  8
LAYER_1
 10
159.2773
 20
51.4618
  0
VERTEX
  8
LAYER_1
 10
159.2773
 20
50.7263
  0
VERTEX
  8
LAYER_1
 10
159.2659
 20
50.6184
  0
VERTEX
  8
LAYER_1
 10
159.2246
 20
50.5134
  0
VERTEX
  8
LAYER_1
 10
159.1398
 20
50.4338
  0
VERTEX
  8
LAYER_1
 10
159.001
 20
50.4024
 42
-0.1846674817
  0
VERTEX
  8
LAYER_1
 10
158.8163
 20
50.4624
 42
-0.1764563828
  0
VERTEX
  8
LAYER_1
 10
158.724
 20
50.6139
  0
SEQEND
  0
ENDBLK
  0
BLOCK
  8
LAYER_1
  2
AIGNBL0103001B
 70
64
 10
0
 20
0
 30
0
  3
AIGNBL0103001B
  0
POLYLINE
  8
LAYER_1
 40
0.05
 41
0.05
 66
1
 10
0
 20
0
 30
0
 70
1
  0
VERTEX
  8
LAYER_1
 10
160.7656
 20
50.9454
 42
-0.103587114
  0
VERTEX
  8
LAYER_1
 10
160.7246
 20
50.728
 42
-0.1000549391
  0
VERTEX
  8
LAYER_1
 10
160.6119
 20
50.5564
  0
VERTEX
  8
LAYER_1
 10
160.441
 20
50.4434
 42
-0.09506675375
  0
VERTEX
  8
LAYER_1
 10
160.2271
 20
50.4024
 42
-0.1010765979
  0
VERTEX
  8
LAYER_1
 10
160.0135
 20
50.4434
 42
-0.1005668876
  0
VERTEX
  8
LAYER_1
 10
159.8426
 20
50.5564
 42
-0.09506076213
  0
VERTEX
  8
LAYER_1
 10
159.7293
 20
50.728
 42
-0.0931359716
  0
VERTEX
  8
LAYER_1
 10
159.6886
 20
50.9454
 42
-0.1020962526
  0
VERTEX
  8
LAYER_1
 10
159.7293
 20
51.1628
 42
-0.1007559602
  0
VERTEX
  8
LAYER_1
 10
159.8426
 20
51.3343
 42
-0.09625543395
  0
VERTEX
  8
LAYER_1
 10
160.0135
 20
51.4473
 42
-0.0952064105
  0
VERTEX
  8
LAYER_1
 10
160.2271
 20
51.4883
 42
-0.101175466
  0
VERTEX
  8
LAYER_1
 10
160.441
 20
51.4473
 42
-0.09853409661
  0
VERTEX
  8
LAYER_1
 10
160.6119
 20
51.3343
 42
-0.09562840933
  0
VERTEX
  8
LAYER_1
 10
160.7246
 20
51.1628
 42
-0.09393796777
  0
SEQEND
  0
POLYLINE
  8
LAYER_1
 40
0.05
 41
0.05
 66
1
 10
0
 20
0
 30
0
 70
1
  0
VERTEX
  8
LAYER_1
 10
160.6546
 20
50.9447
  0
VERTEX
  8
LAYER_1
 10
160.6257
 20
51.1166
  0
VERTEX
  8
LAYER_1
 10
160.5409
 20
51.2599
  0
VERTEX
  8
LAYER_1
 10
160.4059
 20
51.3581
  0
VERTEX
  8
LAYER_1
 10
160.2271
 20
51.395
  0
VERTEX
  8
LAYER_1
 10
160.0483
 20
51.3581
  0
VERTEX
  8
LAYER_1
 10
159.9136
 20
51.2599
  0
VERTEX
  8
LAYER_1
 10
159.8289
 20
51.1166
  0
VERTEX
  8
LAYER_1
 10
159.7996
 20
50.9447
  0
VERTEX
  8
LAYER_1
 10
159.8289
 20
50.7728
  0
VERTEX
  8
LAYER_1
 10
159.9136
 20
50.6298
  0
VERTEX
  8
LAYER_1
 10
160.0483
 20
50.5323
 42
0.1008257054
  0
VERTEX
  8
LAYER_1
 10
160.2271
 20
50.4958
  0
VERTEX
  8
LAYER_1
 10
160.4059
 20
50.5323
  0
VERTEX
  8
LAYER_1
 10
160.5409
 20
50.6298
  0
VERTEX
  8
LAYER_1
 10
160.6257
 20
50.7728
  0
SEQEND
  0
ENDBLK
  0
BLOCK
  8
LAYER_1
  2
AIGNBL0103001C
 70
64
 10
0
 20
0
 30
0
  3
AIGNBL0103001C
  0
POLYLINE
  8
LAYER_1
 40
0.05
 41
0.05
 66
1
 10
0
 20
0
 30
0
 70
1
  0
VERTEX
  8
LAYER_1
 10
161.5404
 20
50.4286
  0
VERTEX
  8
LAYER_1
 10
161.4356
 20
50.4286
  0
VERTEX
  8
LAYER_1
 10
161.4356
 20
50.874
  0
VERTEX
  8
LAYER_1
 10
161.0488
 20
51.4618
  0
VERTEX
  8
LAYER_1
 10
161.18
 20
51.4618
  0
VERTEX
  8
LAYER_1
 10
161.4911
 20
50.9616
  0
VERTEX
  8
LAYER_1
 10
161.8046
 20
51.4618
  0
VERTEX
  8
LAYER_1
 10
161.9269
 20
51.4618
  0
VERTEX
  8
LAYER_1
 10
161.5404
 20
50.874
  0
SEQEND
  0
ENDBLK
  0
BLOCK
  8
LAYER_1
  2
AIGNBL0103001D
 70
64
 10
0
 20
0
 30
0
  3
AIGNBL0103001D
  0
POLYLINE
  8
LAYER_1
 40
0.05
 41
0.05
 66
1
 10
0
 20
0
 30
0
 70
1
  0
VERTEX
  8
LAYER_1
 10
162.8319
 20
51.4618
  0
VERTEX
  8
LAYER_1
 10
163.1396
 20
51.4618
  0
VERTEX
  8
LAYER_1
 10
163.2581
 20
51.4494
  0
VERTEX
  8
LAYER_1
 10
163.3649
 20
51.407
  0
VERTEX
  8
LAYER_1
 10
163.4427
 20
51.3261
  0
VERTEX
  8
LAYER_1
 10
163.4724
 20
51.1979
 42
-0.1787887146
  0
VERTEX
  8
LAYER_1
 10
163.4224
 20
51.0556
 42
-0.1642670326
  0
VERTEX
  8
LAYER_1
 10
163.2891
 20
50.976
  0
VERTEX
  8
LAYER_1
 10
163.2891
 20
50.9733
 42
-0.1734673322
  0
VERTEX
  8
LAYER_1
 10
163.4558
 20
50.8951
 42
-0.1923137572
  0
VERTEX
  8
LAYER_1
 10
163.522
 20
50.7146
  0
VERTEX
  8
LAYER_1
 10
163.4948
 20
50.5974
  0
VERTEX
  8
LAYER_1
 10
163.4186
 20
50.5068
  0
VERTEX
  8
LAYER_1
 10
163.2977
 20
50.4493
  0
VERTEX
  8
LAYER_1
 10
163.1379
 20
50.4286
  0
VERTEX
  8
LAYER_1
 10
162.8319
 20
50.4286
  0
SEQEND
  0
POLYLINE
  8
LAYER_1
 40
0.05
 41
0.05
 66
1
 10
0
 20
0
 30
0
 70
1
  0
VERTEX
  8
LAYER_1
 10
162.937
 20
51.0094
  0
VERTEX
  8
LAYER_1
 10
163.1485
 20
51.0094
  0
VERTEX
  8
LAYER_1
 10
163.2254
 20
51.0184
  0
VERTEX
  8
LAYER_1
 10
163.2956
 20
51.048
  0
VERTEX
  8
LAYER_1
 10
163.3477
 20
51.1045
  0
VERTEX
  8
LAYER_1
 10
163.3673
 20
51.1907
  0
VERTEX
  8
LAYER_1
 10
163.3477
 20
51.2744
  0
VERTEX
  8
LAYER_1
 10
163.2946
 20
51.3305
  0
VERTEX
  8
LAYER_1
 10
163.2157
 20
51.3619
  0
VERTEX
  8
LAYER_1
 10
163.1192
 20
51.3715
  0
VERTEX
  8
LAYER_1
 10
162.937
 20
51.3715
  0
SEQEND
  0
POLYLINE
  8
LAYER_1
 40
0.05
 41
0.05
 66
1
 10
0
 20
0
 30
0
 70
1
  0
VERTEX
  8
LAYER_1
 10
162.937
 20
50.5192
  0
VERTEX
  8
LAYER_1
 10
163.1327
 20
50.5192
  0
VERTEX
  8
LAYER_1
 10
163.2412
 20
50.5302
  0
VERTEX
  8
LAYER_1
 10
163.3318
 20
50.565
  0
VERTEX
  8
LAYER_1
 10
163.3935
 20
50.6281
  0
VERTEX
  8
LAYER_1
 10
163.4169
 20
50.7208
 42
0.2554060681
  0
VERTEX
  8
LAYER_1
 10
163.3477
 20
50.873
 42
0.1380642909
  0
VERTEX
  8
LAYER_1
 10
163.1516
 20
50.9233
  0
VERTEX
  8
LAYER_1
 10
162.937
 20
50.9233
  0
SEQEND
  0
ENDBLK
  0
BLOCK
  8
LAYER_1
  2
AIGNBL0103001E
 70
64
 10
0
 20
0
 30
0
  3
AIGNBL0103001E
  0
POLYLINE
  8
LAYER_1
 40
0.05
 41
0.05
 66
1
 10
0
 20
0
 30
0
 70
1
  0
VERTEX
  8
LAYER_1
 10
163.954
 20
50.4286
  0
VERTEX
  8
LAYER_1
 10
163.8386
 20
50.4286
  0
VERTEX
  8
LAYER_1
 10
164.2854
 20
51.4618
  0
VERTEX
  8
LAYER_1
 10
164.3877
 20
51.4618
  0
VERTEX
  8
LAYER_1
 10
164.8311
 20
50.4286
  0
VERTEX
  8
LAYER_1
 10
164.7143
 20
50.4286
  0
VERTEX
  8
LAYER_1
 10
164.6003
 20
50.7001
  0
VERTEX
  8
LAYER_1
 10
164.0663
 20
50.7001
  0
SEQEND
  0
POLYLINE
  8
LAYER_1
 40
0.05
 41
0.05
 66
1
 10
0
 20
0
 30
0
 70
1
  0
VERTEX
  8
LAYER_1
 10
164.1056
 20
50.7965
  0
VERTEX
  8
LAYER_1
 10
164.561
 20
50.7965
  0
VERTEX
  8
LAYER_1
 10
164.3333
 20
51.3454
  0
SEQEND
  0
ENDBLK
  0
BLOCK
  8
LAYER_1
  2
AIGNBL0103001F
 70
64
 10
0
 20
0
 30
0
  3
AIGNBL0103001F
  0
POLYLINE
  8
LAYER_1
 40
0.05
 41
0.05
 66
1
 10
0
 20
0
 30
0
 70
1
  0
VERTEX
  8
LAYER_1
 10
165.5157
 20
50.4286
  0
VERTEX
  8
LAYER_1
 10
165.4106
 20
50.4286
  0
VERTEX
  8
LAYER_1
 10
165.4106
 20
51.3684
  0
VERTEX
  8
LAYER_1
 10
165.0644
 20
51.3684
  0
VERTEX
  8
LAYER_1
 10
165.0644
 20
51.4618
  0
VERTEX
  8
LAYER_1
 10
165.8612
 20
51.4618
  0
VERTEX
  8
LAYER_1
 10
165.8612
 20
51.3684
  0
VERTEX
  8
LAYER_1
 10
165.5157
 20
51.3684
  0
SEQEND
  0
ENDBLK
  0
BLOCK
  8
LAYER_1
  2
AIGNBL01030020
 70
64
 10
0
 20
0
 30
0
  3
AIGNBL01030020
  0
POLYLINE
  8
LAYER_1
 40
0.05
 41
0.05
 66
1
 10
0
 20
0
 30
0
 70
1
  0
VERTEX
  8
LAYER_1
 10
166.2174
 20
51.4618
  0
VERTEX
  8
LAYER_1
 10
166.3221
 20
51.4618
  0
VERTEX
  8
LAYER_1
 10
166.3221
 20
51.0139
  0
VERTEX
  8
LAYER_1
 10
166.8858
 20
51.0139
  0
VERTEX
  8
LAYER_1
 10
166.8858
 20
51.4618
  0
VERTEX
  8
LAYER_1
 10
166.9908
 20
51.4618
  0
VERTEX
  8
LAYER_1
 10
166.9908
 20
50.4286
  0
VERTEX
  8
LAYER_1
 10
166.8858
 20
50.4286
  0
VERTEX
  8
LAYER_1
 10
166.8858
 20
50.9178
  0
VERTEX
  8
LAYER_1
 10
166.3221
 20
50.9178
  0
VERTEX
  8
LAYER_1
 10
166.3221
 20
50.4286
  0
VERTEX
  8
LAYER_1
 10
166.2174
 20
50.4286
  0
SEQEND
  0
ENDBLK
  0
BLOCK
  8
LAYER_1
  2
AIGNBL01030021
 70
64
 10
0
 20
0
 30
0
  3
AIGNBL01030021
  0
POLYLINE
  8
LAYER_1
 40
0.05
 41
0.05
 66
1
 10
0
 20
0
 30
0
 70
1
  0
VERTEX
  8
LAYER_1
 10
167.5713
 20
50.4286
  0
VERTEX
  8
LAYER_1
 10
167.4663
 20
50.4286
  0
VERTEX
  8
LAYER_1
 10
167.4663
 20
51.4618
  0
VERTEX
  8
LAYER_1
 10
167.7701
 20
51.4618
  0
VERTEX
  8
LAYER_1
 10
167.9107
 20
51.4473
  0
VERTEX
  8
LAYER_1
 10
168.0233
 20
51.3998
  0
VERTEX
  8
LAYER_1
 10
168.0967
 20
51.3143
  0
VERTEX
  8
LAYER_1
 10
168.1229
 20
51.1862
  0
VERTEX
  8
LAYER_1
 10
168.1029
 20
51.0825
  0
VERTEX
  8
LAYER_1
 10
168.0475
 20
51.0015
  0
VERTEX
  8
LAYER_1
 10
167.9641
 20
50.9467
  0
VERTEX
  8
LAYER_1
 10
167.859
 20
50.9206
  0
VERTEX
  8
LAYER_1
 10
168.1611
 20
50.4286
  0
VERTEX
  8
LAYER_1
 10
168.0327
 20
50.4286
  0
VERTEX
  8
LAYER_1
 10
167.7467
 20
50.9116
  0
VERTEX
  8
LAYER_1
 10
167.5713
 20
50.9116
  0
SEQEND
  0
POLYLINE
  8
LAYER_1
 40
0.05
 41
0.05
 66
1
 10
0
 20
0
 30
0
 70
1
  0
VERTEX
  8
LAYER_1
 10
167.5713
 20
51.0022
  0
VERTEX
  8
LAYER_1
 10
167.7539
 20
51.0022
 42
0.1657798624
  0
VERTEX
  8
LAYER_1
 10
167.9496
 20
51.048
 42
0.2503949893
  0
VERTEX
  8
LAYER_1
 10
168.0182
 20
51.1862
  0
VERTEX
  8
LAYER_1
 10
167.9989
 20
51.272
  0
VERTEX
  8
LAYER_1
 10
167.9465
 20
51.3292
  0
VERTEX
  8
LAYER_1
 10
167.8649
 20
51.3612
  0
VERTEX
  8
LAYER_1
 10
167.7584
 20
51.3715
  0
VERTEX
  8
LAYER_1
 10
167.5713
 20
51.3715
  0
SEQEND
  0
ENDBLK
  0
BLOCK
  8
LAYER_1
  2
AIGNBL01030022
 70
64
 10
0
 20
0
 30
0
  3
AIGNBL01030022
  0
POLYLINE
  8
LAYER_1
 40
0.05
 41
0.05
 66
1
 10
0
 20
0
 30
0
 70
1
  0
VERTEX
  8
LAYER_1
 10
169.5633
 20
50.9454
 42
-0.1000954639
  0
VERTEX
  8
LAYER_1
 10
169.5227
 20
50.728
 42
-0.1001905425
  0
VERTEX
  8
LAYER_1
 10
169.4093
 20
50.5564
 42
-0.09598116796
  0
VERTEX
  8
LAYER_1
 10
169.2388
 20
50.4434
 42
-0.09506675375
  0
VERTEX
  8
LAYER_1
 10
169.0249
 20
50.4024
 42
-0.1012184087
  0
VERTEX
  8
LAYER_1
 10
168.8109
 20
50.4434
 42
-0.1000476754
  0
VERTEX
  8
LAYER_1
 10
168.6404
 20
50.5564
 42
-0.09638651026
  0
VERTEX
  8
LAYER_1
 10
168.5274
 20
50.728
 42
-0.0931359716
  0
VERTEX
  8
LAYER_1
 10
168.4867
 20
50.9454
 42
-0.1020962526
  0
VERTEX
  8
LAYER_1
 10
168.5274
 20
51.1628
 42
-0.101889112
  0
VERTEX
  8
LAYER_1
 10
168.6404
 20
51.3343
 42
-0.09563682649
  0
VERTEX
  8
LAYER_1
 10
168.8109
 20
51.4473
 42
-0.0950295922
  0
VERTEX
  8
LAYER_1
 10
169.0249
 20
51.4883
 42
-0.101175466
  0
VERTEX
  8
LAYER_1
 10
169.2388
 20
51.4473
 42
-0.101575919
  0
VERTEX
  8
LAYER_1
 10
169.4093
 20
51.3343
 42
-0.09449174073
  0
VERTEX
  8
LAYER_1
 10
169.5227
 20
51.1628
 42
-0.09273041258
  0
SEQEND
  0
POLYLINE
  8
LAYER_1
 40
0.05
 41
0.05
 66
1
 10
0
 20
0
 30
0
 70
1
  0
VERTEX
  8
LAYER_1
 10
169.4524
 20
50.9447
  0
VERTEX
  8
LAYER_1
 10
169.4231
 20
51.1166
  0
VERTEX
  8
LAYER_1
 10
169.3383
 20
51.2599
  0
VERTEX
  8
LAYER_1
 10
169.2036
 20
51.3581
  0
VERTEX
  8
LAYER_1
 10
169.0249
 20
51.395
  0
VERTEX
  8
LAYER_1
 10
168.846
 20
51.3581
  0
VERTEX
  8
LAYER_1
 10
168.711
 20
51.2599
  0
VERTEX
  8
LAYER_1
 10
168.6262
 20
51.1166
  0
VERTEX
  8
LAYER_1
 10
168.5973
 20
50.9447
  0
VERTEX
  8
LAYER_1
 10
168.6262
 20
50.7728
  0
VERTEX
  8
LAYER_1
 10
168.711
 20
50.6298
  0
VERTEX
  8
LAYER_1
 10
168.846
 20
50.5323
  0
VERTEX
  8
LAYER_1
 10
169.0249
 20
50.4958
  0
VERTEX
  8
LAYER_1
 10
169.2036
 20
50.5323
  0
VERTEX
  8
LAYER_1
 10
169.3383
 20
50.6298
  0
VERTEX
  8
LAYER_1
 10
169.4231
 20
50.7728
  0
SEQEND
  0
ENDBLK
  0
BLOCK
  8
LAYER_1
  2
AIGNBL01030023
 70
64
 10
0
 20
0
 30
0
  3
AIGNBL01030023
  0
POLYLINE
  8
LAYER_1
 40
0.05
 41
0.05
 66
1
 10
0
 20
0
 30
0
 70
1
  0
VERTEX
  8
LAYER_1
 10
171.0051
 20
50.9454
 42
-0.1041417444
  0
VERTEX
  8
LAYER_1
 10
170.9641
 20
50.728
 42
-0.1000549391
  0
VERTEX
  8
LAYER_1
 10
170.8514
 20
50.5564
 42
-0.09536478376
  0
VERTEX
  8
LAYER_1
 10
170.6805
 20
50.4434
 42
-0.09507606236
  0
VERTEX
  8
LAYER_1
 10
170.4666
 20
50.4024
 42
-0.101822328
  0
VERTEX
  8
LAYER_1
 10
170.253
 20
50.4434
 42
-0.102112669
  0
VERTEX
  8
LAYER_1
 10
170.0821
 20
50.5564
 42
-0.09442769366
  0
VERTEX
  8
LAYER_1
 10
169.9688
 20
50.728
 42
-0.0931359716
  0
VERTEX
  8
LAYER_1
 10
169.9281
 20
50.9454
 42
-0.1020962526
  0
VERTEX
  8
LAYER_1
 10
169.9688
 20
51.1628
 42
-0.1007688052
  0
VERTEX
  8
LAYER_1
 10
170.0821
 20
51.3343
 42
-0.09625543395
  0
VERTEX
  8
LAYER_1
 10
170.253
 20
51.4473
 42
-0.09528409444
  0
VERTEX
  8
LAYER_1
 10
170.4666
 20
51.4883
 42
-0.101185532
  0
VERTEX
  8
LAYER_1
 10
170.6805
 20
51.4473
 42
-0.09904343471
  0
VERTEX
  8
LAYER_1
 10
170.8514
 20
51.3343
 42
-0.09562840933
  0
VERTEX
  8
LAYER_1
 10
170.9641
 20
51.1628
 42
-0.09397287008
  0
SEQEND
  0
POLYLINE
  8
LAYER_1
 40
0.05
 41
0.05
 66
1
 10
0
 20
0
 30
0
 70
1
  0
VERTEX
  8
LAYER_1
 10
170.8941
 20
50.9447
  0
VERTEX
  8
LAYER_1
 10
170.8652
 20
51.1166
  0
VERTEX
  8
LAYER_1
 10
170.7804
 20
51.2599
  0
VERTEX
  8
LAYER_1
 10
170.6454
 20
51.3581
  0
VERTEX
  8
LAYER_1
 10
170.4666
 20
51.395
  0
VERTEX
  8
LAYER_1
 10
170.2878
 20
51.3581
  0
VERTEX
  8
LAYER_1
 10
170.1531
 20
51.2599
  0
VERTEX
  8
LAYER_1
 10
170.0684
 20
51.1166
  0
VERTEX
  8
LAYER_1
 10
170.0391
 20
50.9447
  0
VERTEX
  8
LAYER_1
 10
170.0684
 20
50.7728
  0
VERTEX
  8
LAYER_1
 10
170.1531
 20
50.6298
  0
VERTEX
  8
LAYER_1
 10
170.2878
 20
50.5323
  0
VERTEX
  8
LAYER_1
 10
170.4666
 20
50.4958
  0
VERTEX
  8
LAYER_1
 10
170.6454
 20
50.5323
  0
VERTEX
  8
LAYER_1
 10
170.7804
 20
50.6298
  0
VERTEX
  8
LAYER_1
 10
170.8652
 20
50.7728
  0
SEQEND
  0
ENDBLK
  0
BLOCK
  8
LAYER_1
  2
AIGNBL01030024
 70
64
 10
0
 20
0
 30
0
  3
AIGNBL01030024
  0
POLYLINE
  8
LAYER_1
 40
0.05
 41
0.05
 66
1
 10
0
 20
0
 30
0
 70
1
  0
VERTEX
  8
LAYER_1
 10
171.9359
 20
50.6067
  0
VERTEX
  8
LAYER_1
 10
171.9377
 20
50.6067
  0
VERTEX
  8
LAYER_1
 10
172.2832
 20
51.4618
  0
VERTEX
  8
LAYER_1
 10
172.4441
 20
51.4618
  0
VERTEX
  8
LAYER_1
 10
172.4441
 20
50.4286
  0
VERTEX
  8
LAYER_1
 10
172.3387
 20
50.4286
  0
VERTEX
  8
LAYER_1
 10
172.3387
 20
51.3261
  0
VERTEX
  8
LAYER_1
 10
172.3359
 20
51.3261
  0
VERTEX
  8
LAYER_1
 10
171.9625
 20
50.4286
  0
VERTEX
  8
LAYER_1
 10
171.907
 20
50.4286
  0
VERTEX
  8
LAYER_1
 10
171.5332
 20
51.3261
  0
VERTEX
  8
LAYER_1
 10
171.5305
 20
51.3261
  0
VERTEX
  8
LAYER_1
 10
171.5305
 20
50.4286
  0
VERTEX
  8
LAYER_1
 10
171.4254
 20
50.4286
  0
VERTEX
  8
LAYER_1
 10
171.4254
 20
51.4618
  0
VERTEX
  8
LAYER_1
 10
171.5859
 20
51.4618
  0
SEQEND
  0
ENDBLK
  0
BLOCK
  8
LAYER_1
  2
AIGNBL01030025
 70
64
 10
0
 20
0
 30
0
  3
AIGNBL01030025
  0
POLYLINE
  8
LAYER_1
 40
0.05
 41
0.05
 66
1
 10
0
 20
0
 30
0
 70
1
  0
VERTEX
  8
LAYER_1
 10
173.5906
 20
50.5223
  0
VERTEX
  8
LAYER_1
 10
174.1439
 20
50.5223
  0
VERTEX
  8
LAYER_1
 10
174.1439
 20
50.4286
  0
VERTEX
  8
LAYER_1
 10
173.4855
 20
50.4286
  0
VERTEX
  8
LAYER_1
 10
173.4855
 20
51.4618
  0
VERTEX
  8
LAYER_1
 10
174.1263
 20
51.4618
  0
VERTEX
  8
LAYER_1
 10
174.1263
 20
51.3684
  0
VERTEX
  8
LAYER_1
 10
173.5906
 20
51.3684
  0
VERTEX
  8
LAYER_1
 10
173.5906
 20
51.0139
  0
VERTEX
  8
LAYER_1
 10
174.0912
 20
51.0139
  0
VERTEX
  8
LAYER_1
 10
174.0912
 20
50.9206
  0
VERTEX
  8
LAYER_1
 10
173.5906
 20
50.9206
  0
SEQEND
  0
ENDBLK
  0
BLOCK
  8
LAYER_1
  2
AIGNBL01030026
 70
64
 10
0
 20
0
 30
0
  3
AIGNBL01030026
  0
POLYLINE
  8
LAYER_1
 40
0.05
 41
0.05
 66
1
 10
0
 20
0
 30
0
 70
1
  0
VERTEX
  8
LAYER_1
 10
174.8891
 20
51.0446
  0
VERTEX
  8
LAYER_1
 10
175.1712
 20
51.4618
  0
VERTEX
  8
LAYER_1
 10
175.2963
 20
51.4618
  0
VERTEX
  8
LAYER_1
 10
174.9538
 20
50.9702
  0
VERTEX
  8
LAYER_1
 10
175.3332
 20
50.4286
  0
VERTEX
  8
LAYER_1
 10
175.2019
 20
50.4286
  0
VERTEX
  8
LAYER_1
 10
174.8863
 20
50.8944
  0
VERTEX
  8
LAYER_1
 10
174.5728
 20
50.4286
  0
VERTEX
  8
LAYER_1
 10
174.4412
 20
50.4286
  0
VERTEX
  8
LAYER_1
 10
174.8209
 20
50.9715
  0
VERTEX
  8
LAYER_1
 10
174.475
 20
51.4618
  0
VERTEX
  8
LAYER_1
 10
174.6066
 20
51.4618
  0
SEQEND
  0
ENDBLK
  0
BLOCK
  8
LAYER_1
  2
AIGNBL01030027
 70
64
 10
0
 20
0
 30
0
  3
AIGNBL01030027
  0
POLYLINE
  8
LAYER_1
 40
0.05
 41
0.05
 66
1
 10
0
 20
0
 30
0
 70
1
  0
VERTEX
  8
LAYER_1
 10
175.6994
 20
51.4618
  0
VERTEX
  8
LAYER_1
 10
175.9915
 20
51.4618
  0
VERTEX
  8
LAYER_1
 10
176.1345
 20
51.4453
  0
VERTEX
  8
LAYER_1
 10
176.2444
 20
51.3939
  0
VERTEX
  8
LAYER_1
 10
176.3154
 20
51.3078
  0
VERTEX
  8
LAYER_1
 10
176.3398
 20
51.1862
  0
VERTEX
  8
LAYER_1
 10
176.3147
 20
51.0642
  0
VERTEX
  8
LAYER_1
 10
176.243
 20
50.9781
  0
VERTEX
  8
LAYER_1
 10
176.1321
 20
50.9264
  0
VERTEX
  8
LAYER_1
 10
175.9884
 20
50.9089
  0
VERTEX
  8
LAYER_1
 10
175.8044
 20
50.9089
  0
VERTEX
  8
LAYER_1
 10
175.8044
 20
50.4286
  0
VERTEX
  8
LAYER_1
 10
175.6994
 20
50.4286
  0
SEQEND
  0
POLYLINE
  8
LAYER_1
 40
0.05
 41
0.05
 66
1
 10
0
 20
0
 30
0
 70
1
  0
VERTEX
  8
LAYER_1
 10
175.8044
 20
50.9977
  0
VERTEX
  8
LAYER_1
 10
175.9822
 20
50.9977
 42
0.1829203509
  0
VERTEX
  8
LAYER_1
 10
176.1706
 20
51.0459
 42
0.2347011275
  0
VERTEX
  8
LAYER_1
 10
176.2351
 20
51.1862
 42
0.26486771
  0
VERTEX
  8
LAYER_1
 10
176.1686
 20
51.3271
 42
0.126412566
  0
VERTEX
  8
LAYER_1
 10
175.9822
 20
51.3715
  0
VERTEX
  8
LAYER_1
 10
175.8044
 20
51.3715
  0
SEQEND
  0
ENDBLK
  0
BLOCK
  8
LAYER_1
  2
AIGNBL01030028
 70
64
 10
0
 20
0
 30
0
  3
AIGNBL01030028
  0
POLYLINE
  8
LAYER_1
 40
0.05
 41
0.05
 66
1
 10
0
 20
0
 30
0
 70
1
  0
VERTEX
  8
LAYER_1
 10
176.8521
 20
50.5223
  0
VERTEX
  8
LAYER_1
 10
177.4054
 20
50.5223
  0
VERTEX
  8
LAYER_1
 10
177.4054
 20
50.4286
  0
VERTEX
  8
LAYER_1
 10
176.747
 20
50.4286
  0
VERTEX
  8
LAYER_1
 10
176.747
 20
51.4618
  0
VERTEX
  8
LAYER_1
 10
177.3878
 20
51.4618
  0
VERTEX
  8
LAYER_1
 10
177.3878
 20
51.3684
  0
VERTEX
  8
LAYER_1
 10
176.8521
 20
51.3684
  0
VERTEX
  8
LAYER_1
 10
176.8521
 20
51.0139
  0
VERTEX
  8
LAYER_1
 10
177.3527
 20
51.0139
  0
VERTEX
  8
LAYER_1
 10
177.3527
 20
50.9206
  0
VERTEX
  8
LAYER_1
 10
176.8521
 20
50.9206
  0
SEQEND
  0
ENDBLK
  0
BLOCK
  8
LAYER_1
  2
AIGNBL01030029
 70
64
 10
0
 20
0
 30
0
  3
AIGNBL01030029
  0
POLYLINE
  8
LAYER_1
 40
0.05
 41
0.05
 66
1
 10
0
 20
0
 30
0
 70
1
  0
VERTEX
  8
LAYER_1
 10
177.9173
 20
50.4286
  0
VERTEX
  8
LAYER_1
 10
177.8122
 20
50.4286
  0
VERTEX
  8
LAYER_1
 10
177.8122
 20
51.4618
  0
VERTEX
  8
LAYER_1
 10
178.1161
 20
51.4618
  0
VERTEX
  8
LAYER_1
 10
178.2567
 20
51.4473
  0
VERTEX
  8
LAYER_1
 10
178.3693
 20
51.3998
  0
VERTEX
  8
LAYER_1
 10
178.443
 20
51.3143
  0
VERTEX
  8
LAYER_1
 10
178.4689
 20
51.1862
  0
VERTEX
  8
LAYER_1
 10
178.4489
 20
51.0825
  0
VERTEX
  8
LAYER_1
 10
178.3934
 20
51.0015
  0
VERTEX
  8
LAYER_1
 10
178.3101
 20
50.9467
  0
VERTEX
  8
LAYER_1
 10
178.205
 20
50.9206
  0
VERTEX
  8
LAYER_1
 10
178.5071
 20
50.4286
  0
VERTEX
  8
LAYER_1
 10
178.3786
 20
50.4286
  0
VERTEX
  8
LAYER_1
 10
178.0927
 20
50.9116
  0
VERTEX
  8
LAYER_1
 10
177.9173
 20
50.9116
  0
SEQEND
  0
POLYLINE
  8
LAYER_1
 40
0.05
 41
0.05
 66
1
 10
0
 20
0
 30
0
 70
1
  0
VERTEX
  8
LAYER_1
 10
177.9173
 20
51.0022
  0
VERTEX
  8
LAYER_1
 10
178.0999
 20
51.0022
 42
0.1667734107
  0
VERTEX
  8
LAYER_1
 10
178.2956
 20
51.048
 42
0.2503091692
  0
VERTEX
  8
LAYER_1
 10
178.3641
 20
51.1862
  0
VERTEX
  8
LAYER_1
 10
178.3452
 20
51.272
  0
VERTEX
  8
LAYER_1
 10
178.2925
 20
51.3292
  0
VERTEX
  8
LAYER_1
 10
178.2108
 20
51.3612
  0
VERTEX
  8
LAYER_1
 10
178.1044
 20
51.3715
  0
VERTEX
  8
LAYER_1
 10
177.9173
 20
51.3715
  0
SEQEND
  0
ENDBLK
  0
BLOCK
  8
LAYER_1
  2
AIGNBL0103002A
 70
64
 10
0
 20
0
 30
0
  3
AIGNBL0103002A
  0
POLYLINE
  8
LAYER_1
 40
0.05
 41
0.05
 66
1
 10
0
 20
0
 30
0
 70
1
  0
VERTEX
  8
LAYER_1
 10
178.9929
 20
50.4286
  0
VERTEX
  8
LAYER_1
 10
178.8882
 20
50.4286
  0
VERTEX
  8
LAYER_1
 10
178.8882
 20
51.4618
  0
VERTEX
  8
LAYER_1
 10
178.9929
 20
51.4618
  0
SEQEND
  0
ENDBLK
  0
BLOCK
  8
LAYER_1
  2
AIGNBL0103002B
 70
64
 10
0
 20
0
 30
0
  3
AIGNBL0103002B
  0
POLYLINE
  8
LAYER_1
 40
0.05
 41
0.05
 66
1
 10
0
 20
0
 30
0
 70
1
  0
VERTEX
  8
LAYER_1
 10
179.5737
 20
50.5223
  0
VERTEX
  8
LAYER_1
 10
180.1267
 20
50.5223
  0
VERTEX
  8
LAYER_1
 10
180.1267
 20
50.4286
  0
VERTEX
  8
LAYER_1
 10
179.4687
 20
50.4286
  0
VERTEX
  8
LAYER_1
 10
179.4687
 20
51.4618
  0
VERTEX
  8
LAYER_1
 10
180.1094
 20
51.4618
  0
VERTEX
  8
LAYER_1
 10
180.1094
 20
51.3684
  0
VERTEX
  8
LAYER_1
 10
179.5737
 20
51.3684
  0
VERTEX
  8
LAYER_1
 10
179.5737
 20
51.0139
  0
VERTEX
  8
LAYER_1
 10
180.0743
 20
51.0139
  0
VERTEX
  8
LAYER_1
 10
180.0743
 20
50.9206
  0
VERTEX
  8
LAYER_1
 10
179.5737
 20
50.9206
  0
SEQEND
  0
ENDBLK
  0
BLOCK
  8
LAYER_1
  2
AIGNBL0103002C
 70
64
 10
0
 20
0
 30
0
  3
AIGNBL0103002C
  0
POLYLINE
  8
LAYER_1
 40
0.05
 41
0.05
 66
1
 10
0
 20
0
 30
0
 70
1
  0
VERTEX
  8
LAYER_1
 10
181.2666
 20
50.5819
  0
VERTEX
  8
LAYER_1
 10
181.2694
 20
50.5819
  0
VERTEX
  8
LAYER_1
 10
181.2694
 20
51.4618
  0
VERTEX
  8
LAYER_1
 10
181.3745
 20
51.4618
  0
VERTEX
  8
LAYER_1
 10
181.3745
 20
50.4286
  0
VERTEX
  8
LAYER_1
 10
181.2432
 20
50.4286
  0
VERTEX
  8
LAYER_1
 10
180.642
 20
51.3174
  0
VERTEX
  8
LAYER_1
 10
180.6389
 20
51.3174
  0
VERTEX
  8
LAYER_1
 10
180.6389
 20
50.4286
  0
VERTEX
  8
LAYER_1
 10
180.5339
 20
50.4286
  0
VERTEX
  8
LAYER_1
 10
180.5339
 20
51.4618
  0
VERTEX
  8
LAYER_1
 10
180.6655
 20
51.4618
  0
SEQEND
  0
ENDBLK
  0
BLOCK
  8
LAYER_1
  2
AIGNBL0103002D
 70
64
 10
0
 20
0
 30
0
  3
AIGNBL0103002D
  0
POLYLINE
  8
LAYER_1
 40
0.05
 41
0.05
 66
1
 10
0
 20
0
 30
0
 70
1
  0
VERTEX
  8
LAYER_1
 10
182.7201
 20
50.5964
  0
VERTEX
  8
LAYER_1
 10
182.6564
 20
50.522
  0
VERTEX
  8
LAYER_1
 10
182.5703
 20
50.4603
  0
VERTEX
  8
LAYER_1
 10
182.4621
 20
50.4179
  0
VERTEX
  8
LAYER_1
 10
182.3333
 20
50.4024
 42
-0.100982896
  0
VERTEX
  8
LAYER_1
 10
182.1172
 20
50.4434
 42
-0.1036559164
  0
VERTEX
  8
LAYER_1
 10
181.9467
 20
50.5564
 42
-0.09812017057
  0
VERTEX
  8
LAYER_1
 10
181.8351
 20
50.728
 42
-0.09232404316
  0
VERTEX
  8
LAYER_1
 10
181.7948
 20
50.9454
 42
-0.1039024847
  0
VERTEX
  8
LAYER_1
 10
181.8358
 20
51.1628
 42
-0.1006255151
  0
VERTEX
  8
LAYER_1
 10
181.9484
 20
51.3343
 42
-0.09509197705
  0
VERTEX
  8
LAYER_1
 10
182.1193
 20
51.4473
 42
-0.0950295922
  0
VERTEX
  8
LAYER_1
 10
182.3333
 20
51.4883
  0
VERTEX
  8
LAYER_1
 10
182.4449
 20
51.4763
  0
VERTEX
  8
LAYER_1
 10
182.5479
 20
51.4428
  0
VERTEX
  8
LAYER_1
 10
182.6354
 20
51.3912
  0
VERTEX
  8
LAYER_1
 10
182.7012
 20
51.3233
  0
VERTEX
  8
LAYER_1
 10
182.6137
 20
51.2589
  0
VERTEX
  8
LAYER_1
 10
182.5703
 20
51.3088
  0
VERTEX
  8
LAYER_1
 10
182.5069
 20
51.3526
  0
VERTEX
  8
LAYER_1
 10
182.4273
 20
51.3832
  0
VERTEX
  8
LAYER_1
 10
182.3346
 20
51.395
  0
VERTEX
  8
LAYER_1
 10
182.1544
 20
51.3584
  0
VERTEX
  8
LAYER_1
 10
182.0194
 20
51.2603
  0
VERTEX
  8
LAYER_1
 10
181.9346
 20
51.1169
  0
VERTEX
  8
LAYER_1
 10
181.9057
 20
50.9454
  0
VERTEX
  8
LAYER_1
 10
181.9357
 20
50.7738
  0
VERTEX
  8
LAYER_1
 10
182.0211
 20
50.6305
  0
VERTEX
  8
LAYER_1
 10
182.1562
 20
50.5323
 42
0.1010490553
  0
VERTEX
  8
LAYER_1
 10
182.3346
 20
50.4958
  0
VERTEX
  8
LAYER_1
 10
182.5038
 20
50.5323
 42
0.1324826472
  0
VERTEX
  8
LAYER_1
 10
182.6381
 20
50.6491
  0
SEQEND
  0
ENDBLK
  0
BLOCK
  8
LAYER_1
  2
AIGNBL0103002E
 70
64
 10
0
 20
0
 30
0
  3
AIGNBL0103002E
  0
POLYLINE
  8
LAYER_1
 40
0.05
 41
0.05
 66
1
 10
0
 20
0
 30
0
 70
1
  0
VERTEX
  8
LAYER_1
 10
183.2073
 20
50.5223
  0
VERTEX
  8
LAYER_1
 10
183.7606
 20
50.5223
  0
VERTEX
  8
LAYER_1
 10
183.7606
 20
50.4286
  0
VERTEX
  8
LAYER_1
 10
183.1022
 20
50.4286
  0
VERTEX
  8
LAYER_1
 10
183.1022
 20
51.4618
  0
VERTEX
  8
LAYER_1
 10
183.743
 20
51.4618
  0
VERTEX
  8
LAYER_1
 10
183.743
 20
51.3684
  0
VERTEX
  8
LAYER_1
 10
183.2073
 20
51.3684
  0
VERTEX
  8
LAYER_1
 10
183.2073
 20
51.0139
  0
VERTEX
  8
LAYER_1
 10
183.7078
 20
51.0139
  0
VERTEX
  8
LAYER_1
 10
183.7078
 20
50.9206
  0
VERTEX
  8
LAYER_1
 10
183.2073
 20
50.9206
  0
SEQEND
  0
ENDBLK
  0
BLOCK
  8
LAYER_1
  2
AIGNBL01020003
 70
64
 10
0
 20
0
 30
0
  3
AIGNBL01020003
  0
POLYLINE
  8
LAYER_1
 40
0.05
 41
0.05
 66
1
 10
0
 20
0
 30
0
 70
1
  0
VERTEX
  8
LAYER_1
 10
112.3971
 20
194.8895
  0
VERTEX
  8
LAYER_1
 10
111.7357
 20
194.8895
  0
VERTEX
  8
LAYER_1
 10
111.7357
 20
194.5191
  0
VERTEX
  8
LAYER_1
 10
112.3971
 20
194.5191
  0
SEQEND
  0
ENDBLK
  0
BLOCK
  8
LAYER_1
  2
AIGNBL01020004
 70
64
 10
0
 20
0
 30
0
  3
AIGNBL01020004
  0
POLYLINE
  8
LAYER_1
 40
0.0847
 41
0.0847
 66
1
 10
0
 20
0
 30
0
 70
1
  0
VERTEX
  8
LAYER_1
 10
112.3971
 20
194.8895
  0
VERTEX
  8
LAYER_1
 10
111.7357
 20
194.8895
  0
VERTEX
  8
LAYER_1
 10
111.7357
 20
194.5191
  0
VERTEX
  8
LAYER_1
 10
112.3971
 20
194.5191
  0
SEQEND
  0
ENDBLK
  0
BLOCK
  8
LAYER_1
  2
AIGNBL01020005
 70
64
 10
0
 20
0
 30
0
  3
AIGNBL01020005
  0
POLYLINE
  8
LAYER_1
 40
0.05
 41
0.05
 66
1
 10
0
 20
0
 30
0
 70
1
  0
VERTEX
  8
LAYER_1
 10
99.2473
 20
194.8895
  0
VERTEX
  8
LAYER_1
 10
98.5859
 20
194.8895
  0
VERTEX
  8
LAYER_1
 10
98.5859
 20
194.5191
  0
VERTEX
  8
LAYER_1
 10
99.2473
 20
194.5191
  0
SEQEND
  0
ENDBLK
  0
BLOCK
  8
LAYER_1
  2
AIGNBL01020006
 70
64
 10
0
 20
0
 30
0
  3
AIGNBL01020006
  0
POLYLINE
  8
LAYER_1
 40
0.0847
 41
0.0847
 66
1
 10
0
 20
0
 30
0
 70
1
  0
VERTEX
  8
LAYER_1
 10
99.2473
 20
194.8895
  0
VERTEX
  8
LAYER_1
 10
98.5859
 20
194.8895
  0
VERTEX
  8
LAYER_1
 10
98.5859
 20
194.5191
  0
VERTEX
  8
LAYER_1
 10
99.2473
 20
194.5191
  0
SEQEND
  0
ENDBLK
  0
BLOCK
  8
LAYER_1
  2
AIGNBL01020007
 70
64
 10
0
 20
0
 30
0
  3
AIGNBL01020007
  0
POLYLINE
  8
LAYER_1
 40
0.05
 41
0.05
 66
1
 10
0
 20
0
 30
0
 70
1
  0
VERTEX
  8
LAYER_1
 10
96.1252
 20
192.7728
  0
VERTEX
  8
LAYER_1
 10
95.4638
 20
192.7728
  0
VERTEX
  8
LAYER_1
 10
95.4638
 20
192.4024
  0
VERTEX
  8
LAYER_1
 10
96.1252
 20
192.4024
  0
SEQEND
  0
ENDBLK
  0
BLOCK
  8
LAYER_1
  2
AIGNBL01020008
 70
64
 10
0
 20
0
 30
0
  3
AIGNBL01020008
  0
POLYLINE
  8
LAYER_1
 40
0.0847
 41
0.0847
 66
1
 10
0
 20
0
 30
0
 70
1
  0
VERTEX
  8
LAYER_1
 10
96.1252
 20
192.7728
  0
VERTEX
  8
LAYER_1
 10
95.4638
 20
192.7728
  0
VERTEX
  8
LAYER_1
 10
95.4638
 20
192.4024
  0
VERTEX
  8
LAYER_1
 10
96.1252
 20
192.4024
  0
SEQEND
  0
ENDBLK
  0
BLOCK
  8
LAYER_1
  2
AIGNBL01020009
 70
64
 10
0
 20
0
 30
0
  3
AIGNBL01020009
  0
POLYLINE
  8
LAYER_1
 40
0.05
 41
0.05
 66
1
 10
0
 20
0
 30
0
 70
1
  0
VERTEX
  8
LAYER_1
 10
115.5721
 20
192.7728
  0
VERTEX
  8
LAYER_1
 10
114.8577
 20
192.7728
  0
VERTEX
  8
LAYER_1
 10
114.8577
 20
192.4024
  0
VERTEX
  8
LAYER_1
 10
115.5721
 20
192.4024
  0
SEQEND
  0
ENDBLK
  0
BLOCK
  8
LAYER_1
  2
AIGNBL0102000A
 70
64
 10
0
 20
0
 30
0
  3
AIGNBL0102000A
  0
POLYLINE
  8
LAYER_1
 40
0.0847
 41
0.0847
 66
1
 10
0
 20
0
 30
0
 70
1
  0
VERTEX
  8
LAYER_1
 10
115.5721
 20
192.7728
  0
VERTEX
  8
LAYER_1
 10
114.8577
 20
192.7728
  0
VERTEX
  8
LAYER_1
 10
114.8577
 20
192.4024
  0
VERTEX
  8
LAYER_1
 10
115.5721
 20
192.4024
  0
SEQEND
  0
ENDBLK
  0
BLOCK
  8
LAYER_1
  2
AIGNBL0102000B
 70
64
 10
0
 20
0
 30
0
  3
AIGNBL0102000B
  0
POLYLINE
  8
LAYER_1
 40
0.05
 41
0.05
 66
1
 10
0
 20
0
 30
0
 70
1
  0
VERTEX
  8
LAYER_1
 10
111.7357
 20
190.5239
  0
VERTEX
  8
LAYER_1
 10
99.2473
 20
190.5239
  0
VERTEX
  8
LAYER_1
 10
99.2473
 20
190.3916
  0
VERTEX
  8
LAYER_1
 10
111.7357
 20
190.3916
  0
SEQEND
  0
ENDBLK
  0
BLOCK
  8
LAYER_1
  2
AIGNBL0102000C
 70
64
 10
0
 20
0
 30
0
  3
AIGNBL0102000C
  0
POLYLINE
  8
LAYER_1
 40
0.0847
 41
0.0847
 66
1
 10
0
 20
0
 30
0
 70
1
  0
VERTEX
  8
LAYER_1
 10
111.7357
 20
190.5239
  0
VERTEX
  8
LAYER_1
 10
99.2473
 20
190.5239
  0
VERTEX
  8
LAYER_1
 10
99.2473
 20
190.3916
  0
VERTEX
  8
LAYER_1
 10
111.7357
 20
190.3916
  0
SEQEND
  0
ENDBLK
  0
BLOCK
  8
LAYER_1
  2
AIGNBL0102000E
 70
64
 10
0
 20
0
 30
0
  3
AIGNBL0102000E
  0
INSERT
  8
LAYER_1
  2
AIGNBL0103000F
 10
0
 20
0
 30
0
  0
ENDBLK
  0
BLOCK
  8
LAYER_1
  2
AIGNBL01020017
 70
64
 10
0
 20
0
 30
0
  3
AIGNBL01020017
  0
INSERT
  8
LAYER_1
  2
AIGNBL01030018
 10
0
 20
0
 30
0
  0
INSERT
  8
LAYER_1
  2
AIGNBL01030019
 10
0
 20
0
 30
0
  0
INSERT
  8
LAYER_1
  2
AIGNBL0103001A
 10
0
 20
0
 30
0
  0
INSERT
  8
LAYER_1
  2
AIGNBL0103001B
 10
0
 20
0
 30
0
  0
INSERT
  8
LAYER_1
  2
AIGNBL0103001C
 10
0
 20
0
 30
0
  0
INSERT
  8
LAYER_1
  2
AIGNBL0103001D
 10
0
 20
0
 30
0
  0
INSERT
  8
LAYER_1
  2
AIGNBL0103001E
 10
0
 20
0
 30
0
  0
INSERT
  8
LAYER_1
  2
AIGNBL0103001F
 10
0
 20
0
 30
0
  0
INSERT
  8
LAYER_1
  2
AIGNBL01030020
 10
0
 20
0
 30
0
  0
INSERT
  8
LAYER_1
  2
AIGNBL01030021
 10
0
 20
0
 30
0
  0
INSERT
  8
LAYER_1
  2
AIGNBL01030022
 10
0
 20
0
 30
0
  0
INSERT
  8
LAYER_1
  2
AIGNBL01030023
 10
0
 20
0
 30
0
  0
INSERT
  8
LAYER_1
  2
AIGNBL01030024
 10
0
 20
0
 30
0
  0
INSERT
  8
LAYER_1
  2
AIGNBL01030025
 10
0
 20
0
 30
0
  0
INSERT
  8
LAYER_1
  2
AIGNBL01030026
 10
0
 20
0
 30
0
  0
INSERT
  8
LAYER_1
  2
AIGNBL01030027
 10
0
 20
0
 30
0
  0
INSERT
  8
LAYER_1
  2
AIGNBL01030028
 10
0
 20
0
 30
0
  0
INSERT
  8
LAYER_1
  2
AIGNBL01030029
 10
0
 20
0
 30
0
  0
INSERT
  8
LAYER_1
  2
AIGNBL0103002A
 10
0
 20
0
 30
0
  0
INSERT
  8
LAYER_1
  2
AIGNBL0103002B
 10
0
 20
0
 30
0
  0
INSERT
  8
LAYER_1
  2
AIGNBL0103002C
 10
0
 20
0
 30
0
  0
INSERT
  8
LAYER_1
  2
AIGNBL0103002D
 10
0
 20
0
 30
0
  0
INSERT
  8
LAYER_1
  2
AIGNBL0103002E
 10
0
 20
0
 30
0
  0
ENDBLK
  0
BLOCK
  8
LAYER_1
  2
AIGNBL01010002
 70
64
 10
0
 20
0
 30
0
  3
AIGNBL01010002
  0
INSERT
  8
LAYER_1
  2
AIGNBL01020003
 10
0
 20
0
 30
0
  0
INSERT
  8
LAYER_1
  2
AIGNBL01020004
 10
0
 20
0
 30
0
  0
INSERT
  8
LAYER_1
  2
AIGNBL01020005
 10
0
 20
0
 30
0
  0
INSERT
  8
LAYER_1
  2
AIGNBL01020006
 10
0
 20
0
 30
0
  0
INSERT
  8
LAYER_1
  2
AIGNBL01020007
 10
0
 20
0
 30
0
  0
INSERT
  8
LAYER_1
  2
AIGNBL01020008
 10
0
 20
0
 30
0
  0
INSERT
  8
LAYER_1
  2
AIGNBL01020009
 10
0
 20
0
 30
0
  0
INSERT
  8
LAYER_1
  2
AIGNBL0102000A
 10
0
 20
0
 30
0
  0
INSERT
  8
LAYER_1
  2
AIGNBL0102000B
 10
0
 20
0
 30
0
  0
INSERT
  8
LAYER_1
  2
AIGNBL0102000C
 10
0
 20
0
 30
0
  0
POLYLINE
  8
LAYER_1
 40
0.1693
 41
0.1693
 66
1
 10
0
 20
0
 30
0
  0
VERTEX
  8
LAYER_1
 10
70.5136
 20
219.8926
  0
VERTEX
  8
LAYER_1
 10
140.4694
 20
219.8926
  0
SEQEND
  0
POLYLINE
  8
LAYER_1
 40
0.0847
 41
0.0847
 66
1
 10
0
 20
0
 30
0
  0
VERTEX
  8
LAYER_1
 10
107.6611
 20
157.2128
  0
VERTEX
  8
LAYER_1
 10
107.7404
 20
157.2128
  0
SEQEND
  0
POLYLINE
  8
LAYER_1
 40
0.0847
 41
0.0847
 66
1
 10
0
 20
0
 30
0
  0
VERTEX
  8
LAYER_1
 10
107.8992
 20
157.2657
  0
VERTEX
  8
LAYER_1
 10
107.9786
 20
157.2922
  0
SEQEND
  0
POLYLINE
  8
LAYER_1
 40
0.0847
 41
0.0847
 66
1
 10
0
 20
0
 30
0
  0
VERTEX
  8
LAYER_1
 10
107.2906
 20
157.2128
  0
VERTEX
  8
LAYER_1
 10
107.3171
 20
157.2128
  0
SEQEND
  0
POLYLINE
  8
LAYER_1
 40
0.0847
 41
0.0847
 66
1
 10
0
 20
0
 30
0
  0
VERTEX
  8
LAYER_1
 10
107.4229
 20
157.2128
  0
VERTEX
  8
LAYER_1
 10
107.4758
 20
157.1863
  0
VERTEX
  8
LAYER_1
 10
107.5023
 20
157.1863
  0
SEQEND
  0
POLYLINE
  8
LAYER_1
 40
0.0847
 41
0.0847
 66
1
 10
0
 20
0
 30
0
  0
VERTEX
  8
LAYER_1
 10
107.6081
 20
157.1864
  0
VERTEX
  8
LAYER_1
 10
107.6611
 20
157.2128
  0
SEQEND
  0
POLYLINE
  8
LAYER_1
 40
0.0847
 41
0.0847
 66
1
 10
0
 20
0
 30
0
  0
VERTEX
  8
LAYER_1
 10
102.6604
 20
159.4089
  0
VERTEX
  8
LAYER_1
 10
102.7398
 20
159.4353
  0
SEQEND
  0
POLYLINE
  8
LAYER_1
 40
0.0847
 41
0.0847
 66
1
 10
0
 20
0
 30
0
  0
VERTEX
  8
LAYER_1
 10
102.8986
 20
159.5147
  0
VERTEX
  8
LAYER_1
 10
103.0044
 20
159.5676
  0
VERTEX
  8
LAYER_1
 10
103.0838
 20
159.5941
  0
SEQEND
  0
POLYLINE
  8
LAYER_1
 40
0.0847
 41
0.0847
 66
1
 10
0
 20
0
 30
0
  0
VERTEX
  8
LAYER_1
 10
103.2425
 20
159.647
  0
VERTEX
  8
LAYER_1
 10
103.3219
 20
159.6734
  0
VERTEX
  8
LAYER_1
 10
103.3484
 20
159.6734
  0
SEQEND
  0
POLYLINE
  8
LAYER_1
 40
0.0847
 41
0.0847
 66
1
 10
0
 20
0
 30
0
  0
VERTEX
  8
LAYER_1
 10
103.4542
 20
159.6734
  0
VERTEX
  8
LAYER_1
 10
103.5071
 20
159.6999
  0
VERTEX
  8
LAYER_1
 10
103.5336
 20
159.6999
  0
SEQEND
  0
POLYLINE
  8
LAYER_1
 40
0.0847
 41
0.0847
 66
1
 10
0
 20
0
 30
0
  0
VERTEX
  8
LAYER_1
 10
103.6394
 20
159.6999
  0
VERTEX
  8
LAYER_1
 10
103.6923
 20
159.6734
  0
VERTEX
  8
LAYER_1
 10
103.7717
 20
159.647
  0
SEQEND
  0
POLYLINE
  8
LAYER_1
 40
0.0847
 41
0.0847
 66
1
 10
0
 20
0
 30
0
  0
VERTEX
  8
LAYER_1
 10
103.9305
 20
159.5941
  0
VERTEX
  8
LAYER_1
 10
104.0098
 20
159.5676
  0
VERTEX
  8
LAYER_1
 10
104.0892
 20
159.5411
  0
SEQEND
  0
POLYLINE
  8
LAYER_1
 40
0.0847
 41
0.0847
 66
1
 10
0
 20
0
 30
0
  0
VERTEX
  8
LAYER_1
 10
104.248
 20
159.4618
  0
VERTEX
  8
LAYER_1
 10
104.3538
 20
159.4088
  0
VERTEX
  8
LAYER_1
 10
104.4332
 20
159.3559
  0
SEQEND
  0
POLYLINE
  8
LAYER_1
 40
0.0847
 41
0.0847
 66
1
 10
0
 20
0
 30
0
  0
VERTEX
  8
LAYER_1
 10
104.5919
 20
159.2501
  0
VERTEX
  8
LAYER_1
 10
104.6713
 20
159.1707
  0
VERTEX
  8
LAYER_1
 10
104.7507
 20
159.1178
  0
SEQEND
  0
POLYLINE
  8
LAYER_1
 40
0.0847
 41
0.0847
 66
1
 10
0
 20
0
 30
0
  0
VERTEX
  8
LAYER_1
 10
104.9094
 20
158.9855
  0
VERTEX
  8
LAYER_1
 10
104.9888
 20
158.9061
  0
VERTEX
  8
LAYER_1
 10
105.0682
 20
158.8532
  0
SEQEND
  0
POLYLINE
  8
LAYER_1
 40
0.0847
 41
0.0847
 66
1
 10
0
 20
0
 30
0
  0
VERTEX
  8
LAYER_1
 10
105.2269
 20
158.6945
  0
VERTEX
  8
LAYER_1
 10
105.3063
 20
158.6151
  0
VERTEX
  8
LAYER_1
 10
105.3857
 20
158.5357
  0
SEQEND
  0
POLYLINE
  8
LAYER_1
 40
0.0847
 41
0.0847
 66
1
 10
0
 20
0
 30
0
  0
VERTEX
  8
LAYER_1
 10
105.5709
 20
158.377
  0
VERTEX
  8
LAYER_1
 10
105.6767
 20
158.2712
  0
VERTEX
  8
LAYER_1
 10
105.7561
 20
158.2183
  0
SEQEND
  0
POLYLINE
  8
LAYER_1
 40
0.0847
 41
0.0847
 66
1
 10
0
 20
0
 30
0
  0
VERTEX
  8
LAYER_1
 10
105.9148
 20
158.0595
  0
VERTEX
  8
LAYER_1
 10
105.9942
 20
157.9801
  0
VERTEX
  8
LAYER_1
 10
106.0736
 20
157.9272
  0
SEQEND
  0
POLYLINE
  8
LAYER_1
 40
0.0847
 41
0.0847
 66
1
 10
0
 20
0
 30
0
  0
VERTEX
  8
LAYER_1
 10
106.2323
 20
157.795
  0
VERTEX
  8
LAYER_1
 10
106.3117
 20
157.7156
  0
VERTEX
  8
LAYER_1
 10
106.3911
 20
157.6627
  0
SEQEND
  0
POLYLINE
  8
LAYER_1
 40
0.0847
 41
0.0847
 66
1
 10
0
 20
0
 30
0
  0
VERTEX
  8
LAYER_1
 10
106.5498
 20
157.5569
  0
VERTEX
  8
LAYER_1
 10
106.6292
 20
157.4775
  0
VERTEX
  8
LAYER_1
 10
106.7086
 20
157.451
  0
SEQEND
  0
POLYLINE
  8
LAYER_1
 40
0.0847
 41
0.0847
 66
1
 10
0
 20
0
 30
0
  0
VERTEX
  8
LAYER_1
 10
106.8673
 20
157.3452
  0
VERTEX
  8
LAYER_1
 10
106.9732
 20
157.2923
  0
VERTEX
  8
LAYER_1
 10
107.0525
 20
157.2923
  0
SEQEND
  0
POLYLINE
  8
LAYER_1
 40
0.0847
 41
0.0847
 66
1
 10
0
 20
0
 30
0
  0
VERTEX
  8
LAYER_1
 10
107.2113
 20
157.2394
  0
VERTEX
  8
LAYER_1
 10
107.2907
 20
157.2129
  0
SEQEND
  0
POLYLINE
  8
LAYER_1
 40
0.0847
 41
0.0847
 66
1
 10
0
 20
0
 30
0
  0
VERTEX
  8
LAYER_1
 10
102.3694
 20
159.1973
  0
VERTEX
  8
LAYER_1
 10
102.4223
 20
159.2502
  0
SEQEND
  0
POLYLINE
  8
LAYER_1
 40
0.0847
 41
0.0847
 66
1
 10
0
 20
0
 30
0
  0
VERTEX
  8
LAYER_1
 10
102.5811
 20
159.356
  0
VERTEX
  8
LAYER_1
 10
102.6605
 20
159.4089
  0
SEQEND
  0
POLYLINE
  8
LAYER_1
 40
0.0847
 41
0.0847
 66
1
 10
0
 20
0
 30
0
  0
VERTEX
  8
LAYER_1
 10
107.9786
 20
157.2923
  0
VERTEX
  8
LAYER_1
 10
108.0579
 20
157.3187
  0
SEQEND
  0
POLYLINE
  8
LAYER_1
 40
0.0847
 41
0.0847
 66
1
 10
0
 20
0
 30
0
  0
VERTEX
  8
LAYER_1
 10
108.2167
 20
157.4246
  0
VERTEX
  8
LAYER_1
 10
108.3225
 20
157.4775
  0
VERTEX
  8
LAYER_1
 10
108.3754
 20
157.5304
  0
SEQEND
  0
POLYLINE
  8
LAYER_1
 40
0.0847
 41
0.0847
 66
1
 10
0
 20
0
 30
0
  0
VERTEX
  8
LAYER_1
 10
108.5342
 20
157.6362
  0
VERTEX
  8
LAYER_1
 10
108.6136
 20
157.6891
  0
SEQEND
  0
POLYLINE
  8
LAYER_1
 40
0.0847
 41
0.0847
 66
1
 10
0
 20
0
 30
0
  0
VERTEX
  8
LAYER_1
 10
199.6038
 20
192.4025
  0
VERTEX
  8
LAYER_1
 10
206.3771
 20
192.4025
  0
SEQEND
  0
POLYLINE
  8
LAYER_1
 40
0.0847
 41
0.0847
 66
1
 10
0
 20
0
 30
0
  0
VERTEX
  8
LAYER_1
 10
106.9996
 20
201.0808
  0
VERTEX
  8
LAYER_1
 10
127.2402
 20
224.7875
  0
SEQEND
  0
TEXT
  8
LAYER_1
 10
157.7997
 20
205.2616
 11
157.7997
 21
205.2616
 40
3.2224
 41
0.5
  1
âXâ|âôâWâpâbâLâô
  0
POLYLINE
  8
LAYER_1
 40
0.0847
 41
0.0847
 66
1
 10
0
 20
0
 30
0
  0
VERTEX
  8
LAYER_1
 10
117.2125
 20
192.8787
  0
VERTEX
  8
LAYER_1
 10
158.3817
 20
201.8216
  0
SEQEND
  0
TEXT
  8
LAYER_1
 10
158.2496
 20
200.8691
 11
158.2496
 21
200.8691
 40
3.2224
 41
0.5
  1
â}âEâôâeâBâôâOâfâBâXâN
  0
POLYLINE
  8
LAYER_1
 40
0.0847
 41
0.0847
 66
1
 10
0
 20
0
 30
0
  0
VERTEX
  8
LAYER_1
 10
105.4915
 20
148.9578
  0
VERTEX
  8
LAYER_1
 10
105.4915
 20
151.8153
  0
SEQEND
  0
POLYLINE
  8
LAYER_1
 40
0.0847
 41
0.0847
 66
1
 10
0
 20
0
 30
0
  0
VERTEX
  8
LAYER_1
 10
105.4915
 20
152.9795
  0
VERTEX
  8
LAYER_1
 10
105.4915
 20
154.1172
  0
SEQEND
  0
POLYLINE
  8
LAYER_1
 40
0.0847
 41
0.0847
 66
1
 10
0
 20
0
 30
0
  0
VERTEX
  8
LAYER_1
 10
105.4915
 20
155.2814
  0
VERTEX
  8
LAYER_1
 10
105.4915
 20
161.0493
  0
SEQEND
  0
POLYLINE
  8
LAYER_1
 40
0.0847
 41
0.0847
 66
1
 10
0
 20
0
 30
0
  0
VERTEX
  8
LAYER_1
 10
105.4915
 20
162.187
  0
VERTEX
  8
LAYER_1
 10
105.4915
 20
163.3511
  0
SEQEND
  0
POLYLINE
  8
LAYER_1
 40
0.0847
 41
0.0847
 66
1
 10
0
 20
0
 30
0
  0
VERTEX
  8
LAYER_1
 10
105.4915
 20
164.4888
  0
VERTEX
  8
LAYER_1
 10
105.4915
 20
170.2567
  0
SEQEND
  0
POLYLINE
  8
LAYER_1
 40
0.0847
 41
0.0847
 66
1
 10
0
 20
0
 30
0
  0
VERTEX
  8
LAYER_1
 10
105.4915
 20
171.3945
  0
VERTEX
  8
LAYER_1
 10
105.4915
 20
172.5586
  0
SEQEND
  0
POLYLINE
  8
LAYER_1
 40
0.0847
 41
0.0847
 66
1
 10
0
 20
0
 30
0
  0
VERTEX
  8
LAYER_1
 10
105.4915
 20
173.6963
  0
VERTEX
  8
LAYER_1
 10
105.4915
 20
179.4642
  0
SEQEND
  0
POLYLINE
  8
LAYER_1
 40
0.0847
 41
0.0847
 66
1
 10
0
 20
0
 30
0
  0
VERTEX
  8
LAYER_1
 10
105.4915
 20
180.6284
  0
VERTEX
  8
LAYER_1
 10
105.4915
 20
181.7661
  0
SEQEND
  0
POLYLINE
  8
LAYER_1
 40
0.0847
 41
0.0847
 66
1
 10
0
 20
0
 30
0
  0
VERTEX
  8
LAYER_1
 10
105.4915
 20
182.9303
  0
VERTEX
  8
LAYER_1
 10
105.4915
 20
188.6717
  0
SEQEND
  0
POLYLINE
  8
LAYER_1
 40
0.0847
 41
0.0847
 66
1
 10
0
 20
0
 30
0
  0
VERTEX
  8
LAYER_1
 10
105.4915
 20
189.8359
  0
VERTEX
  8
LAYER_1
 10
105.4915
 20
190.9736
  0
SEQEND
  0
POLYLINE
  8
LAYER_1
 40
0.0847
 41
0.0847
 66
1
 10
0
 20
0
 30
0
  0
VERTEX
  8
LAYER_1
 10
105.4915
 20
192.1377
  0
VERTEX
  8
LAYER_1
 10
105.4915
 20
197.8792
  0
SEQEND
  0
POLYLINE
  8
LAYER_1
 40
0.0847
 41
0.0847
 66
1
 10
0
 20
0
 30
0
  0
VERTEX
  8
LAYER_1
 10
105.4915
 20
199.0433
  0
VERTEX
  8
LAYER_1
 10
105.4915
 20
200.181
  0
SEQEND
  0
POLYLINE
  8
LAYER_1
 40
0.0847
 41
0.0847
 66
1
 10
0
 20
0
 30
0
  0
VERTEX
  8
LAYER_1
 10
105.4915
 20
201.3452
  0
VERTEX
  8
LAYER_1
 10
105.4915
 20
207.1131
  0
SEQEND
  0
POLYLINE
  8
LAYER_1
 40
0.0847
 41
0.0847
 66
1
 10
0
 20
0
 30
0
  0
VERTEX
  8
LAYER_1
 10
105.4915
 20
208.2508
  0
VERTEX
  8
LAYER_1
 10
105.4915
 20
209.415
  0
SEQEND
  0
POLYLINE
  8
LAYER_1
 40
0.0847
 41
0.0847
 66
1
 10
0
 20
0
 30
0
  0
VERTEX
  8
LAYER_1
 10
105.4915
 20
210.5527
  0
VERTEX
  8
LAYER_1
 10
105.4915
 20
216.3206
  0
SEQEND
  0
POLYLINE
  8
LAYER_1
 40
0.0847
 41
0.0847
 66
1
 10
0
 20
0
 30
0
  0
VERTEX
  8
LAYER_1
 10
105.4915
 20
217.4583
  0
VERTEX
  8
LAYER_1
 10
105.4915
 20
218.6224
  0
SEQEND
  0
POLYLINE
  8
LAYER_1
 40
0.0847
 41
0.0847
 66
1
 10
0
 20
0
 30
0
  0
VERTEX
  8
LAYER_1
 10
105.4915
 20
219.7602
  0
VERTEX
  8
LAYER_1
 10
105.4915
 20
225.528
  0
SEQEND
  0
POLYLINE
  8
LAYER_1
 40
0.0847
 41
0.0847
 66
1
 10
0
 20
0
 30
0
  0
VERTEX
  8
LAYER_1
 10
105.4915
 20
226.6922
  0
VERTEX
  8
LAYER_1
 10
105.4915
 20
227.8299
  0
SEQEND
  0
POLYLINE
  8
LAYER_1
 40
0.0847
 41
0.0847
 66
1
 10
0
 20
0
 30
0
  0
VERTEX
  8
LAYER_1
 10
105.4915
 20
228.9941
  0
VERTEX
  8
LAYER_1
 10
105.4915
 20
231.878
  0
SEQEND
  0
POLYLINE
  8
LAYER_1
 40
0.0847
 41
0.0847
 66
1
 10
0
 20
0
 30
0
  0
VERTEX
  8
LAYER_1
 10
95.8607
 20
192.6405
  0
VERTEX
  8
LAYER_1
 10
47.7859
 20
170.0187
  0
SEQEND
  0
TEXT
  8
LAYER_1
 10
25.9314
 20
168.8549
 11
25.9314
 21
168.8549
 40
3.2224
 41
0.5
  1
äOâèâôâOüiìòüj
  0
TEXT
  8
LAYER_1
 10
158.6465
 20
163.5897
 11
158.6465
 21
163.5897
 40
3.2224
 41
0.5
  1
äOâèâôâOüiô¹öÆüj
  0
POLYLINE
  8
LAYER_1
 40
0.0847
 41
0.0847
 66
1
 10
0
 20
0
 30
0
  0
VERTEX
  8
LAYER_1
 10
111.8679
 20
194.6778
  0
VERTEX
  8
LAYER_1
 10
157.9319
 20
165.7589
  0
SEQEND
  0
TEXT
  8
LAYER_1
 10
163.5413
 20
155.9695
 11
163.5413
 21
155.9695
 40
3.2224
 41
0.5
  1
ÄOèpâpâbâLâô
  0
TEXT
  8
LAYER_1
 10
151.6881
 20
150.5452
 11
151.6881
 21
150.5452
 40
3.2224
 41
0.5
  1
âXâèâbâvâpâbâLâô
  0
POLYLINE
  8
LAYER_1
 40
0.0847
 41
0.0847
 66
1
 10
0
 20
0
 30
0
  0
VERTEX
  8
LAYER_1
 10
106.5234
 20
160.5201
  0
VERTEX
  8
LAYER_1
 10
148.1158
 20
145.3595
  0
SEQEND
  0
TEXT
  8
LAYER_1
 10
149.2803
 20
173.7493
 11
149.2803
 21
173.7493
 40
5.3169
 41
0.5
  1
ôVö┬èJî¹Éíû@üF53055
  0
POLYLINE
  8
LAYER_1
 40
0.0847
 41
0.0847
 66
1
 10
0
 20
0
 30
0
  0
VERTEX
  8
LAYER_1
 10
206.3771
 20
178.6706
  0
VERTEX
  8
LAYER_1
 10
206.3771
 20
192.4024
  0
SEQEND
  0
POLYLINE
  8
LAYER_1
 40
0.0847
 41
0.0847
 66
1
 10
0
 20
0
 30
0
  0
VERTEX
  8
LAYER_1
 10
199.6038
 20
178.6706
  0
VERTEX
  8
LAYER_1
 10
206.3771
 20
178.6706
  0
SEQEND
  0
POLYLINE
  8
LAYER_1
 40
0.0847
 41
0.0847
 66
1
 10
0
 20
0
 30
0
  0
VERTEX
  8
LAYER_1
 10
70.8575
 20
149.4606
  0
VERTEX
  8
LAYER_1
 10
96.7867
 20
178.062
  0
SEQEND
  0
POLYLINE
  8
LAYER_1
 40
0.0847
 41
0.0847
 66
1
 10
0
 20
0
 30
0
  0
VERTEX
  8
LAYER_1
 10
206.3771
 20
178.6706
  0
VERTEX
  8
LAYER_1
 10
206.3771
 20
192.4024
  0
SEQEND
  0
POLYLINE
  8
LAYER_1
 40
0.1693
 41
0.1693
 66
1
 10
0
 20
0
 30
0
  0
VERTEX
  8
LAYER_1
 10
206.3771
 20
178.6706
  0
VERTEX
  8
LAYER_1
 10
205.9009
 20
180.4697
  0
SEQEND
  0
POLYLINE
  8
LAYER_1
 40
0.1693
 41
0.1693
 66
1
 10
0
 20
0
 30
0
  0
VERTEX
  8
LAYER_1
 10
206.3771
 20
178.6706
  0
VERTEX
  8
LAYER_1
 10
206.8798
 20
180.4697
  0
SEQEND
  0
POLYLINE
  8
LAYER_1
 40
0.1693
 41
0.1693
 66
1
 10
0
 20
0
 30
0
  0
VERTEX
  8
LAYER_1
 10
206.3771
 20
192.4024
  0
VERTEX
  8
LAYER_1
 10
206.8798
 20
190.6033
  0
SEQEND
  0
POLYLINE
  8
LAYER_1
 40
0.1693
 41
0.1693
 66
1
 10
0
 20
0
 30
0
  0
VERTEX
  8
LAYER_1
 10
206.3771
 20
192.4024
  0
VERTEX
  8
LAYER_1
 10
205.9009
 20
190.6033
  0
SEQEND
  0
POLYLINE
  8
LAYER_1
 40
0.0847
 41
0.0847
 66
1
 10
0
 20
0
 30
0
  0
VERTEX
  8
LAYER_1
 10
199.6038
 20
178.6706
  0
VERTEX
  8
LAYER_1
 10
206.3771
 20
178.6706
  0
SEQEND
  0
POLYLINE
  8
LAYER_1
 40
0.0847
 41
0.0847
 66
1
 10
0
 20
0
 30
0
  0
VERTEX
  8
LAYER_1
 10
199.6038
 20
192.4024
  0
VERTEX
  8
LAYER_1
 10
206.3771
 20
192.4024
  0
SEQEND
  0
TEXT
  8
LAYER_1
 10
205.4691
 20
183.9626
 11
205.4691
 21
183.9626
 40
4.5757
 41
0.5
 50
89.99999999
  1
55
  0
POLYLINE
  8
LAYER_1
 40
0.254
 41
0.254
 66
1
 10
0
 20
0
 30
0
  0
VERTEX
  8
LAYER_1
 10
16.5915
 20
192.4024
  0
VERTEX
  8
LAYER_1
 10
97.3952
 20
192.4024
  0
SEQEND
  0
POLYLINE
  8
LAYER_1
 40
0.254
 41
0.254
 66
1
 10
0
 20
0
 30
0
  0
VERTEX
  8
LAYER_1
 10
97.3952
 20
178.6706
  0
VERTEX
  8
LAYER_1
 10
97.3952
 20
192.4024
  0
SEQEND
  0
POLYLINE
  8
LAYER_1
 40
0.254
 41
0.254
 66
1
 10
0
 20
0
 30
0
  0
VERTEX
  8
LAYER_1
 10
16.3798
 20
178.6706
  0
VERTEX
  8
LAYER_1
 10
97.3952
 20
178.6706
  0
SEQEND
  0
POLYLINE
  8
LAYER_1
 40
0.254
 41
0.254
 66
1
 10
0
 20
0
 30
0
  0
VERTEX
  8
LAYER_1
 10
113.5877
 20
192.4024
  0
VERTEX
  8
LAYER_1
 10
194.3915
 20
192.4024
  0
SEQEND
  0
POLYLINE
  8
LAYER_1
 40
0.254
 41
0.254
 66
1
 10
0
 20
0
 30
0
  0
VERTEX
  8
LAYER_1
 10
113.5877
 20
178.6706
  0
VERTEX
  8
LAYER_1
 10
113.5877
 20
192.4024
  0
SEQEND
  0
POLYLINE
  8
LAYER_1
 40
0.254
 41
0.254
 66
1
 10
0
 20
0
 30
0
  0
VERTEX
  8
LAYER_1
 10
113.5877
 20
178.6706
  0
VERTEX
  8
LAYER_1
 10
194.6031
 20
178.6706
  0
SEQEND
  0
POLYLINE
  8
LAYER_1
 40
0.0847
 41
0.0847
 66
1
 10
0
 20
0
 30
0
  0
VERTEX
  8
LAYER_1
 10
194.3915
 20
192.4024
  0
VERTEX
  8
LAYER_1
 10
194.2063
 20
192.1378
  0
SEQEND
  0
POLYLINE
  8
LAYER_1
 40
0.0847
 41
0.0847
 66
1
 10
0
 20
0
 30
0
  0
VERTEX
  8
LAYER_1
 10
89.1402
 20
178.6706
  0
VERTEX
  8
LAYER_1
 10
97.3952
 20
186.8991
  0
SEQEND
  0
POLYLINE
  8
LAYER_1
 40
0.0847
 41
0.0847
 66
1
 10
0
 20
0
 30
0
  0
VERTEX
  8
LAYER_1
 10
32.5988
 20
178.6706
  0
VERTEX
  8
LAYER_1
 10
46.3306
 20
192.4024
  0
SEQEND
  0
POLYLINE
  8
LAYER_1
 40
0.0847
 41
0.0847
 66
1
 10
0
 20
0
 30
0
  0
VERTEX
  8
LAYER_1
 10
29.0534
 20
178.6706
  0
VERTEX
  8
LAYER_1
 10
42.8117
 20
192.4024
  0
SEQEND
  0
POLYLINE
  8
LAYER_1
 40
0.0847
 41
0.0847
 66
1
 10
0
 20
0
 30
0
  0
VERTEX
  8
LAYER_1
 10
25.5344
 20
178.6706
  0
VERTEX
  8
LAYER_1
 10
39.2663
 20
192.4024
  0
SEQEND
  0
POLYLINE
  8
LAYER_1
 40
0.0847
 41
0.0847
 66
1
 10
0
 20
0
 30
0
  0
VERTEX
  8
LAYER_1
 10
21.989
 20
178.6706
  0
VERTEX
  8
LAYER_1
 10
35.7473
 20
192.4024
  0
SEQEND
  0
POLYLINE
  8
LAYER_1
 40
0.0847
 41
0.0847
 66
1
 10
0
 20
0
 30
0
  0
VERTEX
  8
LAYER_1
 10
18.47
 20
178.6706
  0
VERTEX
  8
LAYER_1
 10
32.2019
 20
192.4024
  0
SEQEND
  0
POLYLINE
  8
LAYER_1
 40
0.0847
 41
0.0847
 66
1
 10
0
 20
0
 30
0
  0
VERTEX
  8
LAYER_1
 10
75.0115
 20
178.6706
  0
VERTEX
  8
LAYER_1
 10
88.7433
 20
192.4024
  0
SEQEND
  0
POLYLINE
  8
LAYER_1
 40
0.0847
 41
0.0847
 66
1
 10
0
 20
0
 30
0
  0
VERTEX
  8
LAYER_1
 10
71.4661
 20
178.6706
  0
VERTEX
  8
LAYER_1
 10
85.2244
 20
192.4024
  0
SEQEND
  0
POLYLINE
  8
LAYER_1
 40
0.0847
 41
0.0847
 66
1
 10
0
 20
0
 30
0
  0
VERTEX
  8
LAYER_1
 10
67.9471
 20
178.6706
  0
VERTEX
  8
LAYER_1
 10
81.679
 20
192.4024
  0
SEQEND
  0
POLYLINE
  8
LAYER_1
 40
0.0847
 41
0.0847
 66
1
 10
0
 20
0
 30
0
  0
VERTEX
  8
LAYER_1
 10
64.4017
 20
178.6706
  0
VERTEX
  8
LAYER_1
 10
78.16
 20
192.4024
  0
SEQEND
  0
POLYLINE
  8
LAYER_1
 40
0.0847
 41
0.0847
 66
1
 10
0
 20
0
 30
0
  0
VERTEX
  8
LAYER_1
 10
60.8827
 20
178.6706
  0
VERTEX
  8
LAYER_1
 10
74.6146
 20
192.4024
  0
SEQEND
  0
POLYLINE
  8
LAYER_1
 40
0.0847
 41
0.0847
 66
1
 10
0
 20
0
 30
0
  0
VERTEX
  8
LAYER_1
 10
57.3373
 20
178.6706
  0
VERTEX
  8
LAYER_1
 10
71.0692
 20
192.4024
  0
SEQEND
  0
POLYLINE
  8
LAYER_1
 40
0.0847
 41
0.0847
 66
1
 10
0
 20
0
 30
0
  0
VERTEX
  8
LAYER_1
 10
53.7919
 20
178.6706
  0
VERTEX
  8
LAYER_1
 10
67.5502
 20
192.4024
  0
SEQEND
  0
POLYLINE
  8
LAYER_1
 40
0.0847
 41
0.0847
 66
1
 10
0
 20
0
 30
0
  0
VERTEX
  8
LAYER_1
 10
50.2729
 20
178.6706
  0
VERTEX
  8
LAYER_1
 10
64.0048
 20
192.4024
  0
SEQEND
  0
POLYLINE
  8
LAYER_1
 40
0.0847
 41
0.0847
 66
1
 10
0
 20
0
 30
0
  0
VERTEX
  8
LAYER_1
 10
46.7275
 20
178.6706
  0
VERTEX
  8
LAYER_1
 10
60.4859
 20
192.4024
  0
SEQEND
  0
POLYLINE
  8
LAYER_1
 40
0.0847
 41
0.0847
 66
1
 10
0
 20
0
 30
0
  0
VERTEX
  8
LAYER_1
 10
43.2086
 20
178.6706
  0
VERTEX
  8
LAYER_1
 10
56.9405
 20
192.4024
  0
SEQEND
  0
POLYLINE
  8
LAYER_1
 40
0.0847
 41
0.0847
 66
1
 10
0
 20
0
 30
0
  0
VERTEX
  8
LAYER_1
 10
39.6632
 20
178.6706
  0
VERTEX
  8
LAYER_1
 10
53.4215
 20
192.4024
  0
SEQEND
  0
POLYLINE
  8
LAYER_1
 40
0.0847
 41
0.0847
 66
1
 10
0
 20
0
 30
0
  0
VERTEX
  8
LAYER_1
 10
36.1442
 20
178.6706
  0
VERTEX
  8
LAYER_1
 10
49.8761
 20
192.4024
  0
SEQEND
  0
POLYLINE
  8
LAYER_1
 40
0.0847
 41
0.0847
 66
1
 10
0
 20
0
 30
0
  0
VERTEX
  8
LAYER_1
 10
78.5305
 20
178.6706
  0
VERTEX
  8
LAYER_1
 10
92.2888
 20
192.4024
  0
SEQEND
  0
POLYLINE
  8
LAYER_1
 40
0.0847
 41
0.0847
 66
1
 10
0
 20
0
 30
0
  0
VERTEX
  8
LAYER_1
 10
82.0759
 20
178.6706
  0
VERTEX
  8
LAYER_1
 10
95.8078
 20
192.4024
  0
SEQEND
  0
POLYLINE
  8
LAYER_1
 40
0.0847
 41
0.0847
 66
1
 10
0
 20
0
 30
0
  0
VERTEX
  8
LAYER_1
 10
85.6213
 20
178.6706
  0
VERTEX
  8
LAYER_1
 10
97.3952
 20
190.4445
  0
SEQEND
  0
POLYLINE
  8
LAYER_1
 40
0.0847
 41
0.0847
 66
1
 10
0
 20
0
 30
0
  0
VERTEX
  8
LAYER_1
 10
138.5909
 20
178.6706
  0
VERTEX
  8
LAYER_1
 10
152.3492
 20
192.4024
  0
SEQEND
  0
POLYLINE
  8
LAYER_1
 40
0.0847
 41
0.0847
 66
1
 10
0
 20
0
 30
0
  0
VERTEX
  8
LAYER_1
 10
142.1363
 20
178.6706
  0
VERTEX
  8
LAYER_1
 10
155.8682
 20
192.4024
  0
SEQEND
  0
POLYLINE
  8
LAYER_1
 40
0.0847
 41
0.0847
 66
1
 10
0
 20
0
 30
0
  0
VERTEX
  8
LAYER_1
 10
145.6553
 20
178.6706
  0
VERTEX
  8
LAYER_1
 10
159.4136
 20
192.4024
  0
SEQEND
  0
POLYLINE
  8
LAYER_1
 40
0.0847
 41
0.0847
 66
1
 10
0
 20
0
 30
0
  0
VERTEX
  8
LAYER_1
 10
149.2007
 20
178.6706
  0
VERTEX
  8
LAYER_1
 10
162.9325
 20
192.4024
  0
SEQEND
  0
POLYLINE
  8
LAYER_1
 40
0.0847
 41
0.0847
 66
1
 10
0
 20
0
 30
0
  0
VERTEX
  8
LAYER_1
 10
152.7196
 20
178.6706
  0
VERTEX
  8
LAYER_1
 10
166.478
 20
192.4024
  0
SEQEND
  0
POLYLINE
  8
LAYER_1
 40
0.0847
 41
0.0847
 66
1
 10
0
 20
0
 30
0
  0
VERTEX
  8
LAYER_1
 10
156.2651
 20
178.6706
  0
VERTEX
  8
LAYER_1
 10
169.9969
 20
192.4024
  0
SEQEND
  0
POLYLINE
  8
LAYER_1
 40
0.0847
 41
0.0847
 66
1
 10
0
 20
0
 30
0
  0
VERTEX
  8
LAYER_1
 10
159.784
 20
178.6706
  0
VERTEX
  8
LAYER_1
 10
173.5423
 20
192.4024
  0
SEQEND
  0
POLYLINE
  8
LAYER_1
 40
0.0847
 41
0.0847
 66
1
 10
0
 20
0
 30
0
  0
VERTEX
  8
LAYER_1
 10
163.3294
 20
178.6706
  0
VERTEX
  8
LAYER_1
 10
177.0878
 20
192.4024
  0
SEQEND
  0
POLYLINE
  8
LAYER_1
 40
0.0847
 41
0.0847
 66
1
 10
0
 20
0
 30
0
  0
VERTEX
  8
LAYER_1
 10
166.8749
 20
178.6706
  0
VERTEX
  8
LAYER_1
 10
180.6067
 20
192.4024
  0
SEQEND
  0
POLYLINE
  8
LAYER_1
 40
0.0847
 41
0.0847
 66
1
 10
0
 20
0
 30
0
  0
VERTEX
  8
LAYER_1
 10
170.3938
 20
178.6706
  0
VERTEX
  8
LAYER_1
 10
184.1522
 20
192.4024
  0
SEQEND
  0
POLYLINE
  8
LAYER_1
 40
0.0847
 41
0.0847
 66
1
 10
0
 20
0
 30
0
  0
VERTEX
  8
LAYER_1
 10
173.9392
 20
178.6706
  0
VERTEX
  8
LAYER_1
 10
187.6711
 20
192.4024
  0
SEQEND
  0
POLYLINE
  8
LAYER_1
 40
0.0847
 41
0.0847
 66
1
 10
0
 20
0
 30
0
  0
VERTEX
  8
LAYER_1
 10
177.4582
 20
178.6706
  0
VERTEX
  8
LAYER_1
 10
191.2165
 20
192.4024
  0
SEQEND
  0
POLYLINE
  8
LAYER_1
 40
0.0847
 41
0.0847
 66
1
 10
0
 20
0
 30
0
  0
VERTEX
  8
LAYER_1
 10
181.0036
 20
178.6706
  0
VERTEX
  8
LAYER_1
 10
193.7301
 20
191.3705
  0
SEQEND
  0
POLYLINE
  8
LAYER_1
 40
0.0847
 41
0.0847
 66
1
 10
0
 20
0
 30
0
  0
VERTEX
  8
LAYER_1
 10
15.0305
 20
182.2953
  0
VERTEX
  8
LAYER_1
 10
25.1376
 20
192.4024
  0
SEQEND
  0
POLYLINE
  8
LAYER_1
 40
0.0847
 41
0.0847
 66
1
 10
0
 20
0
 30
0
  0
VERTEX
  8
LAYER_1
 10
15.8243
 20
179.5437
  0
VERTEX
  8
LAYER_1
 10
28.683
 20
192.4024
  0
SEQEND
  0
POLYLINE
  8
LAYER_1
 40
0.0847
 41
0.0847
 66
1
 10
0
 20
0
 30
0
  0
VERTEX
  8
LAYER_1
 10
18.179
 20
188.9893
  0
VERTEX
  8
LAYER_1
 10
21.5922
 20
192.4024
  0
SEQEND
  0
POLYLINE
  8
LAYER_1
 40
0.0847
 41
0.0847
 66
1
 10
0
 20
0
 30
0
  0
VERTEX
  8
LAYER_1
 10
17.2001
 20
191.5293
  0
VERTEX
  8
LAYER_1
 10
18.0732
 20
192.4024
  0
SEQEND
  0
POLYLINE
  8
LAYER_1
 40
0.0847
 41
0.0847
 66
1
 10
0
 20
0
 30
0
  0
VERTEX
  8
LAYER_1
 10
194.6032
 20
185.047
  0
VERTEX
  8
LAYER_1
 10
194.9207
 20
184.5972
  0
SEQEND
  0
POLYLINE
  8
LAYER_1
 40
0.0847
 41
0.0847
 66
1
 10
0
 20
0
 30
0
  0
VERTEX
  8
LAYER_1
 10
194.3915
 20
192.4024
  0
VERTEX
  8
LAYER_1
 10
194.1534
 20
192.0584
  0
VERTEX
  8
LAYER_1
 10
193.783
 20
191.5028
  0
VERTEX
  8
LAYER_1
 10
193.439
 20
190.9207
  0
VERTEX
  8
LAYER_1
 10
193.148
 20
190.3651
  0
VERTEX
  8
LAYER_1
 10
192.9363
 20
189.783
  0
VERTEX
  8
LAYER_1
 10
192.804
 20
189.2274
  0
VERTEX
  8
LAYER_1
 10
192.7776
 20
188.8834
  0
VERTEX
  8
LAYER_1
 10
192.804
 20
188.5659
  0
VERTEX
  8
LAYER_1
 10
192.9363
 20
187.9839
  0
VERTEX
  8
LAYER_1
 10
193.148
 20
187.4282
  0
VERTEX
  8
LAYER_1
 10
193.439
 20
186.8461
  0
VERTEX
  8
LAYER_1
 10
193.783
 20
186.2641
  0
VERTEX
  8
LAYER_1
 10
194.1534
 20
185.7084
  0
VERTEX
  8
LAYER_1
 10
194.6032
 20
185.047
  0
SEQEND
  0
POLYLINE
  8
LAYER_1
 40
0.0847
 41
0.0847
 66
1
 10
0
 20
0
 30
0
  0
VERTEX
  8
LAYER_1
 10
184.5226
 20
178.6705
  0
VERTEX
  8
LAYER_1
 10
193.2009
 20
187.3224
  0
SEQEND
  0
POLYLINE
  8
LAYER_1
 40
0.0847
 41
0.0847
 66
1
 10
0
 20
0
 30
0
  0
VERTEX
  8
LAYER_1
 10
191.6134
 20
178.6705
  0
VERTEX
  8
LAYER_1
 10
195.7938
 20
182.8509
  0
SEQEND
  0
POLYLINE
  8
LAYER_1
 40
0.0847
 41
0.0847
 66
1
 10
0
 20
0
 30
0
  0
VERTEX
  8
LAYER_1
 10
188.068
 20
178.6705
  0
VERTEX
  8
LAYER_1
 10
194.5503
 20
185.1263
  0
SEQEND
  0
POLYLINE
  8
LAYER_1
 40
0.0847
 41
0.0847
 66
1
 10
0
 20
0
 30
0
  0
VERTEX
  8
LAYER_1
 10
92.6857
 20
178.6705
  0
VERTEX
  8
LAYER_1
 10
97.3953
 20
183.3536
  0
SEQEND
  0
POLYLINE
  8
LAYER_1
 40
0.0847
 41
0.0847
 66
1
 10
0
 20
0
 30
0
  0
VERTEX
  8
LAYER_1
 10
96.2046
 20
178.6705
  0
VERTEX
  8
LAYER_1
 10
97.3953
 20
179.8347
  0
SEQEND
  0
POLYLINE
  8
LAYER_1
 40
0.0847
 41
0.0847
 66
1
 10
0
 20
0
 30
0
  0
VERTEX
  8
LAYER_1
 10
16.5915
 20
192.4024
  0
VERTEX
  8
LAYER_1
 10
16.8296
 20
192.0584
  0
VERTEX
  8
LAYER_1
 10
17.2001
 20
191.5028
  0
VERTEX
  8
LAYER_1
 10
17.544
 20
190.9207
  0
VERTEX
  8
LAYER_1
 10
17.8351
 20
190.3651
  0
VERTEX
  8
LAYER_1
 10
18.0467
 20
189.783
  0
VERTEX
  8
LAYER_1
 10
18.179
 20
189.2274
  0
VERTEX
  8
LAYER_1
 10
18.2055
 20
188.8834
  0
VERTEX
  8
LAYER_1
 10
18.179
 20
188.5659
  0
VERTEX
  8
LAYER_1
 10
18.0467
 20
187.9839
  0
VERTEX
  8
LAYER_1
 10
17.8351
 20
187.4282
  0
VERTEX
  8
LAYER_1
 10
17.544
 20
186.8461
  0
VERTEX
  8
LAYER_1
 10
17.2001
 20
186.2641
  0
VERTEX
  8
LAYER_1
 10
16.8296
 20
185.7084
  0
VERTEX
  8
LAYER_1
 10
16.3798
 20
185.047
  0
VERTEX
  8
LAYER_1
 10
16.0623
 20
184.5972
  0
SEQEND
  0
POLYLINE
  8
LAYER_1
 40
0.0847
 41
0.0847
 66
1
 10
0
 20
0
 30
0
  0
VERTEX
  8
LAYER_1
 10
16.3798
 20
178.6705
  0
SEQEND
  0
POLYLINE
  8
LAYER_1
 40
0.0847
 41
0.0847
 66
1
 10
0
 20
0
 30
0
  0
VERTEX
  8
LAYER_1
 10
15.983
 20
179.2526
  0
VERTEX
  8
LAYER_1
 10
16.3798
 20
178.6705
  0
SEQEND
  0
POLYLINE
  8
LAYER_1
 40
0.0847
 41
0.0847
 66
1
 10
0
 20
0
 30
0
  0
VERTEX
  8
LAYER_1
 10
15.639
 20
179.8082
  0
VERTEX
  8
LAYER_1
 10
15.983
 20
179.2526
  0
SEQEND
  0
POLYLINE
  8
LAYER_1
 40
0.0847
 41
0.0847
 66
1
 10
0
 20
0
 30
0
  0
VERTEX
  8
LAYER_1
 10
15.348
 20
180.3903
  0
VERTEX
  8
LAYER_1
 10
15.639
 20
179.8082
  0
SEQEND
  0
POLYLINE
  8
LAYER_1
 40
0.0847
 41
0.0847
 66
1
 10
0
 20
0
 30
0
  0
VERTEX
  8
LAYER_1
 10
15.1363
 20
180.946
  0
VERTEX
  8
LAYER_1
 10
15.348
 20
180.3903
  0
SEQEND
  0
POLYLINE
  8
LAYER_1
 40
0.0847
 41
0.0847
 66
1
 10
0
 20
0
 30
0
  0
VERTEX
  8
LAYER_1
 10
15.004
 20
181.528
  0
VERTEX
  8
LAYER_1
 10
15.1363
 20
180.946
  0
SEQEND
  0
POLYLINE
  8
LAYER_1
 40
0.0847
 41
0.0847
 66
1
 10
0
 20
0
 30
0
  0
VERTEX
  8
LAYER_1
 10
15.004
 20
181.872
  0
VERTEX
  8
LAYER_1
 10
15.004
 20
181.528
  0
SEQEND
  0
POLYLINE
  8
LAYER_1
 40
0.0847
 41
0.0847
 66
1
 10
0
 20
0
 30
0
  0
VERTEX
  8
LAYER_1
 10
15.004
 20
182.1895
  0
VERTEX
  8
LAYER_1
 10
15.004
 20
181.872
  0
SEQEND
  0
POLYLINE
  8
LAYER_1
 40
0.0847
 41
0.0847
 66
1
 10
0
 20
0
 30
0
  0
VERTEX
  8
LAYER_1
 10
15.1363
 20
182.7716
  0
VERTEX
  8
LAYER_1
 10
15.004
 20
182.1895
  0
SEQEND
  0
POLYLINE
  8
LAYER_1
 40
0.0847
 41
0.0847
 66
1
 10
0
 20
0
 30
0
  0
VERTEX
  8
LAYER_1
 10
15.348
 20
183.3272
  0
VERTEX
  8
LAYER_1
 10
15.1363
 20
182.7716
  0
SEQEND
  0
POLYLINE
  8
LAYER_1
 40
0.0847
 41
0.0847
 66
1
 10
0
 20
0
 30
0
  0
VERTEX
  8
LAYER_1
 10
15.639
 20
183.9093
  0
VERTEX
  8
LAYER_1
 10
15.348
 20
183.3272
  0
SEQEND
  0
POLYLINE
  8
LAYER_1
 40
0.0847
 41
0.0847
 66
1
 10
0
 20
0
 30
0
  0
VERTEX
  8
LAYER_1
 10
15.983
 20
184.4649
  0
VERTEX
  8
LAYER_1
 10
15.639
 20
183.9093
  0
SEQEND
  0
POLYLINE
  8
LAYER_1
 40
0.0847
 41
0.0847
 66
1
 10
0
 20
0
 30
0
  0
VERTEX
  8
LAYER_1
 10
16.3798
 20
185.047
  0
VERTEX
  8
LAYER_1
 10
15.983
 20
184.4649
  0
SEQEND
  0
POLYLINE
  8
LAYER_1
 40
0.0847
 41
0.0847
 66
1
 10
0
 20
0
 30
0
  0
VERTEX
  8
LAYER_1
 10
16.8296
 20
185.7085
  0
VERTEX
  8
LAYER_1
 10
16.3798
 20
185.047
  0
SEQEND
  0
POLYLINE
  8
LAYER_1
 40
0.0847
 41
0.0847
 66
1
 10
0
 20
0
 30
0
  0
VERTEX
  8
LAYER_1
 10
17.2001
 20
186.2641
  0
VERTEX
  8
LAYER_1
 10
16.8296
 20
185.7085
  0
SEQEND
  0
POLYLINE
  8
LAYER_1
 40
0.0847
 41
0.0847
 66
1
 10
0
 20
0
 30
0
  0
VERTEX
  8
LAYER_1
 10
17.544
 20
186.8462
  0
VERTEX
  8
LAYER_1
 10
17.2
 20
186.2641
  0
SEQEND
  0
POLYLINE
  8
LAYER_1
 40
0.0847
 41
0.0847
 66
1
 10
0
 20
0
 30
0
  0
VERTEX
  8
LAYER_1
 10
17.8351
 20
187.4283
  0
VERTEX
  8
LAYER_1
 10
17.544
 20
186.8462
  0
SEQEND
  0
POLYLINE
  8
LAYER_1
 40
0.0847
 41
0.0847
 66
1
 10
0
 20
0
 30
0
  0
VERTEX
  8
LAYER_1
 10
18.0467
 20
187.9839
  0
VERTEX
  8
LAYER_1
 10
17.8351
 20
187.4283
  0
SEQEND
  0
POLYLINE
  8
LAYER_1
 40
0.0847
 41
0.0847
 66
1
 10
0
 20
0
 30
0
  0
VERTEX
  8
LAYER_1
 10
18.179
 20
188.566
  0
VERTEX
  8
LAYER_1
 10
18.0467
 20
187.9839
  0
SEQEND
  0
POLYLINE
  8
LAYER_1
 40
0.0847
 41
0.0847
 66
1
 10
0
 20
0
 30
0
  0
VERTEX
  8
LAYER_1
 10
18.2055
 20
188.8835
  0
VERTEX
  8
LAYER_1
 10
18.179
 20
188.566
  0
SEQEND
  0
POLYLINE
  8
LAYER_1
 40
0.0847
 41
0.0847
 66
1
 10
0
 20
0
 30
0
  0
VERTEX
  8
LAYER_1
 10
18.179
 20
189.2275
  0
VERTEX
  8
LAYER_1
 10
18.2055
 20
188.8835
  0
SEQEND
  0
POLYLINE
  8
LAYER_1
 40
0.0847
 41
0.0847
 66
1
 10
0
 20
0
 30
0
  0
VERTEX
  8
LAYER_1
 10
18.0467
 20
189.7831
  0
VERTEX
  8
LAYER_1
 10
18.179
 20
189.2275
  0
SEQEND
  0
POLYLINE
  8
LAYER_1
 40
0.0847
 41
0.0847
 66
1
 10
0
 20
0
 30
0
  0
VERTEX
  8
LAYER_1
 10
17.8351
 20
190.3652
  0
VERTEX
  8
LAYER_1
 10
18.0467
 20
189.7831
  0
SEQEND
  0
POLYLINE
  8
LAYER_1
 40
0.0847
 41
0.0847
 66
1
 10
0
 20
0
 30
0
  0
VERTEX
  8
LAYER_1
 10
17.544
 20
190.9208
  0
VERTEX
  8
LAYER_1
 10
17.8351
 20
190.3652
  0
SEQEND
  0
POLYLINE
  8
LAYER_1
 40
0.0847
 41
0.0847
 66
1
 10
0
 20
0
 30
0
  0
VERTEX
  8
LAYER_1
 10
17.2001
 20
191.5029
  0
VERTEX
  8
LAYER_1
 10
17.544
 20
190.9208
  0
SEQEND
  0
POLYLINE
  8
LAYER_1
 40
0.0847
 41
0.0847
 66
1
 10
0
 20
0
 30
0
  0
VERTEX
  8
LAYER_1
 10
16.8296
 20
192.0585
  0
VERTEX
  8
LAYER_1
 10
17.2001
 20
191.5029
  0
SEQEND
  0
POLYLINE
  8
LAYER_1
 40
0.0847
 41
0.0847
 66
1
 10
0
 20
0
 30
0
  0
VERTEX
  8
LAYER_1
 10
16.5915
 20
192.4025
  0
VERTEX
  8
LAYER_1
 10
16.8296
 20
192.0585
  0
SEQEND
  0
POLYLINE
  8
LAYER_1
 40
0.0847
 41
0.0847
 66
1
 10
0
 20
0
 30
0
  0
VERTEX
  8
LAYER_1
 10
194.6032
 20
178.6706
  0
SEQEND
  0
POLYLINE
  8
LAYER_1
 40
0.0847
 41
0.0847
 66
1
 10
0
 20
0
 30
0
  0
VERTEX
  8
LAYER_1
 10
195
 20
179.2527
  0
VERTEX
  8
LAYER_1
 10
194.6032
 20
178.6706
  0
SEQEND
  0
POLYLINE
  8
LAYER_1
 40
0.0847
 41
0.0847
 66
1
 10
0
 20
0
 30
0
  0
VERTEX
  8
LAYER_1
 10
195.344
 20
179.8083
  0
VERTEX
  8
LAYER_1
 10
195
 20
179.2527
  0
SEQEND
  0
POLYLINE
  8
LAYER_1
 40
0.0847
 41
0.0847
 66
1
 10
0
 20
0
 30
0
  0
VERTEX
  8
LAYER_1
 10
195.635
 20
180.3904
  0
VERTEX
  8
LAYER_1
 10
195.344
 20
179.8083
  0
SEQEND
  0
POLYLINE
  8
LAYER_1
 40
0.0847
 41
0.0847
 66
1
 10
0
 20
0
 30
0
  0
VERTEX
  8
LAYER_1
 10
195.8467
 20
180.946
  0
VERTEX
  8
LAYER_1
 10
195.635
 20
180.3904
  0
SEQEND
  0
POLYLINE
  8
LAYER_1
 40
0.0847
 41
0.0847
 66
1
 10
0
 20
0
 30
0
  0
VERTEX
  8
LAYER_1
 10
195.979
 20
181.5281
  0
VERTEX
  8
LAYER_1
 10
195.8467
 20
180.946
  0
SEQEND
  0
POLYLINE
  8
LAYER_1
 40
0.0847
 41
0.0847
 66
1
 10
0
 20
0
 30
0
  0
VERTEX
  8
LAYER_1
 10
195.979
 20
181.8721
  0
VERTEX
  8
LAYER_1
 10
195.979
 20
181.5281
  0
SEQEND
  0
POLYLINE
  8
LAYER_1
 40
0.0847
 41
0.0847
 66
1
 10
0
 20
0
 30
0
  0
VERTEX
  8
LAYER_1
 10
195.979
 20
182.1896
  0
VERTEX
  8
LAYER_1
 10
195.979
 20
181.8721
  0
SEQEND
  0
POLYLINE
  8
LAYER_1
 40
0.0847
 41
0.0847
 66
1
 10
0
 20
0
 30
0
  0
VERTEX
  8
LAYER_1
 10
195.8467
 20
182.7717
  0
VERTEX
  8
LAYER_1
 10
195.979
 20
182.1896
  0
SEQEND
  0
POLYLINE
  8
LAYER_1
 40
0.0847
 41
0.0847
 66
1
 10
0
 20
0
 30
0
  0
VERTEX
  8
LAYER_1
 10
195.635
 20
183.3273
  0
VERTEX
  8
LAYER_1
 10
195.8467
 20
182.7717
  0
SEQEND
  0
POLYLINE
  8
LAYER_1
 40
0.0847
 41
0.0847
 66
1
 10
0
 20
0
 30
0
  0
VERTEX
  8
LAYER_1
 10
195.344
 20
183.9094
  0
VERTEX
  8
LAYER_1
 10
195.635
 20
183.3273
  0
SEQEND
  0
POLYLINE
  8
LAYER_1
 40
0.0847
 41
0.0847
 66
1
 10
0
 20
0
 30
0
  0
VERTEX
  8
LAYER_1
 10
195
 20
184.465
  0
VERTEX
  8
LAYER_1
 10
195.344
 20
183.9094
  0
SEQEND
  0
POLYLINE
  8
LAYER_1
 40
0.0847
 41
0.0847
 66
1
 10
0
 20
0
 30
0
  0
VERTEX
  8
LAYER_1
 10
194.6032
 20
185.0471
  0
VERTEX
  8
LAYER_1
 10
195
 20
184.465
  0
SEQEND
  0
POLYLINE
  8
LAYER_1
 40
0.0847
 41
0.0847
 66
1
 10
0
 20
0
 30
0
  0
VERTEX
  8
LAYER_1
 10
194.1534
 20
185.7086
  0
VERTEX
  8
LAYER_1
 10
194.6032
 20
185.0471
  0
SEQEND
  0
POLYLINE
  8
LAYER_1
 40
0.0847
 41
0.0847
 66
1
 10
0
 20
0
 30
0
  0
VERTEX
  8
LAYER_1
 10
193.783
 20
186.2642
  0
VERTEX
  8
LAYER_1
 10
194.1534
 20
185.7086
  0
SEQEND
  0
POLYLINE
  8
LAYER_1
 40
0.0847
 41
0.0847
 66
1
 10
0
 20
0
 30
0
  0
VERTEX
  8
LAYER_1
 10
193.439
 20
186.8463
  0
VERTEX
  8
LAYER_1
 10
193.783
 20
186.2642
  0
SEQEND
  0
POLYLINE
  8
LAYER_1
 40
0.0847
 41
0.0847
 66
1
 10
0
 20
0
 30
0
  0
VERTEX
  8
LAYER_1
 10
193.148
 20
187.4284
  0
VERTEX
  8
LAYER_1
 10
193.439
 20
186.8463
  0
SEQEND
  0
POLYLINE
  8
LAYER_1
 40
0.0847
 41
0.0847
 66
1
 10
0
 20
0
 30
0
  0
VERTEX
  8
LAYER_1
 10
192.9363
 20
187.984
  0
VERTEX
  8
LAYER_1
 10
193.148
 20
187.4284
  0
SEQEND
  0
POLYLINE
  8
LAYER_1
 40
0.0847
 41
0.0847
 66
1
 10
0
 20
0
 30
0
  0
VERTEX
  8
LAYER_1
 10
192.804
 20
188.5661
  0
VERTEX
  8
LAYER_1
 10
192.9363
 20
187.984
  0
SEQEND
  0
POLYLINE
  8
LAYER_1
 40
0.0847
 41
0.0847
 66
1
 10
0
 20
0
 30
0
  0
VERTEX
  8
LAYER_1
 10
192.7776
 20
188.8836
  0
VERTEX
  8
LAYER_1
 10
192.804
 20
188.5661
  0
SEQEND
  0
POLYLINE
  8
LAYER_1
 40
0.0847
 41
0.0847
 66
1
 10
0
 20
0
 30
0
  0
VERTEX
  8
LAYER_1
 10
192.804
 20
189.2275
  0
VERTEX
  8
LAYER_1
 10
192.7775
 20
188.8836
  0
SEQEND
  0
POLYLINE
  8
LAYER_1
 40
0.0847
 41
0.0847
 66
1
 10
0
 20
0
 30
0
  0
VERTEX
  8
LAYER_1
 10
192.9363
 20
189.7832
  0
VERTEX
  8
LAYER_1
 10
192.804
 20
189.2275
  0
SEQEND
  0
POLYLINE
  8
LAYER_1
 40
0.0847
 41
0.0847
 66
1
 10
0
 20
0
 30
0
  0
VERTEX
  8
LAYER_1
 10
193.148
 20
190.3653
  0
VERTEX
  8
LAYER_1
 10
192.9363
 20
189.7832
  0
SEQEND
  0
POLYLINE
  8
LAYER_1
 40
0.0847
 41
0.0847
 66
1
 10
0
 20
0
 30
0
  0
VERTEX
  8
LAYER_1
 10
193.439
 20
190.9209
  0
VERTEX
  8
LAYER_1
 10
193.148
 20
190.3653
  0
SEQEND
  0
POLYLINE
  8
LAYER_1
 40
0.0847
 41
0.0847
 66
1
 10
0
 20
0
 30
0
  0
VERTEX
  8
LAYER_1
 10
193.783
 20
191.503
  0
VERTEX
  8
LAYER_1
 10
193.439
 20
190.9209
  0
SEQEND
  0
POLYLINE
  8
LAYER_1
 40
0.0847
 41
0.0847
 66
1
 10
0
 20
0
 30
0
  0
VERTEX
  8
LAYER_1
 10
194.1534
 20
192.0586
  0
VERTEX
  8
LAYER_1
 10
193.783
 20
191.503
  0
SEQEND
  0
POLYLINE
  8
LAYER_1
 40
0.0847
 41
0.0847
 66
1
 10
0
 20
0
 30
0
  0
VERTEX
  8
LAYER_1
 10
194.3915
 20
192.4026
  0
VERTEX
  8
LAYER_1
 10
194.1534
 20
192.0586
  0
SEQEND
  0
POLYLINE
  8
LAYER_1
 40
0.0847
 41
0.0847
 66
1
 10
0
 20
0
 30
0
  0
VERTEX
  8
LAYER_1
 10
113.5878
 20
189.0159
  0
VERTEX
  8
LAYER_1
 10
117.0009
 20
192.4026
  0
SEQEND
  0
POLYLINE
  8
LAYER_1
 40
0.0847
 41
0.0847
 66
1
 10
0
 20
0
 30
0
  0
VERTEX
  8
LAYER_1
 10
113.5878
 20
185.4705
  0
VERTEX
  8
LAYER_1
 10
120.5198
 20
192.4026
  0
SEQEND
  0
POLYLINE
  8
LAYER_1
 40
0.0847
 41
0.0847
 66
1
 10
0
 20
0
 30
0
  0
VERTEX
  8
LAYER_1
 10
113.5878
 20
181.9251
  0
VERTEX
  8
LAYER_1
 10
124.0653
 20
192.4026
  0
SEQEND
  0
POLYLINE
  8
LAYER_1
 40
0.0847
 41
0.0847
 66
1
 10
0
 20
0
 30
0
  0
VERTEX
  8
LAYER_1
 10
113.8524
 20
178.6707
  0
VERTEX
  8
LAYER_1
 10
127.6107
 20
192.4026
  0
SEQEND
  0
POLYLINE
  8
LAYER_1
 40
0.0847
 41
0.0847
 66
1
 10
0
 20
0
 30
0
  0
VERTEX
  8
LAYER_1
 10
117.3978
 20
178.6707
  0
VERTEX
  8
LAYER_1
 10
131.1296
 20
192.4026
  0
SEQEND
  0
POLYLINE
  8
LAYER_1
 40
0.0847
 41
0.0847
 66
1
 10
0
 20
0
 30
0
  0
VERTEX
  8
LAYER_1
 10
120.9167
 20
178.6707
  0
VERTEX
  8
LAYER_1
 10
134.6751
 20
192.4026
  0
SEQEND
  0
POLYLINE
  8
LAYER_1
 40
0.0847
 41
0.0847
 66
1
 10
0
 20
0
 30
0
  0
VERTEX
  8
LAYER_1
 10
124.4622
 20
178.6707
  0
VERTEX
  8
LAYER_1
 10
138.194
 20
192.4026
  0
SEQEND
  0
POLYLINE
  8
LAYER_1
 40
0.0847
 41
0.0847
 66
1
 10
0
 20
0
 30
0
  0
VERTEX
  8
LAYER_1
 10
127.9811
 20
178.6707
  0
VERTEX
  8
LAYER_1
 10
141.7394
 20
192.4026
  0
SEQEND
  0
POLYLINE
  8
LAYER_1
 40
0.0847
 41
0.0847
 66
1
 10
0
 20
0
 30
0
  0
VERTEX
  8
LAYER_1
 10
131.5265
 20
178.6707
  0
VERTEX
  8
LAYER_1
 10
145.2584
 20
192.4026
  0
SEQEND
  0
POLYLINE
  8
LAYER_1
 40
0.0847
 41
0.0847
 66
1
 10
0
 20
0
 30
0
  0
VERTEX
  8
LAYER_1
 10
135.0455
 20
178.6707
  0
VERTEX
  8
LAYER_1
 10
148.8038
 20
192.4026
  0
SEQEND
  0
POLYLINE
  8
LAYER_1
 40
0.1693
 41
0.1693
 66
1
 10
0
 20
0
 30
0
  0
VERTEX
  8
LAYER_1
 10
95.5167
 20
177.9033
  0
VERTEX
  8
LAYER_1
 10
115.4663
 20
177.9033
  0
VERTEX
  8
LAYER_1
 10
115.4663
 20
178.6706
  0
SEQEND
  0
POLYLINE
  8
LAYER_1
 40
0.1693
 41
0.1693
 66
1
 10
0
 20
0
 30
0
  0
VERTEX
  8
LAYER_1
 10
95.5167
 20
178.6706
  0
VERTEX
  8
LAYER_1
 10
115.4663
 20
178.6706
  0
SEQEND
  0
POLYLINE
  8
LAYER_1
 40
0.1693
 41
0.1693
 66
1
 10
0
 20
0
 30
0
  0
VERTEX
  8
LAYER_1
 10
95.5167
 20
177.9033
  0
VERTEX
  8
LAYER_1
 10
95.5167
 20
178.6706
  0
SEQEND
  0
POLYLINE
  8
LAYER_1
 40
0.0847
 41
0.0847
 66
1
 10
0
 20
0
 30
0
  0
VERTEX
  8
LAYER_1
 10
109.5925
 20
177.9033
  0
VERTEX
  8
LAYER_1
 10
109.5925
 20
178.0885
  0
SEQEND
  0
POLYLINE
  8
LAYER_1
 40
0.0847
 41
0.0847
 66
1
 10
0
 20
0
 30
0
  0
VERTEX
  8
LAYER_1
 10
109.5925
 20
178.4589
  0
VERTEX
  8
LAYER_1
 10
109.5925
 20
178.6706
  0
SEQEND
  0
POLYLINE
  8
LAYER_1
 40
0.0847
 41
0.0847
 66
1
 10
0
 20
0
 30
0
  0
VERTEX
  8
LAYER_1
 10
101.3904
 20
177.9033
  0
VERTEX
  8
LAYER_1
 10
101.3904
 20
178.0885
  0
SEQEND
  0
POLYLINE
  8
LAYER_1
 40
0.0847
 41
0.0847
 66
1
 10
0
 20
0
 30
0
  0
VERTEX
  8
LAYER_1
 10
101.3904
 20
178.4589
  0
VERTEX
  8
LAYER_1
 10
101.3904
 20
178.6706
  0
SEQEND
  0
TEXT
  8
LAYER_1
 10
157.8524
 20
210.5533
 11
157.8524
 21
210.5533
 40
3.2224
 41
0.5
  1
örÉàû┌ÄM
  0
POLYLINE
  8
LAYER_1
 40
0.1693
 41
0.1693
 66
1
 10
0
 20
0
 30
0
  0
VERTEX
  8
LAYER_1
 10
70.5136
 20
219.8926
  0
VERTEX
  8
LAYER_1
 10
140.4694
 20
219.8926
  0
SEQEND
  0
POLYLINE
  8
LAYER_1
 40
0.1693
 41
0.1693
 66
1
 10
0
 20
0
 30
0
  0
VERTEX
  8
LAYER_1
 10
96.1252
 20
194.8895
  0
VERTEX
  8
LAYER_1
 10
114.8577
 20
194.8895
  0
SEQEND
  0
POLYLINE
  8
LAYER_1
 40
0.0847
 41
0.0847
 66
1
 10
0
 20
0
 30
0
  0
VERTEX
  8
LAYER_1
 10
73.7679
 20
219.8926
  0
VERTEX
  8
LAYER_1
 10
74.9321
 20
218.7814
  0
SEQEND
  0
POLYLINE
  8
LAYER_1
 40
0.0847
 41
0.0847
 66
1
 10
0
 20
0
 30
0
  0
VERTEX
  8
LAYER_1
 10
75.7259
 20
218.0405
  0
VERTEX
  8
LAYER_1
 10
78.0542
 20
215.818
  0
SEQEND
  0
POLYLINE
  8
LAYER_1
 40
0.0847
 41
0.0847
 66
1
 10
0
 20
0
 30
0
  0
VERTEX
  8
LAYER_1
 10
78.8479
 20
215.0772
  0
VERTEX
  8
LAYER_1
 10
81.2027
 20
212.8547
  0
SEQEND
  0
POLYLINE
  8
LAYER_1
 40
0.0847
 41
0.0847
 66
1
 10
0
 20
0
 30
0
  0
VERTEX
  8
LAYER_1
 10
81.9965
 20
212.1139
  0
VERTEX
  8
LAYER_1
 10
84.3248
 20
209.8914
  0
SEQEND
  0
POLYLINE
  8
LAYER_1
 40
0.0847
 41
0.0847
 66
1
 10
0
 20
0
 30
0
  0
VERTEX
  8
LAYER_1
 10
85.1186
 20
209.1506
  0
VERTEX
  8
LAYER_1
 10
87.4734
 20
206.9281
  0
SEQEND
  0
POLYLINE
  8
LAYER_1
 40
0.0847
 41
0.0847
 66
1
 10
0
 20
0
 30
0
  0
VERTEX
  8
LAYER_1
 10
88.2671
 20
206.1873
  0
VERTEX
  8
LAYER_1
 10
90.5954
 20
203.9647
  0
SEQEND
  0
POLYLINE
  8
LAYER_1
 40
0.0847
 41
0.0847
 66
1
 10
0
 20
0
 30
0
  0
VERTEX
  8
LAYER_1
 10
91.3892
 20
203.2239
  0
VERTEX
  8
LAYER_1
 10
93.744
 20
201.0014
  0
SEQEND
  0
POLYLINE
  8
LAYER_1
 40
0.0847
 41
0.0847
 66
1
 10
0
 20
0
 30
0
  0
VERTEX
  8
LAYER_1
 10
94.5377
 20
200.2606
  0
VERTEX
  8
LAYER_1
 10
96.8661
 20
198.0381
  0
SEQEND
  0
POLYLINE
  8
LAYER_1
 40
0.0847
 41
0.0847
 66
1
 10
0
 20
0
 30
0
  0
VERTEX
  8
LAYER_1
 10
97.6598
 20
197.2973
  0
VERTEX
  8
LAYER_1
 10
98.8504
 20
196.1596
  0
SEQEND
  0
POLYLINE
  8
LAYER_1
 40
0.0847
 41
0.0847
 66
1
 10
0
 20
0
 30
0
  0
VERTEX
  8
LAYER_1
 10
137.215
 20
219.8927
  0
VERTEX
  8
LAYER_1
 10
136.0508
 20
218.7814
  0
SEQEND
  0
POLYLINE
  8
LAYER_1
 40
0.0847
 41
0.0847
 66
1
 10
0
 20
0
 30
0
  0
VERTEX
  8
LAYER_1
 10
135.2571
 20
218.0406
  0
VERTEX
  8
LAYER_1
 10
132.9288
 20
215.8181
  0
SEQEND
  0
POLYLINE
  8
LAYER_1
 40
0.0847
 41
0.0847
 66
1
 10
0
 20
0
 30
0
  0
VERTEX
  8
LAYER_1
 10
132.135
 20
215.0773
  0
VERTEX
  8
LAYER_1
 10
129.7802
 20
212.8548
  0
SEQEND
  0
POLYLINE
  8
LAYER_1
 40
0.0847
 41
0.0847
 66
1
 10
0
 20
0
 30
0
  0
VERTEX
  8
LAYER_1
 10
128.9865
 20
212.114
  0
VERTEX
  8
LAYER_1
 10
126.6581
 20
209.8915
  0
SEQEND
  0
POLYLINE
  8
LAYER_1
 40
0.0847
 41
0.0847
 66
1
 10
0
 20
0
 30
0
  0
VERTEX
  8
LAYER_1
 10
125.8644
 20
209.1507
  0
VERTEX
  8
LAYER_1
 10
123.5096
 20
206.9281
  0
SEQEND
  0
POLYLINE
  8
LAYER_1
 40
0.0847
 41
0.0847
 66
1
 10
0
 20
0
 30
0
  0
VERTEX
  8
LAYER_1
 10
122.7158
 20
206.1873
  0
VERTEX
  8
LAYER_1
 10
120.3875
 20
203.9648
  0
SEQEND
  0
POLYLINE
  8
LAYER_1
 40
0.0847
 41
0.0847
 66
1
 10
0
 20
0
 30
0
  0
VERTEX
  8
LAYER_1
 10
119.5938
 20
203.224
  0
VERTEX
  8
LAYER_1
 10
117.239
 20
201.0015
  0
SEQEND
  0
POLYLINE
  8
LAYER_1
 40
0.0847
 41
0.0847
 66
1
 10
0
 20
0
 30
0
  0
VERTEX
  8
LAYER_1
 10
116.4452
 20
200.2607
  0
VERTEX
  8
LAYER_1
 10
114.1169
 20
198.0382
  0
SEQEND
  0
POLYLINE
  8
LAYER_1
 40
0.0847
 41
0.0847
 66
1
 10
0
 20
0
 30
0
  0
VERTEX
  8
LAYER_1
 10
113.3231
 20
197.2974
  0
VERTEX
  8
LAYER_1
 10
112.1325
 20
196.1597
  0
SEQEND
  0
POLYLINE
  8
LAYER_1
 40
0.0847
 41
0.0847
 66
1
 10
0
 20
0
 30
0
  0
VERTEX
  8
LAYER_1
 10
112.1325
 20
194.8897
  0
VERTEX
  8
LAYER_1
 10
112.1325
 20
195.3659
  0
SEQEND
  0
POLYLINE
  8
LAYER_1
 40
0.0847
 41
0.0847
 66
1
 10
0
 20
0
 30
0
  0
VERTEX
  8
LAYER_1
 10
112.1325
 20
195.6834
  0
VERTEX
  8
LAYER_1
 10
112.1325
 20
196.1596
  0
SEQEND
  0
POLYLINE
  8
LAYER_1
 40
0.0847
 41
0.0847
 66
1
 10
0
 20
0
 30
0
  0
VERTEX
  8
LAYER_1
 10
98.8504
 20
194.8897
  0
VERTEX
  8
LAYER_1
 10
98.8504
 20
195.3659
  0
SEQEND
  0
POLYLINE
  8
LAYER_1
 40
0.0847
 41
0.0847
 66
1
 10
0
 20
0
 30
0
  0
VERTEX
  8
LAYER_1
 10
98.8504
 20
195.6834
  0
VERTEX
  8
LAYER_1
 10
98.8504
 20
196.1596
  0
SEQEND
  0
POLYLINE
  8
LAYER_1
 40
0.1693
 41
0.1693
 66
1
 10
0
 20
0
 30
0
  0
VERTEX
  8
LAYER_1
 10
115.0165
 20
195.7891
  0
VERTEX
  8
LAYER_1
 10
140.4694
 20
219.8926
  0
SEQEND
  0
POLYLINE
  8
LAYER_1
 40
0.1693
 41
0.1693
 66
1
 10
0
 20
0
 30
0
  0
VERTEX
  8
LAYER_1
 10
114.8577
 20
194.8895
  0
VERTEX
  8
LAYER_1
 10
114.8577
 20
195.4451
  0
SEQEND
  0
POLYLINE
  8
LAYER_1
 40
0.1693
 41
0.1693
 66
1
 10
0
 20
0
 30
0
  0
VERTEX
  8
LAYER_1
 10
114.99
 20
195.8156
 42
0.170108668
  0
VERTEX
  8
LAYER_1
 10
114.8577
 20
195.4716
  0
SEQEND
  0
POLYLINE
  8
LAYER_1
 40
0.1693
 41
0.1693
 66
1
 10
0
 20
0
 30
0
  0
VERTEX
  8
LAYER_1
 10
95.9665
 20
195.7891
  0
VERTEX
  8
LAYER_1
 10
70.5136
 20
219.8926
  0
SEQEND
  0
POLYLINE
  8
LAYER_1
 40
0.1693
 41
0.1693
 66
1
 10
0
 20
0
 30
0
  0
VERTEX
  8
LAYER_1
 10
96.1252
 20
194.8895
  0
VERTEX
  8
LAYER_1
 10
96.1252
 20
195.4451
  0
SEQEND
  0
POLYLINE
  8
LAYER_1
 40
0.1693
 41
0.1693
 66
1
 10
0
 20
0
 30
0
  0
VERTEX
  8
LAYER_1
 10
96.1252
 20
195.4716
 42
0.1823875736
  0
VERTEX
  8
LAYER_1
 10
95.94
 20
195.8156
  0
SEQEND
  0
POLYLINE
  8
LAYER_1
 40
0.1693
 41
0.1693
 66
1
 10
0
 20
0
 30
0
  0
VERTEX
  8
LAYER_1
 10
105.4915
 20
192.4024
  0
VERTEX
  8
LAYER_1
 10
114.8048
 20
192.4024
  0
SEQEND
  0
POLYLINE
  8
LAYER_1
 40
0.1693
 41
0.1693
 66
1
 10
0
 20
0
 30
0
  0
VERTEX
  8
LAYER_1
 10
93.2677
 20
192.4024
  0
VERTEX
  8
LAYER_1
 10
93.2677
 20
192.6405
  0
SEQEND
  0
POLYLINE
  8
LAYER_1
 40
0.1693
 41
0.1693
 66
1
 10
0
 20
0
 30
0
  0
VERTEX
  8
LAYER_1
 10
94.0086
 20
193.4079
  0
VERTEX
  8
LAYER_1
 10
94.6435
 20
193.4079
  0
SEQEND
  0
POLYLINE
  8
LAYER_1
 40
0.1693
 41
0.1693
 66
1
 10
0
 20
0
 30
0
  0
VERTEX
  8
LAYER_1
 10
94.6171
 20
193.3814
  0
VERTEX
  8
LAYER_1
 10
94.6436
 20
193.3814
 42
0.4078799231
  0
VERTEX
  8
LAYER_1
 10
96.1517
 20
194.8895
  0
VERTEX
  8
LAYER_1
 10
96.1517
 20
194.916
  0
SEQEND
  0
POLYLINE
  8
LAYER_1
 40
0.1693
 41
0.1693
 66
1
 10
0
 20
0
 30
0
  0
VERTEX
  8
LAYER_1
 10
93.9821
 20
193.3814
 42
0.4166727411
  0
VERTEX
  8
LAYER_1
 10
93.2677
 20
192.667
  0
SEQEND
  0
POLYLINE
  8
LAYER_1
 40
0.1693
 41
0.1693
 66
1
 10
0
 20
0
 30
0
  0
VERTEX
  8
LAYER_1
 10
93.2677
 20
192.4025
  0
VERTEX
  8
LAYER_1
 10
93.2677
 20
192.6406
  0
SEQEND
  0
POLYLINE
  8
LAYER_1
 40
0.1693
 41
0.1693
 66
1
 10
0
 20
0
 30
0
  0
VERTEX
  8
LAYER_1
 10
117.7152
 20
192.4025
  0
VERTEX
  8
LAYER_1
 10
117.7152
 20
192.6406
  0
SEQEND
  0
POLYLINE
  8
LAYER_1
 40
0.1693
 41
0.1693
 66
1
 10
0
 20
0
 30
0
  0
VERTEX
  8
LAYER_1
 10
116.3394
 20
193.4079
  0
VERTEX
  8
LAYER_1
 10
116.9744
 20
193.4079
  0
SEQEND
  0
POLYLINE
  8
LAYER_1
 40
0.1693
 41
0.1693
 66
1
 10
0
 20
0
 30
0
  0
VERTEX
  8
LAYER_1
 10
114.8313
 20
194.916
  0
VERTEX
  8
LAYER_1
 10
114.8313
 20
194.8895
 42
0.404888076
  0
VERTEX
  8
LAYER_1
 10
116.3129
 20
193.3814
  0
SEQEND
  0
POLYLINE
  8
LAYER_1
 40
0.1693
 41
0.1693
 66
1
 10
0
 20
0
 30
0
  0
VERTEX
  8
LAYER_1
 10
117.7152
 20
192.6671
 42
0.395543402
  0
VERTEX
  8
LAYER_1
 10
116.9744
 20
193.3814
  0
VERTEX
  8
LAYER_1
 10
116.9479
 20
193.3814
  0
SEQEND
  0
POLYLINE
  8
LAYER_1
 40
0.1693
 41
0.1693
 66
1
 10
0
 20
0
 30
0
  0
VERTEX
  8
LAYER_1
 10
93.2677
 20
192.7729
  0
SEQEND
  0
POLYLINE
  8
LAYER_1
 40
0.1693
 41
0.1693
 66
1
 10
0
 20
0
 30
0
  0
VERTEX
  8
LAYER_1
 10
115.5721
 20
192.4025
  0
VERTEX
  8
LAYER_1
 10
117.4771
 20
192.4025
  0
SEQEND
  0
POLYLINE
  8
LAYER_1
 40
0.0847
 41
0.0847
 66
1
 10
0
 20
0
 30
0
  0
VERTEX
  8
LAYER_1
 10
100.9936
 20
194.4133
  0
VERTEX
  8
LAYER_1
 10
100.1469
 20
193.9106
  0
SEQEND
  0
POLYLINE
  8
LAYER_1
 40
0.0847
 41
0.0847
 66
1
 10
0
 20
0
 30
0
  0
VERTEX
  8
LAYER_1
 10
98.4271
 20
192.9051
  0
VERTEX
  8
LAYER_1
 10
97.554
 20
192.4024
  0
SEQEND
  0
POLYLINE
  8
LAYER_1
 40
0.0847
 41
0.0847
 66
1
 10
0
 20
0
 30
0
  0
VERTEX
  8
LAYER_1
 10
100.9936
 20
194.4133
  0
VERTEX
  8
LAYER_1
 10
100.9936
 20
194.5191
  0
SEQEND
  0
POLYLINE
  8
LAYER_1
 40
0.0847
 41
0.0847
 66
1
 10
0
 20
0
 30
0
  0
VERTEX
  8
LAYER_1
 10
100.9936
 20
194.7572
  0
VERTEX
  8
LAYER_1
 10
100.9936
 20
194.8895
  0
SEQEND
  0
POLYLINE
  8
LAYER_1
 40
0.0847
 41
0.0847
 66
1
 10
0
 20
0
 30
0
  0
VERTEX
  8
LAYER_1
 10
109.9894
 20
194.4133
  0
VERTEX
  8
LAYER_1
 10
109.9894
 20
194.5191
  0
SEQEND
  0
POLYLINE
  8
LAYER_1
 40
0.0847
 41
0.0847
 66
1
 10
0
 20
0
 30
0
  0
VERTEX
  8
LAYER_1
 10
109.9894
 20
194.7572
  0
VERTEX
  8
LAYER_1
 10
109.9894
 20
194.8895
  0
SEQEND
  0
POLYLINE
  8
LAYER_1
 40
0.0847
 41
0.0847
 66
1
 10
0
 20
0
 30
0
  0
VERTEX
  8
LAYER_1
 10
109.9894
 20
194.4133
  0
VERTEX
  8
LAYER_1
 10
110.8361
 20
193.9106
  0
SEQEND
  0
POLYLINE
  8
LAYER_1
 40
0.0847
 41
0.0847
 66
1
 10
0
 20
0
 30
0
  0
VERTEX
  8
LAYER_1
 10
112.5559
 20
192.9051
  0
VERTEX
  8
LAYER_1
 10
113.429
 20
192.4024
  0
SEQEND
  0
POLYLINE
  8
LAYER_1
 40
0.1693
 41
0.1693
 66
1
 10
0
 20
0
 30
0
  0
VERTEX
  8
LAYER_1
 10
96.1252
 20
194.8895
  0
VERTEX
  8
LAYER_1
 10
114.8577
 20
194.8895
  0
SEQEND
  0
POLYLINE
  8
LAYER_1
 40
0.1693
 41
0.1693
 66
1
 10
0
 20
0
 30
0
  0
VERTEX
  8
LAYER_1
 10
93.2677
 20
192.4024
  0
VERTEX
  8
LAYER_1
 10
117.7152
 20
192.4024
  0
SEQEND
  0
POLYLINE
  8
LAYER_1
 40
0.0847
 41
0.0847
 66
1
 10
0
 20
0
 30
0
  0
VERTEX
  8
LAYER_1
 10
98.5859
 20
194.5191
  0
VERTEX
  8
LAYER_1
 10
98.7446
 20
194.5191
  0
SEQEND
  0
POLYLINE
  8
LAYER_1
 40
0.0847
 41
0.0847
 66
1
 10
0
 20
0
 30
0
  0
VERTEX
  8
LAYER_1
 10
99.0621
 20
194.5191
  0
VERTEX
  8
LAYER_1
 10
99.2473
 20
194.5191
  0
SEQEND
  0
POLYLINE
  8
LAYER_1
 40
0.0847
 41
0.0847
 66
1
 10
0
 20
0
 30
0
  0
VERTEX
  8
LAYER_1
 10
111.7356
 20
194.5191
  0
VERTEX
  8
LAYER_1
 10
111.8944
 20
194.5191
  0
SEQEND
  0
POLYLINE
  8
LAYER_1
 40
0.0847
 41
0.0847
 66
1
 10
0
 20
0
 30
0
  0
VERTEX
  8
LAYER_1
 10
112.2119
 20
194.5191
  0
VERTEX
  8
LAYER_1
 10
112.3971
 20
194.5191
  0
SEQEND
  0
POLYLINE
  8
LAYER_1
 40
0.0847
 41
0.0847
 66
1
 10
0
 20
0
 30
0
  0
VERTEX
  8
LAYER_1
 10
95.4638
 20
192.7728
  0
VERTEX
  8
LAYER_1
 10
95.6225
 20
192.7728
  0
SEQEND
  0
POLYLINE
  8
LAYER_1
 40
0.0847
 41
0.0847
 66
1
 10
0
 20
0
 30
0
  0
VERTEX
  8
LAYER_1
 10
95.94
 20
192.7728
  0
VERTEX
  8
LAYER_1
 10
96.1252
 20
192.7728
  0
SEQEND
  0
POLYLINE
  8
LAYER_1
 40
0.0847
 41
0.0847
 66
1
 10
0
 20
0
 30
0
  0
VERTEX
  8
LAYER_1
 10
114.8577
 20
192.7728
  0
VERTEX
  8
LAYER_1
 10
115.0164
 20
192.7728
  0
SEQEND
  0
POLYLINE
  8
LAYER_1
 40
0.0847
 41
0.0847
 66
1
 10
0
 20
0
 30
0
  0
VERTEX
  8
LAYER_1
 10
115.3339
 20
192.7728
  0
VERTEX
  8
LAYER_1
 10
115.5191
 20
192.7728
  0
SEQEND
  0
POLYLINE
  8
LAYER_1
 40
0.0847
 41
0.0847
 66
1
 10
0
 20
0
 30
0
  0
VERTEX
  8
LAYER_1
 10
98.5858
 20
194.5191
  0
VERTEX
  8
LAYER_1
 10
98.5858
 20
194.5985
  0
SEQEND
  0
POLYLINE
  8
LAYER_1
 40
0.0847
 41
0.0847
 66
1
 10
0
 20
0
 30
0
  0
VERTEX
  8
LAYER_1
 10
98.5858
 20
194.7837
  0
VERTEX
  8
LAYER_1
 10
98.5858
 20
194.8895
  0
SEQEND
  0
POLYLINE
  8
LAYER_1
 40
0.0847
 41
0.0847
 66
1
 10
0
 20
0
 30
0
  0
VERTEX
  8
LAYER_1
 10
99.2473
 20
194.5191
  0
VERTEX
  8
LAYER_1
 10
99.2473
 20
194.5985
  0
SEQEND
  0
POLYLINE
  8
LAYER_1
 40
0.0847
 41
0.0847
 66
1
 10
0
 20
0
 30
0
  0
VERTEX
  8
LAYER_1
 10
99.2473
 20
194.7837
  0
VERTEX
  8
LAYER_1
 10
99.2473
 20
194.8895
  0
SEQEND
  0
POLYLINE
  8
LAYER_1
 40
0.0847
 41
0.0847
 66
1
 10
0
 20
0
 30
0
  0
VERTEX
  8
LAYER_1
 10
111.7356
 20
194.5191
  0
VERTEX
  8
LAYER_1
 10
111.7356
 20
194.5985
  0
SEQEND
  0
POLYLINE
  8
LAYER_1
 40
0.0847
 41
0.0847
 66
1
 10
0
 20
0
 30
0
  0
VERTEX
  8
LAYER_1
 10
111.7356
 20
194.7837
  0
VERTEX
  8
LAYER_1
 10
111.7356
 20
194.8895
  0
SEQEND
  0
POLYLINE
  8
LAYER_1
 40
0.0847
 41
0.0847
 66
1
 10
0
 20
0
 30
0
  0
VERTEX
  8
LAYER_1
 10
112.3971
 20
194.5191
  0
VERTEX
  8
LAYER_1
 10
112.3971
 20
194.5985
  0
SEQEND
  0
POLYLINE
  8
LAYER_1
 40
0.0847
 41
0.0847
 66
1
 10
0
 20
0
 30
0
  0
VERTEX
  8
LAYER_1
 10
112.3971
 20
194.7837
  0
VERTEX
  8
LAYER_1
 10
112.3971
 20
194.8895
  0
SEQEND
  0
POLYLINE
  8
LAYER_1
 40
0.0847
 41
0.0847
 66
1
 10
0
 20
0
 30
0
  0
VERTEX
  8
LAYER_1
 10
95.4637
 20
192.4024
  0
VERTEX
  8
LAYER_1
 10
95.4637
 20
192.4818
  0
SEQEND
  0
POLYLINE
  8
LAYER_1
 40
0.0847
 41
0.0847
 66
1
 10
0
 20
0
 30
0
  0
VERTEX
  8
LAYER_1
 10
95.4637
 20
192.667
  0
VERTEX
  8
LAYER_1
 10
95.4637
 20
192.7728
  0
SEQEND
  0
POLYLINE
  8
LAYER_1
 40
0.0847
 41
0.0847
 66
1
 10
0
 20
0
 30
0
  0
VERTEX
  8
LAYER_1
 10
96.1252
 20
192.4024
  0
VERTEX
  8
LAYER_1
 10
96.1252
 20
192.4818
  0
SEQEND
  0
POLYLINE
  8
LAYER_1
 40
0.0847
 41
0.0847
 66
1
 10
0
 20
0
 30
0
  0
VERTEX
  8
LAYER_1
 10
96.1252
 20
192.667
  0
VERTEX
  8
LAYER_1
 10
96.1252
 20
192.7728
  0
SEQEND
  0
POLYLINE
  8
LAYER_1
 40
0.0847
 41
0.0847
 66
1
 10
0
 20
0
 30
0
  0
VERTEX
  8
LAYER_1
 10
114.8577
 20
192.4024
  0
VERTEX
  8
LAYER_1
 10
114.8577
 20
192.4818
  0
SEQEND
  0
POLYLINE
  8
LAYER_1
 40
0.0847
 41
0.0847
 66
1
 10
0
 20
0
 30
0
  0
VERTEX
  8
LAYER_1
 10
114.8577
 20
192.667
  0
VERTEX
  8
LAYER_1
 10
114.8577
 20
192.7728
  0
SEQEND
  0
POLYLINE
  8
LAYER_1
 40
0.0847
 41
0.0847
 66
1
 10
0
 20
0
 30
0
  0
VERTEX
  8
LAYER_1
 10
115.5192
 20
192.4024
  0
VERTEX
  8
LAYER_1
 10
115.5192
 20
192.4818
  0
SEQEND
  0
POLYLINE
  8
LAYER_1
 40
0.0847
 41
0.0847
 66
1
 10
0
 20
0
 30
0
  0
VERTEX
  8
LAYER_1
 10
115.5192
 20
192.667
  0
VERTEX
  8
LAYER_1
 10
115.5192
 20
192.7728
  0
SEQEND
  0
POLYLINE
  8
LAYER_1
 40
0.0847
 41
0.0847
 66
1
 10
0
 20
0
 30
0
  0
VERTEX
  8
LAYER_1
 10
100.7025
 20
194.228
  0
VERTEX
  8
LAYER_1
 10
100.9935
 20
194.5455
  0
SEQEND
  0
POLYLINE
  8
LAYER_1
 40
0.0847
 41
0.0847
 66
1
 10
0
 20
0
 30
0
  0
VERTEX
  8
LAYER_1
 10
100.2792
 20
193.9899
  0
VERTEX
  8
LAYER_1
 10
100.9935
 20
194.7043
  0
SEQEND
  0
POLYLINE
  8
LAYER_1
 40
0.0847
 41
0.0847
 66
1
 10
0
 20
0
 30
0
  0
VERTEX
  8
LAYER_1
 10
99.8558
 20
193.7518
  0
VERTEX
  8
LAYER_1
 10
100.9935
 20
194.8895
  0
SEQEND
  0
POLYLINE
  8
LAYER_1
 40
0.0847
 41
0.0847
 66
1
 10
0
 20
0
 30
0
  0
VERTEX
  8
LAYER_1
 10
99.4325
 20
193.4872
  0
VERTEX
  8
LAYER_1
 10
100.8348
 20
194.8895
  0
SEQEND
  0
POLYLINE
  8
LAYER_1
 40
0.0847
 41
0.0847
 66
1
 10
0
 20
0
 30
0
  0
VERTEX
  8
LAYER_1
 10
99.0356
 20
193.2491
  0
VERTEX
  8
LAYER_1
 10
100.676
 20
194.8895
  0
SEQEND
  0
POLYLINE
  8
LAYER_1
 40
0.0847
 41
0.0847
 66
1
 10
0
 20
0
 30
0
  0
VERTEX
  8
LAYER_1
 10
98.6123
 20
193.011
  0
VERTEX
  8
LAYER_1
 10
100.4908
 20
194.8895
  0
SEQEND
  0
POLYLINE
  8
LAYER_1
 40
0.0847
 41
0.0847
 66
1
 10
0
 20
0
 30
0
  0
VERTEX
  8
LAYER_1
 10
98.189
 20
192.7729
  0
VERTEX
  8
LAYER_1
 10
100.3056
 20
194.8895
  0
SEQEND
  0
POLYLINE
  8
LAYER_1
 40
0.0847
 41
0.0847
 66
1
 10
0
 20
0
 30
0
  0
VERTEX
  8
LAYER_1
 10
97.7656
 20
192.5347
  0
VERTEX
  8
LAYER_1
 10
100.1469
 20
194.8895
  0
SEQEND
  0
POLYLINE
  8
LAYER_1
 40
0.0847
 41
0.0847
 66
1
 10
0
 20
0
 30
0
  0
VERTEX
  8
LAYER_1
 10
97.4746
 20
192.4025
  0
VERTEX
  8
LAYER_1
 10
99.9617
 20
194.8895
  0
SEQEND
  0
POLYLINE
  8
LAYER_1
 40
0.0847
 41
0.0847
 66
1
 10
0
 20
0
 30
0
  0
VERTEX
  8
LAYER_1
 10
97.2894
 20
192.4025
  0
VERTEX
  8
LAYER_1
 10
99.7765
 20
194.8895
  0
SEQEND
  0
POLYLINE
  8
LAYER_1
 40
0.0847
 41
0.0847
 66
1
 10
0
 20
0
 30
0
  0
VERTEX
  8
LAYER_1
 10
97.1042
 20
192.4025
  0
VERTEX
  8
LAYER_1
 10
99.2208
 20
194.5191
  0
SEQEND
  0
POLYLINE
  8
LAYER_1
 40
0.0847
 41
0.0847
 66
1
 10
0
 20
0
 30
0
  0
VERTEX
  8
LAYER_1
 10
99.2473
 20
194.5456
  0
VERTEX
  8
LAYER_1
 10
99.6177
 20
194.8895
  0
SEQEND
  0
POLYLINE
  8
LAYER_1
 40
0.0847
 41
0.0847
 66
1
 10
0
 20
0
 30
0
  0
VERTEX
  8
LAYER_1
 10
96.9454
 20
192.4025
  0
VERTEX
  8
LAYER_1
 10
99.0621
 20
194.5191
  0
SEQEND
  0
POLYLINE
  8
LAYER_1
 40
0.0847
 41
0.0847
 66
1
 10
0
 20
0
 30
0
  0
VERTEX
  8
LAYER_1
 10
99.2473
 20
194.7308
  0
VERTEX
  8
LAYER_1
 10
99.4325
 20
194.8896
  0
SEQEND
  0
POLYLINE
  8
LAYER_1
 40
0.0847
 41
0.0847
 66
1
 10
0
 20
0
 30
0
  0
VERTEX
  8
LAYER_1
 10
96.7602
 20
192.4025
  0
VERTEX
  8
LAYER_1
 10
98.8769
 20
194.5191
  0
SEQEND
  0
POLYLINE
  8
LAYER_1
 40
0.0847
 41
0.0847
 66
1
 10
0
 20
0
 30
0
  0
VERTEX
  8
LAYER_1
 10
96.575
 20
192.4025
  0
VERTEX
  8
LAYER_1
 10
98.6916
 20
194.5191
  0
SEQEND
  0
POLYLINE
  8
LAYER_1
 40
0.0847
 41
0.0847
 66
1
 10
0
 20
0
 30
0
  0
VERTEX
  8
LAYER_1
 10
96.3898
 20
192.4025
  0
VERTEX
  8
LAYER_1
 10
98.5858
 20
194.572
  0
SEQEND
  0
POLYLINE
  8
LAYER_1
 40
0.0847
 41
0.0847
 66
1
 10
0
 20
0
 30
0
  0
VERTEX
  8
LAYER_1
 10
96.231
 20
192.4025
  0
VERTEX
  8
LAYER_1
 10
98.5858
 20
194.7572
  0
SEQEND
  0
POLYLINE
  8
LAYER_1
 40
0.0847
 41
0.0847
 66
1
 10
0
 20
0
 30
0
  0
VERTEX
  8
LAYER_1
 10
96.0458
 20
192.4025
  0
VERTEX
  8
LAYER_1
 10
98.5593
 20
194.8895
  0
SEQEND
  0
POLYLINE
  8
LAYER_1
 40
0.0847
 41
0.0847
 66
1
 10
0
 20
0
 30
0
  0
VERTEX
  8
LAYER_1
 10
95.8606
 20
192.4025
  0
VERTEX
  8
LAYER_1
 10
98.3741
 20
194.8895
  0
SEQEND
  0
POLYLINE
  8
LAYER_1
 40
0.0847
 41
0.0847
 66
1
 10
0
 20
0
 30
0
  0
VERTEX
  8
LAYER_1
 10
95.7019
 20
192.4025
  0
VERTEX
  8
LAYER_1
 10
98.1889
 20
194.8895
  0
SEQEND
  0
POLYLINE
  8
LAYER_1
 40
0.0847
 41
0.0847
 66
1
 10
0
 20
0
 30
0
  0
VERTEX
  8
LAYER_1
 10
95.5166
 20
192.4025
  0
VERTEX
  8
LAYER_1
 10
98.0302
 20
194.8895
  0
SEQEND
  0
POLYLINE
  8
LAYER_1
 40
0.0847
 41
0.0847
 66
1
 10
0
 20
0
 30
0
  0
VERTEX
  8
LAYER_1
 10
95.3314
 20
192.4025
  0
VERTEX
  8
LAYER_1
 10
97.845
 20
194.8895
  0
SEQEND
  0
POLYLINE
  8
LAYER_1
 40
0.0847
 41
0.0847
 66
1
 10
0
 20
0
 30
0
  0
VERTEX
  8
LAYER_1
 10
95.1727
 20
192.4025
  0
VERTEX
  8
LAYER_1
 10
97.6598
 20
194.8895
  0
SEQEND
  0
POLYLINE
  8
LAYER_1
 40
0.0847
 41
0.0847
 66
1
 10
0
 20
0
 30
0
  0
VERTEX
  8
LAYER_1
 10
94.9875
 20
192.4025
  0
VERTEX
  8
LAYER_1
 10
97.4745
 20
194.8895
  0
SEQEND
  0
POLYLINE
  8
LAYER_1
 40
0.0847
 41
0.0847
 66
1
 10
0
 20
0
 30
0
  0
VERTEX
  8
LAYER_1
 10
94.8023
 20
192.4025
  0
VERTEX
  8
LAYER_1
 10
97.3158
 20
194.8895
  0
SEQEND
  0
POLYLINE
  8
LAYER_1
 40
0.0847
 41
0.0847
 66
1
 10
0
 20
0
 30
0
  0
VERTEX
  8
LAYER_1
 10
94.6435
 20
192.4025
  0
VERTEX
  8
LAYER_1
 10
97.1306
 20
194.8895
  0
SEQEND
  0
POLYLINE
  8
LAYER_1
 40
0.0847
 41
0.0847
 66
1
 10
0
 20
0
 30
0
  0
VERTEX
  8
LAYER_1
 10
94.4583
 20
192.4025
  0
VERTEX
  8
LAYER_1
 10
96.9454
 20
194.8895
  0
SEQEND
  0
POLYLINE
  8
LAYER_1
 40
0.0847
 41
0.0847
 66
1
 10
0
 20
0
 30
0
  0
VERTEX
  8
LAYER_1
 10
94.2731
 20
192.4025
  0
VERTEX
  8
LAYER_1
 10
96.7866
 20
194.8895
  0
SEQEND
  0
POLYLINE
  8
LAYER_1
 40
0.0847
 41
0.0847
 66
1
 10
0
 20
0
 30
0
  0
VERTEX
  8
LAYER_1
 10
94.1143
 20
192.4025
  0
VERTEX
  8
LAYER_1
 10
95.2256
 20
193.5137
  0
SEQEND
  0
POLYLINE
  8
LAYER_1
 40
0.0847
 41
0.0847
 66
1
 10
0
 20
0
 30
0
  0
VERTEX
  8
LAYER_1
 10
96.0193
 20
194.3075
  0
VERTEX
  8
LAYER_1
 10
96.6014
 20
194.8895
  0
SEQEND
  0
POLYLINE
  8
LAYER_1
 40
0.0847
 41
0.0847
 66
1
 10
0
 20
0
 30
0
  0
VERTEX
  8
LAYER_1
 10
93.9291
 20
192.4025
  0
VERTEX
  8
LAYER_1
 10
94.961
 20
193.4343
  0
SEQEND
  0
POLYLINE
  8
LAYER_1
 40
0.0847
 41
0.0847
 66
1
 10
0
 20
0
 30
0
  0
VERTEX
  8
LAYER_1
 10
96.0987
 20
194.572
  0
VERTEX
  8
LAYER_1
 10
96.4162
 20
194.8895
  0
SEQEND
  0
POLYLINE
  8
LAYER_1
 40
0.0847
 41
0.0847
 66
1
 10
0
 20
0
 30
0
  0
VERTEX
  8
LAYER_1
 10
93.7439
 20
192.4025
  0
VERTEX
  8
LAYER_1
 10
94.7494
 20
193.4079
  0
SEQEND
  0
POLYLINE
  8
LAYER_1
 40
0.0847
 41
0.0847
 66
1
 10
0
 20
0
 30
0
  0
VERTEX
  8
LAYER_1
 10
96.1252
 20
194.7837
  0
VERTEX
  8
LAYER_1
 10
96.2575
 20
194.8896
  0
SEQEND
  0
POLYLINE
  8
LAYER_1
 40
0.0847
 41
0.0847
 66
1
 10
0
 20
0
 30
0
  0
VERTEX
  8
LAYER_1
 10
93.5852
 20
192.4025
  0
VERTEX
  8
LAYER_1
 10
94.5641
 20
193.4079
  0
SEQEND
  0
POLYLINE
  8
LAYER_1
 40
0.0847
 41
0.0847
 66
1
 10
0
 20
0
 30
0
  0
VERTEX
  8
LAYER_1
 10
93.4
 20
192.4025
  0
VERTEX
  8
LAYER_1
 10
94.4054
 20
193.4079
  0
SEQEND
  0
POLYLINE
  8
LAYER_1
 40
0.0847
 41
0.0847
 66
1
 10
0
 20
0
 30
0
  0
VERTEX
  8
LAYER_1
 10
93.2677
 20
192.4289
  0
VERTEX
  8
LAYER_1
 10
94.2202
 20
193.4079
  0
SEQEND
  0
POLYLINE
  8
LAYER_1
 40
0.0847
 41
0.0847
 66
1
 10
0
 20
0
 30
0
  0
VERTEX
  8
LAYER_1
 10
93.2677
 20
192.6141
  0
VERTEX
  8
LAYER_1
 10
94.035
 20
193.4079
  0
SEQEND
  0
POLYLINE
  8
LAYER_1
 40
0.0847
 41
0.0847
 66
1
 10
0
 20
0
 30
0
  0
VERTEX
  8
LAYER_1
 10
93.2677
 20
192.7993
  0
VERTEX
  8
LAYER_1
 10
93.8498
 20
193.3814
  0
SEQEND
  0
POLYLINE
  8
LAYER_1
 40
0.0847
 41
0.0847
 66
1
 10
0
 20
0
 30
0
  0
VERTEX
  8
LAYER_1
 10
117.5829
 20
192.4024
  0
VERTEX
  8
LAYER_1
 10
117.7152
 20
192.5347
  0
SEQEND
  0
POLYLINE
  8
LAYER_1
 40
0.0847
 41
0.0847
 66
1
 10
0
 20
0
 30
0
  0
VERTEX
  8
LAYER_1
 10
117.3977
 20
192.4024
  0
VERTEX
  8
LAYER_1
 10
117.7152
 20
192.7199
  0
SEQEND
  0
POLYLINE
  8
LAYER_1
 40
0.0847
 41
0.0847
 66
1
 10
0
 20
0
 30
0
  0
VERTEX
  8
LAYER_1
 10
117.2389
 20
192.4024
  0
VERTEX
  8
LAYER_1
 10
117.6887
 20
192.8787
  0
SEQEND
  0
POLYLINE
  8
LAYER_1
 40
0.0847
 41
0.0847
 66
1
 10
0
 20
0
 30
0
  0
VERTEX
  8
LAYER_1
 10
117.0537
 20
192.4024
  0
VERTEX
  8
LAYER_1
 10
117.6358
 20
192.9845
  0
SEQEND
  0
POLYLINE
  8
LAYER_1
 40
0.0847
 41
0.0847
 66
1
 10
0
 20
0
 30
0
  0
VERTEX
  8
LAYER_1
 10
116.8685
 20
192.4024
  0
VERTEX
  8
LAYER_1
 10
117.5829
 20
193.0903
  0
SEQEND
  0
POLYLINE
  8
LAYER_1
 40
0.0847
 41
0.0847
 66
1
 10
0
 20
0
 30
0
  0
VERTEX
  8
LAYER_1
 10
116.6833
 20
192.4024
  0
VERTEX
  8
LAYER_1
 10
117.477
 20
193.1962
  0
SEQEND
  0
POLYLINE
  8
LAYER_1
 40
0.0847
 41
0.0847
 66
1
 10
0
 20
0
 30
0
  0
VERTEX
  8
LAYER_1
 10
116.5246
 20
192.4024
  0
VERTEX
  8
LAYER_1
 10
117.3977
 20
193.2756
  0
SEQEND
  0
POLYLINE
  8
LAYER_1
 40
0.0847
 41
0.0847
 66
1
 10
0
 20
0
 30
0
  0
VERTEX
  8
LAYER_1
 10
116.3393
 20
192.4024
  0
VERTEX
  8
LAYER_1
 10
117.2654
 20
193.3285
  0
SEQEND
  0
POLYLINE
  8
LAYER_1
 40
0.0847
 41
0.0847
 66
1
 10
0
 20
0
 30
0
  0
VERTEX
  8
LAYER_1
 10
116.1541
 20
192.4024
  0
VERTEX
  8
LAYER_1
 10
117.1331
 20
193.3814
  0
SEQEND
  0
POLYLINE
  8
LAYER_1
 40
0.0847
 41
0.0847
 66
1
 10
0
 20
0
 30
0
  0
VERTEX
  8
LAYER_1
 10
115.9954
 20
192.4024
  0
VERTEX
  8
LAYER_1
 10
117.0008
 20
193.4078
  0
SEQEND
  0
POLYLINE
  8
LAYER_1
 40
0.0847
 41
0.0847
 66
1
 10
0
 20
0
 30
0
  0
VERTEX
  8
LAYER_1
 10
115.8102
 20
192.4024
  0
VERTEX
  8
LAYER_1
 10
116.8156
 20
193.4078
  0
SEQEND
  0
POLYLINE
  8
LAYER_1
 40
0.0847
 41
0.0847
 66
1
 10
0
 20
0
 30
0
  0
VERTEX
  8
LAYER_1
 10
115.625
 20
192.4024
  0
VERTEX
  8
LAYER_1
 10
116.6304
 20
193.4078
  0
SEQEND
  0
POLYLINE
  8
LAYER_1
 40
0.0847
 41
0.0847
 66
1
 10
0
 20
0
 30
0
  0
VERTEX
  8
LAYER_1
 10
115.4662
 20
192.4024
  0
VERTEX
  8
LAYER_1
 10
116.4716
 20
193.4078
  0
SEQEND
  0
POLYLINE
  8
LAYER_1
 40
0.0847
 41
0.0847
 66
1
 10
0
 20
0
 30
0
  0
VERTEX
  8
LAYER_1
 10
115.281
 20
192.4024
  0
VERTEX
  8
LAYER_1
 10
116.2864
 20
193.4078
  0
SEQEND
  0
POLYLINE
  8
LAYER_1
 40
0.0847
 41
0.0847
 66
1
 10
0
 20
0
 30
0
  0
VERTEX
  8
LAYER_1
 10
115.0958
 20
192.4024
  0
VERTEX
  8
LAYER_1
 10
116.1277
 20
193.4078
  0
SEQEND
  0
POLYLINE
  8
LAYER_1
 40
0.0847
 41
0.0847
 66
1
 10
0
 20
0
 30
0
  0
VERTEX
  8
LAYER_1
 10
114.937
 20
192.4024
  0
VERTEX
  8
LAYER_1
 10
115.9689
 20
193.4608
  0
SEQEND
  0
POLYLINE
  8
LAYER_1
 40
0.0847
 41
0.0847
 66
1
 10
0
 20
0
 30
0
  0
VERTEX
  8
LAYER_1
 10
114.7518
 20
192.4024
  0
VERTEX
  8
LAYER_1
 10
115.8366
 20
193.4872
  0
SEQEND
  0
POLYLINE
  8
LAYER_1
 40
0.0847
 41
0.0847
 66
1
 10
0
 20
0
 30
0
  0
VERTEX
  8
LAYER_1
 10
114.5666
 20
192.4024
  0
VERTEX
  8
LAYER_1
 10
115.7043
 20
193.5401
  0
SEQEND
  0
POLYLINE
  8
LAYER_1
 40
0.0847
 41
0.0847
 66
1
 10
0
 20
0
 30
0
  0
VERTEX
  8
LAYER_1
 10
114.4079
 20
192.4024
  0
VERTEX
  8
LAYER_1
 10
115.5985
 20
193.593
  0
SEQEND
  0
POLYLINE
  8
LAYER_1
 40
0.0847
 41
0.0847
 66
1
 10
0
 20
0
 30
0
  0
VERTEX
  8
LAYER_1
 10
114.2226
 20
192.4024
  0
VERTEX
  8
LAYER_1
 10
115.4926
 20
193.6724
  0
SEQEND
  0
POLYLINE
  8
LAYER_1
 40
0.0847
 41
0.0847
 66
1
 10
0
 20
0
 30
0
  0
VERTEX
  8
LAYER_1
 10
114.0374
 20
192.4024
  0
VERTEX
  8
LAYER_1
 10
115.3868
 20
193.7518
  0
SEQEND
  0
POLYLINE
  8
LAYER_1
 40
0.0847
 41
0.0847
 66
1
 10
0
 20
0
 30
0
  0
VERTEX
  8
LAYER_1
 10
113.8787
 20
192.4024
  0
VERTEX
  8
LAYER_1
 10
115.3074
 20
193.8312
  0
SEQEND
  0
POLYLINE
  8
LAYER_1
 40
0.0847
 41
0.0847
 66
1
 10
0
 20
0
 30
0
  0
VERTEX
  8
LAYER_1
 10
113.6935
 20
192.4024
  0
VERTEX
  8
LAYER_1
 10
115.2016
 20
193.9106
  0
SEQEND
  0
POLYLINE
  8
LAYER_1
 40
0.0847
 41
0.0847
 66
1
 10
0
 20
0
 30
0
  0
VERTEX
  8
LAYER_1
 10
113.5083
 20
192.4024
  0
VERTEX
  8
LAYER_1
 10
115.1222
 20
194.0164
  0
SEQEND
  0
POLYLINE
  8
LAYER_1
 40
0.0847
 41
0.0847
 66
1
 10
0
 20
0
 30
0
  0
VERTEX
  8
LAYER_1
 10
113.376
 20
192.4289
  0
VERTEX
  8
LAYER_1
 10
115.0693
 20
194.1222
  0
SEQEND
  0
POLYLINE
  8
LAYER_1
 40
0.0847
 41
0.0847
 66
1
 10
0
 20
0
 30
0
  0
VERTEX
  8
LAYER_1
 10
113.2701
 20
192.5083
  0
VERTEX
  8
LAYER_1
 10
114.9899
 20
194.2545
  0
SEQEND
  0
POLYLINE
  8
LAYER_1
 40
0.0847
 41
0.0847
 66
1
 10
0
 20
0
 30
0
  0
VERTEX
  8
LAYER_1
 10
113.1643
 20
192.5612
  0
VERTEX
  8
LAYER_1
 10
114.937
 20
194.3603
  0
SEQEND
  0
POLYLINE
  8
LAYER_1
 40
0.0847
 41
0.0847
 66
1
 10
0
 20
0
 30
0
  0
VERTEX
  8
LAYER_1
 10
113.032
 20
192.6405
  0
VERTEX
  8
LAYER_1
 10
114.9106
 20
194.4926
  0
SEQEND
  0
POLYLINE
  8
LAYER_1
 40
0.0847
 41
0.0847
 66
1
 10
0
 20
0
 30
0
  0
VERTEX
  8
LAYER_1
 10
112.9262
 20
192.6935
  0
VERTEX
  8
LAYER_1
 10
114.8841
 20
194.6514
  0
SEQEND
  0
POLYLINE
  8
LAYER_1
 40
0.0847
 41
0.0847
 66
1
 10
0
 20
0
 30
0
  0
VERTEX
  8
LAYER_1
 10
112.8204
 20
192.7728
  0
VERTEX
  8
LAYER_1
 10
114.8577
 20
194.8101
  0
SEQEND
  0
POLYLINE
  8
LAYER_1
 40
0.0847
 41
0.0847
 66
1
 10
0
 20
0
 30
0
  0
VERTEX
  8
LAYER_1
 10
112.7145
 20
192.8257
  0
VERTEX
  8
LAYER_1
 10
114.7783
 20
194.8895
  0
SEQEND
  0
POLYLINE
  8
LAYER_1
 40
0.0847
 41
0.0847
 66
1
 10
0
 20
0
 30
0
  0
VERTEX
  8
LAYER_1
 10
112.5823
 20
192.8787
  0
VERTEX
  8
LAYER_1
 10
114.5931
 20
194.8895
  0
SEQEND
  0
POLYLINE
  8
LAYER_1
 40
0.0847
 41
0.0847
 66
1
 10
0
 20
0
 30
0
  0
VERTEX
  8
LAYER_1
 10
112.4764
 20
192.958
  0
VERTEX
  8
LAYER_1
 10
114.4343
 20
194.8895
  0
SEQEND
  0
POLYLINE
  8
LAYER_1
 40
0.0847
 41
0.0847
 66
1
 10
0
 20
0
 30
0
  0
VERTEX
  8
LAYER_1
 10
112.3706
 20
193.011
  0
VERTEX
  8
LAYER_1
 10
114.2491
 20
194.8895
  0
SEQEND
  0
POLYLINE
  8
LAYER_1
 40
0.0847
 41
0.0847
 66
1
 10
0
 20
0
 30
0
  0
VERTEX
  8
LAYER_1
 10
112.2648
 20
193.0903
  0
VERTEX
  8
LAYER_1
 10
114.0639
 20
194.8895
  0
SEQEND
  0
POLYLINE
  8
LAYER_1
 40
0.0847
 41
0.0847
 66
1
 10
0
 20
0
 30
0
  0
VERTEX
  8
LAYER_1
 10
112.1325
 20
193.1432
  0
VERTEX
  8
LAYER_1
 10
113.9052
 20
194.8895
  0
SEQEND
  0
POLYLINE
  8
LAYER_1
 40
0.0847
 41
0.0847
 66
1
 10
0
 20
0
 30
0
  0
VERTEX
  8
LAYER_1
 10
112.0267
 20
193.2226
  0
VERTEX
  8
LAYER_1
 10
113.72
 20
194.8895
  0
SEQEND
  0
POLYLINE
  8
LAYER_1
 40
0.0847
 41
0.0847
 66
1
 10
0
 20
0
 30
0
  0
VERTEX
  8
LAYER_1
 10
111.9208
 20
193.2755
  0
VERTEX
  8
LAYER_1
 10
113.5348
 20
194.8895
  0
SEQEND
  0
POLYLINE
  8
LAYER_1
 40
0.0847
 41
0.0847
 66
1
 10
0
 20
0
 30
0
  0
VERTEX
  8
LAYER_1
 10
111.815
 20
193.3549
  0
VERTEX
  8
LAYER_1
 10
113.376
 20
194.8895
  0
SEQEND
  0
POLYLINE
  8
LAYER_1
 40
0.0847
 41
0.0847
 66
1
 10
0
 20
0
 30
0
  0
VERTEX
  8
LAYER_1
 10
111.6827
 20
193.4078
  0
VERTEX
  8
LAYER_1
 10
113.1908
 20
194.8895
  0
SEQEND
  0
POLYLINE
  8
LAYER_1
 40
0.0847
 41
0.0847
 66
1
 10
0
 20
0
 30
0
  0
VERTEX
  8
LAYER_1
 10
111.5769
 20
193.4607
  0
VERTEX
  8
LAYER_1
 10
113.0056
 20
194.8895
  0
SEQEND
  0
POLYLINE
  8
LAYER_1
 40
0.0847
 41
0.0847
 66
1
 10
0
 20
0
 30
0
  0
VERTEX
  8
LAYER_1
 10
111.4711
 20
193.5401
  0
VERTEX
  8
LAYER_1
 10
112.8469
 20
194.8895
  0
SEQEND
  0
POLYLINE
  8
LAYER_1
 40
0.0847
 41
0.0847
 66
1
 10
0
 20
0
 30
0
  0
VERTEX
  8
LAYER_1
 10
111.3652
 20
193.593
  0
VERTEX
  8
LAYER_1
 10
112.6617
 20
194.8894
  0
SEQEND
  0
POLYLINE
  8
LAYER_1
 40
0.0847
 41
0.0847
 66
1
 10
0
 20
0
 30
0
  0
VERTEX
  8
LAYER_1
 10
111.2594
 20
193.6724
  0
VERTEX
  8
LAYER_1
 10
112.4765
 20
194.8894
  0
SEQEND
  0
POLYLINE
  8
LAYER_1
 40
0.0847
 41
0.0847
 66
1
 10
0
 20
0
 30
0
  0
VERTEX
  8
LAYER_1
 10
111.1271
 20
193.7253
  0
VERTEX
  8
LAYER_1
 10
112.2913
 20
194.8894
  0
SEQEND
  0
POLYLINE
  8
LAYER_1
 40
0.0847
 41
0.0847
 66
1
 10
0
 20
0
 30
0
  0
VERTEX
  8
LAYER_1
 10
111.0213
 20
193.8047
  0
VERTEX
  8
LAYER_1
 10
112.1325
 20
194.8894
  0
SEQEND
  0
POLYLINE
  8
LAYER_1
 40
0.0847
 41
0.0847
 66
1
 10
0
 20
0
 30
0
  0
VERTEX
  8
LAYER_1
 10
110.9155
 20
193.8576
  0
VERTEX
  8
LAYER_1
 10
111.9473
 20
194.8894
  0
SEQEND
  0
POLYLINE
  8
LAYER_1
 40
0.0847
 41
0.0847
 66
1
 10
0
 20
0
 30
0
  0
VERTEX
  8
LAYER_1
 10
110.8096
 20
193.937
  0
VERTEX
  8
LAYER_1
 10
111.7621
 20
194.8894
  0
SEQEND
  0
POLYLINE
  8
LAYER_1
 40
0.0847
 41
0.0847
 66
1
 10
0
 20
0
 30
0
  0
VERTEX
  8
LAYER_1
 10
110.6773
 20
193.9899
  0
VERTEX
  8
LAYER_1
 10
111.6034
 20
194.8894
  0
SEQEND
  0
POLYLINE
  8
LAYER_1
 40
0.0847
 41
0.0847
 66
1
 10
0
 20
0
 30
0
  0
VERTEX
  8
LAYER_1
 10
110.5715
 20
194.0428
  0
VERTEX
  8
LAYER_1
 10
111.4182
 20
194.8894
  0
SEQEND
  0
POLYLINE
  8
LAYER_1
 40
0.0847
 41
0.0847
 66
1
 10
0
 20
0
 30
0
  0
VERTEX
  8
LAYER_1
 10
110.4657
 20
194.1222
  0
VERTEX
  8
LAYER_1
 10
111.233
 20
194.8894
  0
SEQEND
  0
POLYLINE
  8
LAYER_1
 40
0.0847
 41
0.0847
 66
1
 10
0
 20
0
 30
0
  0
VERTEX
  8
LAYER_1
 10
110.3598
 20
194.1751
  0
VERTEX
  8
LAYER_1
 10
111.0742
 20
194.8894
  0
SEQEND
  0
POLYLINE
  8
LAYER_1
 40
0.0847
 41
0.0847
 66
1
 10
0
 20
0
 30
0
  0
VERTEX
  8
LAYER_1
 10
110.2276
 20
194.2544
  0
VERTEX
  8
LAYER_1
 10
110.889
 20
194.8894
  0
SEQEND
  0
POLYLINE
  8
LAYER_1
 40
0.0847
 41
0.0847
 66
1
 10
0
 20
0
 30
0
  0
VERTEX
  8
LAYER_1
 10
110.1217
 20
194.3074
  0
VERTEX
  8
LAYER_1
 10
110.7038
 20
194.8894
  0
SEQEND
  0
POLYLINE
  8
LAYER_1
 40
0.0847
 41
0.0847
 66
1
 10
0
 20
0
 30
0
  0
VERTEX
  8
LAYER_1
 10
110.0159
 20
194.3867
  0
VERTEX
  8
LAYER_1
 10
110.5451
 20
194.8894
  0
SEQEND
  0
POLYLINE
  8
LAYER_1
 40
0.0847
 41
0.0847
 66
1
 10
0
 20
0
 30
0
  0
VERTEX
  8
LAYER_1
 10
109.9894
 20
194.519
  0
VERTEX
  8
LAYER_1
 10
110.3599
 20
194.8894
  0
SEQEND
  0
POLYLINE
  8
LAYER_1
 40
0.0847
 41
0.0847
 66
1
 10
0
 20
0
 30
0
  0
VERTEX
  8
LAYER_1
 10
109.9894
 20
194.7042
  0
VERTEX
  8
LAYER_1
 10
110.1746
 20
194.8894
  0
SEQEND
  0
POLYLINE
  8
LAYER_1
 40
0.0847
 41
0.0847
 66
1
 10
0
 20
0
 30
0
  0
VERTEX
  8
LAYER_1
 10
109.9894
 20
194.863
  0
VERTEX
  8
LAYER_1
 10
110.0159
 20
194.8894
  0
SEQEND
  0
POLYLINE
  8
LAYER_1
 40
0.1693
 41
0.1693
 66
1
 10
0
 20
0
 30
0
  0
VERTEX
  8
LAYER_1
 10
112.5823
 20
196.6358
  0
VERTEX
  8
LAYER_1
 10
112.5294
 20
196.6093
  0
SEQEND
  0
POLYLINE
  8
LAYER_1
 40
0.1693
 41
0.1693
 66
1
 10
0
 20
0
 30
0
  0
VERTEX
  8
LAYER_1
 10
112.5029
 20
196.5564
  0
VERTEX
  8
LAYER_1
 10
112.4236
 20
196.5034
  0
VERTEX
  8
LAYER_1
 10
112.3706
 20
196.477
  0
SEQEND
  0
POLYLINE
  8
LAYER_1
 40
0.1693
 41
0.1693
 66
1
 10
0
 20
0
 30
0
  0
VERTEX
  8
LAYER_1
 10
112.3442
 20
196.4506
  0
VERTEX
  8
LAYER_1
 10
112.2648
 20
196.3976
  0
SEQEND
  0
POLYLINE
  8
LAYER_1
 40
0.0847
 41
0.0847
 66
1
 10
0
 20
0
 30
0
  0
VERTEX
  8
LAYER_1
 10
101.7079
 20
192.2701
  0
VERTEX
  8
LAYER_1
 10
102.3165
 20
192.2701
  0
SEQEND
  0
POLYLINE
  8
LAYER_1
 40
0.0847
 41
0.0847
 66
1
 10
0
 20
0
 30
0
  0
VERTEX
  8
LAYER_1
 10
103.5865
 20
192.2701
  0
VERTEX
  8
LAYER_1
 10
104.8565
 20
192.2701
  0
SEQEND
  0
POLYLINE
  8
LAYER_1
 40
0.0847
 41
0.0847
 66
1
 10
0
 20
0
 30
0
  0
VERTEX
  8
LAYER_1
 10
106.1
 20
192.2701
  0
VERTEX
  8
LAYER_1
 10
107.37
 20
192.2701
  0
SEQEND
  0
POLYLINE
  8
LAYER_1
 40
0.0847
 41
0.0847
 66
1
 10
0
 20
0
 30
0
  0
VERTEX
  8
LAYER_1
 10
108.64
 20
192.2701
  0
VERTEX
  8
LAYER_1
 10
109.275
 20
192.2701
  0
SEQEND
  0
POLYLINE
  8
LAYER_1
 40
0.0847
 41
0.0847
 66
1
 10
0
 20
0
 30
0
  0
VERTEX
  8
LAYER_1
 10
101.5227
 20
192.4553
  0
VERTEX
  8
LAYER_1
 10
102.1842
 20
192.4553
  0
SEQEND
  0
POLYLINE
  8
LAYER_1
 40
0.0847
 41
0.0847
 66
1
 10
0
 20
0
 30
0
  0
VERTEX
  8
LAYER_1
 10
103.5071
 20
192.4553
  0
VERTEX
  8
LAYER_1
 10
104.83
 20
192.4553
  0
SEQEND
  0
POLYLINE
  8
LAYER_1
 40
0.0847
 41
0.0847
 66
1
 10
0
 20
0
 30
0
  0
VERTEX
  8
LAYER_1
 10
106.153
 20
192.4553
  0
VERTEX
  8
LAYER_1
 10
107.4759
 20
192.4553
  0
SEQEND
  0
POLYLINE
  8
LAYER_1
 40
0.0847
 41
0.0847
 66
1
 10
0
 20
0
 30
0
  0
VERTEX
  8
LAYER_1
 10
108.7988
 20
192.4553
  0
VERTEX
  8
LAYER_1
 10
109.4602
 20
192.4553
  0
SEQEND
  0
POLYLINE
  8
LAYER_1
 40
0.1693
 41
0.1693
 66
1
 10
0
 20
0
 30
0
  0
VERTEX
  8
LAYER_1
 10
101.7079
 20
192.2701
  0
VERTEX
  8
LAYER_1
 10
101.5227
 20
192.4553
  0
SEQEND
  0
POLYLINE
  8
LAYER_1
 40
0.1693
 41
0.1693
 66
1
 10
0
 20
0
 30
0
  0
VERTEX
  8
LAYER_1
 10
109.275
 20
192.2701
  0
VERTEX
  8
LAYER_1
 10
109.4602
 20
192.4553
  0
SEQEND
  0
POLYLINE
  8
LAYER_1
 40
0.1693
 41
0.1693
 66
1
 10
0
 20
0
 30
0
  0
VERTEX
  8
LAYER_1
 10
98.9298
 20
196.7151
 42
0.390056353
  0
VERTEX
  8
LAYER_1
 10
98.7975
 20
196.6093
  0
SEQEND
  0
POLYLINE
  8
LAYER_1
 40
0.1693
 41
0.1693
 66
1
 10
0
 20
0
 30
0
  0
VERTEX
  8
LAYER_1
 10
98.7975
 20
196.5564
  0
VERTEX
  8
LAYER_1
 10
98.7975
 20
196.5299
 42
0.2987960569
  0
VERTEX
  8
LAYER_1
 10
98.8769
 20
196.4241
  0
SEQEND
  0
POLYLINE
  8
LAYER_1
 40
0.1693
 41
0.1693
 66
1
 10
0
 20
0
 30
0
  0
VERTEX
  8
LAYER_1
 10
98.7975
 20
196.5299
  0
VERTEX
  8
LAYER_1
 10
98.7975
 20
196.5828
  0
SEQEND
  0
POLYLINE
  8
LAYER_1
 40
0.1693
 41
0.1693
 66
1
 10
0
 20
0
 30
0
  0
VERTEX
  8
LAYER_1
 10
98.9034
 20
196.3976
  0
VERTEX
  8
LAYER_1
 10
100.1204
 20
195.9743
  0
SEQEND
  0
POLYLINE
  8
LAYER_1
 40
0.1693
 41
0.1693
 66
1
 10
0
 20
0
 30
0
  0
VERTEX
  8
LAYER_1
 10
100.8877
 20
195.0747
 42
0.2767774771
  0
VERTEX
  8
LAYER_1
 10
100.0675
 20
196.0008
  0
SEQEND
  0
POLYLINE
  8
LAYER_1
 40
0.1693
 41
0.1693
 66
1
 10
0
 20
0
 30
0
  0
VERTEX
  8
LAYER_1
 10
98.9563
 20
196.6887
  0
VERTEX
  8
LAYER_1
 10
112.0267
 20
196.6887
  0
SEQEND
  0
POLYLINE
  8
LAYER_1
 40
0.1693
 41
0.1693
 66
1
 10
0
 20
0
 30
0
  0
VERTEX
  8
LAYER_1
 10
112.159
 20
196.6093
 42
0.4416170401
  0
VERTEX
  8
LAYER_1
 10
112.0531
 20
196.7151
  0
VERTEX
  8
LAYER_1
 10
112.0002
 20
196.7151
  0
SEQEND
  0
POLYLINE
  8
LAYER_1
 40
0.1693
 41
0.1693
 66
1
 10
0
 20
0
 30
0
  0
VERTEX
  8
LAYER_1
 10
112.0532
 20
196.4241
 42
0.3899753877
  0
VERTEX
  8
LAYER_1
 10
112.1854
 20
196.5299
 42
0.5046189213
  0
VERTEX
  8
LAYER_1
 10
112.159
 20
196.5564
  0
SEQEND
  0
POLYLINE
  8
LAYER_1
 40
0.1693
 41
0.1693
 66
1
 10
0
 20
0
 30
0
  0
VERTEX
  8
LAYER_1
 10
112.1854
 20
196.5299
  0
VERTEX
  8
LAYER_1
 10
112.1854
 20
196.5828
  0
SEQEND
  0
POLYLINE
  8
LAYER_1
 40
0.1693
 41
0.1693
 66
1
 10
0
 20
0
 30
0
  0
VERTEX
  8
LAYER_1
 10
112.0796
 20
196.3976
  0
VERTEX
  8
LAYER_1
 10
110.8625
 20
195.9743
  0
SEQEND
  0
POLYLINE
  8
LAYER_1
 40
0.1693
 41
0.1693
 66
1
 10
0
 20
0
 30
0
  0
VERTEX
  8
LAYER_1
 10
110.8625
 20
196.0008
 42
0.2568398166
  0
VERTEX
  8
LAYER_1
 10
110.0688
 20
195.0747
  0
SEQEND
  0
POLYLINE
  8
LAYER_1
 40
0.1693
 41
0.1693
 66
1
 10
0
 20
0
 30
0
  0
VERTEX
  8
LAYER_1
 10
101.5227
 20
192.4553
  0
VERTEX
  8
LAYER_1
 10
100.9406
 20
195.0747
  0
SEQEND
  0
POLYLINE
  8
LAYER_1
 40
0.1693
 41
0.1693
 66
1
 10
0
 20
0
 30
0
  0
VERTEX
  8
LAYER_1
 10
109.4602
 20
192.4553
  0
VERTEX
  8
LAYER_1
 10
110.0423
 20
195.0747
  0
SEQEND
  0
POLYLINE
  8
LAYER_1
 40
0.0847
 41
0.0847
 66
1
 10
0
 20
0
 30
0
  0
VERTEX
  8
LAYER_1
 10
100.1204
 20
195.9743
  0
VERTEX
  8
LAYER_1
 10
110.8625
 20
195.9743
  0
SEQEND
  0
POLYLINE
  8
LAYER_1
 40
0.0847
 41
0.0847
 66
1
 10
0
 20
0
 30
0
  0
VERTEX
  8
LAYER_1
 10
98.9033
 20
196.3976
  0
VERTEX
  8
LAYER_1
 10
112.0796
 20
196.3976
  0
SEQEND
  0
POLYLINE
  8
LAYER_1
 40
0.1693
 41
0.1693
 66
1
 10
0
 20
0
 30
0
  0
VERTEX
  8
LAYER_1
 10
101.5227
 20
188.0897
  0
VERTEX
  8
LAYER_1
 10
101.8402
 20
187.8251
  0
VERTEX
  8
LAYER_1
 10
101.5227
 20
187.587
  0
VERTEX
  8
LAYER_1
 10
101.8402
 20
187.3489
  0
VERTEX
  8
LAYER_1
 10
101.5227
 20
187.0843
  0
VERTEX
  8
LAYER_1
 10
101.8402
 20
186.8462
  0
VERTEX
  8
LAYER_1
 10
101.5227
 20
186.5816
  0
VERTEX
  8
LAYER_1
 10
101.8402
 20
186.3435
  0
VERTEX
  8
LAYER_1
 10
101.5227
 20
186.0789
  0
VERTEX
  8
LAYER_1
 10
101.8402
 20
185.8407
  0
VERTEX
  8
LAYER_1
 10
101.5227
 20
185.5762
  0
VERTEX
  8
LAYER_1
 10
101.8402
 20
185.338
  0
VERTEX
  8
LAYER_1
 10
101.5227
 20
185.0735
  0
VERTEX
  8
LAYER_1
 10
101.8402
 20
184.8353
  0
VERTEX
  8
LAYER_1
 10
101.5227
 20
184.5707
  0
VERTEX
  8
LAYER_1
 10
101.8402
 20
184.3326
  0
VERTEX
  8
LAYER_1
 10
101.5227
 20
184.068
  0
VERTEX
  8
LAYER_1
 10
101.8402
 20
183.8299
  0
VERTEX
  8
LAYER_1
 10
101.5227
 20
183.5918
  0
VERTEX
  8
LAYER_1
 10
101.8402
 20
183.3272
  0
VERTEX
  8
LAYER_1
 10
101.5227
 20
183.0891
  0
VERTEX
  8
LAYER_1
 10
101.8402
 20
182.851
  0
VERTEX
  8
LAYER_1
 10
101.5227
 20
182.5864
  0
VERTEX
  8
LAYER_1
 10
101.8402
 20
182.3482
  0
VERTEX
  8
LAYER_1
 10
101.5227
 20
182.0836
  0
VERTEX
  8
LAYER_1
 10
101.8402
 20
181.8455
  0
VERTEX
  8
LAYER_1
 10
101.5227
 20
181.581
  0
VERTEX
  8
LAYER_1
 10
101.8402
 20
181.3428
  0
VERTEX
  8
LAYER_1
 10
101.5227
 20
181.0782
  0
VERTEX
  8
LAYER_1
 10
101.8402
 20
180.8401
  0
VERTEX
  8
LAYER_1
 10
101.5227
 20
180.5755
  0
VERTEX
  8
LAYER_1
 10
101.8402
 20
180.3374
  0
VERTEX
  8
LAYER_1
 10
101.5227
 20
180.0728
  0
VERTEX
  8
LAYER_1
 10
101.8402
 20
179.8347
  0
VERTEX
  8
LAYER_1
 10
101.5227
 20
179.5701
  0
VERTEX
  8
LAYER_1
 10
101.8402
 20
179.332
  0
VERTEX
  8
LAYER_1
 10
101.5227
 20
179.0674
  0
VERTEX
  8
LAYER_1
 10
101.8402
 20
178.8293
  0
SEQEND
  0
POLYLINE
  8
LAYER_1
 40
0.1693
 41
0.1693
 66
1
 10
0
 20
0
 30
0
  0
VERTEX
  8
LAYER_1
 10
101.5227
 20
174.5695
  0
VERTEX
  8
LAYER_1
 10
101.8402
 20
174.3314
  0
VERTEX
  8
LAYER_1
 10
101.5227
 20
174.0933
  0
VERTEX
  8
LAYER_1
 10
101.8402
 20
173.8287
  0
VERTEX
  8
LAYER_1
 10
101.5227
 20
173.5905
  0
VERTEX
  8
LAYER_1
 10
101.8402
 20
173.326
  0
VERTEX
  8
LAYER_1
 10
101.5227
 20
173.0878
  0
VERTEX
  8
LAYER_1
 10
101.8402
 20
172.8497
  0
VERTEX
  8
LAYER_1
 10
101.5227
 20
172.5851
  0
VERTEX
  8
LAYER_1
 10
101.8402
 20
172.347
  0
SEQEND
  0
POLYLINE
  8
LAYER_1
 40
0.1693
 41
0.1693
 66
1
 10
0
 20
0
 30
0
  0
VERTEX
  8
LAYER_1
 10
109.4602
 20
188.2749
  0
VERTEX
  8
LAYER_1
 10
109.1427
 20
188.0368
  0
VERTEX
  8
LAYER_1
 10
109.4602
 20
187.7987
  0
VERTEX
  8
LAYER_1
 10
109.1427
 20
187.5341
  0
VERTEX
  8
LAYER_1
 10
109.4602
 20
187.296
  0
VERTEX
  8
LAYER_1
 10
109.1427
 20
187.0314
  0
VERTEX
  8
LAYER_1
 10
109.4602
 20
186.7933
  0
VERTEX
  8
LAYER_1
 10
109.1427
 20
186.5287
  0
VERTEX
  8
LAYER_1
 10
109.4602
 20
186.2906
  0
VERTEX
  8
LAYER_1
 10
109.1427
 20
186.026
  0
VERTEX
  8
LAYER_1
 10
109.4602
 20
185.7879
  0
VERTEX
  8
LAYER_1
 10
109.1427
 20
185.5233
  0
VERTEX
  8
LAYER_1
 10
109.4602
 20
185.2851
  0
VERTEX
  8
LAYER_1
 10
109.1427
 20
185.0206
  0
VERTEX
  8
LAYER_1
 10
109.4602
 20
184.7824
  0
VERTEX
  8
LAYER_1
 10
109.1427
 20
184.5178
  0
VERTEX
  8
LAYER_1
 10
109.4602
 20
184.2797
  0
VERTEX
  8
LAYER_1
 10
109.1427
 20
184.0416
  0
VERTEX
  8
LAYER_1
 10
109.4602
 20
183.777
  0
VERTEX
  8
LAYER_1
 10
109.1427
 20
183.5389
  0
VERTEX
  8
LAYER_1
 10
109.4602
 20
183.3008
  0
VERTEX
  8
LAYER_1
 10
109.1427
 20
183.0362
  0
VERTEX
  8
LAYER_1
 10
109.4602
 20
182.798
  0
VERTEX
  8
LAYER_1
 10
109.1427
 20
182.5335
  0
VERTEX
  8
LAYER_1
 10
109.4602
 20
182.2953
  0
VERTEX
  8
LAYER_1
 10
109.1427
 20
182.0308
  0
VERTEX
  8
LAYER_1
 10
109.4602
 20
181.7926
  0
VERTEX
  8
LAYER_1
 10
109.1427
 20
181.528
  0
VERTEX
  8
LAYER_1
 10
109.4602
 20
181.2899
  0
VERTEX
  8
LAYER_1
 10
109.1427
 20
181.0254
  0
VERTEX
  8
LAYER_1
 10
109.4602
 20
180.7872
  0
VERTEX
  8
LAYER_1
 10
109.1427
 20
180.5226
  0
VERTEX
  8
LAYER_1
 10
109.4602
 20
180.2845
  0
VERTEX
  8
LAYER_1
 10
109.1427
 20
180.0199
  0
VERTEX
  8
LAYER_1
 10
109.4602
 20
179.7818
  0
VERTEX
  8
LAYER_1
 10
109.1427
 20
179.5172
  0
VERTEX
  8
LAYER_1
 10
109.4602
 20
179.2791
  0
VERTEX
  8
LAYER_1
 10
109.1427
 20
179.041
  0
VERTEX
  8
LAYER_1
 10
109.4602
 20
178.7764
  0
SEQEND
  0
POLYLINE
  8
LAYER_1
 40
0.1693
 41
0.1693
 66
1
 10
0
 20
0
 30
0
  0
VERTEX
  8
LAYER_1
 10
109.1427
 20
174.5431
  0
VERTEX
  8
LAYER_1
 10
109.4602
 20
174.2785
  0
VERTEX
  8
LAYER_1
 10
109.1427
 20
174.0403
  0
VERTEX
  8
LAYER_1
 10
109.4602
 20
173.7757
  0
VERTEX
  8
LAYER_1
 10
109.1427
 20
173.5376
  0
VERTEX
  8
LAYER_1
 10
109.4602
 20
173.2995
  0
VERTEX
  8
LAYER_1
 10
109.1427
 20
173.0349
  0
VERTEX
  8
LAYER_1
 10
109.4602
 20
172.7968
  0
VERTEX
  8
LAYER_1
 10
109.1427
 20
172.5322
  0
VERTEX
  8
LAYER_1
 10
109.4602
 20
172.2941
  0
SEQEND
  0
POLYLINE
  8
LAYER_1
 40
0.1693
 41
0.1693
 66
1
 10
0
 20
0
 30
0
  0
VERTEX
  8
LAYER_1
 10
109.1163
 20
172.0031
  0
VERTEX
  8
LAYER_1
 10
108.984
 20
171.712
  0
SEQEND
  0
POLYLINE
  8
LAYER_1
 40
0.1693
 41
0.1693
 66
1
 10
0
 20
0
 30
0
  0
VERTEX
  8
LAYER_1
 10
109.4602
 20
172.2941
  0
VERTEX
  8
LAYER_1
 10
109.1163
 20
172.003
  0
SEQEND
  0
POLYLINE
  8
LAYER_1
 40
0.1693
 41
0.1693
 66
1
 10
0
 20
0
 30
0
  0
VERTEX
  8
LAYER_1
 10
101.8402
 20
172.347
  0
VERTEX
  8
LAYER_1
 10
101.5227
 20
172.0824
  0
VERTEX
  8
LAYER_1
 10
109.1956
 20
172.0824
  0
SEQEND
  0
POLYLINE
  8
LAYER_1
 40
0.1693
 41
0.1693
 66
1
 10
0
 20
0
 30
0
  0
VERTEX
  8
LAYER_1
 10
101.8402
 20
172.0824
  0
VERTEX
  8
LAYER_1
 10
101.999
 20
171.712
  0
VERTEX
  8
LAYER_1
 10
108.984
 20
171.712
  0
SEQEND
  0
POLYLINE
  8
LAYER_1
 40
0.1693
 41
0.1693
 66
1
 10
0
 20
0
 30
0
  0
VERTEX
  8
LAYER_1
 10
101.7609
 20
174.7547
  0
VERTEX
  8
LAYER_1
 10
101.5227
 20
174.5695
  0
SEQEND
  0
POLYLINE
  8
LAYER_1
 40
0.1693
 41
0.1693
 66
1
 10
0
 20
0
 30
0
  0
VERTEX
  8
LAYER_1
 10
109.4338
 20
174.7547
  0
VERTEX
  8
LAYER_1
 10
109.1427
 20
174.543
  0
SEQEND
  0
POLYLINE
  8
LAYER_1
 40
0.1693
 41
0.1693
 66
1
 10
0
 20
0
 30
0
  0
VERTEX
  8
LAYER_1
 10
99.2473
 20
196.1595
  0
VERTEX
  8
LAYER_1
 10
111.7356
 20
196.1595
  0
SEQEND
  0
POLYLINE
  8
LAYER_1
 40
0.1693
 41
0.1693
 66
1
 10
0
 20
0
 30
0
  0
VERTEX
  8
LAYER_1
 10
99.2473
 20
196.1595
  0
VERTEX
  8
LAYER_1
 10
99.2473
 20
196.3976
  0
VERTEX
  8
LAYER_1
 10
111.7356
 20
196.3976
  0
SEQEND
  0
POLYLINE
  8
LAYER_1
 40
0.1693
 41
0.1693
 66
1
 10
0
 20
0
 30
0
  0
VERTEX
  8
LAYER_1
 10
111.7357
 20
196.1595
  0
VERTEX
  8
LAYER_1
 10
111.7357
 20
196.3976
  0
SEQEND
  0
POLYLINE
  8
LAYER_1
 40
0.0847
 41
0.0847
 66
1
 10
0
 20
0
 30
0
  0
VERTEX
  8
LAYER_1
 10
99.459
 20
196.3976
  0
VERTEX
  8
LAYER_1
 10
99.6971
 20
196.1595
  0
SEQEND
  0
POLYLINE
  8
LAYER_1
 40
0.0847
 41
0.0847
 66
1
 10
0
 20
0
 30
0
  0
VERTEX
  8
LAYER_1
 10
100.5173
 20
196.3976
  0
VERTEX
  8
LAYER_1
 10
100.7554
 20
196.1595
  0
SEQEND
  0
POLYLINE
  8
LAYER_1
 40
0.0847
 41
0.0847
 66
1
 10
0
 20
0
 30
0
  0
VERTEX
  8
LAYER_1
 10
101.5756
 20
196.3976
  0
VERTEX
  8
LAYER_1
 10
101.8138
 20
196.1595
  0
SEQEND
  0
POLYLINE
  8
LAYER_1
 40
0.0847
 41
0.0847
 66
1
 10
0
 20
0
 30
0
  0
VERTEX
  8
LAYER_1
 10
102.634
 20
196.3976
  0
VERTEX
  8
LAYER_1
 10
102.8721
 20
196.1595
  0
SEQEND
  0
POLYLINE
  8
LAYER_1
 40
0.0847
 41
0.0847
 66
1
 10
0
 20
0
 30
0
  0
VERTEX
  8
LAYER_1
 10
103.6923
 20
196.3976
  0
VERTEX
  8
LAYER_1
 10
103.9304
 20
196.1595
  0
SEQEND
  0
POLYLINE
  8
LAYER_1
 40
0.0847
 41
0.0847
 66
1
 10
0
 20
0
 30
0
  0
VERTEX
  8
LAYER_1
 10
104.7506
 20
196.3976
  0
VERTEX
  8
LAYER_1
 10
104.9887
 20
196.1595
  0
SEQEND
  0
POLYLINE
  8
LAYER_1
 40
0.0847
 41
0.0847
 66
1
 10
0
 20
0
 30
0
  0
VERTEX
  8
LAYER_1
 10
105.7825
 20
196.3976
  0
VERTEX
  8
LAYER_1
 10
106.0206
 20
196.1595
  0
SEQEND
  0
POLYLINE
  8
LAYER_1
 40
0.0847
 41
0.0847
 66
1
 10
0
 20
0
 30
0
  0
VERTEX
  8
LAYER_1
 10
106.8408
 20
196.3976
  0
VERTEX
  8
LAYER_1
 10
107.1054
 20
196.1595
  0
SEQEND
  0
POLYLINE
  8
LAYER_1
 40
0.0847
 41
0.0847
 66
1
 10
0
 20
0
 30
0
  0
VERTEX
  8
LAYER_1
 10
107.8992
 20
196.3976
  0
VERTEX
  8
LAYER_1
 10
108.1637
 20
196.1595
  0
SEQEND
  0
POLYLINE
  8
LAYER_1
 40
0.0847
 41
0.0847
 66
1
 10
0
 20
0
 30
0
  0
VERTEX
  8
LAYER_1
 10
108.9575
 20
196.3976
  0
VERTEX
  8
LAYER_1
 10
109.2221
 20
196.1595
  0
SEQEND
  0
POLYLINE
  8
LAYER_1
 40
0.0847
 41
0.0847
 66
1
 10
0
 20
0
 30
0
  0
VERTEX
  8
LAYER_1
 10
110.0158
 20
196.3976
  0
VERTEX
  8
LAYER_1
 10
110.2804
 20
196.1595
  0
SEQEND
  0
POLYLINE
  8
LAYER_1
 40
0.0847
 41
0.0847
 66
1
 10
0
 20
0
 30
0
  0
VERTEX
  8
LAYER_1
 10
111.0742
 20
196.3976
  0
VERTEX
  8
LAYER_1
 10
111.3387
 20
196.1595
  0
SEQEND
  0
POLYLINE
  8
LAYER_1
 40
0.1693
 41
0.1693
 66
1
 10
0
 20
0
 30
0
  0
VERTEX
  8
LAYER_1
 10
99.3796
 20
189.7831
  0
VERTEX
  8
LAYER_1
 10
111.6033
 20
189.7831
  0
VERTEX
  8
LAYER_1
 10
111.6033
 20
190.3916
  0
SEQEND
  0
POLYLINE
  8
LAYER_1
 40
0.1693
 41
0.1693
 66
1
 10
0
 20
0
 30
0
  0
VERTEX
  8
LAYER_1
 10
99.3796
 20
190.3916
  0
VERTEX
  8
LAYER_1
 10
111.6033
 20
190.3916
  0
SEQEND
  0
POLYLINE
  8
LAYER_1
 40
0.1693
 41
0.1693
 66
1
 10
0
 20
0
 30
0
  0
VERTEX
  8
LAYER_1
 10
99.3796
 20
189.7831
  0
VERTEX
  8
LAYER_1
 10
99.3796
 20
190.3916
  0
SEQEND
  0
POLYLINE
  8
LAYER_1
 40
0.1693
 41
0.1693
 66
1
 10
0
 20
0
 30
0
  0
VERTEX
  8
LAYER_1
 10
100.7554
 20
188.3014
  0
VERTEX
  8
LAYER_1
 10
100.7554
 20
189.7831
  0
SEQEND
  0
POLYLINE
  8
LAYER_1
 40
0.1693
 41
0.1693
 66
1
 10
0
 20
0
 30
0
  0
VERTEX
  8
LAYER_1
 10
100.7554
 20
188.3014
  0
VERTEX
  8
LAYER_1
 10
110.2275
 20
188.3014
  0
VERTEX
  8
LAYER_1
 10
110.2275
 20
189.7831
  0
SEQEND
  0
POLYLINE
  8
LAYER_1
 40
0.1693
 41
0.1693
 66
1
 10
0
 20
0
 30
0
  0
VERTEX
  8
LAYER_1
 10
101.5756
 20
192.4024
  0
VERTEX
  8
LAYER_1
 10
99.0092
 20
190.8943
  0
SEQEND
  0
POLYLINE
  8
LAYER_1
 40
0.1693
 41
0.1693
 66
1
 10
0
 20
0
 30
0
  0
VERTEX
  8
LAYER_1
 10
99.0092
 20
190.5239
  0
VERTEX
  8
LAYER_1
 10
99.0092
 20
190.8943
  0
SEQEND
  0
POLYLINE
  8
LAYER_1
 40
0.1693
 41
0.1693
 66
1
 10
0
 20
0
 30
0
  0
VERTEX
  8
LAYER_1
 10
99.0092
 20
190.5239
  0
VERTEX
  8
LAYER_1
 10
111.9738
 20
190.5239
  0
VERTEX
  8
LAYER_1
 10
111.9738
 20
190.8943
  0
SEQEND
  0
POLYLINE
  8
LAYER_1
 40
0.1693
 41
0.1693
 66
1
 10
0
 20
0
 30
0
  0
VERTEX
  8
LAYER_1
 10
109.4073
 20
192.4024
  0
VERTEX
  8
LAYER_1
 10
111.9737
 20
190.8943
  0
SEQEND
  0
POLYLINE
  8
LAYER_1
 40
0.1693
 41
0.1693
 66
1
 10
0
 20
0
 30
0
  0
VERTEX
  8
LAYER_1
 10
101.5756
 20
192.4024
  0
VERTEX
  8
LAYER_1
 10
109.4073
 20
192.4024
  0
SEQEND
  0
POLYLINE
  8
LAYER_1
 40
0.0847
 41
0.0847
 66
1
 10
0
 20
0
 30
0
  0
VERTEX
  8
LAYER_1
 10
99.0092
 20
190.8943
  0
VERTEX
  8
LAYER_1
 10
111.9738
 20
190.8943
  0
SEQEND
  0
POLYLINE
  8
LAYER_1
 40
0.1693
 41
0.1693
 66
1
 10
0
 20
0
 30
0
  0
VERTEX
  8
LAYER_1
 10
99.2473
 20
190.3916
  0
VERTEX
  8
LAYER_1
 10
99.2473
 20
190.5239
  0
SEQEND
  0
POLYLINE
  8
LAYER_1
 40
0.1693
 41
0.1693
 66
1
 10
0
 20
0
 30
0
  0
VERTEX
  8
LAYER_1
 10
99.2473
 20
190.3916
  0
VERTEX
  8
LAYER_1
 10
111.7356
 20
190.3916
  0
VERTEX
  8
LAYER_1
 10
111.7356
 20
190.5239
  0
SEQEND
  0
POLYLINE
  8
LAYER_1
 40
0.1693
 41
0.1693
 66
1
 10
0
 20
0
 30
0
  0
VERTEX
  8
LAYER_1
 10
99.2473
 20
190.5239
  0
VERTEX
  8
LAYER_1
 10
111.7356
 20
190.5239
  0
SEQEND
  0
POLYLINE
  8
LAYER_1
 40
0.0847
 41
0.0847
 66
1
 10
0
 20
0
 30
0
  0
VERTEX
  8
LAYER_1
 10
105.4915
 20
188.3014
  0
VERTEX
  8
LAYER_1
 10
105.4915
 20
189.783
  0
SEQEND
  0
POLYLINE
  8
LAYER_1
 40
0.0847
 41
0.0847
 66
1
 10
0
 20
0
 30
0
  0
VERTEX
  8
LAYER_1
 10
111.5504
 20
196.2653
  0
VERTEX
  8
LAYER_1
 10
157.7996
 20
206.3724
  0
SEQEND
  0
POLYLINE
  8
LAYER_1
 40
0.0847
 41
0.0847
 66
1
 10
0
 20
0
 30
0
  0
VERTEX
  8
LAYER_1
 10
110.2011
 20
196.6093
  0
VERTEX
  8
LAYER_1
 10
157.1381
 20
211.1349
  0
SEQEND
  0
POLYLINE
  8
LAYER_1
 40
0.0847
 41
0.0847
 66
1
 10
0
 20
0
 30
0
  0
VERTEX
  8
LAYER_1
 10
107.2642
 20
190.471
  0
VERTEX
  8
LAYER_1
 10
150.9998
 20
151.8682
  0
SEQEND
  0
POLYLINE
  8
LAYER_1
 40
0.0847
 41
0.0847
 66
1
 10
0
 20
0
 30
0
  0
VERTEX
  8
LAYER_1
 10
108.8781
 20
191.6351
  0
VERTEX
  8
LAYER_1
 10
162.9325
 20
157.451
  0
SEQEND
  0
POLYLINE
  8
LAYER_1
 40
0.0847
 41
0.0847
 66
1
 10
0
 20
0
 30
0
  0
VERTEX
  8
LAYER_1
 10
57.9988
 20
159.9381
  0
VERTEX
  8
LAYER_1
 10
101.3111
 20
188.6983
  0
SEQEND
  0
POLYLINE
  8
LAYER_1
 40
0.1693
 41
0.1693
 66
1
 10
0
 20
0
 30
0
  0
VERTEX
  8
LAYER_1
 10
101.8138
 20
188.3014
  0
VERTEX
  8
LAYER_1
 10
101.5227
 20
188.0897
  0
SEQEND
  0
POLYLINE
  8
LAYER_1
 40
0.1693
 41
0.1693
 66
1
 10
0
 20
0
 30
0
  0
VERTEX
  8
LAYER_1
 10
109.4338
 20
188.3014
  0
VERTEX
  8
LAYER_1
 10
109.4602
 20
188.2749
  0
SEQEND
  0
POLYLINE
  8
LAYER_1
 40
0.1693
 41
0.1693
 66
1
 10
0
 20
0
 30
0
  0
VERTEX
  8
LAYER_1
 10
101.8402
 20
178.8293
  0
VERTEX
  8
LAYER_1
 10
101.6286
 20
178.6705
  0
SEQEND
  0
POLYLINE
  8
LAYER_1
 40
0.1693
 41
0.1693
 66
1
 10
0
 20
0
 30
0
  0
VERTEX
  8
LAYER_1
 10
109.4602
 20
178.7764
  0
VERTEX
  8
LAYER_1
 10
109.3015
 20
178.6705
  0
SEQEND
  0
POLYLINE
  8
LAYER_1
 40
0.1693
 41
0.1693
 66
1
 10
0
 20
0
 30
0
  0
VERTEX
  8
LAYER_1
 10
99.3796
 20
177.2947
  0
VERTEX
  8
LAYER_1
 10
111.6033
 20
177.2947
  0
SEQEND
  0
POLYLINE
  8
LAYER_1
 40
0.1693
 41
0.1693
 66
1
 10
0
 20
0
 30
0
  0
VERTEX
  8
LAYER_1
 10
99.3796
 20
177.9033
  0
VERTEX
  8
LAYER_1
 10
111.6033
 20
177.9033
  0
SEQEND
  0
POLYLINE
  8
LAYER_1
 40
0.1693
 41
0.1693
 66
1
 10
0
 20
0
 30
0
  0
VERTEX
  8
LAYER_1
 10
111.6034
 20
177.2947
  0
VERTEX
  8
LAYER_1
 10
111.6034
 20
177.9032
  0
SEQEND
  0
POLYLINE
  8
LAYER_1
 40
0.1693
 41
0.1693
 66
1
 10
0
 20
0
 30
0
  0
VERTEX
  8
LAYER_1
 10
99.3796
 20
177.2947
  0
VERTEX
  8
LAYER_1
 10
99.3796
 20
177.9032
  0
SEQEND
  0
POLYLINE
  8
LAYER_1
 40
0.1693
 41
0.1693
 66
1
 10
0
 20
0
 30
0
  0
VERTEX
  8
LAYER_1
 10
100.7554
 20
175.8131
  0
VERTEX
  8
LAYER_1
 10
100.7554
 20
177.2947
  0
SEQEND
  0
POLYLINE
  8
LAYER_1
 40
0.1693
 41
0.1693
 66
1
 10
0
 20
0
 30
0
  0
VERTEX
  8
LAYER_1
 10
100.7554
 20
175.8131
  0
VERTEX
  8
LAYER_1
 10
110.2275
 20
175.8131
  0
VERTEX
  8
LAYER_1
 10
110.2275
 20
177.2947
  0
SEQEND
  0
POLYLINE
  8
LAYER_1
 40
0.0847
 41
0.0847
 66
1
 10
0
 20
0
 30
0
  0
VERTEX
  8
LAYER_1
 10
105.4915
 20
175.8131
  0
VERTEX
  8
LAYER_1
 10
105.4915
 20
177.2947
  0
SEQEND
  0
POLYLINE
  8
LAYER_1
 40
0.0847
 41
0.0847
 66
1
 10
0
 20
0
 30
0
  0
VERTEX
  8
LAYER_1
 10
57.9988
 20
159.9381
  0
VERTEX
  8
LAYER_1
 10
101.1788
 20
176.2893
  0
SEQEND
  0
POLYLINE
  8
LAYER_1
 40
0.0847
 41
0.0847
 66
1
 10
0
 20
0
 30
0
  0
VERTEX
  8
LAYER_1
 10
102.3694
 20
159.1972
  0
VERTEX
  8
LAYER_1
 10
102.3694
 20
160.7583
  0
SEQEND
  0
POLYLINE
  8
LAYER_1
 40
0.0847
 41
0.0847
 66
1
 10
0
 20
0
 30
0
  0
VERTEX
  8
LAYER_1
 10
102.3694
 20
163.8804
  0
VERTEX
  8
LAYER_1
 10
102.3694
 20
167.0024
  0
SEQEND
  0
POLYLINE
  8
LAYER_1
 40
0.0847
 41
0.0847
 66
1
 10
0
 20
0
 30
0
  0
VERTEX
  8
LAYER_1
 10
102.3694
 20
170.1245
  0
VERTEX
  8
LAYER_1
 10
102.3694
 20
171.712
  0
SEQEND
  0
POLYLINE
  8
LAYER_1
 40
0.0847
 41
0.0847
 66
1
 10
0
 20
0
 30
0
  0
VERTEX
  8
LAYER_1
 10
108.6136
 20
157.6891
  0
VERTEX
  8
LAYER_1
 10
108.6136
 20
158.8532
  0
SEQEND
  0
POLYLINE
  8
LAYER_1
 40
0.0847
 41
0.0847
 66
1
 10
0
 20
0
 30
0
  0
VERTEX
  8
LAYER_1
 10
108.6136
 20
161.1816
  0
VERTEX
  8
LAYER_1
 10
108.6136
 20
163.5099
  0
SEQEND
  0
POLYLINE
  8
LAYER_1
 40
0.0847
 41
0.0847
 66
1
 10
0
 20
0
 30
0
  0
VERTEX
  8
LAYER_1
 10
108.6136
 20
165.8647
  0
VERTEX
  8
LAYER_1
 10
108.6136
 20
168.193
  0
SEQEND
  0
POLYLINE
  8
LAYER_1
 40
0.0847
 41
0.0847
 66
1
 10
0
 20
0
 30
0
  0
VERTEX
  8
LAYER_1
 10
108.6136
 20
170.5214
  0
VERTEX
  8
LAYER_1
 10
108.6136
 20
171.712
  0
SEQEND
  0
POLYLINE
  8
LAYER_1
 40
0.1693
 41
0.1693
 66
1
 10
0
 20
0
 30
0
  0
VERTEX
  8
LAYER_1
 10
101.5227
 20
175.5749
  0
VERTEX
  8
LAYER_1
 10
101.8402
 20
175.3368
  0
VERTEX
  8
LAYER_1
 10
101.5227
 20
175.0722
  0
VERTEX
  8
LAYER_1
 10
101.8402
 20
174.8341
  0
VERTEX
  8
LAYER_1
 10
101.5227
 20
174.5695
  0
VERTEX
  8
LAYER_1
 10
101.8402
 20
174.3314
  0
SEQEND
  0
POLYLINE
  8
LAYER_1
 40
0.1693
 41
0.1693
 66
1
 10
0
 20
0
 30
0
  0
VERTEX
  8
LAYER_1
 10
109.1427
 20
175.522
  0
VERTEX
  8
LAYER_1
 10
109.4602
 20
175.2839
  0
VERTEX
  8
LAYER_1
 10
109.1427
 20
175.0193
  0
VERTEX
  8
LAYER_1
 10
109.4602
 20
174.7811
  0
VERTEX
  8
LAYER_1
 10
109.1427
 20
174.543
  0
VERTEX
  8
LAYER_1
 10
109.4602
 20
174.2785
  0
SEQEND
  0
POLYLINE
  8
LAYER_1
 40
0.1693
 41
0.1693
 66
1
 10
0
 20
0
 30
0
  0
VERTEX
  8
LAYER_1
 10
101.7609
 20
175.7601
  0
VERTEX
  8
LAYER_1
 10
101.5227
 20
175.5749
  0
SEQEND
  0
POLYLINE
  8
LAYER_1
 40
0.1693
 41
0.1693
 66
1
 10
0
 20
0
 30
0
  0
VERTEX
  8
LAYER_1
 10
109.4602
 20
175.7866
  0
VERTEX
  8
LAYER_1
 10
109.1427
 20
175.522
  0
SEQEND
  0
POLYLINE
  8
LAYER_1
 40
0.1693
 41
0.1693
 66
1
 10
0
 20
0
 30
0
  0
VERTEX
  8
LAYER_1
 10
109.4338
 20
175.813
  0
VERTEX
  8
LAYER_1
 10
109.4602
 20
175.7865
  0
SEQEND
  0
POLYLINE
  8
LAYER_1
 40
0.1693
 41
0.1693
 66
1
 10
0
 20
0
 30
0
  0
VERTEX
  8
LAYER_1
 10
101.8138
 20
175.813
  0
VERTEX
  8
LAYER_1
 10
101.5227
 20
175.5749
  0
SEQEND
  0
POLYLINE
  8
LAYER_1
 40
0.1693
 41
0.1693
 66
1
 10
0
 20
0
 30
0
  0
VERTEX
  8
LAYER_1
 10
98.0038
 20
199.5726
  0
VERTEX
  8
LAYER_1
 10
98.0038
 20
200.3134
  0
VERTEX
  8
LAYER_1
 10
112.9792
 20
200.3134
  0
SEQEND
  0
POLYLINE
  8
LAYER_1
 40
0.1693
 41
0.1693
 66
1
 10
0
 20
0
 30
0
  0
VERTEX
  8
LAYER_1
 10
112.9792
 20
199.5726
  0
VERTEX
  8
LAYER_1
 10
112.9792
 20
200.3134
  0
SEQEND
  0
POLYLINE
  8
LAYER_1
 40
0.1693
 41
0.1693
 66
1
 10
0
 20
0
 30
0
  0
VERTEX
  8
LAYER_1
 10
98.0038
 20
199.5726
  0
VERTEX
  8
LAYER_1
 10
112.9792
 20
199.5726
  0
SEQEND
  0
POLYLINE
  8
LAYER_1
 40
0.1693
 41
0.1693
 66
1
 10
0
 20
0
 30
0
  0
VERTEX
  8
LAYER_1
 10
101.2581
 20
198.4349
  0
VERTEX
  8
LAYER_1
 10
104.1421
 20
198.4349
  0
SEQEND
  0
POLYLINE
  8
LAYER_1
 40
0.1693
 41
0.1693
 66
1
 10
0
 20
0
 30
0
  0
VERTEX
  8
LAYER_1
 10
106.8409
 20
198.4349
  0
VERTEX
  8
LAYER_1
 10
109.7248
 20
198.4349
  0
SEQEND
  0
POLYLINE
  8
LAYER_1
 40
0.0847
 41
0.0847
 66
1
 10
0
 20
0
 30
0
  0
VERTEX
  8
LAYER_1
 10
98.2684
 20
199.5726
  0
VERTEX
  8
LAYER_1
 10
98.2684
 20
200.3134
  0
SEQEND
  0
POLYLINE
  8
LAYER_1
 40
0.0847
 41
0.0847
 66
1
 10
0
 20
0
 30
0
  0
VERTEX
  8
LAYER_1
 10
112.7146
 20
199.5726
  0
VERTEX
  8
LAYER_1
 10
112.7146
 20
200.3134
  0
SEQEND
  0
POLYLINE
  8
LAYER_1
 40
0.1693
 41
0.1693
 66
1
 10
0
 20
0
 30
0
  0
VERTEX
  8
LAYER_1
 10
101.2581
 20
196.6887
  0
VERTEX
  8
LAYER_1
 10
101.2581
 20
199.5726
  0
SEQEND
  0
POLYLINE
  8
LAYER_1
 40
0.1693
 41
0.1693
 66
1
 10
0
 20
0
 30
0
  0
VERTEX
  8
LAYER_1
 10
104.1421
 20
196.6887
  0
VERTEX
  8
LAYER_1
 10
104.1421
 20
198.4349
  0
SEQEND
  0
POLYLINE
  8
LAYER_1
 40
0.1693
 41
0.1693
 66
1
 10
0
 20
0
 30
0
  0
VERTEX
  8
LAYER_1
 10
106.8409
 20
196.6887
  0
VERTEX
  8
LAYER_1
 10
106.8409
 20
198.4349
  0
SEQEND
  0
POLYLINE
  8
LAYER_1
 40
0.1693
 41
0.1693
 66
1
 10
0
 20
0
 30
0
  0
VERTEX
  8
LAYER_1
 10
109.7248
 20
196.6887
  0
VERTEX
  8
LAYER_1
 10
109.7248
 20
199.5726
  0
SEQEND
  0
TEXT
  8
LAYER_1
 10
128.0868
 20
225.1053
 11
128.0868
 21
225.1053
 40
3.2224
 41
0.5
  1
ë╗Å¤âLâââbâvâXâNâGâA
  0
TEXT
  8
LAYER_1
 10
150.206
 20
143.6399
 11
150.206
 21
143.6399
 40
3.8024
 41
0.5
  1
örÉàâgâëâbâv%%c25
  0
TEXT
  8
LAYER_1
 10
32.3341
 20
158.0858
 11
32.3341
 21
158.0858
 40
3.2224
 41
0.5
  1
örÉàû┌ÄMùpâiâbâg
  0
TEXT
  8
LAYER_1
 10
22.8357
 20
146.9471
 11
22.8357
 21
146.9471
 40
3.2224
 41
0.5
  1
â{âEâïî┼ÆÞö┬üiâoâbâNâvâîü[âgüj
  0
ENDBLK
  0
BLOCK
  8
LAYER_1
  2
AIGNBL0101000D
 70
64
 10
0
 20
0
 30
0
  3
AIGNBL0101000D
  0
INSERT
  8
LAYER_1
  2
AIGNBL0102000E
 10
0
 20
0
 30
0
  0
INSERT
  8
LAYER_1
  2
AIGNBL01020017
 10
0
 20
0
 30
0
  0
ENDBLK
  0
ENDSEC
  0
SECTION
  2
ENTITIES
  0
POLYLINE
  8
LAYER_1
 40
0.0847
 41
0.0847
 66
1
 10
0
 20
0
 30
0
  0
VERTEX
  8
LAYER_1
 10
105.6321
 20
226.7346
  0
VERTEX
  8
LAYER_1
 10
105.6321
 20
227.8723
  0
SEQEND
  0
POLYLINE
  8
LAYER_1
 40
0.0847
 41
0.0847
 66
1
 10
0
 20
0
 30
0
  0
VERTEX
  8
LAYER_1
 10
105.6321
 20
229.0365
  0
VERTEX
  8
LAYER_1
 10
105.6321
 20
231.9205
  0
SEQEND
  0
TEXT
  8
LAYER_1
 10
52.8777
 20
237.1057
 11
52.8777
 21
237.1057
 40
5.1558
 41
0.5
  1
Mimi SQUEREüiâ~â~üEâXâNâGâAü[üjÉ¶û╩â{âEâï ÄµéÞòté»É}
  0
TEXT
  8
LAYER_1
 10
46.4327
 20
139.4081
 11
46.4327
 21
139.4081
 40
3.6606
 41
0.5
  1
üªÅÒïLÄµéÞòté»É}é═üASLAVIA CRYSTAL MimiâRâôâvâèü[âgâZâbâgé­ùpéóé¢éÓé╠éãé╚éÞé▄éÀüB
  0
INSERT
  8
LAYER_1
  2
AIGNBL01010002
 10
0
 20
0
 30
0
  0
POLYLINE
  8
LAYER_1
 40
0.1693
 41
0.1693
 66
1
 10
0
 20
0
 30
0
  0
VERTEX
  8
LAYER_1
 10
27.4961
 20
114.4929
  0
VERTEX
  8
LAYER_1
 10
180.8697
 20
114.4929
  0
SEQEND
  0
TEXT
  8
LAYER_1
 10
46.8847
 20
73.1967
 11
46.8847
 21
73.1967
 40
3.1022
 41
0.5
  1
üEörÉàâgâëâbâv
  0
TEXT
  8
LAYER_1
 10
46.8847
 20
98.1737
 11
46.8847
 21
98.1737
 40
3.6606
 41
0.5
  1
üEäOâèâôâOü~2üiô¹öÆüEìò èe1üj
  0
TEXT
  8
LAYER_1
 10
47.2234
 20
108.016
 11
47.2234
 21
108.016
 40
3.1022
 41
0.5
  1
üyâZâbâgôÓùeüz
  0
TEXT
  8
LAYER_1
 10
46.8847
 20
63.1849
 11
46.8847
 21
63.1849
 40
3.6606
 41
0.5
  1
üEörÉàâgâëâbâvüiSâgâëâbâvé▄é¢é═Pâgâëâbâvé▄é¢é═â{âgâïâëâbâvüj
  0
TEXT
  8
LAYER_1
 10
142.0925
 20
116.123
 11
142.0925
 21
116.123
 40
3.6606
 41
0.5
  1
üªôVö┬î·ü@15055å@æ╬ë×
  0
TEXT
  8
LAYER_1
 10
46.8847
 20
93.1783
 11
46.8847
 21
93.1783
 40
3.6606
 41
0.5
  1
üEMimi âVâèü[âYü@örÉàÉ­üiörÉàû┌ÄMüjüi100å@üj
  0
TEXT
  8
LAYER_1
 10
46.8847
 20
103.1687
 11
46.8847
 21
103.1687
 40
3.6606
 41
0.5
  1
üESUS304 MimiâXâNâGâAùpâ}âEâôâeâBâôâOâfâBâXâN
  0
TEXT
  8
LAYER_1
 10
46.8847
 20
68.1803
 11
46.8847
 21
68.1803
 40
3.1022
 41
0.5
  1
üEë╗Å¤âLâââbâvâXâNâGâAüiâNâìâÇüj
  0
TEXT
  8
LAYER_1
 10
46.8847
 20
88.1829
 11
46.8847
 21
88.1829
 40
3.1022
 41
0.5
  1
üEÉ¶û╩èÝörÉàâpâbâLâôüiâXâ|âôâWâpâbâLâôüEÄOèpâpâbâLâôüEâXâèâbâvâpâbâLâôüj
  0
TEXT
  8
LAYER_1
 10
46.8847
 20
83.1875
 11
46.8847
 21
83.1875
 40
3.6606
 41
0.5
  1
üEörÉàû┌ÄMùpùpâiâbâgü~2
  0
TEXT
  8
LAYER_1
 10
46.8847
 20
78.1921
 11
46.8847
 21
78.1921
 40
3.1022
 41
0.5
  1
üEâ{âEâïî┼ÆÞö┬üiâoâbâNâvâîü[âgüj
  0
TEXT
  8
LAYER_1
 10
186.826
 20
54.0008
 11
186.826
 21
54.0008
 40
3.3848
 41
0.5
  1
ü£TEL 0120-65-1232ü£FAX 06-6532-1580
  0
TEXT
  8
LAYER_1
 10
186.826
 20
50.4861
 11
186.826
 21
50.4861
 40
3.3848
 41
0.5
  1
hits@hiratatile.co.jp
  0
INSERT
  8
LAYER_1
  2
AIGNBL0101000D
 10
0
 20
0
 30
0
  0
ENDSEC
  0
EOF
