  0
SECTION
  2
HEADER
  9
$ACADVER
  1
AC1009
  9
$LUNITS
 70
2
  9
$LUPREC
 70
4
  9
$LTSCALE
 40
1.0
  9
$EXTMIN
 10
-33.2277
 20
49.7179
 30
0
  9
$EXTMAX
 10
245.4165
 20
241.0004
 30
0
  0
ENDSEC
  0
SECTION
  2
TABLES
  0
TABLE
  2
LTYPE
 70
256
  0
ENDTAB
  0
TABLE
  2
LAYER
 70
1
  0
LAYER
  2
LAYER_1
 70
64
 62
7
  6
CONTINUOUS
  0
ENDTAB
  0
TABLE
  2
STYLE
 70
6
  0
STYLE
  2
STANDARD
 70
0
 40
0
 50
0
 71
0
 41
0
 42
0
  3
TXT
  4
BIGFONT
  0
ENDTAB
  0
ENDSEC
  0
SECTION
  2
BLOCKS
  0
BLOCK
  8
LAYER_1
  2
AIGNBL01040011
 70
64
 10
0
 20
0
 30
0
  3
AIGNBL01040011
  0
POLYLINE
  8
LAYER_1
 40
0.05
 41
0.05
 66
1
 10
0
 20
0
 30
0
 70
1
  0
VERTEX
  8
LAYER_1
 10
157.5551
 20
53.6067
  0
VERTEX
  8
LAYER_1
 10
157.0662
 20
52.4216
  0
VERTEX
  8
LAYER_1
 10
156.4382
 20
52.4216
  0
VERTEX
  8
LAYER_1
 10
158.0377
 20
56.1874
  0
VERTEX
  8
LAYER_1
 10
158.7709
 20
56.1874
  0
VERTEX
  8
LAYER_1
 10
160.3773
 20
52.4216
  0
VERTEX
  8
LAYER_1
 10
159.7272
 20
52.4216
  0
VERTEX
  8
LAYER_1
 10
159.2246
 20
53.6067
  0
SEQEND
  0
POLYLINE
  8
LAYER_1
 40
0.05
 41
0.05
 66
1
 10
0
 20
0
 30
0
 70
1
  0
VERTEX
  8
LAYER_1
 10
159.0988
 20
53.9856
  0
VERTEX
  8
LAYER_1
 10
158.6379
 20
55.0705
  0
VERTEX
  8
LAYER_1
 10
158.3933
 20
55.7575
  0
VERTEX
  8
LAYER_1
 10
158.3795
 20
55.7575
  0
VERTEX
  8
LAYER_1
 10
158.1418
 20
55.075
  0
VERTEX
  8
LAYER_1
 10
157.6812
 20
53.9856
  0
SEQEND
  0
ENDBLK
  0
BLOCK
  8
LAYER_1
  2
AIGNBL01040012
 70
64
 10
0
 20
0
 30
0
  3
AIGNBL01040012
  0
POLYLINE
  8
LAYER_1
 40
0.05
 41
0.05
 66
1
 10
0
 20
0
 30
0
 70
1
  0
VERTEX
  8
LAYER_1
 10
164.7426
 20
51.8683
 42
-0.01559967508
  0
VERTEX
  8
LAYER_1
 10
162.9405
 20
52.3044
  0
VERTEX
  8
LAYER_1
 10
162.6538
 20
52.3599
 42
-0.08356944747
  0
VERTEX
  8
LAYER_1
 10
161.7898
 20
52.5261
 42
-0.0975043791
  0
VERTEX
  8
LAYER_1
 10
161.1286
 20
52.932
 42
-0.2129077902
  0
VERTEX
  8
LAYER_1
 10
160.5799
 20
54.2647
 42
-0.09684612991
  0
VERTEX
  8
LAYER_1
 10
160.7245
 20
55.0381
 42
-0.2046351071
  0
VERTEX
  8
LAYER_1
 10
161.772
 20
56.0624
 42
-0.09825619238
  0
VERTEX
  8
LAYER_1
 10
162.773
 20
56.2488
 42
-0.08554836282
  0
VERTEX
  8
LAYER_1
 10
163.6416
 20
56.1075
 42
-0.1004347897
  0
VERTEX
  8
LAYER_1
 10
164.3067
 20
55.7132
 42
-0.2140895568
  0
VERTEX
  8
LAYER_1
 10
164.8821
 20
54.3433
 42
-0.09539620281
  0
VERTEX
  8
LAYER_1
 10
164.7432
 20
53.5755
 42
-0.2143310008
  0
VERTEX
  8
LAYER_1
 10
163.7204
 20
52.597
 42
-0.02339132607
  0
VERTEX
  8
LAYER_1
 10
163.5413
 20
52.5387
  0
VERTEX
  8
LAYER_1
 10
163.5413
 20
52.5163
 42
0.01711831943
  0
VERTEX
  8
LAYER_1
 10
164.9176
 20
52.2762
  0
SEQEND
  0
POLYLINE
  8
LAYER_1
 40
0.05
 41
0.05
 66
1
 10
0
 20
0
 30
0
 70
1
  0
VERTEX
  8
LAYER_1
 10
164.2399
 20
54.3219
 42
0.1071511414
  0
VERTEX
  8
LAYER_1
 10
164.0886
 20
55.0267
 42
0.2976450246
  0
VERTEX
  8
LAYER_1
 10
162.7517
 20
55.8522
 42
0.1072291499
  0
VERTEX
  8
LAYER_1
 10
162.0618
 20
55.7127
 42
0.2386106109
  0
VERTEX
  8
LAYER_1
 10
161.2749
 20
54.7071
 42
0.05752849981
  0
VERTEX
  8
LAYER_1
 10
161.2293
 20
54.2771
 42
0.218096749
  0
VERTEX
  8
LAYER_1
 10
161.7599
 20
53.0817
 42
0.1772796408
  0
VERTEX
  8
LAYER_1
 10
162.7237
 20
52.7561
 42
0.1075185771
  0
VERTEX
  8
LAYER_1
 10
163.4051
 20
52.8951
 42
0.2370926009
  0
VERTEX
  8
LAYER_1
 10
164.1922
 20
53.8947
 42
0.05601310134
  0
SEQEND
  0
ENDBLK
  0
BLOCK
  8
LAYER_1
  2
AIGNBL01040013
 70
64
 10
0
 20
0
 30
0
  3
AIGNBL01040013
  0
POLYLINE
  8
LAYER_1
 40
0.05
 41
0.05
 66
1
 10
0
 20
0
 30
0
 70
1
  0
VERTEX
  8
LAYER_1
 10
166.2095
 20
56.1874
  0
VERTEX
  8
LAYER_1
 10
166.2095
 20
53.9581
 42
0.114533087
  0
VERTEX
  8
LAYER_1
 10
166.3434
 20
53.2923
 42
0.1464774934
  0
VERTEX
  8
LAYER_1
 10
166.6938
 20
52.9071
 42
0.1362552487
  0
VERTEX
  8
LAYER_1
 10
167.3061
 20
52.7561
 42
0.1219300979
  0
VERTEX
  8
LAYER_1
 10
167.9292
 20
52.8908
 42
0.1503016186
  0
VERTEX
  8
LAYER_1
 10
168.301
 20
53.2598
 42
0.1256239276
  0
VERTEX
  8
LAYER_1
 10
168.4516
 20
53.9581
  0
VERTEX
  8
LAYER_1
 10
168.4516
 20
56.1874
  0
VERTEX
  8
LAYER_1
 10
169.0662
 20
56.1874
  0
VERTEX
  8
LAYER_1
 10
169.0662
 20
53.9915
 42
-0.09997505101
  0
VERTEX
  8
LAYER_1
 10
168.9313
 20
53.2488
 42
-0.1214984503
  0
VERTEX
  8
LAYER_1
 10
168.558
 20
52.7421
 42
-0.1106235892
  0
VERTEX
  8
LAYER_1
 10
167.9326
 20
52.4355
 42
-0.06128954947
  0
VERTEX
  8
LAYER_1
 10
167.2851
 20
52.3599
 42
-0.09418508724
  0
VERTEX
  8
LAYER_1
 10
166.4659
 20
52.498
 42
-0.2431728796
  0
VERTEX
  8
LAYER_1
 10
165.6624
 20
53.4087
 42
-0.06320085329
  0
VERTEX
  8
LAYER_1
 10
165.5949
 20
53.9695
  0
VERTEX
  8
LAYER_1
 10
165.5949
 20
56.1874
  0
SEQEND
  0
ENDBLK
  0
BLOCK
  8
LAYER_1
  2
AIGNBL01040014
 70
64
 10
0
 20
0
 30
0
  3
AIGNBL01040014
  0
POLYLINE
  8
LAYER_1
 40
0.05
 41
0.05
 66
1
 10
0
 20
0
 30
0
 70
1
  0
VERTEX
  8
LAYER_1
 10
170.8125
 20
53.6067
  0
VERTEX
  8
LAYER_1
 10
170.3233
 20
52.4216
  0
VERTEX
  8
LAYER_1
 10
169.6953
 20
52.4216
  0
VERTEX
  8
LAYER_1
 10
171.2945
 20
56.1874
  0
VERTEX
  8
LAYER_1
 10
172.0276
 20
56.1874
  0
VERTEX
  8
LAYER_1
 10
173.634
 20
52.4216
  0
VERTEX
  8
LAYER_1
 10
172.9846
 20
52.4216
  0
VERTEX
  8
LAYER_1
 10
172.482
 20
53.6067
  0
SEQEND
  0
POLYLINE
  8
LAYER_1
 40
0.05
 41
0.05
 66
1
 10
0
 20
0
 30
0
 70
1
  0
VERTEX
  8
LAYER_1
 10
172.3559
 20
53.9856
  0
VERTEX
  8
LAYER_1
 10
171.8946
 20
55.0705
  0
VERTEX
  8
LAYER_1
 10
171.65
 20
55.7575
  0
VERTEX
  8
LAYER_1
 10
171.6362
 20
55.7575
  0
VERTEX
  8
LAYER_1
 10
171.3989
 20
55.075
  0
VERTEX
  8
LAYER_1
 10
170.9379
 20
53.9856
  0
SEQEND
  0
ENDBLK
  0
BLOCK
  8
LAYER_1
  2
AIGNBL01040015
 70
64
 10
0
 20
0
 30
0
  3
AIGNBL01040015
  0
POLYLINE
  8
LAYER_1
 40
0.05
 41
0.05
 66
1
 10
0
 20
0
 30
0
 70
1
  0
VERTEX
  8
LAYER_1
 10
174.6748
 20
56.1426
 42
-0.03245981043
  0
VERTEX
  8
LAYER_1
 10
175.8416
 20
56.2157
 42
-0.08081710393
  0
VERTEX
  8
LAYER_1
 10
176.7981
 20
56.0839
 42
-0.07812211839
  0
VERTEX
  8
LAYER_1
 10
177.1615
 20
55.9029
 42
-0.2483368586
  0
VERTEX
  8
LAYER_1
 10
177.5731
 20
55.1146
 42
-0.226147
  0
VERTEX
  8
LAYER_1
 10
177.21
 20
54.3105
 42
-0.1097236176
  0
VERTEX
  8
LAYER_1
 10
176.5818
 20
53.9972
 42
-0.06566039781
  0
VERTEX
  8
LAYER_1
 10
175.7714
 20
53.8968
 42
-0.06232747682
  0
VERTEX
  8
LAYER_1
 10
175.2828
 20
53.9302
  0
VERTEX
  8
LAYER_1
 10
175.2828
 20
52.4216
  0
VERTEX
  8
LAYER_1
 10
174.6748
 20
52.4216
  0
SEQEND
  0
POLYLINE
  8
LAYER_1
 40
0.05
 41
0.05
 66
1
 10
0
 20
0
 30
0
 70
1
  0
VERTEX
  8
LAYER_1
 10
175.2828
 20
54.3271
 42
0.04202445636
  0
VERTEX
  8
LAYER_1
 10
175.7852
 20
54.2878
 42
0.1032333559
  0
VERTEX
  8
LAYER_1
 10
176.5043
 20
54.4151
 42
0.1555698608
  0
VERTEX
  8
LAYER_1
 10
176.8691
 20
54.7196
 42
0.1352698132
  0
VERTEX
  8
LAYER_1
 10
176.9661
 20
55.0922
 42
0.1736824711
  0
VERTEX
  8
LAYER_1
 10
176.8313
 20
55.4995
 42
0.151721714
  0
VERTEX
  8
LAYER_1
 10
176.4102
 20
55.759
 42
0.06880216409
  0
VERTEX
  8
LAYER_1
 10
175.8558
 20
55.8298
 42
0.06336772289
  0
VERTEX
  8
LAYER_1
 10
175.2828
 20
55.7906
  0
SEQEND
  0
ENDBLK
  0
BLOCK
  8
LAYER_1
  2
AIGNBL01040016
 70
64
 10
0
 20
0
 30
0
  3
AIGNBL01040016
  0
POLYLINE
  8
LAYER_1
 40
0.05
 41
0.05
 66
1
 10
0
 20
0
 30
0
 70
1
  0
VERTEX
  8
LAYER_1
 10
179.1252
 20
55.8856
 42
-0.276560599
  0
VERTEX
  8
LAYER_1
 10
178.9856
 20
55.6455
 42
-0.1265502936
  0
VERTEX
  8
LAYER_1
 10
178.7335
 20
55.5838
 42
-0.22367962
  0
VERTEX
  8
LAYER_1
 10
178.4232
 20
55.7162
 42
-0.1709078449
  0
VERTEX
  8
LAYER_1
 10
178.3631
 20
55.8856
 42
-0.2643879937
  0
VERTEX
  8
LAYER_1
 10
178.5125
 20
56.1327
 42
-0.1290073663
  0
VERTEX
  8
LAYER_1
 10
178.7472
 20
56.1926
 42
-0.2253241111
  0
VERTEX
  8
LAYER_1
 10
179.0641
 20
56.0619
 42
-0.1691304651
  0
SEQEND
  0
POLYLINE
  8
LAYER_1
 40
0.05
 41
0.05
 66
1
 10
0
 20
0
 30
0
 70
1
  0
VERTEX
  8
LAYER_1
 10
178.4396
 20
52.4216
  0
VERTEX
  8
LAYER_1
 10
178.4396
 20
55.1256
  0
VERTEX
  8
LAYER_1
 10
179.0542
 20
55.1256
  0
VERTEX
  8
LAYER_1
 10
179.0542
 20
52.4216
  0
SEQEND
  0
ENDBLK
  0
BLOCK
  8
LAYER_1
  2
AIGNBL01040017
 70
64
 10
0
 20
0
 30
0
  3
AIGNBL01040017
  0
POLYLINE
  8
LAYER_1
 40
0.05
 41
0.05
 66
1
 10
0
 20
0
 30
0
 70
1
  0
VERTEX
  8
LAYER_1
 10
180.9259
 20
53.6067
  0
VERTEX
  8
LAYER_1
 10
180.4377
 20
52.4216
  0
VERTEX
  8
LAYER_1
 10
179.8087
 20
52.4216
  0
VERTEX
  8
LAYER_1
 10
181.4082
 20
56.1874
  0
VERTEX
  8
LAYER_1
 10
182.142
 20
56.1874
  0
VERTEX
  8
LAYER_1
 10
183.7485
 20
52.4216
  0
VERTEX
  8
LAYER_1
 10
183.0987
 20
52.4216
  0
VERTEX
  8
LAYER_1
 10
182.5961
 20
53.6067
  0
SEQEND
  0
POLYLINE
  8
LAYER_1
 40
0.05
 41
0.05
 66
1
 10
0
 20
0
 30
0
 70
1
  0
VERTEX
  8
LAYER_1
 10
182.47
 20
53.9856
  0
VERTEX
  8
LAYER_1
 10
182.009
 20
55.0705
  0
VERTEX
  8
LAYER_1
 10
181.7651
 20
55.7575
  0
VERTEX
  8
LAYER_1
 10
181.7503
 20
55.7575
  0
VERTEX
  8
LAYER_1
 10
181.5133
 20
55.075
  0
VERTEX
  8
LAYER_1
 10
181.0523
 20
53.9856
  0
SEQEND
  0
ENDBLK
  0
BLOCK
  8
LAYER_1
  2
AIGNBL01030010
 70
64
 10
0
 20
0
 30
0
  3
AIGNBL01030010
  0
INSERT
  8
LAYER_1
  2
AIGNBL01040011
 10
0
 20
0
 30
0
  0
INSERT
  8
LAYER_1
  2
AIGNBL01040012
 10
0
 20
0
 30
0
  0
INSERT
  8
LAYER_1
  2
AIGNBL01040013
 10
0
 20
0
 30
0
  0
INSERT
  8
LAYER_1
  2
AIGNBL01040014
 10
0
 20
0
 30
0
  0
INSERT
  8
LAYER_1
  2
AIGNBL01040015
 10
0
 20
0
 30
0
  0
INSERT
  8
LAYER_1
  2
AIGNBL01040016
 10
0
 20
0
 30
0
  0
INSERT
  8
LAYER_1
  2
AIGNBL01040017
 10
0
 20
0
 30
0
  0
ENDBLK
  0
BLOCK
  8
LAYER_1
  2
AIGNBL01030019
 70
64
 10
0
 20
0
 30
0
  3
AIGNBL01030019
  0
POLYLINE
  8
LAYER_1
 40
0.05
 41
0.05
 66
1
 10
0
 20
0
 30
0
 70
1
  0
VERTEX
  8
LAYER_1
 10
156.5481
 20
50.5223
  0
VERTEX
  8
LAYER_1
 10
157.1013
 20
50.5223
  0
VERTEX
  8
LAYER_1
 10
157.1013
 20
50.4286
  0
VERTEX
  8
LAYER_1
 10
156.443
 20
50.4286
  0
VERTEX
  8
LAYER_1
 10
156.443
 20
51.4618
  0
VERTEX
  8
LAYER_1
 10
157.0838
 20
51.4618
  0
VERTEX
  8
LAYER_1
 10
157.0838
 20
51.3684
  0
VERTEX
  8
LAYER_1
 10
156.5481
 20
51.3684
  0
VERTEX
  8
LAYER_1
 10
156.5481
 20
51.0139
  0
VERTEX
  8
LAYER_1
 10
157.0486
 20
51.0139
  0
VERTEX
  8
LAYER_1
 10
157.0486
 20
50.9206
  0
VERTEX
  8
LAYER_1
 10
156.5481
 20
50.9206
  0
SEQEND
  0
ENDBLK
  0
BLOCK
  8
LAYER_1
  2
AIGNBL0103001A
 70
64
 10
0
 20
0
 30
0
  3
AIGNBL0103001A
  0
POLYLINE
  8
LAYER_1
 40
0.05
 41
0.05
 66
1
 10
0
 20
0
 30
0
 70
1
  0
VERTEX
  8
LAYER_1
 10
158.241
 20
50.5819
  0
VERTEX
  8
LAYER_1
 10
158.2438
 20
50.5819
  0
VERTEX
  8
LAYER_1
 10
158.2438
 20
51.4618
  0
VERTEX
  8
LAYER_1
 10
158.3488
 20
51.4618
  0
VERTEX
  8
LAYER_1
 10
158.3488
 20
50.4286
  0
VERTEX
  8
LAYER_1
 10
158.2179
 20
50.4286
  0
VERTEX
  8
LAYER_1
 10
157.6168
 20
51.3174
  0
VERTEX
  8
LAYER_1
 10
157.6133
 20
51.3174
  0
VERTEX
  8
LAYER_1
 10
157.6133
 20
50.4286
  0
VERTEX
  8
LAYER_1
 10
157.5086
 20
50.4286
  0
VERTEX
  8
LAYER_1
 10
157.5086
 20
51.4618
  0
VERTEX
  8
LAYER_1
 10
157.6398
 20
51.4618
  0
SEQEND
  0
ENDBLK
  0
BLOCK
  8
LAYER_1
  2
AIGNBL0103001B
 70
64
 10
0
 20
0
 30
0
  3
AIGNBL0103001B
  0
POLYLINE
  8
LAYER_1
 40
0.05
 41
0.05
 66
1
 10
0
 20
0
 30
0
 70
1
  0
VERTEX
  8
LAYER_1
 10
158.8218
 20
50.6405
  0
VERTEX
  8
LAYER_1
 10
158.8763
 20
50.5375
 42
0.1809219053
  0
VERTEX
  8
LAYER_1
 10
158.9896
 20
50.4958
  0
VERTEX
  8
LAYER_1
 10
159.0788
 20
50.5154
  0
VERTEX
  8
LAYER_1
 10
159.135
 20
50.5688
  0
VERTEX
  8
LAYER_1
 10
159.1639
 20
50.6453
  0
VERTEX
  8
LAYER_1
 10
159.1722
 20
50.7349
  0
VERTEX
  8
LAYER_1
 10
159.1722
 20
51.4618
  0
VERTEX
  8
LAYER_1
 10
159.2773
 20
51.4618
  0
VERTEX
  8
LAYER_1
 10
159.2773
 20
50.7263
  0
VERTEX
  8
LAYER_1
 10
159.2659
 20
50.6184
  0
VERTEX
  8
LAYER_1
 10
159.2246
 20
50.5134
  0
VERTEX
  8
LAYER_1
 10
159.1398
 20
50.4338
  0
VERTEX
  8
LAYER_1
 10
159.001
 20
50.4024
 42
-0.1846674817
  0
VERTEX
  8
LAYER_1
 10
158.8163
 20
50.4624
 42
-0.1764563828
  0
VERTEX
  8
LAYER_1
 10
158.724
 20
50.6139
  0
SEQEND
  0
ENDBLK
  0
BLOCK
  8
LAYER_1
  2
AIGNBL0103001C
 70
64
 10
0
 20
0
 30
0
  3
AIGNBL0103001C
  0
POLYLINE
  8
LAYER_1
 40
0.05
 41
0.05
 66
1
 10
0
 20
0
 30
0
 70
1
  0
VERTEX
  8
LAYER_1
 10
160.7656
 20
50.9454
 42
-0.103587114
  0
VERTEX
  8
LAYER_1
 10
160.7246
 20
50.728
 42
-0.1000549391
  0
VERTEX
  8
LAYER_1
 10
160.6119
 20
50.5564
  0
VERTEX
  8
LAYER_1
 10
160.441
 20
50.4434
 42
-0.09506675375
  0
VERTEX
  8
LAYER_1
 10
160.2271
 20
50.4024
 42
-0.1010765979
  0
VERTEX
  8
LAYER_1
 10
160.0135
 20
50.4434
 42
-0.1005668876
  0
VERTEX
  8
LAYER_1
 10
159.8426
 20
50.5564
 42
-0.09506076213
  0
VERTEX
  8
LAYER_1
 10
159.7293
 20
50.728
 42
-0.0931359716
  0
VERTEX
  8
LAYER_1
 10
159.6886
 20
50.9454
 42
-0.1020962526
  0
VERTEX
  8
LAYER_1
 10
159.7293
 20
51.1628
 42
-0.1007559602
  0
VERTEX
  8
LAYER_1
 10
159.8426
 20
51.3343
 42
-0.09625543395
  0
VERTEX
  8
LAYER_1
 10
160.0135
 20
51.4473
 42
-0.0952064105
  0
VERTEX
  8
LAYER_1
 10
160.2271
 20
51.4883
 42
-0.101175466
  0
VERTEX
  8
LAYER_1
 10
160.441
 20
51.4473
 42
-0.09853409661
  0
VERTEX
  8
LAYER_1
 10
160.6119
 20
51.3343
 42
-0.09562840933
  0
VERTEX
  8
LAYER_1
 10
160.7246
 20
51.1628
 42
-0.09393796777
  0
SEQEND
  0
POLYLINE
  8
LAYER_1
 40
0.05
 41
0.05
 66
1
 10
0
 20
0
 30
0
 70
1
  0
VERTEX
  8
LAYER_1
 10
160.6546
 20
50.9447
  0
VERTEX
  8
LAYER_1
 10
160.6257
 20
51.1166
  0
VERTEX
  8
LAYER_1
 10
160.5409
 20
51.2599
  0
VERTEX
  8
LAYER_1
 10
160.4059
 20
51.3581
  0
VERTEX
  8
LAYER_1
 10
160.2271
 20
51.395
  0
VERTEX
  8
LAYER_1
 10
160.0483
 20
51.3581
  0
VERTEX
  8
LAYER_1
 10
159.9136
 20
51.2599
  0
VERTEX
  8
LAYER_1
 10
159.8289
 20
51.1166
  0
VERTEX
  8
LAYER_1
 10
159.7996
 20
50.9447
  0
VERTEX
  8
LAYER_1
 10
159.8289
 20
50.7728
  0
VERTEX
  8
LAYER_1
 10
159.9136
 20
50.6298
  0
VERTEX
  8
LAYER_1
 10
160.0483
 20
50.5323
 42
0.1008257054
  0
VERTEX
  8
LAYER_1
 10
160.2271
 20
50.4958
  0
VERTEX
  8
LAYER_1
 10
160.4059
 20
50.5323
  0
VERTEX
  8
LAYER_1
 10
160.5409
 20
50.6298
  0
VERTEX
  8
LAYER_1
 10
160.6257
 20
50.7728
  0
SEQEND
  0
ENDBLK
  0
BLOCK
  8
LAYER_1
  2
AIGNBL0103001D
 70
64
 10
0
 20
0
 30
0
  3
AIGNBL0103001D
  0
POLYLINE
  8
LAYER_1
 40
0.05
 41
0.05
 66
1
 10
0
 20
0
 30
0
 70
1
  0
VERTEX
  8
LAYER_1
 10
161.5404
 20
50.4286
  0
VERTEX
  8
LAYER_1
 10
161.4356
 20
50.4286
  0
VERTEX
  8
LAYER_1
 10
161.4356
 20
50.874
  0
VERTEX
  8
LAYER_1
 10
161.0488
 20
51.4618
  0
VERTEX
  8
LAYER_1
 10
161.18
 20
51.4618
  0
VERTEX
  8
LAYER_1
 10
161.4911
 20
50.9616
  0
VERTEX
  8
LAYER_1
 10
161.8046
 20
51.4618
  0
VERTEX
  8
LAYER_1
 10
161.9269
 20
51.4618
  0
VERTEX
  8
LAYER_1
 10
161.5404
 20
50.874
  0
SEQEND
  0
ENDBLK
  0
BLOCK
  8
LAYER_1
  2
AIGNBL0103001E
 70
64
 10
0
 20
0
 30
0
  3
AIGNBL0103001E
  0
POLYLINE
  8
LAYER_1
 40
0.05
 41
0.05
 66
1
 10
0
 20
0
 30
0
 70
1
  0
VERTEX
  8
LAYER_1
 10
162.8319
 20
51.4618
  0
VERTEX
  8
LAYER_1
 10
163.1396
 20
51.4618
  0
VERTEX
  8
LAYER_1
 10
163.2581
 20
51.4494
  0
VERTEX
  8
LAYER_1
 10
163.3649
 20
51.407
  0
VERTEX
  8
LAYER_1
 10
163.4427
 20
51.3261
  0
VERTEX
  8
LAYER_1
 10
163.4724
 20
51.1979
 42
-0.1787887146
  0
VERTEX
  8
LAYER_1
 10
163.4224
 20
51.0556
 42
-0.1642670326
  0
VERTEX
  8
LAYER_1
 10
163.2891
 20
50.976
  0
VERTEX
  8
LAYER_1
 10
163.2891
 20
50.9733
 42
-0.1734673322
  0
VERTEX
  8
LAYER_1
 10
163.4558
 20
50.8951
 42
-0.1923137572
  0
VERTEX
  8
LAYER_1
 10
163.522
 20
50.7146
  0
VERTEX
  8
LAYER_1
 10
163.4948
 20
50.5974
  0
VERTEX
  8
LAYER_1
 10
163.4186
 20
50.5068
  0
VERTEX
  8
LAYER_1
 10
163.2977
 20
50.4493
  0
VERTEX
  8
LAYER_1
 10
163.1379
 20
50.4286
  0
VERTEX
  8
LAYER_1
 10
162.8319
 20
50.4286
  0
SEQEND
  0
POLYLINE
  8
LAYER_1
 40
0.05
 41
0.05
 66
1
 10
0
 20
0
 30
0
 70
1
  0
VERTEX
  8
LAYER_1
 10
162.937
 20
51.0094
  0
VERTEX
  8
LAYER_1
 10
163.1485
 20
51.0094
  0
VERTEX
  8
LAYER_1
 10
163.2254
 20
51.0184
  0
VERTEX
  8
LAYER_1
 10
163.2956
 20
51.048
  0
VERTEX
  8
LAYER_1
 10
163.3477
 20
51.1045
  0
VERTEX
  8
LAYER_1
 10
163.3673
 20
51.1907
  0
VERTEX
  8
LAYER_1
 10
163.3477
 20
51.2744
  0
VERTEX
  8
LAYER_1
 10
163.2946
 20
51.3305
  0
VERTEX
  8
LAYER_1
 10
163.2157
 20
51.3619
  0
VERTEX
  8
LAYER_1
 10
163.1192
 20
51.3715
  0
VERTEX
  8
LAYER_1
 10
162.937
 20
51.3715
  0
SEQEND
  0
POLYLINE
  8
LAYER_1
 40
0.05
 41
0.05
 66
1
 10
0
 20
0
 30
0
 70
1
  0
VERTEX
  8
LAYER_1
 10
162.937
 20
50.5192
  0
VERTEX
  8
LAYER_1
 10
163.1327
 20
50.5192
  0
VERTEX
  8
LAYER_1
 10
163.2412
 20
50.5302
  0
VERTEX
  8
LAYER_1
 10
163.3318
 20
50.565
  0
VERTEX
  8
LAYER_1
 10
163.3935
 20
50.6281
  0
VERTEX
  8
LAYER_1
 10
163.4169
 20
50.7208
 42
0.2554060681
  0
VERTEX
  8
LAYER_1
 10
163.3477
 20
50.873
 42
0.1380642909
  0
VERTEX
  8
LAYER_1
 10
163.1516
 20
50.9233
  0
VERTEX
  8
LAYER_1
 10
162.937
 20
50.9233
  0
SEQEND
  0
ENDBLK
  0
BLOCK
  8
LAYER_1
  2
AIGNBL0103001F
 70
64
 10
0
 20
0
 30
0
  3
AIGNBL0103001F
  0
POLYLINE
  8
LAYER_1
 40
0.05
 41
0.05
 66
1
 10
0
 20
0
 30
0
 70
1
  0
VERTEX
  8
LAYER_1
 10
163.954
 20
50.4286
  0
VERTEX
  8
LAYER_1
 10
163.8386
 20
50.4286
  0
VERTEX
  8
LAYER_1
 10
164.2854
 20
51.4618
  0
VERTEX
  8
LAYER_1
 10
164.3877
 20
51.4618
  0
VERTEX
  8
LAYER_1
 10
164.8311
 20
50.4286
  0
VERTEX
  8
LAYER_1
 10
164.7143
 20
50.4286
  0
VERTEX
  8
LAYER_1
 10
164.6003
 20
50.7001
  0
VERTEX
  8
LAYER_1
 10
164.0663
 20
50.7001
  0
SEQEND
  0
POLYLINE
  8
LAYER_1
 40
0.05
 41
0.05
 66
1
 10
0
 20
0
 30
0
 70
1
  0
VERTEX
  8
LAYER_1
 10
164.1056
 20
50.7965
  0
VERTEX
  8
LAYER_1
 10
164.561
 20
50.7965
  0
VERTEX
  8
LAYER_1
 10
164.3333
 20
51.3454
  0
SEQEND
  0
ENDBLK
  0
BLOCK
  8
LAYER_1
  2
AIGNBL01030020
 70
64
 10
0
 20
0
 30
0
  3
AIGNBL01030020
  0
POLYLINE
  8
LAYER_1
 40
0.05
 41
0.05
 66
1
 10
0
 20
0
 30
0
 70
1
  0
VERTEX
  8
LAYER_1
 10
165.5157
 20
50.4286
  0
VERTEX
  8
LAYER_1
 10
165.4106
 20
50.4286
  0
VERTEX
  8
LAYER_1
 10
165.4106
 20
51.3684
  0
VERTEX
  8
LAYER_1
 10
165.0644
 20
51.3684
  0
VERTEX
  8
LAYER_1
 10
165.0644
 20
51.4618
  0
VERTEX
  8
LAYER_1
 10
165.8612
 20
51.4618
  0
VERTEX
  8
LAYER_1
 10
165.8612
 20
51.3684
  0
VERTEX
  8
LAYER_1
 10
165.5157
 20
51.3684
  0
SEQEND
  0
ENDBLK
  0
BLOCK
  8
LAYER_1
  2
AIGNBL01030021
 70
64
 10
0
 20
0
 30
0
  3
AIGNBL01030021
  0
POLYLINE
  8
LAYER_1
 40
0.05
 41
0.05
 66
1
 10
0
 20
0
 30
0
 70
1
  0
VERTEX
  8
LAYER_1
 10
166.2174
 20
51.4618
  0
VERTEX
  8
LAYER_1
 10
166.3221
 20
51.4618
  0
VERTEX
  8
LAYER_1
 10
166.3221
 20
51.0139
  0
VERTEX
  8
LAYER_1
 10
166.8858
 20
51.0139
  0
VERTEX
  8
LAYER_1
 10
166.8858
 20
51.4618
  0
VERTEX
  8
LAYER_1
 10
166.9908
 20
51.4618
  0
VERTEX
  8
LAYER_1
 10
166.9908
 20
50.4286
  0
VERTEX
  8
LAYER_1
 10
166.8858
 20
50.4286
  0
VERTEX
  8
LAYER_1
 10
166.8858
 20
50.9178
  0
VERTEX
  8
LAYER_1
 10
166.3221
 20
50.9178
  0
VERTEX
  8
LAYER_1
 10
166.3221
 20
50.4286
  0
VERTEX
  8
LAYER_1
 10
166.2174
 20
50.4286
  0
SEQEND
  0
ENDBLK
  0
BLOCK
  8
LAYER_1
  2
AIGNBL01030022
 70
64
 10
0
 20
0
 30
0
  3
AIGNBL01030022
  0
POLYLINE
  8
LAYER_1
 40
0.05
 41
0.05
 66
1
 10
0
 20
0
 30
0
 70
1
  0
VERTEX
  8
LAYER_1
 10
167.5713
 20
50.4286
  0
VERTEX
  8
LAYER_1
 10
167.4663
 20
50.4286
  0
VERTEX
  8
LAYER_1
 10
167.4663
 20
51.4618
  0
VERTEX
  8
LAYER_1
 10
167.7701
 20
51.4618
  0
VERTEX
  8
LAYER_1
 10
167.9107
 20
51.4473
  0
VERTEX
  8
LAYER_1
 10
168.0233
 20
51.3998
  0
VERTEX
  8
LAYER_1
 10
168.0967
 20
51.3143
  0
VERTEX
  8
LAYER_1
 10
168.1229
 20
51.1862
  0
VERTEX
  8
LAYER_1
 10
168.1029
 20
51.0825
  0
VERTEX
  8
LAYER_1
 10
168.0475
 20
51.0015
  0
VERTEX
  8
LAYER_1
 10
167.9641
 20
50.9467
  0
VERTEX
  8
LAYER_1
 10
167.859
 20
50.9206
  0
VERTEX
  8
LAYER_1
 10
168.1611
 20
50.4286
  0
VERTEX
  8
LAYER_1
 10
168.0327
 20
50.4286
  0
VERTEX
  8
LAYER_1
 10
167.7467
 20
50.9116
  0
VERTEX
  8
LAYER_1
 10
167.5713
 20
50.9116
  0
SEQEND
  0
POLYLINE
  8
LAYER_1
 40
0.05
 41
0.05
 66
1
 10
0
 20
0
 30
0
 70
1
  0
VERTEX
  8
LAYER_1
 10
167.5713
 20
51.0022
  0
VERTEX
  8
LAYER_1
 10
167.7539
 20
51.0022
 42
0.1657798624
  0
VERTEX
  8
LAYER_1
 10
167.9496
 20
51.048
 42
0.2503949893
  0
VERTEX
  8
LAYER_1
 10
168.0182
 20
51.1862
  0
VERTEX
  8
LAYER_1
 10
167.9989
 20
51.272
  0
VERTEX
  8
LAYER_1
 10
167.9465
 20
51.3292
  0
VERTEX
  8
LAYER_1
 10
167.8649
 20
51.3612
  0
VERTEX
  8
LAYER_1
 10
167.7584
 20
51.3715
  0
VERTEX
  8
LAYER_1
 10
167.5713
 20
51.3715
  0
SEQEND
  0
ENDBLK
  0
BLOCK
  8
LAYER_1
  2
AIGNBL01030023
 70
64
 10
0
 20
0
 30
0
  3
AIGNBL01030023
  0
POLYLINE
  8
LAYER_1
 40
0.05
 41
0.05
 66
1
 10
0
 20
0
 30
0
 70
1
  0
VERTEX
  8
LAYER_1
 10
169.5633
 20
50.9454
 42
-0.1000954639
  0
VERTEX
  8
LAYER_1
 10
169.5227
 20
50.728
 42
-0.1001905425
  0
VERTEX
  8
LAYER_1
 10
169.4093
 20
50.5564
 42
-0.09598116796
  0
VERTEX
  8
LAYER_1
 10
169.2388
 20
50.4434
 42
-0.09506675375
  0
VERTEX
  8
LAYER_1
 10
169.0249
 20
50.4024
 42
-0.1012184087
  0
VERTEX
  8
LAYER_1
 10
168.8109
 20
50.4434
 42
-0.1000476754
  0
VERTEX
  8
LAYER_1
 10
168.6404
 20
50.5564
 42
-0.09638651026
  0
VERTEX
  8
LAYER_1
 10
168.5274
 20
50.728
 42
-0.0931359716
  0
VERTEX
  8
LAYER_1
 10
168.4867
 20
50.9454
 42
-0.1020962526
  0
VERTEX
  8
LAYER_1
 10
168.5274
 20
51.1628
 42
-0.101889112
  0
VERTEX
  8
LAYER_1
 10
168.6404
 20
51.3343
 42
-0.09563682649
  0
VERTEX
  8
LAYER_1
 10
168.8109
 20
51.4473
 42
-0.0950295922
  0
VERTEX
  8
LAYER_1
 10
169.0249
 20
51.4883
 42
-0.101175466
  0
VERTEX
  8
LAYER_1
 10
169.2388
 20
51.4473
 42
-0.101575919
  0
VERTEX
  8
LAYER_1
 10
169.4093
 20
51.3343
 42
-0.09449174073
  0
VERTEX
  8
LAYER_1
 10
169.5227
 20
51.1628
 42
-0.09273041258
  0
SEQEND
  0
POLYLINE
  8
LAYER_1
 40
0.05
 41
0.05
 66
1
 10
0
 20
0
 30
0
 70
1
  0
VERTEX
  8
LAYER_1
 10
169.4524
 20
50.9447
  0
VERTEX
  8
LAYER_1
 10
169.4231
 20
51.1166
  0
VERTEX
  8
LAYER_1
 10
169.3383
 20
51.2599
  0
VERTEX
  8
LAYER_1
 10
169.2036
 20
51.3581
  0
VERTEX
  8
LAYER_1
 10
169.0249
 20
51.395
  0
VERTEX
  8
LAYER_1
 10
168.846
 20
51.3581
  0
VERTEX
  8
LAYER_1
 10
168.711
 20
51.2599
  0
VERTEX
  8
LAYER_1
 10
168.6262
 20
51.1166
  0
VERTEX
  8
LAYER_1
 10
168.5973
 20
50.9447
  0
VERTEX
  8
LAYER_1
 10
168.6262
 20
50.7728
  0
VERTEX
  8
LAYER_1
 10
168.711
 20
50.6298
  0
VERTEX
  8
LAYER_1
 10
168.846
 20
50.5323
  0
VERTEX
  8
LAYER_1
 10
169.0249
 20
50.4958
  0
VERTEX
  8
LAYER_1
 10
169.2036
 20
50.5323
  0
VERTEX
  8
LAYER_1
 10
169.3383
 20
50.6298
  0
VERTEX
  8
LAYER_1
 10
169.4231
 20
50.7728
  0
SEQEND
  0
ENDBLK
  0
BLOCK
  8
LAYER_1
  2
AIGNBL01030024
 70
64
 10
0
 20
0
 30
0
  3
AIGNBL01030024
  0
POLYLINE
  8
LAYER_1
 40
0.05
 41
0.05
 66
1
 10
0
 20
0
 30
0
 70
1
  0
VERTEX
  8
LAYER_1
 10
171.0051
 20
50.9454
 42
-0.1041417444
  0
VERTEX
  8
LAYER_1
 10
170.9641
 20
50.728
 42
-0.1000549391
  0
VERTEX
  8
LAYER_1
 10
170.8514
 20
50.5564
 42
-0.09536478376
  0
VERTEX
  8
LAYER_1
 10
170.6805
 20
50.4434
 42
-0.09507606236
  0
VERTEX
  8
LAYER_1
 10
170.4666
 20
50.4024
 42
-0.101822328
  0
VERTEX
  8
LAYER_1
 10
170.253
 20
50.4434
 42
-0.102112669
  0
VERTEX
  8
LAYER_1
 10
170.0821
 20
50.5564
 42
-0.09442769366
  0
VERTEX
  8
LAYER_1
 10
169.9688
 20
50.728
 42
-0.0931359716
  0
VERTEX
  8
LAYER_1
 10
169.9281
 20
50.9454
 42
-0.1020962526
  0
VERTEX
  8
LAYER_1
 10
169.9688
 20
51.1628
 42
-0.1007688052
  0
VERTEX
  8
LAYER_1
 10
170.0821
 20
51.3343
 42
-0.09625543395
  0
VERTEX
  8
LAYER_1
 10
170.253
 20
51.4473
 42
-0.09528409444
  0
VERTEX
  8
LAYER_1
 10
170.4666
 20
51.4883
 42
-0.101185532
  0
VERTEX
  8
LAYER_1
 10
170.6805
 20
51.4473
 42
-0.09904343471
  0
VERTEX
  8
LAYER_1
 10
170.8514
 20
51.3343
 42
-0.09562840933
  0
VERTEX
  8
LAYER_1
 10
170.9641
 20
51.1628
 42
-0.09397287008
  0
SEQEND
  0
POLYLINE
  8
LAYER_1
 40
0.05
 41
0.05
 66
1
 10
0
 20
0
 30
0
 70
1
  0
VERTEX
  8
LAYER_1
 10
170.8941
 20
50.9447
  0
VERTEX
  8
LAYER_1
 10
170.8652
 20
51.1166
  0
VERTEX
  8
LAYER_1
 10
170.7804
 20
51.2599
  0
VERTEX
  8
LAYER_1
 10
170.6454
 20
51.3581
  0
VERTEX
  8
LAYER_1
 10
170.4666
 20
51.395
  0
VERTEX
  8
LAYER_1
 10
170.2878
 20
51.3581
  0
VERTEX
  8
LAYER_1
 10
170.1531
 20
51.2599
  0
VERTEX
  8
LAYER_1
 10
170.0684
 20
51.1166
  0
VERTEX
  8
LAYER_1
 10
170.0391
 20
50.9447
  0
VERTEX
  8
LAYER_1
 10
170.0684
 20
50.7728
  0
VERTEX
  8
LAYER_1
 10
170.1531
 20
50.6298
  0
VERTEX
  8
LAYER_1
 10
170.2878
 20
50.5323
  0
VERTEX
  8
LAYER_1
 10
170.4666
 20
50.4958
  0
VERTEX
  8
LAYER_1
 10
170.6454
 20
50.5323
  0
VERTEX
  8
LAYER_1
 10
170.7804
 20
50.6298
  0
VERTEX
  8
LAYER_1
 10
170.8652
 20
50.7728
  0
SEQEND
  0
ENDBLK
  0
BLOCK
  8
LAYER_1
  2
AIGNBL01030025
 70
64
 10
0
 20
0
 30
0
  3
AIGNBL01030025
  0
POLYLINE
  8
LAYER_1
 40
0.05
 41
0.05
 66
1
 10
0
 20
0
 30
0
 70
1
  0
VERTEX
  8
LAYER_1
 10
171.9359
 20
50.6067
  0
VERTEX
  8
LAYER_1
 10
171.9377
 20
50.6067
  0
VERTEX
  8
LAYER_1
 10
172.2832
 20
51.4618
  0
VERTEX
  8
LAYER_1
 10
172.4441
 20
51.4618
  0
VERTEX
  8
LAYER_1
 10
172.4441
 20
50.4286
  0
VERTEX
  8
LAYER_1
 10
172.3387
 20
50.4286
  0
VERTEX
  8
LAYER_1
 10
172.3387
 20
51.3261
  0
VERTEX
  8
LAYER_1
 10
172.3359
 20
51.3261
  0
VERTEX
  8
LAYER_1
 10
171.9625
 20
50.4286
  0
VERTEX
  8
LAYER_1
 10
171.907
 20
50.4286
  0
VERTEX
  8
LAYER_1
 10
171.5332
 20
51.3261
  0
VERTEX
  8
LAYER_1
 10
171.5305
 20
51.3261
  0
VERTEX
  8
LAYER_1
 10
171.5305
 20
50.4286
  0
VERTEX
  8
LAYER_1
 10
171.4254
 20
50.4286
  0
VERTEX
  8
LAYER_1
 10
171.4254
 20
51.4618
  0
VERTEX
  8
LAYER_1
 10
171.5859
 20
51.4618
  0
SEQEND
  0
ENDBLK
  0
BLOCK
  8
LAYER_1
  2
AIGNBL01030026
 70
64
 10
0
 20
0
 30
0
  3
AIGNBL01030026
  0
POLYLINE
  8
LAYER_1
 40
0.05
 41
0.05
 66
1
 10
0
 20
0
 30
0
 70
1
  0
VERTEX
  8
LAYER_1
 10
173.5906
 20
50.5223
  0
VERTEX
  8
LAYER_1
 10
174.1439
 20
50.5223
  0
VERTEX
  8
LAYER_1
 10
174.1439
 20
50.4286
  0
VERTEX
  8
LAYER_1
 10
173.4855
 20
50.4286
  0
VERTEX
  8
LAYER_1
 10
173.4855
 20
51.4618
  0
VERTEX
  8
LAYER_1
 10
174.1263
 20
51.4618
  0
VERTEX
  8
LAYER_1
 10
174.1263
 20
51.3684
  0
VERTEX
  8
LAYER_1
 10
173.5906
 20
51.3684
  0
VERTEX
  8
LAYER_1
 10
173.5906
 20
51.0139
  0
VERTEX
  8
LAYER_1
 10
174.0912
 20
51.0139
  0
VERTEX
  8
LAYER_1
 10
174.0912
 20
50.9206
  0
VERTEX
  8
LAYER_1
 10
173.5906
 20
50.9206
  0
SEQEND
  0
ENDBLK
  0
BLOCK
  8
LAYER_1
  2
AIGNBL01030027
 70
64
 10
0
 20
0
 30
0
  3
AIGNBL01030027
  0
POLYLINE
  8
LAYER_1
 40
0.05
 41
0.05
 66
1
 10
0
 20
0
 30
0
 70
1
  0
VERTEX
  8
LAYER_1
 10
174.8891
 20
51.0446
  0
VERTEX
  8
LAYER_1
 10
175.1712
 20
51.4618
  0
VERTEX
  8
LAYER_1
 10
175.2963
 20
51.4618
  0
VERTEX
  8
LAYER_1
 10
174.9538
 20
50.9702
  0
VERTEX
  8
LAYER_1
 10
175.3332
 20
50.4286
  0
VERTEX
  8
LAYER_1
 10
175.2019
 20
50.4286
  0
VERTEX
  8
LAYER_1
 10
174.8863
 20
50.8944
  0
VERTEX
  8
LAYER_1
 10
174.5728
 20
50.4286
  0
VERTEX
  8
LAYER_1
 10
174.4412
 20
50.4286
  0
VERTEX
  8
LAYER_1
 10
174.8209
 20
50.9715
  0
VERTEX
  8
LAYER_1
 10
174.475
 20
51.4618
  0
VERTEX
  8
LAYER_1
 10
174.6066
 20
51.4618
  0
SEQEND
  0
ENDBLK
  0
BLOCK
  8
LAYER_1
  2
AIGNBL01030028
 70
64
 10
0
 20
0
 30
0
  3
AIGNBL01030028
  0
POLYLINE
  8
LAYER_1
 40
0.05
 41
0.05
 66
1
 10
0
 20
0
 30
0
 70
1
  0
VERTEX
  8
LAYER_1
 10
175.6994
 20
51.4618
  0
VERTEX
  8
LAYER_1
 10
175.9915
 20
51.4618
  0
VERTEX
  8
LAYER_1
 10
176.1345
 20
51.4453
  0
VERTEX
  8
LAYER_1
 10
176.2444
 20
51.3939
  0
VERTEX
  8
LAYER_1
 10
176.3154
 20
51.3078
  0
VERTEX
  8
LAYER_1
 10
176.3398
 20
51.1862
  0
VERTEX
  8
LAYER_1
 10
176.3147
 20
51.0642
  0
VERTEX
  8
LAYER_1
 10
176.243
 20
50.9781
  0
VERTEX
  8
LAYER_1
 10
176.1321
 20
50.9264
  0
VERTEX
  8
LAYER_1
 10
175.9884
 20
50.9089
  0
VERTEX
  8
LAYER_1
 10
175.8044
 20
50.9089
  0
VERTEX
  8
LAYER_1
 10
175.8044
 20
50.4286
  0
VERTEX
  8
LAYER_1
 10
175.6994
 20
50.4286
  0
SEQEND
  0
POLYLINE
  8
LAYER_1
 40
0.05
 41
0.05
 66
1
 10
0
 20
0
 30
0
 70
1
  0
VERTEX
  8
LAYER_1
 10
175.8044
 20
50.9977
  0
VERTEX
  8
LAYER_1
 10
175.9822
 20
50.9977
 42
0.1829203509
  0
VERTEX
  8
LAYER_1
 10
176.1706
 20
51.0459
 42
0.2347011275
  0
VERTEX
  8
LAYER_1
 10
176.2351
 20
51.1862
 42
0.26486771
  0
VERTEX
  8
LAYER_1
 10
176.1686
 20
51.3271
 42
0.126412566
  0
VERTEX
  8
LAYER_1
 10
175.9822
 20
51.3715
  0
VERTEX
  8
LAYER_1
 10
175.8044
 20
51.3715
  0
SEQEND
  0
ENDBLK
  0
BLOCK
  8
LAYER_1
  2
AIGNBL01030029
 70
64
 10
0
 20
0
 30
0
  3
AIGNBL01030029
  0
POLYLINE
  8
LAYER_1
 40
0.05
 41
0.05
 66
1
 10
0
 20
0
 30
0
 70
1
  0
VERTEX
  8
LAYER_1
 10
176.8521
 20
50.5223
  0
VERTEX
  8
LAYER_1
 10
177.4054
 20
50.5223
  0
VERTEX
  8
LAYER_1
 10
177.4054
 20
50.4286
  0
VERTEX
  8
LAYER_1
 10
176.747
 20
50.4286
  0
VERTEX
  8
LAYER_1
 10
176.747
 20
51.4618
  0
VERTEX
  8
LAYER_1
 10
177.3878
 20
51.4618
  0
VERTEX
  8
LAYER_1
 10
177.3878
 20
51.3684
  0
VERTEX
  8
LAYER_1
 10
176.8521
 20
51.3684
  0
VERTEX
  8
LAYER_1
 10
176.8521
 20
51.0139
  0
VERTEX
  8
LAYER_1
 10
177.3527
 20
51.0139
  0
VERTEX
  8
LAYER_1
 10
177.3527
 20
50.9206
  0
VERTEX
  8
LAYER_1
 10
176.8521
 20
50.9206
  0
SEQEND
  0
ENDBLK
  0
BLOCK
  8
LAYER_1
  2
AIGNBL0103002A
 70
64
 10
0
 20
0
 30
0
  3
AIGNBL0103002A
  0
POLYLINE
  8
LAYER_1
 40
0.05
 41
0.05
 66
1
 10
0
 20
0
 30
0
 70
1
  0
VERTEX
  8
LAYER_1
 10
177.9173
 20
50.4286
  0
VERTEX
  8
LAYER_1
 10
177.8122
 20
50.4286
  0
VERTEX
  8
LAYER_1
 10
177.8122
 20
51.4618
  0
VERTEX
  8
LAYER_1
 10
178.1161
 20
51.4618
  0
VERTEX
  8
LAYER_1
 10
178.2567
 20
51.4473
  0
VERTEX
  8
LAYER_1
 10
178.3693
 20
51.3998
  0
VERTEX
  8
LAYER_1
 10
178.443
 20
51.3143
  0
VERTEX
  8
LAYER_1
 10
178.4689
 20
51.1862
  0
VERTEX
  8
LAYER_1
 10
178.4489
 20
51.0825
  0
VERTEX
  8
LAYER_1
 10
178.3934
 20
51.0015
  0
VERTEX
  8
LAYER_1
 10
178.3101
 20
50.9467
  0
VERTEX
  8
LAYER_1
 10
178.205
 20
50.9206
  0
VERTEX
  8
LAYER_1
 10
178.5071
 20
50.4286
  0
VERTEX
  8
LAYER_1
 10
178.3786
 20
50.4286
  0
VERTEX
  8
LAYER_1
 10
178.0927
 20
50.9116
  0
VERTEX
  8
LAYER_1
 10
177.9173
 20
50.9116
  0
SEQEND
  0
POLYLINE
  8
LAYER_1
 40
0.05
 41
0.05
 66
1
 10
0
 20
0
 30
0
 70
1
  0
VERTEX
  8
LAYER_1
 10
177.9173
 20
51.0022
  0
VERTEX
  8
LAYER_1
 10
178.0999
 20
51.0022
 42
0.1667734107
  0
VERTEX
  8
LAYER_1
 10
178.2956
 20
51.048
 42
0.2503091692
  0
VERTEX
  8
LAYER_1
 10
178.3641
 20
51.1862
  0
VERTEX
  8
LAYER_1
 10
178.3452
 20
51.272
  0
VERTEX
  8
LAYER_1
 10
178.2925
 20
51.3292
  0
VERTEX
  8
LAYER_1
 10
178.2108
 20
51.3612
  0
VERTEX
  8
LAYER_1
 10
178.1044
 20
51.3715
  0
VERTEX
  8
LAYER_1
 10
177.9173
 20
51.3715
  0
SEQEND
  0
ENDBLK
  0
BLOCK
  8
LAYER_1
  2
AIGNBL0103002B
 70
64
 10
0
 20
0
 30
0
  3
AIGNBL0103002B
  0
POLYLINE
  8
LAYER_1
 40
0.05
 41
0.05
 66
1
 10
0
 20
0
 30
0
 70
1
  0
VERTEX
  8
LAYER_1
 10
178.9929
 20
50.4286
  0
VERTEX
  8
LAYER_1
 10
178.8882
 20
50.4286
  0
VERTEX
  8
LAYER_1
 10
178.8882
 20
51.4618
  0
VERTEX
  8
LAYER_1
 10
178.9929
 20
51.4618
  0
SEQEND
  0
ENDBLK
  0
BLOCK
  8
LAYER_1
  2
AIGNBL0103002C
 70
64
 10
0
 20
0
 30
0
  3
AIGNBL0103002C
  0
POLYLINE
  8
LAYER_1
 40
0.05
 41
0.05
 66
1
 10
0
 20
0
 30
0
 70
1
  0
VERTEX
  8
LAYER_1
 10
179.5737
 20
50.5223
  0
VERTEX
  8
LAYER_1
 10
180.1267
 20
50.5223
  0
VERTEX
  8
LAYER_1
 10
180.1267
 20
50.4286
  0
VERTEX
  8
LAYER_1
 10
179.4687
 20
50.4286
  0
VERTEX
  8
LAYER_1
 10
179.4687
 20
51.4618
  0
VERTEX
  8
LAYER_1
 10
180.1094
 20
51.4618
  0
VERTEX
  8
LAYER_1
 10
180.1094
 20
51.3684
  0
VERTEX
  8
LAYER_1
 10
179.5737
 20
51.3684
  0
VERTEX
  8
LAYER_1
 10
179.5737
 20
51.0139
  0
VERTEX
  8
LAYER_1
 10
180.0743
 20
51.0139
  0
VERTEX
  8
LAYER_1
 10
180.0743
 20
50.9206
  0
VERTEX
  8
LAYER_1
 10
179.5737
 20
50.9206
  0
SEQEND
  0
ENDBLK
  0
BLOCK
  8
LAYER_1
  2
AIGNBL0103002D
 70
64
 10
0
 20
0
 30
0
  3
AIGNBL0103002D
  0
POLYLINE
  8
LAYER_1
 40
0.05
 41
0.05
 66
1
 10
0
 20
0
 30
0
 70
1
  0
VERTEX
  8
LAYER_1
 10
181.2666
 20
50.5819
  0
VERTEX
  8
LAYER_1
 10
181.2694
 20
50.5819
  0
VERTEX
  8
LAYER_1
 10
181.2694
 20
51.4618
  0
VERTEX
  8
LAYER_1
 10
181.3745
 20
51.4618
  0
VERTEX
  8
LAYER_1
 10
181.3745
 20
50.4286
  0
VERTEX
  8
LAYER_1
 10
181.2432
 20
50.4286
  0
VERTEX
  8
LAYER_1
 10
180.642
 20
51.3174
  0
VERTEX
  8
LAYER_1
 10
180.6389
 20
51.3174
  0
VERTEX
  8
LAYER_1
 10
180.6389
 20
50.4286
  0
VERTEX
  8
LAYER_1
 10
180.5339
 20
50.4286
  0
VERTEX
  8
LAYER_1
 10
180.5339
 20
51.4618
  0
VERTEX
  8
LAYER_1
 10
180.6655
 20
51.4618
  0
SEQEND
  0
ENDBLK
  0
BLOCK
  8
LAYER_1
  2
AIGNBL0103002E
 70
64
 10
0
 20
0
 30
0
  3
AIGNBL0103002E
  0
POLYLINE
  8
LAYER_1
 40
0.05
 41
0.05
 66
1
 10
0
 20
0
 30
0
 70
1
  0
VERTEX
  8
LAYER_1
 10
182.7201
 20
50.5964
  0
VERTEX
  8
LAYER_1
 10
182.6564
 20
50.522
  0
VERTEX
  8
LAYER_1
 10
182.5703
 20
50.4603
  0
VERTEX
  8
LAYER_1
 10
182.4621
 20
50.4179
  0
VERTEX
  8
LAYER_1
 10
182.3333
 20
50.4024
 42
-0.100982896
  0
VERTEX
  8
LAYER_1
 10
182.1172
 20
50.4434
 42
-0.1036559164
  0
VERTEX
  8
LAYER_1
 10
181.9467
 20
50.5564
 42
-0.09812017057
  0
VERTEX
  8
LAYER_1
 10
181.8351
 20
50.728
 42
-0.09232404316
  0
VERTEX
  8
LAYER_1
 10
181.7948
 20
50.9454
 42
-0.1039024847
  0
VERTEX
  8
LAYER_1
 10
181.8358
 20
51.1628
 42
-0.1006255151
  0
VERTEX
  8
LAYER_1
 10
181.9484
 20
51.3343
 42
-0.09509197705
  0
VERTEX
  8
LAYER_1
 10
182.1193
 20
51.4473
 42
-0.0950295922
  0
VERTEX
  8
LAYER_1
 10
182.3333
 20
51.4883
  0
VERTEX
  8
LAYER_1
 10
182.4449
 20
51.4763
  0
VERTEX
  8
LAYER_1
 10
182.5479
 20
51.4428
  0
VERTEX
  8
LAYER_1
 10
182.6354
 20
51.3912
  0
VERTEX
  8
LAYER_1
 10
182.7012
 20
51.3233
  0
VERTEX
  8
LAYER_1
 10
182.6137
 20
51.2589
  0
VERTEX
  8
LAYER_1
 10
182.5703
 20
51.3088
  0
VERTEX
  8
LAYER_1
 10
182.5069
 20
51.3526
  0
VERTEX
  8
LAYER_1
 10
182.4273
 20
51.3832
  0
VERTEX
  8
LAYER_1
 10
182.3346
 20
51.395
  0
VERTEX
  8
LAYER_1
 10
182.1544
 20
51.3584
  0
VERTEX
  8
LAYER_1
 10
182.0194
 20
51.2603
  0
VERTEX
  8
LAYER_1
 10
181.9346
 20
51.1169
  0
VERTEX
  8
LAYER_1
 10
181.9057
 20
50.9454
  0
VERTEX
  8
LAYER_1
 10
181.9357
 20
50.7738
  0
VERTEX
  8
LAYER_1
 10
182.0211
 20
50.6305
  0
VERTEX
  8
LAYER_1
 10
182.1562
 20
50.5323
 42
0.1010490553
  0
VERTEX
  8
LAYER_1
 10
182.3346
 20
50.4958
  0
VERTEX
  8
LAYER_1
 10
182.5038
 20
50.5323
 42
0.1324826472
  0
VERTEX
  8
LAYER_1
 10
182.6381
 20
50.6491
  0
SEQEND
  0
ENDBLK
  0
BLOCK
  8
LAYER_1
  2
AIGNBL0103002F
 70
64
 10
0
 20
0
 30
0
  3
AIGNBL0103002F
  0
POLYLINE
  8
LAYER_1
 40
0.05
 41
0.05
 66
1
 10
0
 20
0
 30
0
 70
1
  0
VERTEX
  8
LAYER_1
 10
183.2073
 20
50.5223
  0
VERTEX
  8
LAYER_1
 10
183.7606
 20
50.5223
  0
VERTEX
  8
LAYER_1
 10
183.7606
 20
50.4286
  0
VERTEX
  8
LAYER_1
 10
183.1022
 20
50.4286
  0
VERTEX
  8
LAYER_1
 10
183.1022
 20
51.4618
  0
VERTEX
  8
LAYER_1
 10
183.743
 20
51.4618
  0
VERTEX
  8
LAYER_1
 10
183.743
 20
51.3684
  0
VERTEX
  8
LAYER_1
 10
183.2073
 20
51.3684
  0
VERTEX
  8
LAYER_1
 10
183.2073
 20
51.0139
  0
VERTEX
  8
LAYER_1
 10
183.7078
 20
51.0139
  0
VERTEX
  8
LAYER_1
 10
183.7078
 20
50.9206
  0
VERTEX
  8
LAYER_1
 10
183.2073
 20
50.9206
  0
SEQEND
  0
ENDBLK
  0
BLOCK
  8
LAYER_1
  2
AIGNBL01020004
 70
64
 10
0
 20
0
 30
0
  3
AIGNBL01020004
  0
POLYLINE
  8
LAYER_1
 40
0.05
 41
0.05
 66
1
 10
0
 20
0
 30
0
 70
1
  0
VERTEX
  8
LAYER_1
 10
112.5469
 20
195.0763
  0
VERTEX
  8
LAYER_1
 10
111.8854
 20
195.0763
  0
VERTEX
  8
LAYER_1
 10
111.8854
 20
194.7059
  0
VERTEX
  8
LAYER_1
 10
112.5469
 20
194.7059
  0
SEQEND
  0
ENDBLK
  0
BLOCK
  8
LAYER_1
  2
AIGNBL01020005
 70
64
 10
0
 20
0
 30
0
  3
AIGNBL01020005
  0
POLYLINE
  8
LAYER_1
 40
0.0847
 41
0.0847
 66
1
 10
0
 20
0
 30
0
 70
1
  0
VERTEX
  8
LAYER_1
 10
112.5469
 20
195.0763
  0
VERTEX
  8
LAYER_1
 10
111.8854
 20
195.0763
  0
VERTEX
  8
LAYER_1
 10
111.8854
 20
194.7059
  0
VERTEX
  8
LAYER_1
 10
112.5469
 20
194.7059
  0
SEQEND
  0
ENDBLK
  0
BLOCK
  8
LAYER_1
  2
AIGNBL01020006
 70
64
 10
0
 20
0
 30
0
  3
AIGNBL01020006
  0
POLYLINE
  8
LAYER_1
 40
0.05
 41
0.05
 66
1
 10
0
 20
0
 30
0
 70
1
  0
VERTEX
  8
LAYER_1
 10
99.3971
 20
195.0763
  0
VERTEX
  8
LAYER_1
 10
98.7356
 20
195.0763
  0
VERTEX
  8
LAYER_1
 10
98.7356
 20
194.7059
  0
VERTEX
  8
LAYER_1
 10
99.3971
 20
194.7059
  0
SEQEND
  0
ENDBLK
  0
BLOCK
  8
LAYER_1
  2
AIGNBL01020007
 70
64
 10
0
 20
0
 30
0
  3
AIGNBL01020007
  0
POLYLINE
  8
LAYER_1
 40
0.0847
 41
0.0847
 66
1
 10
0
 20
0
 30
0
 70
1
  0
VERTEX
  8
LAYER_1
 10
99.3971
 20
195.0763
  0
VERTEX
  8
LAYER_1
 10
98.7356
 20
195.0763
  0
VERTEX
  8
LAYER_1
 10
98.7356
 20
194.7059
  0
VERTEX
  8
LAYER_1
 10
99.3971
 20
194.7059
  0
SEQEND
  0
ENDBLK
  0
BLOCK
  8
LAYER_1
  2
AIGNBL01020008
 70
64
 10
0
 20
0
 30
0
  3
AIGNBL01020008
  0
POLYLINE
  8
LAYER_1
 40
0.05
 41
0.05
 66
1
 10
0
 20
0
 30
0
 70
1
  0
VERTEX
  8
LAYER_1
 10
96.275
 20
192.9596
  0
VERTEX
  8
LAYER_1
 10
95.6136
 20
192.9596
  0
VERTEX
  8
LAYER_1
 10
95.6136
 20
192.5892
  0
VERTEX
  8
LAYER_1
 10
96.275
 20
192.5892
  0
SEQEND
  0
ENDBLK
  0
BLOCK
  8
LAYER_1
  2
AIGNBL01020009
 70
64
 10
0
 20
0
 30
0
  3
AIGNBL01020009
  0
POLYLINE
  8
LAYER_1
 40
0.0847
 41
0.0847
 66
1
 10
0
 20
0
 30
0
 70
1
  0
VERTEX
  8
LAYER_1
 10
96.275
 20
192.9596
  0
VERTEX
  8
LAYER_1
 10
95.6136
 20
192.9596
  0
VERTEX
  8
LAYER_1
 10
95.6136
 20
192.5892
  0
VERTEX
  8
LAYER_1
 10
96.275
 20
192.5892
  0
SEQEND
  0
ENDBLK
  0
BLOCK
  8
LAYER_1
  2
AIGNBL0102000A
 70
64
 10
0
 20
0
 30
0
  3
AIGNBL0102000A
  0
POLYLINE
  8
LAYER_1
 40
0.05
 41
0.05
 66
1
 10
0
 20
0
 30
0
 70
1
  0
VERTEX
  8
LAYER_1
 10
115.7219
 20
192.9596
  0
VERTEX
  8
LAYER_1
 10
115.0075
 20
192.9596
  0
VERTEX
  8
LAYER_1
 10
115.0075
 20
192.5892
  0
VERTEX
  8
LAYER_1
 10
115.7219
 20
192.5892
  0
SEQEND
  0
ENDBLK
  0
BLOCK
  8
LAYER_1
  2
AIGNBL0102000B
 70
64
 10
0
 20
0
 30
0
  3
AIGNBL0102000B
  0
POLYLINE
  8
LAYER_1
 40
0.0847
 41
0.0847
 66
1
 10
0
 20
0
 30
0
 70
1
  0
VERTEX
  8
LAYER_1
 10
115.7219
 20
192.9596
  0
VERTEX
  8
LAYER_1
 10
115.0075
 20
192.9596
  0
VERTEX
  8
LAYER_1
 10
115.0075
 20
192.5892
  0
VERTEX
  8
LAYER_1
 10
115.7219
 20
192.5892
  0
SEQEND
  0
ENDBLK
  0
BLOCK
  8
LAYER_1
  2
AIGNBL0102000C
 70
64
 10
0
 20
0
 30
0
  3
AIGNBL0102000C
  0
POLYLINE
  8
LAYER_1
 40
0.05
 41
0.05
 66
1
 10
0
 20
0
 30
0
 70
1
  0
VERTEX
  8
LAYER_1
 10
111.8854
 20
190.7107
  0
VERTEX
  8
LAYER_1
 10
99.3971
 20
190.7107
  0
VERTEX
  8
LAYER_1
 10
99.3971
 20
190.5784
  0
VERTEX
  8
LAYER_1
 10
111.8854
 20
190.5784
  0
SEQEND
  0
ENDBLK
  0
BLOCK
  8
LAYER_1
  2
AIGNBL0102000D
 70
64
 10
0
 20
0
 30
0
  3
AIGNBL0102000D
  0
POLYLINE
  8
LAYER_1
 40
0.0847
 41
0.0847
 66
1
 10
0
 20
0
 30
0
 70
1
  0
VERTEX
  8
LAYER_1
 10
111.8854
 20
190.7107
  0
VERTEX
  8
LAYER_1
 10
99.3971
 20
190.7107
  0
VERTEX
  8
LAYER_1
 10
99.3971
 20
190.5784
  0
VERTEX
  8
LAYER_1
 10
111.8854
 20
190.5784
  0
SEQEND
  0
ENDBLK
  0
BLOCK
  8
LAYER_1
  2
AIGNBL0102000F
 70
64
 10
0
 20
0
 30
0
  3
AIGNBL0102000F
  0
INSERT
  8
LAYER_1
  2
AIGNBL01030010
 10
0
 20
0
 30
0
  0
ENDBLK
  0
BLOCK
  8
LAYER_1
  2
AIGNBL01020018
 70
64
 10
0
 20
0
 30
0
  3
AIGNBL01020018
  0
INSERT
  8
LAYER_1
  2
AIGNBL01030019
 10
0
 20
0
 30
0
  0
INSERT
  8
LAYER_1
  2
AIGNBL0103001A
 10
0
 20
0
 30
0
  0
INSERT
  8
LAYER_1
  2
AIGNBL0103001B
 10
0
 20
0
 30
0
  0
INSERT
  8
LAYER_1
  2
AIGNBL0103001C
 10
0
 20
0
 30
0
  0
INSERT
  8
LAYER_1
  2
AIGNBL0103001D
 10
0
 20
0
 30
0
  0
INSERT
  8
LAYER_1
  2
AIGNBL0103001E
 10
0
 20
0
 30
0
  0
INSERT
  8
LAYER_1
  2
AIGNBL0103001F
 10
0
 20
0
 30
0
  0
INSERT
  8
LAYER_1
  2
AIGNBL01030020
 10
0
 20
0
 30
0
  0
INSERT
  8
LAYER_1
  2
AIGNBL01030021
 10
0
 20
0
 30
0
  0
INSERT
  8
LAYER_1
  2
AIGNBL01030022
 10
0
 20
0
 30
0
  0
INSERT
  8
LAYER_1
  2
AIGNBL01030023
 10
0
 20
0
 30
0
  0
INSERT
  8
LAYER_1
  2
AIGNBL01030024
 10
0
 20
0
 30
0
  0
INSERT
  8
LAYER_1
  2
AIGNBL01030025
 10
0
 20
0
 30
0
  0
INSERT
  8
LAYER_1
  2
AIGNBL01030026
 10
0
 20
0
 30
0
  0
INSERT
  8
LAYER_1
  2
AIGNBL01030027
 10
0
 20
0
 30
0
  0
INSERT
  8
LAYER_1
  2
AIGNBL01030028
 10
0
 20
0
 30
0
  0
INSERT
  8
LAYER_1
  2
AIGNBL01030029
 10
0
 20
0
 30
0
  0
INSERT
  8
LAYER_1
  2
AIGNBL0103002A
 10
0
 20
0
 30
0
  0
INSERT
  8
LAYER_1
  2
AIGNBL0103002B
 10
0
 20
0
 30
0
  0
INSERT
  8
LAYER_1
  2
AIGNBL0103002C
 10
0
 20
0
 30
0
  0
INSERT
  8
LAYER_1
  2
AIGNBL0103002D
 10
0
 20
0
 30
0
  0
INSERT
  8
LAYER_1
  2
AIGNBL0103002E
 10
0
 20
0
 30
0
  0
INSERT
  8
LAYER_1
  2
AIGNBL0103002F
 10
0
 20
0
 30
0
  0
ENDBLK
  0
BLOCK
  8
LAYER_1
  2
AIGNBL01010002
 70
64
 10
0
 20
0
 30
0
  3
AIGNBL01010002
  0
TEXT
  8
LAYER_1
 10
142.9991
 20
115.849
 11
142.9991
 21
115.849
 40
3.6606
 41
0.5
  1
üªôVö┬î·ü@15025å@æ╬ë×
  0
POLYLINE
  8
LAYER_1
 40
0.1693
 41
0.1693
 66
1
 10
0
 20
0
 30
0
  0
VERTEX
  8
LAYER_1
 10
28.4026
 20
114.219
  0
VERTEX
  8
LAYER_1
 10
181.7763
 20
114.219
  0
SEQEND
  0
TEXT
  8
LAYER_1
 10
47.7913
 20
72.9228
 11
47.7913
 21
72.9228
 40
3.1022
 41
0.5
  1
üEörÉàâgâëâbâv
  0
TEXT
  8
LAYER_1
 10
47.7913
 20
97.8997
 11
47.7913
 21
97.8997
 40
3.6606
 41
0.5
  1
üEäOâèâôâOü~2üiô¹öÆüEìò èe1üj
  0
TEXT
  8
LAYER_1
 10
48.13
 20
107.742
 11
48.13
 21
107.742
 40
3.1022
 41
0.5
  1
üyâZâbâgôÓùeüz
  0
TEXT
  8
LAYER_1
 10
47.7913
 20
62.911
 11
47.7913
 21
62.911
 40
3.6606
 41
0.5
  1
üEörÉàâgâëâbâvüiSâgâëâbâvé▄é¢é═Pâgâëâbâvé▄é¢é═â{âgâïâëâbâvüj
  0
TEXT
  8
LAYER_1
 10
47.7913
 20
92.9043
 11
47.7913
 21
92.9043
 40
3.6606
 41
0.5
  1
üEMimi âVâèü[âYü@örÉàÉ­üiörÉàû┌ÄMüjüi70å@üj
  0
TEXT
  8
LAYER_1
 10
47.7913
 20
102.8947
 11
47.7913
 21
102.8947
 40
3.6606
 41
0.5
  1
üESUS304 MimiâXâNâGâAùpâ}âEâôâeâBâôâOâfâBâXâN
  0
TEXT
  8
LAYER_1
 10
47.7913
 20
67.9063
 11
47.7913
 21
67.9063
 40
3.1022
 41
0.5
  1
üEë╗Å¤âLâââbâvâXâNâGâAüiâNâìâÇüj
  0
TEXT
  8
LAYER_1
 10
47.7913
 20
87.9089
 11
47.7913
 21
87.9089
 40
3.1022
 41
0.5
  1
üEörÉàâpâbâLâôüiâXâ|âôâWâpâbâLâôüEÄOèpâpâbâLâôüEâXâèâbâvâpâbâLâôüj
  0
TEXT
  8
LAYER_1
 10
47.7913
 20
82.9135
 11
47.7913
 21
82.9135
 40
3.6606
 41
0.5
  1
üEörÉàû┌ÄMùpâiâbâgü~2
  0
TEXT
  8
LAYER_1
 10
47.7913
 20
77.9181
 11
47.7913
 21
77.9181
 40
3.1022
 41
0.5
  1
üEâ{âEâïî┼ÆÞö┬üiâoâbâNâvâîü[âgüj
  0
ENDBLK
  0
BLOCK
  8
LAYER_1
  2
AIGNBL01010003
 70
64
 10
0
 20
0
 30
0
  3
AIGNBL01010003
  0
INSERT
  8
LAYER_1
  2
AIGNBL01020004
 10
0
 20
0
 30
0
  0
INSERT
  8
LAYER_1
  2
AIGNBL01020005
 10
0
 20
0
 30
0
  0
INSERT
  8
LAYER_1
  2
AIGNBL01020006
 10
0
 20
0
 30
0
  0
INSERT
  8
LAYER_1
  2
AIGNBL01020007
 10
0
 20
0
 30
0
  0
INSERT
  8
LAYER_1
  2
AIGNBL01020008
 10
0
 20
0
 30
0
  0
INSERT
  8
LAYER_1
  2
AIGNBL01020009
 10
0
 20
0
 30
0
  0
INSERT
  8
LAYER_1
  2
AIGNBL0102000A
 10
0
 20
0
 30
0
  0
INSERT
  8
LAYER_1
  2
AIGNBL0102000B
 10
0
 20
0
 30
0
  0
INSERT
  8
LAYER_1
  2
AIGNBL0102000C
 10
0
 20
0
 30
0
  0
INSERT
  8
LAYER_1
  2
AIGNBL0102000D
 10
0
 20
0
 30
0
  0
POLYLINE
  8
LAYER_1
 40
0.254
 41
0.254
 66
1
 10
0
 20
0
 30
0
  0
VERTEX
  8
LAYER_1
 10
16.7413
 20
192.5892
  0
VERTEX
  8
LAYER_1
 10
97.545
 20
192.5892
  0
SEQEND
  0
POLYLINE
  8
LAYER_1
 40
0.0847
 41
0.0847
 66
1
 10
0
 20
0
 30
0
  0
VERTEX
  8
LAYER_1
 10
16.7413
 20
192.5892
  0
VERTEX
  8
LAYER_1
 10
16.9794
 20
192.2453
  0
VERTEX
  8
LAYER_1
 10
17.3498
 20
191.6896
  0
VERTEX
  8
LAYER_1
 10
17.6938
 20
191.1076
  0
VERTEX
  8
LAYER_1
 10
17.9848
 20
190.5519
  0
VERTEX
  8
LAYER_1
 10
18.1965
 20
189.9699
  0
VERTEX
  8
LAYER_1
 10
18.3288
 20
189.4142
  0
VERTEX
  8
LAYER_1
 10
18.3552
 20
189.0703
  0
VERTEX
  8
LAYER_1
 10
18.3288
 20
188.7528
  0
VERTEX
  8
LAYER_1
 10
18.1965
 20
188.1707
  0
VERTEX
  8
LAYER_1
 10
17.9848
 20
187.6151
  0
VERTEX
  8
LAYER_1
 10
17.6938
 20
187.033
  0
VERTEX
  8
LAYER_1
 10
17.3498
 20
186.4509
  0
SEQEND
  0
POLYLINE
  8
LAYER_1
 40
0.0847
 41
0.0847
 66
1
 10
0
 20
0
 30
0
  0
VERTEX
  8
LAYER_1
 10
17.6938
 20
187.033
  0
VERTEX
  8
LAYER_1
 10
17.3498
 20
186.4509
  0
SEQEND
  0
POLYLINE
  8
LAYER_1
 40
0.0847
 41
0.0847
 66
1
 10
0
 20
0
 30
0
  0
VERTEX
  8
LAYER_1
 10
17.9848
 20
187.6151
  0
VERTEX
  8
LAYER_1
 10
17.6938
 20
187.033
  0
SEQEND
  0
POLYLINE
  8
LAYER_1
 40
0.0847
 41
0.0847
 66
1
 10
0
 20
0
 30
0
  0
VERTEX
  8
LAYER_1
 10
18.1965
 20
188.1707
  0
VERTEX
  8
LAYER_1
 10
17.9848
 20
187.6151
  0
SEQEND
  0
POLYLINE
  8
LAYER_1
 40
0.0847
 41
0.0847
 66
1
 10
0
 20
0
 30
0
  0
VERTEX
  8
LAYER_1
 10
18.3288
 20
188.7528
  0
VERTEX
  8
LAYER_1
 10
18.1965
 20
188.1707
  0
SEQEND
  0
POLYLINE
  8
LAYER_1
 40
0.0847
 41
0.0847
 66
1
 10
0
 20
0
 30
0
  0
VERTEX
  8
LAYER_1
 10
18.3552
 20
189.0703
  0
VERTEX
  8
LAYER_1
 10
18.3288
 20
188.7528
  0
SEQEND
  0
POLYLINE
  8
LAYER_1
 40
0.0847
 41
0.0847
 66
1
 10
0
 20
0
 30
0
  0
VERTEX
  8
LAYER_1
 10
18.3288
 20
189.4143
  0
VERTEX
  8
LAYER_1
 10
18.3552
 20
189.0703
  0
SEQEND
  0
POLYLINE
  8
LAYER_1
 40
0.0847
 41
0.0847
 66
1
 10
0
 20
0
 30
0
  0
VERTEX
  8
LAYER_1
 10
18.1965
 20
189.9699
  0
VERTEX
  8
LAYER_1
 10
18.3288
 20
189.4143
  0
SEQEND
  0
POLYLINE
  8
LAYER_1
 40
0.0847
 41
0.0847
 66
1
 10
0
 20
0
 30
0
  0
VERTEX
  8
LAYER_1
 10
17.9848
 20
190.552
  0
VERTEX
  8
LAYER_1
 10
18.1965
 20
189.9699
  0
SEQEND
  0
POLYLINE
  8
LAYER_1
 40
0.0847
 41
0.0847
 66
1
 10
0
 20
0
 30
0
  0
VERTEX
  8
LAYER_1
 10
17.6938
 20
191.1076
  0
VERTEX
  8
LAYER_1
 10
17.9848
 20
190.552
  0
SEQEND
  0
POLYLINE
  8
LAYER_1
 40
0.0847
 41
0.0847
 66
1
 10
0
 20
0
 30
0
  0
VERTEX
  8
LAYER_1
 10
17.3498
 20
191.6897
  0
VERTEX
  8
LAYER_1
 10
17.6938
 20
191.1076
  0
SEQEND
  0
POLYLINE
  8
LAYER_1
 40
0.0847
 41
0.0847
 66
1
 10
0
 20
0
 30
0
  0
VERTEX
  8
LAYER_1
 10
16.9794
 20
192.2453
  0
VERTEX
  8
LAYER_1
 10
17.3498
 20
191.6897
  0
SEQEND
  0
POLYLINE
  8
LAYER_1
 40
0.0847
 41
0.0847
 66
1
 10
0
 20
0
 30
0
  0
VERTEX
  8
LAYER_1
 10
16.7413
 20
192.5893
  0
VERTEX
  8
LAYER_1
 10
16.9794
 20
192.2453
  0
SEQEND
  0
POLYLINE
  8
LAYER_1
 40
0.254
 41
0.254
 66
1
 10
0
 20
0
 30
0
  0
VERTEX
  8
LAYER_1
 10
97.545
 20
186.3451
  0
VERTEX
  8
LAYER_1
 10
97.545
 20
192.5892
  0
SEQEND
  0
POLYLINE
  8
LAYER_1
 40
0.0847
 41
0.0847
 66
1
 10
0
 20
0
 30
0
  0
VERTEX
  8
LAYER_1
 10
193.5888
 20
187.033
  0
VERTEX
  8
LAYER_1
 10
193.9327
 20
186.4509
  0
SEQEND
  0
POLYLINE
  8
LAYER_1
 40
0.1693
 41
0.1693
 66
1
 10
0
 20
0
 30
0
  0
VERTEX
  8
LAYER_1
 10
70.6634
 20
220.0794
  0
VERTEX
  8
LAYER_1
 10
140.6192
 20
220.0794
  0
SEQEND
  0
POLYLINE
  8
LAYER_1
 40
0.0847
 41
0.0847
 66
1
 10
0
 20
0
 30
0
  0
VERTEX
  8
LAYER_1
 10
107.8108
 20
157.3996
  0
VERTEX
  8
LAYER_1
 10
107.8902
 20
157.3996
  0
SEQEND
  0
POLYLINE
  8
LAYER_1
 40
0.0847
 41
0.0847
 66
1
 10
0
 20
0
 30
0
  0
VERTEX
  8
LAYER_1
 10
108.049
 20
157.4526
  0
VERTEX
  8
LAYER_1
 10
108.1283
 20
157.479
  0
SEQEND
  0
POLYLINE
  8
LAYER_1
 40
0.0847
 41
0.0847
 66
1
 10
0
 20
0
 30
0
  0
VERTEX
  8
LAYER_1
 10
107.4404
 20
157.3996
  0
VERTEX
  8
LAYER_1
 10
107.4669
 20
157.3996
  0
SEQEND
  0
POLYLINE
  8
LAYER_1
 40
0.0847
 41
0.0847
 66
1
 10
0
 20
0
 30
0
  0
VERTEX
  8
LAYER_1
 10
107.5727
 20
157.3996
  0
VERTEX
  8
LAYER_1
 10
107.6256
 20
157.3732
  0
VERTEX
  8
LAYER_1
 10
107.6521
 20
157.3732
  0
SEQEND
  0
POLYLINE
  8
LAYER_1
 40
0.0847
 41
0.0847
 66
1
 10
0
 20
0
 30
0
  0
VERTEX
  8
LAYER_1
 10
107.7579
 20
157.3732
  0
VERTEX
  8
LAYER_1
 10
107.8108
 20
157.3996
  0
SEQEND
  0
POLYLINE
  8
LAYER_1
 40
0.0847
 41
0.0847
 66
1
 10
0
 20
0
 30
0
  0
VERTEX
  8
LAYER_1
 10
102.8102
 20
159.5957
  0
VERTEX
  8
LAYER_1
 10
102.8896
 20
159.6221
  0
SEQEND
  0
POLYLINE
  8
LAYER_1
 40
0.0847
 41
0.0847
 66
1
 10
0
 20
0
 30
0
  0
VERTEX
  8
LAYER_1
 10
103.0484
 20
159.7015
  0
VERTEX
  8
LAYER_1
 10
103.1542
 20
159.7544
  0
VERTEX
  8
LAYER_1
 10
103.2336
 20
159.7809
  0
SEQEND
  0
POLYLINE
  8
LAYER_1
 40
0.0847
 41
0.0847
 66
1
 10
0
 20
0
 30
0
  0
VERTEX
  8
LAYER_1
 10
103.3923
 20
159.8338
  0
VERTEX
  8
LAYER_1
 10
103.4717
 20
159.8602
  0
VERTEX
  8
LAYER_1
 10
103.4981
 20
159.8602
  0
SEQEND
  0
POLYLINE
  8
LAYER_1
 40
0.0847
 41
0.0847
 66
1
 10
0
 20
0
 30
0
  0
VERTEX
  8
LAYER_1
 10
103.604
 20
159.8602
  0
VERTEX
  8
LAYER_1
 10
103.6569
 20
159.8867
  0
VERTEX
  8
LAYER_1
 10
103.6834
 20
159.8867
  0
SEQEND
  0
POLYLINE
  8
LAYER_1
 40
0.0847
 41
0.0847
 66
1
 10
0
 20
0
 30
0
  0
VERTEX
  8
LAYER_1
 10
103.7892
 20
159.8867
  0
VERTEX
  8
LAYER_1
 10
103.8421
 20
159.8602
  0
VERTEX
  8
LAYER_1
 10
103.9215
 20
159.8338
  0
SEQEND
  0
POLYLINE
  8
LAYER_1
 40
0.0847
 41
0.0847
 66
1
 10
0
 20
0
 30
0
  0
VERTEX
  8
LAYER_1
 10
104.0802
 20
159.7809
  0
VERTEX
  8
LAYER_1
 10
104.1596
 20
159.7544
  0
VERTEX
  8
LAYER_1
 10
104.239
 20
159.7279
  0
SEQEND
  0
POLYLINE
  8
LAYER_1
 40
0.0847
 41
0.0847
 66
1
 10
0
 20
0
 30
0
  0
VERTEX
  8
LAYER_1
 10
104.3977
 20
159.6486
  0
VERTEX
  8
LAYER_1
 10
104.5036
 20
159.5956
  0
VERTEX
  8
LAYER_1
 10
104.5829
 20
159.5427
  0
SEQEND
  0
POLYLINE
  8
LAYER_1
 40
0.0847
 41
0.0847
 66
1
 10
0
 20
0
 30
0
  0
VERTEX
  8
LAYER_1
 10
104.7417
 20
159.4369
  0
VERTEX
  8
LAYER_1
 10
104.8211
 20
159.3575
  0
VERTEX
  8
LAYER_1
 10
104.9004
 20
159.3046
  0
SEQEND
  0
POLYLINE
  8
LAYER_1
 40
0.0847
 41
0.0847
 66
1
 10
0
 20
0
 30
0
  0
VERTEX
  8
LAYER_1
 10
105.0592
 20
159.1724
  0
VERTEX
  8
LAYER_1
 10
105.1386
 20
159.093
  0
VERTEX
  8
LAYER_1
 10
105.2179
 20
159.04
  0
SEQEND
  0
POLYLINE
  8
LAYER_1
 40
0.0847
 41
0.0847
 66
1
 10
0
 20
0
 30
0
  0
VERTEX
  8
LAYER_1
 10
105.3767
 20
158.8813
  0
VERTEX
  8
LAYER_1
 10
105.4561
 20
158.8019
  0
VERTEX
  8
LAYER_1
 10
105.5354
 20
158.7226
  0
SEQEND
  0
POLYLINE
  8
LAYER_1
 40
0.0847
 41
0.0847
 66
1
 10
0
 20
0
 30
0
  0
VERTEX
  8
LAYER_1
 10
105.7207
 20
158.5638
  0
VERTEX
  8
LAYER_1
 10
105.8265
 20
158.458
  0
VERTEX
  8
LAYER_1
 10
105.9059
 20
158.4051
  0
SEQEND
  0
POLYLINE
  8
LAYER_1
 40
0.0847
 41
0.0847
 66
1
 10
0
 20
0
 30
0
  0
VERTEX
  8
LAYER_1
 10
106.0646
 20
158.2464
  0
VERTEX
  8
LAYER_1
 10
106.144
 20
158.167
  0
VERTEX
  8
LAYER_1
 10
106.2234
 20
158.114
  0
SEQEND
  0
POLYLINE
  8
LAYER_1
 40
0.0847
 41
0.0847
 66
1
 10
0
 20
0
 30
0
  0
VERTEX
  8
LAYER_1
 10
106.3821
 20
157.9818
  0
VERTEX
  8
LAYER_1
 10
106.4615
 20
157.9024
  0
VERTEX
  8
LAYER_1
 10
106.5409
 20
157.8495
  0
SEQEND
  0
POLYLINE
  8
LAYER_1
 40
0.0847
 41
0.0847
 66
1
 10
0
 20
0
 30
0
  0
VERTEX
  8
LAYER_1
 10
106.6996
 20
157.7437
  0
VERTEX
  8
LAYER_1
 10
106.779
 20
157.6643
  0
VERTEX
  8
LAYER_1
 10
106.8584
 20
157.6378
  0
SEQEND
  0
POLYLINE
  8
LAYER_1
 40
0.0847
 41
0.0847
 66
1
 10
0
 20
0
 30
0
  0
VERTEX
  8
LAYER_1
 10
107.0171
 20
157.532
  0
VERTEX
  8
LAYER_1
 10
107.1229
 20
157.4791
  0
VERTEX
  8
LAYER_1
 10
107.2023
 20
157.4791
  0
SEQEND
  0
POLYLINE
  8
LAYER_1
 40
0.0847
 41
0.0847
 66
1
 10
0
 20
0
 30
0
  0
VERTEX
  8
LAYER_1
 10
107.3611
 20
157.4262
  0
VERTEX
  8
LAYER_1
 10
107.4404
 20
157.3997
  0
SEQEND
  0
POLYLINE
  8
LAYER_1
 40
0.0847
 41
0.0847
 66
1
 10
0
 20
0
 30
0
  0
VERTEX
  8
LAYER_1
 10
102.5192
 20
159.3841
  0
VERTEX
  8
LAYER_1
 10
102.5721
 20
159.437
  0
SEQEND
  0
POLYLINE
  8
LAYER_1
 40
0.0847
 41
0.0847
 66
1
 10
0
 20
0
 30
0
  0
VERTEX
  8
LAYER_1
 10
102.7309
 20
159.5428
  0
VERTEX
  8
LAYER_1
 10
102.8102
 20
159.5958
  0
SEQEND
  0
POLYLINE
  8
LAYER_1
 40
0.0847
 41
0.0847
 66
1
 10
0
 20
0
 30
0
  0
VERTEX
  8
LAYER_1
 10
108.1284
 20
157.4791
  0
VERTEX
  8
LAYER_1
 10
108.2077
 20
157.5055
  0
SEQEND
  0
POLYLINE
  8
LAYER_1
 40
0.0847
 41
0.0847
 66
1
 10
0
 20
0
 30
0
  0
VERTEX
  8
LAYER_1
 10
108.3665
 20
157.6114
  0
VERTEX
  8
LAYER_1
 10
108.4723
 20
157.6643
  0
VERTEX
  8
LAYER_1
 10
108.5252
 20
157.7172
  0
SEQEND
  0
POLYLINE
  8
LAYER_1
 40
0.0847
 41
0.0847
 66
1
 10
0
 20
0
 30
0
  0
VERTEX
  8
LAYER_1
 10
108.684
 20
157.823
  0
VERTEX
  8
LAYER_1
 10
108.7634
 20
157.8759
  0
SEQEND
  0
POLYLINE
  8
LAYER_1
 40
0.0847
 41
0.0847
 66
1
 10
0
 20
0
 30
0
  0
VERTEX
  8
LAYER_1
 10
199.7536
 20
192.5893
  0
VERTEX
  8
LAYER_1
 10
206.5269
 20
192.5893
  0
SEQEND
  0
POLYLINE
  8
LAYER_1
 40
0.0847
 41
0.0847
 66
1
 10
0
 20
0
 30
0
  0
VERTEX
  8
LAYER_1
 10
107.1494
 20
201.2676
  0
VERTEX
  8
LAYER_1
 10
127.39
 20
224.9743
  0
SEQEND
  0
TEXT
  8
LAYER_1
 10
157.9495
 20
205.4484
 11
157.9495
 21
205.4484
 40
3.2224
 41
0.5
  1
âXâ|âôâWâpâbâLâô
  0
POLYLINE
  8
LAYER_1
 40
0.0847
 41
0.0847
 66
1
 10
0
 20
0
 30
0
  0
VERTEX
  8
LAYER_1
 10
117.3623
 20
193.0655
  0
VERTEX
  8
LAYER_1
 10
158.5315
 20
202.0084
  0
SEQEND
  0
TEXT
  8
LAYER_1
 10
158.3994
 20
201.0559
 11
158.3994
 21
201.0559
 40
3.2224
 41
0.5
  1
â}âEâôâeâBâôâOâfâBâXâN
  0
POLYLINE
  8
LAYER_1
 40
0.0847
 41
0.0847
 66
1
 10
0
 20
0
 30
0
  0
VERTEX
  8
LAYER_1
 10
105.6413
 20
149.1447
  0
VERTEX
  8
LAYER_1
 10
105.6413
 20
152.0021
  0
SEQEND
  0
POLYLINE
  8
LAYER_1
 40
0.0847
 41
0.0847
 66
1
 10
0
 20
0
 30
0
  0
VERTEX
  8
LAYER_1
 10
105.6413
 20
153.1663
  0
VERTEX
  8
LAYER_1
 10
105.6413
 20
154.304
  0
SEQEND
  0
POLYLINE
  8
LAYER_1
 40
0.0847
 41
0.0847
 66
1
 10
0
 20
0
 30
0
  0
VERTEX
  8
LAYER_1
 10
105.6413
 20
155.4682
  0
VERTEX
  8
LAYER_1
 10
105.6413
 20
161.2361
  0
SEQEND
  0
POLYLINE
  8
LAYER_1
 40
0.0847
 41
0.0847
 66
1
 10
0
 20
0
 30
0
  0
VERTEX
  8
LAYER_1
 10
105.6413
 20
162.3738
  0
VERTEX
  8
LAYER_1
 10
105.6413
 20
163.5379
  0
SEQEND
  0
POLYLINE
  8
LAYER_1
 40
0.0847
 41
0.0847
 66
1
 10
0
 20
0
 30
0
  0
VERTEX
  8
LAYER_1
 10
105.6413
 20
164.6757
  0
VERTEX
  8
LAYER_1
 10
105.6413
 20
170.4436
  0
SEQEND
  0
POLYLINE
  8
LAYER_1
 40
0.0847
 41
0.0847
 66
1
 10
0
 20
0
 30
0
  0
VERTEX
  8
LAYER_1
 10
105.6413
 20
171.5813
  0
VERTEX
  8
LAYER_1
 10
105.6413
 20
172.7454
  0
SEQEND
  0
POLYLINE
  8
LAYER_1
 40
0.0847
 41
0.0847
 66
1
 10
0
 20
0
 30
0
  0
VERTEX
  8
LAYER_1
 10
105.6413
 20
173.8831
  0
VERTEX
  8
LAYER_1
 10
105.6413
 20
179.651
  0
SEQEND
  0
POLYLINE
  8
LAYER_1
 40
0.0847
 41
0.0847
 66
1
 10
0
 20
0
 30
0
  0
VERTEX
  8
LAYER_1
 10
105.6413
 20
180.8152
  0
VERTEX
  8
LAYER_1
 10
105.6413
 20
181.9529
  0
SEQEND
  0
POLYLINE
  8
LAYER_1
 40
0.0847
 41
0.0847
 66
1
 10
0
 20
0
 30
0
  0
VERTEX
  8
LAYER_1
 10
105.6413
 20
183.1171
  0
VERTEX
  8
LAYER_1
 10
105.6413
 20
188.8585
  0
SEQEND
  0
POLYLINE
  8
LAYER_1
 40
0.0847
 41
0.0847
 66
1
 10
0
 20
0
 30
0
  0
VERTEX
  8
LAYER_1
 10
105.6413
 20
190.0227
  0
VERTEX
  8
LAYER_1
 10
105.6413
 20
191.1604
  0
SEQEND
  0
POLYLINE
  8
LAYER_1
 40
0.0847
 41
0.0847
 66
1
 10
0
 20
0
 30
0
  0
VERTEX
  8
LAYER_1
 10
105.6413
 20
192.3245
  0
VERTEX
  8
LAYER_1
 10
105.6413
 20
198.066
  0
SEQEND
  0
POLYLINE
  8
LAYER_1
 40
0.0847
 41
0.0847
 66
1
 10
0
 20
0
 30
0
  0
VERTEX
  8
LAYER_1
 10
105.6413
 20
199.2301
  0
VERTEX
  8
LAYER_1
 10
105.6413
 20
200.3678
  0
SEQEND
  0
POLYLINE
  8
LAYER_1
 40
0.0847
 41
0.0847
 66
1
 10
0
 20
0
 30
0
  0
VERTEX
  8
LAYER_1
 10
105.6413
 20
201.532
  0
VERTEX
  8
LAYER_1
 10
105.6413
 20
207.2999
  0
SEQEND
  0
POLYLINE
  8
LAYER_1
 40
0.0847
 41
0.0847
 66
1
 10
0
 20
0
 30
0
  0
VERTEX
  8
LAYER_1
 10
105.6413
 20
208.4376
  0
VERTEX
  8
LAYER_1
 10
105.6413
 20
209.6018
  0
SEQEND
  0
POLYLINE
  8
LAYER_1
 40
0.0847
 41
0.0847
 66
1
 10
0
 20
0
 30
0
  0
VERTEX
  8
LAYER_1
 10
105.6413
 20
210.7395
  0
VERTEX
  8
LAYER_1
 10
105.6413
 20
216.5074
  0
SEQEND
  0
POLYLINE
  8
LAYER_1
 40
0.0847
 41
0.0847
 66
1
 10
0
 20
0
 30
0
  0
VERTEX
  8
LAYER_1
 10
105.6413
 20
217.6451
  0
VERTEX
  8
LAYER_1
 10
105.6413
 20
218.8092
  0
SEQEND
  0
POLYLINE
  8
LAYER_1
 40
0.0847
 41
0.0847
 66
1
 10
0
 20
0
 30
0
  0
VERTEX
  8
LAYER_1
 10
105.6413
 20
219.947
  0
VERTEX
  8
LAYER_1
 10
105.6413
 20
225.7149
  0
SEQEND
  0
POLYLINE
  8
LAYER_1
 40
0.0847
 41
0.0847
 66
1
 10
0
 20
0
 30
0
  0
VERTEX
  8
LAYER_1
 10
105.6413
 20
226.879
  0
VERTEX
  8
LAYER_1
 10
105.6413
 20
228.0167
  0
SEQEND
  0
POLYLINE
  8
LAYER_1
 40
0.0847
 41
0.0847
 66
1
 10
0
 20
0
 30
0
  0
VERTEX
  8
LAYER_1
 10
105.6413
 20
229.1809
  0
VERTEX
  8
LAYER_1
 10
105.6413
 20
232.0648
  0
SEQEND
  0
POLYLINE
  8
LAYER_1
 40
0.0847
 41
0.0847
 66
1
 10
0
 20
0
 30
0
  0
VERTEX
  8
LAYER_1
 10
96.0104
 20
192.8274
  0
VERTEX
  8
LAYER_1
 10
47.9356
 20
170.2055
  0
SEQEND
  0
TEXT
  8
LAYER_1
 10
26.0812
 20
169.0417
 11
26.0812
 21
169.0417
 40
3.2224
 41
0.5
  1
äOâèâôâOüiìòüj
  0
TEXT
  8
LAYER_1
 10
163.6911
 20
156.1563
 11
163.6911
 21
156.1563
 40
3.2224
 41
0.5
  1
ÄOèpâpâbâLâô
  0
TEXT
  8
LAYER_1
 10
151.8379
 20
150.7324
 11
151.8379
 21
150.7324
 40
3.2224
 41
0.5
  1
âXâèâbâvâpâbâLâô
  0
POLYLINE
  8
LAYER_1
 40
0.0847
 41
0.0847
 66
1
 10
0
 20
0
 30
0
  0
VERTEX
  8
LAYER_1
 10
106.6731
 20
160.7069
  0
VERTEX
  8
LAYER_1
 10
148.2656
 20
145.5463
  0
SEQEND
  0
POLYLINE
  8
LAYER_1
 40
0.0847
 41
0.0847
 66
1
 10
0
 20
0
 30
0
  0
VERTEX
  8
LAYER_1
 10
199.7536
 20
192.5892
  0
VERTEX
  8
LAYER_1
 10
206.5269
 20
192.5892
  0
SEQEND
  0
POLYLINE
  8
LAYER_1
 40
0.254
 41
0.254
 66
1
 10
0
 20
0
 30
0
  0
VERTEX
  8
LAYER_1
 10
113.7375
 20
192.5892
  0
VERTEX
  8
LAYER_1
 10
194.5413
 20
192.5892
  0
SEQEND
  0
POLYLINE
  8
LAYER_1
 40
0.0847
 41
0.0847
 66
1
 10
0
 20
0
 30
0
  0
VERTEX
  8
LAYER_1
 10
194.5413
 20
192.5892
  0
VERTEX
  8
LAYER_1
 10
194.356
 20
192.3246
  0
SEQEND
  0
POLYLINE
  8
LAYER_1
 40
0.0847
 41
0.0847
 66
1
 10
0
 20
0
 30
0
  0
VERTEX
  8
LAYER_1
 10
18.3288
 20
189.1761
  0
VERTEX
  8
LAYER_1
 10
21.7419
 20
192.5892
  0
SEQEND
  0
POLYLINE
  8
LAYER_1
 40
0.0847
 41
0.0847
 66
1
 10
0
 20
0
 30
0
  0
VERTEX
  8
LAYER_1
 10
17.3498
 20
191.7161
  0
VERTEX
  8
LAYER_1
 10
18.2229
 20
192.5892
  0
SEQEND
  0
POLYLINE
  8
LAYER_1
 40
0.0847
 41
0.0847
 66
1
 10
0
 20
0
 30
0
  0
VERTEX
  8
LAYER_1
 10
194.5413
 20
192.5892
  0
VERTEX
  8
LAYER_1
 10
194.3031
 20
192.2453
  0
VERTEX
  8
LAYER_1
 10
193.9327
 20
191.6896
  0
VERTEX
  8
LAYER_1
 10
193.5888
 20
191.1076
  0
VERTEX
  8
LAYER_1
 10
193.2977
 20
190.5519
  0
VERTEX
  8
LAYER_1
 10
193.086
 20
189.9699
  0
VERTEX
  8
LAYER_1
 10
192.9538
 20
189.4142
  0
VERTEX
  8
LAYER_1
 10
192.9273
 20
189.0703
  0
VERTEX
  8
LAYER_1
 10
192.9538
 20
188.7528
  0
VERTEX
  8
LAYER_1
 10
193.086
 20
188.1707
  0
VERTEX
  8
LAYER_1
 10
193.2977
 20
187.6151
  0
VERTEX
  8
LAYER_1
 10
193.5888
 20
187.033
  0
SEQEND
  0
POLYLINE
  8
LAYER_1
 40
0.0847
 41
0.0847
 66
1
 10
0
 20
0
 30
0
  0
VERTEX
  8
LAYER_1
 10
194.7529
 20
178.8574
  0
SEQEND
  0
POLYLINE
  8
LAYER_1
 40
0.0847
 41
0.0847
 66
1
 10
0
 20
0
 30
0
  0
VERTEX
  8
LAYER_1
 10
193.5888
 20
187.033
  0
VERTEX
  8
LAYER_1
 10
193.9327
 20
186.4509
  0
SEQEND
  0
POLYLINE
  8
LAYER_1
 40
0.0847
 41
0.0847
 66
1
 10
0
 20
0
 30
0
  0
VERTEX
  8
LAYER_1
 10
193.2977
 20
187.6151
  0
VERTEX
  8
LAYER_1
 10
193.5887
 20
187.033
  0
SEQEND
  0
POLYLINE
  8
LAYER_1
 40
0.0847
 41
0.0847
 66
1
 10
0
 20
0
 30
0
  0
VERTEX
  8
LAYER_1
 10
193.086
 20
188.1707
  0
VERTEX
  8
LAYER_1
 10
193.2977
 20
187.6151
  0
SEQEND
  0
POLYLINE
  8
LAYER_1
 40
0.0847
 41
0.0847
 66
1
 10
0
 20
0
 30
0
  0
VERTEX
  8
LAYER_1
 10
192.9538
 20
188.7528
  0
VERTEX
  8
LAYER_1
 10
193.086
 20
188.1707
  0
SEQEND
  0
POLYLINE
  8
LAYER_1
 40
0.0847
 41
0.0847
 66
1
 10
0
 20
0
 30
0
  0
VERTEX
  8
LAYER_1
 10
192.9273
 20
189.0703
  0
VERTEX
  8
LAYER_1
 10
192.9538
 20
188.7528
  0
SEQEND
  0
POLYLINE
  8
LAYER_1
 40
0.0847
 41
0.0847
 66
1
 10
0
 20
0
 30
0
  0
VERTEX
  8
LAYER_1
 10
192.9538
 20
189.4142
  0
VERTEX
  8
LAYER_1
 10
192.9273
 20
189.0703
  0
SEQEND
  0
POLYLINE
  8
LAYER_1
 40
0.0847
 41
0.0847
 66
1
 10
0
 20
0
 30
0
  0
VERTEX
  8
LAYER_1
 10
193.086
 20
189.9699
  0
VERTEX
  8
LAYER_1
 10
192.9537
 20
189.4142
  0
SEQEND
  0
POLYLINE
  8
LAYER_1
 40
0.0847
 41
0.0847
 66
1
 10
0
 20
0
 30
0
  0
VERTEX
  8
LAYER_1
 10
193.2977
 20
190.552
  0
VERTEX
  8
LAYER_1
 10
193.086
 20
189.9699
  0
SEQEND
  0
POLYLINE
  8
LAYER_1
 40
0.0847
 41
0.0847
 66
1
 10
0
 20
0
 30
0
  0
VERTEX
  8
LAYER_1
 10
193.5888
 20
191.1076
  0
VERTEX
  8
LAYER_1
 10
193.2977
 20
190.552
  0
SEQEND
  0
POLYLINE
  8
LAYER_1
 40
0.0847
 41
0.0847
 66
1
 10
0
 20
0
 30
0
  0
VERTEX
  8
LAYER_1
 10
193.9327
 20
191.6897
  0
VERTEX
  8
LAYER_1
 10
193.5887
 20
191.1076
  0
SEQEND
  0
POLYLINE
  8
LAYER_1
 40
0.0847
 41
0.0847
 66
1
 10
0
 20
0
 30
0
  0
VERTEX
  8
LAYER_1
 10
194.3031
 20
192.2453
  0
VERTEX
  8
LAYER_1
 10
193.9327
 20
191.6897
  0
SEQEND
  0
POLYLINE
  8
LAYER_1
 40
0.0847
 41
0.0847
 66
1
 10
0
 20
0
 30
0
  0
VERTEX
  8
LAYER_1
 10
194.5413
 20
192.5893
  0
VERTEX
  8
LAYER_1
 10
194.3031
 20
192.2453
  0
SEQEND
  0
POLYLINE
  8
LAYER_1
 40
0.0847
 41
0.0847
 66
1
 10
0
 20
0
 30
0
  0
VERTEX
  8
LAYER_1
 10
113.7375
 20
189.2026
  0
VERTEX
  8
LAYER_1
 10
117.1506
 20
192.5893
  0
SEQEND
  0
TEXT
  8
LAYER_1
 10
158.0022
 20
210.7401
 11
158.0022
 21
210.7401
 40
3.2224
 41
0.5
  1
örÉàû┌ÄM
  0
POLYLINE
  8
LAYER_1
 40
0.1693
 41
0.1693
 66
1
 10
0
 20
0
 30
0
  0
VERTEX
  8
LAYER_1
 10
70.6634
 20
220.0794
  0
VERTEX
  8
LAYER_1
 10
140.6192
 20
220.0794
  0
SEQEND
  0
POLYLINE
  8
LAYER_1
 40
0.1693
 41
0.1693
 66
1
 10
0
 20
0
 30
0
  0
VERTEX
  8
LAYER_1
 10
96.275
 20
195.0763
  0
VERTEX
  8
LAYER_1
 10
115.0075
 20
195.0763
  0
SEQEND
  0
POLYLINE
  8
LAYER_1
 40
0.0847
 41
0.0847
 66
1
 10
0
 20
0
 30
0
  0
VERTEX
  8
LAYER_1
 10
73.9177
 20
220.0794
  0
VERTEX
  8
LAYER_1
 10
75.0819
 20
218.9682
  0
SEQEND
  0
POLYLINE
  8
LAYER_1
 40
0.0847
 41
0.0847
 66
1
 10
0
 20
0
 30
0
  0
VERTEX
  8
LAYER_1
 10
75.8756
 20
218.2273
  0
VERTEX
  8
LAYER_1
 10
78.204
 20
216.0048
  0
SEQEND
  0
POLYLINE
  8
LAYER_1
 40
0.0847
 41
0.0847
 66
1
 10
0
 20
0
 30
0
  0
VERTEX
  8
LAYER_1
 10
78.9977
 20
215.264
  0
VERTEX
  8
LAYER_1
 10
81.3525
 20
213.0415
  0
SEQEND
  0
POLYLINE
  8
LAYER_1
 40
0.0847
 41
0.0847
 66
1
 10
0
 20
0
 30
0
  0
VERTEX
  8
LAYER_1
 10
82.1463
 20
212.3007
  0
VERTEX
  8
LAYER_1
 10
84.4746
 20
210.0782
  0
SEQEND
  0
POLYLINE
  8
LAYER_1
 40
0.0847
 41
0.0847
 66
1
 10
0
 20
0
 30
0
  0
VERTEX
  8
LAYER_1
 10
85.2683
 20
209.3374
  0
VERTEX
  8
LAYER_1
 10
87.6231
 20
207.1149
  0
SEQEND
  0
POLYLINE
  8
LAYER_1
 40
0.0847
 41
0.0847
 66
1
 10
0
 20
0
 30
0
  0
VERTEX
  8
LAYER_1
 10
88.4169
 20
206.3741
  0
VERTEX
  8
LAYER_1
 10
90.7452
 20
204.1515
  0
SEQEND
  0
POLYLINE
  8
LAYER_1
 40
0.0847
 41
0.0847
 66
1
 10
0
 20
0
 30
0
  0
VERTEX
  8
LAYER_1
 10
91.539
 20
203.4107
  0
VERTEX
  8
LAYER_1
 10
93.8938
 20
201.1882
  0
SEQEND
  0
POLYLINE
  8
LAYER_1
 40
0.0847
 41
0.0847
 66
1
 10
0
 20
0
 30
0
  0
VERTEX
  8
LAYER_1
 10
94.6875
 20
200.4474
  0
VERTEX
  8
LAYER_1
 10
97.0159
 20
198.2249
  0
SEQEND
  0
POLYLINE
  8
LAYER_1
 40
0.0847
 41
0.0847
 66
1
 10
0
 20
0
 30
0
  0
VERTEX
  8
LAYER_1
 10
97.8096
 20
197.4841
  0
VERTEX
  8
LAYER_1
 10
99.0002
 20
196.3464
  0
SEQEND
  0
POLYLINE
  8
LAYER_1
 40
0.0847
 41
0.0847
 66
1
 10
0
 20
0
 30
0
  0
VERTEX
  8
LAYER_1
 10
137.3648
 20
220.0795
  0
VERTEX
  8
LAYER_1
 10
136.2006
 20
218.9683
  0
SEQEND
  0
POLYLINE
  8
LAYER_1
 40
0.0847
 41
0.0847
 66
1
 10
0
 20
0
 30
0
  0
VERTEX
  8
LAYER_1
 10
135.4069
 20
218.2274
  0
VERTEX
  8
LAYER_1
 10
133.0785
 20
216.0049
  0
SEQEND
  0
POLYLINE
  8
LAYER_1
 40
0.0847
 41
0.0847
 66
1
 10
0
 20
0
 30
0
  0
VERTEX
  8
LAYER_1
 10
132.2848
 20
215.2641
  0
VERTEX
  8
LAYER_1
 10
129.93
 20
213.0416
  0
SEQEND
  0
POLYLINE
  8
LAYER_1
 40
0.0847
 41
0.0847
 66
1
 10
0
 20
0
 30
0
  0
VERTEX
  8
LAYER_1
 10
129.1363
 20
212.3008
  0
VERTEX
  8
LAYER_1
 10
126.8079
 20
210.0783
  0
SEQEND
  0
POLYLINE
  8
LAYER_1
 40
0.0847
 41
0.0847
 66
1
 10
0
 20
0
 30
0
  0
VERTEX
  8
LAYER_1
 10
126.0142
 20
209.3375
  0
VERTEX
  8
LAYER_1
 10
123.6594
 20
207.115
  0
SEQEND
  0
POLYLINE
  8
LAYER_1
 40
0.0847
 41
0.0847
 66
1
 10
0
 20
0
 30
0
  0
VERTEX
  8
LAYER_1
 10
122.8656
 20
206.3741
  0
VERTEX
  8
LAYER_1
 10
120.5373
 20
204.1516
  0
SEQEND
  0
POLYLINE
  8
LAYER_1
 40
0.0847
 41
0.0847
 66
1
 10
0
 20
0
 30
0
  0
VERTEX
  8
LAYER_1
 10
119.7436
 20
203.4108
  0
VERTEX
  8
LAYER_1
 10
117.3888
 20
201.1883
  0
SEQEND
  0
POLYLINE
  8
LAYER_1
 40
0.0847
 41
0.0847
 66
1
 10
0
 20
0
 30
0
  0
VERTEX
  8
LAYER_1
 10
116.595
 20
200.4475
  0
VERTEX
  8
LAYER_1
 10
114.2667
 20
198.225
  0
SEQEND
  0
POLYLINE
  8
LAYER_1
 40
0.0847
 41
0.0847
 66
1
 10
0
 20
0
 30
0
  0
VERTEX
  8
LAYER_1
 10
113.4729
 20
197.4842
  0
VERTEX
  8
LAYER_1
 10
112.2823
 20
196.3465
  0
SEQEND
  0
POLYLINE
  8
LAYER_1
 40
0.0847
 41
0.0847
 66
1
 10
0
 20
0
 30
0
  0
VERTEX
  8
LAYER_1
 10
112.2823
 20
195.0765
  0
VERTEX
  8
LAYER_1
 10
112.2823
 20
195.5527
  0
SEQEND
  0
POLYLINE
  8
LAYER_1
 40
0.0847
 41
0.0847
 66
1
 10
0
 20
0
 30
0
  0
VERTEX
  8
LAYER_1
 10
112.2823
 20
195.8702
  0
VERTEX
  8
LAYER_1
 10
112.2823
 20
196.3464
  0
SEQEND
  0
POLYLINE
  8
LAYER_1
 40
0.0847
 41
0.0847
 66
1
 10
0
 20
0
 30
0
  0
VERTEX
  8
LAYER_1
 10
99.0002
 20
195.0765
  0
VERTEX
  8
LAYER_1
 10
99.0002
 20
195.5527
  0
SEQEND
  0
POLYLINE
  8
LAYER_1
 40
0.0847
 41
0.0847
 66
1
 10
0
 20
0
 30
0
  0
VERTEX
  8
LAYER_1
 10
99.0002
 20
195.8702
  0
VERTEX
  8
LAYER_1
 10
99.0002
 20
196.3464
  0
SEQEND
  0
POLYLINE
  8
LAYER_1
 40
0.1693
 41
0.1693
 66
1
 10
0
 20
0
 30
0
  0
VERTEX
  8
LAYER_1
 10
115.1663
 20
195.9759
  0
VERTEX
  8
LAYER_1
 10
140.6192
 20
220.0794
  0
SEQEND
  0
POLYLINE
  8
LAYER_1
 40
0.1693
 41
0.1693
 66
1
 10
0
 20
0
 30
0
  0
VERTEX
  8
LAYER_1
 10
115.0075
 20
195.0763
  0
VERTEX
  8
LAYER_1
 10
115.0075
 20
195.6319
  0
SEQEND
  0
POLYLINE
  8
LAYER_1
 40
0.1693
 41
0.1693
 66
1
 10
0
 20
0
 30
0
  0
VERTEX
  8
LAYER_1
 10
115.1398
 20
196.0024
 42
0.1701135376
  0
VERTEX
  8
LAYER_1
 10
115.0075
 20
195.6584
  0
SEQEND
  0
POLYLINE
  8
LAYER_1
 40
0.1693
 41
0.1693
 66
1
 10
0
 20
0
 30
0
  0
VERTEX
  8
LAYER_1
 10
96.1163
 20
195.9759
  0
VERTEX
  8
LAYER_1
 10
70.6634
 20
220.0794
  0
SEQEND
  0
POLYLINE
  8
LAYER_1
 40
0.1693
 41
0.1693
 66
1
 10
0
 20
0
 30
0
  0
VERTEX
  8
LAYER_1
 10
96.275
 20
195.0763
  0
VERTEX
  8
LAYER_1
 10
96.275
 20
195.6319
  0
SEQEND
  0
POLYLINE
  8
LAYER_1
 40
0.1693
 41
0.1693
 66
1
 10
0
 20
0
 30
0
  0
VERTEX
  8
LAYER_1
 10
96.275
 20
195.6584
 42
0.1823851854
  0
VERTEX
  8
LAYER_1
 10
96.0898
 20
196.0024
  0
SEQEND
  0
POLYLINE
  8
LAYER_1
 40
0.1693
 41
0.1693
 66
1
 10
0
 20
0
 30
0
  0
VERTEX
  8
LAYER_1
 10
105.6413
 20
192.5892
  0
VERTEX
  8
LAYER_1
 10
114.9546
 20
192.5892
  0
SEQEND
  0
POLYLINE
  8
LAYER_1
 40
0.1693
 41
0.1693
 66
1
 10
0
 20
0
 30
0
  0
VERTEX
  8
LAYER_1
 10
93.4175
 20
192.5892
  0
VERTEX
  8
LAYER_1
 10
93.4175
 20
192.8274
  0
SEQEND
  0
POLYLINE
  8
LAYER_1
 40
0.1693
 41
0.1693
 66
1
 10
0
 20
0
 30
0
  0
VERTEX
  8
LAYER_1
 10
94.1583
 20
193.5947
  0
VERTEX
  8
LAYER_1
 10
94.7933
 20
193.5947
  0
SEQEND
  0
POLYLINE
  8
LAYER_1
 40
0.1693
 41
0.1693
 66
1
 10
0
 20
0
 30
0
  0
VERTEX
  8
LAYER_1
 10
94.7669
 20
193.5682
  0
VERTEX
  8
LAYER_1
 10
94.7933
 20
193.5682
 42
0.4078946957
  0
VERTEX
  8
LAYER_1
 10
96.3015
 20
195.0763
  0
VERTEX
  8
LAYER_1
 10
96.3015
 20
195.1028
  0
SEQEND
  0
POLYLINE
  8
LAYER_1
 40
0.1693
 41
0.1693
 66
1
 10
0
 20
0
 30
0
  0
VERTEX
  8
LAYER_1
 10
94.1319
 20
193.5682
 42
0.4166822668
  0
VERTEX
  8
LAYER_1
 10
93.4175
 20
192.8538
  0
SEQEND
  0
POLYLINE
  8
LAYER_1
 40
0.1693
 41
0.1693
 66
1
 10
0
 20
0
 30
0
  0
VERTEX
  8
LAYER_1
 10
93.4175
 20
192.5893
  0
VERTEX
  8
LAYER_1
 10
93.4175
 20
192.8274
  0
SEQEND
  0
POLYLINE
  8
LAYER_1
 40
0.1693
 41
0.1693
 66
1
 10
0
 20
0
 30
0
  0
VERTEX
  8
LAYER_1
 10
117.865
 20
192.5893
  0
VERTEX
  8
LAYER_1
 10
117.865
 20
192.8274
  0
SEQEND
  0
POLYLINE
  8
LAYER_1
 40
0.1693
 41
0.1693
 66
1
 10
0
 20
0
 30
0
  0
VERTEX
  8
LAYER_1
 10
116.4892
 20
193.5947
  0
VERTEX
  8
LAYER_1
 10
117.1242
 20
193.5947
  0
SEQEND
  0
POLYLINE
  8
LAYER_1
 40
0.1693
 41
0.1693
 66
1
 10
0
 20
0
 30
0
  0
VERTEX
  8
LAYER_1
 10
114.981
 20
195.1028
  0
VERTEX
  8
LAYER_1
 10
114.981
 20
195.0763
 42
0.4048889671
  0
VERTEX
  8
LAYER_1
 10
116.4627
 20
193.5682
  0
SEQEND
  0
POLYLINE
  8
LAYER_1
 40
0.1693
 41
0.1693
 66
1
 10
0
 20
0
 30
0
  0
VERTEX
  8
LAYER_1
 10
117.865
 20
192.8539
 42
0.3955421442
  0
VERTEX
  8
LAYER_1
 10
117.1242
 20
193.5682
  0
VERTEX
  8
LAYER_1
 10
117.0977
 20
193.5682
  0
SEQEND
  0
POLYLINE
  8
LAYER_1
 40
0.1693
 41
0.1693
 66
1
 10
0
 20
0
 30
0
  0
VERTEX
  8
LAYER_1
 10
93.4175
 20
192.9597
  0
SEQEND
  0
POLYLINE
  8
LAYER_1
 40
0.1693
 41
0.1693
 66
1
 10
0
 20
0
 30
0
  0
VERTEX
  8
LAYER_1
 10
115.7219
 20
192.5893
  0
VERTEX
  8
LAYER_1
 10
117.6269
 20
192.5893
  0
SEQEND
  0
POLYLINE
  8
LAYER_1
 40
0.0847
 41
0.0847
 66
1
 10
0
 20
0
 30
0
  0
VERTEX
  8
LAYER_1
 10
101.1433
 20
194.6001
  0
VERTEX
  8
LAYER_1
 10
100.2967
 20
194.0974
  0
SEQEND
  0
POLYLINE
  8
LAYER_1
 40
0.0847
 41
0.0847
 66
1
 10
0
 20
0
 30
0
  0
VERTEX
  8
LAYER_1
 10
98.5769
 20
193.092
  0
VERTEX
  8
LAYER_1
 10
97.7038
 20
192.5892
  0
SEQEND
  0
POLYLINE
  8
LAYER_1
 40
0.0847
 41
0.0847
 66
1
 10
0
 20
0
 30
0
  0
VERTEX
  8
LAYER_1
 10
101.1433
 20
194.6001
  0
VERTEX
  8
LAYER_1
 10
101.1433
 20
194.7059
  0
SEQEND
  0
POLYLINE
  8
LAYER_1
 40
0.0847
 41
0.0847
 66
1
 10
0
 20
0
 30
0
  0
VERTEX
  8
LAYER_1
 10
101.1433
 20
194.944
  0
VERTEX
  8
LAYER_1
 10
101.1433
 20
195.0763
  0
SEQEND
  0
POLYLINE
  8
LAYER_1
 40
0.0847
 41
0.0847
 66
1
 10
0
 20
0
 30
0
  0
VERTEX
  8
LAYER_1
 10
110.1392
 20
194.6001
  0
VERTEX
  8
LAYER_1
 10
110.1392
 20
194.7059
  0
SEQEND
  0
POLYLINE
  8
LAYER_1
 40
0.0847
 41
0.0847
 66
1
 10
0
 20
0
 30
0
  0
VERTEX
  8
LAYER_1
 10
110.1392
 20
194.944
  0
VERTEX
  8
LAYER_1
 10
110.1392
 20
195.0763
  0
SEQEND
  0
POLYLINE
  8
LAYER_1
 40
0.0847
 41
0.0847
 66
1
 10
0
 20
0
 30
0
  0
VERTEX
  8
LAYER_1
 10
110.1392
 20
194.6001
  0
VERTEX
  8
LAYER_1
 10
110.9858
 20
194.0974
  0
SEQEND
  0
POLYLINE
  8
LAYER_1
 40
0.0847
 41
0.0847
 66
1
 10
0
 20
0
 30
0
  0
VERTEX
  8
LAYER_1
 10
112.7056
 20
193.092
  0
VERTEX
  8
LAYER_1
 10
113.5788
 20
192.5892
  0
SEQEND
  0
POLYLINE
  8
LAYER_1
 40
0.1693
 41
0.1693
 66
1
 10
0
 20
0
 30
0
  0
VERTEX
  8
LAYER_1
 10
96.275
 20
195.0763
  0
VERTEX
  8
LAYER_1
 10
115.0075
 20
195.0763
  0
SEQEND
  0
POLYLINE
  8
LAYER_1
 40
0.1693
 41
0.1693
 66
1
 10
0
 20
0
 30
0
  0
VERTEX
  8
LAYER_1
 10
93.4175
 20
192.5892
  0
VERTEX
  8
LAYER_1
 10
117.865
 20
192.5892
  0
SEQEND
  0
POLYLINE
  8
LAYER_1
 40
0.0847
 41
0.0847
 66
1
 10
0
 20
0
 30
0
  0
VERTEX
  8
LAYER_1
 10
98.7356
 20
194.7059
  0
VERTEX
  8
LAYER_1
 10
98.8944
 20
194.7059
  0
SEQEND
  0
POLYLINE
  8
LAYER_1
 40
0.0847
 41
0.0847
 66
1
 10
0
 20
0
 30
0
  0
VERTEX
  8
LAYER_1
 10
99.2119
 20
194.7059
  0
VERTEX
  8
LAYER_1
 10
99.3971
 20
194.7059
  0
SEQEND
  0
POLYLINE
  8
LAYER_1
 40
0.0847
 41
0.0847
 66
1
 10
0
 20
0
 30
0
  0
VERTEX
  8
LAYER_1
 10
111.8854
 20
194.7059
  0
VERTEX
  8
LAYER_1
 10
112.0442
 20
194.7059
  0
SEQEND
  0
POLYLINE
  8
LAYER_1
 40
0.0847
 41
0.0847
 66
1
 10
0
 20
0
 30
0
  0
VERTEX
  8
LAYER_1
 10
112.3617
 20
194.7059
  0
VERTEX
  8
LAYER_1
 10
112.5469
 20
194.7059
  0
SEQEND
  0
POLYLINE
  8
LAYER_1
 40
0.0847
 41
0.0847
 66
1
 10
0
 20
0
 30
0
  0
VERTEX
  8
LAYER_1
 10
95.6135
 20
192.9596
  0
VERTEX
  8
LAYER_1
 10
95.7723
 20
192.9596
  0
SEQEND
  0
POLYLINE
  8
LAYER_1
 40
0.0847
 41
0.0847
 66
1
 10
0
 20
0
 30
0
  0
VERTEX
  8
LAYER_1
 10
96.0898
 20
192.9596
  0
VERTEX
  8
LAYER_1
 10
96.275
 20
192.9596
  0
SEQEND
  0
POLYLINE
  8
LAYER_1
 40
0.0847
 41
0.0847
 66
1
 10
0
 20
0
 30
0
  0
VERTEX
  8
LAYER_1
 10
115.0075
 20
192.9596
  0
VERTEX
  8
LAYER_1
 10
115.1662
 20
192.9596
  0
SEQEND
  0
POLYLINE
  8
LAYER_1
 40
0.0847
 41
0.0847
 66
1
 10
0
 20
0
 30
0
  0
VERTEX
  8
LAYER_1
 10
115.4837
 20
192.9596
  0
VERTEX
  8
LAYER_1
 10
115.6689
 20
192.9596
  0
SEQEND
  0
POLYLINE
  8
LAYER_1
 40
0.0847
 41
0.0847
 66
1
 10
0
 20
0
 30
0
  0
VERTEX
  8
LAYER_1
 10
98.7356
 20
194.7059
  0
VERTEX
  8
LAYER_1
 10
98.7356
 20
194.7853
  0
SEQEND
  0
POLYLINE
  8
LAYER_1
 40
0.0847
 41
0.0847
 66
1
 10
0
 20
0
 30
0
  0
VERTEX
  8
LAYER_1
 10
98.7356
 20
194.9705
  0
VERTEX
  8
LAYER_1
 10
98.7356
 20
195.0763
  0
SEQEND
  0
POLYLINE
  8
LAYER_1
 40
0.0847
 41
0.0847
 66
1
 10
0
 20
0
 30
0
  0
VERTEX
  8
LAYER_1
 10
99.3971
 20
194.7059
  0
VERTEX
  8
LAYER_1
 10
99.3971
 20
194.7853
  0
SEQEND
  0
POLYLINE
  8
LAYER_1
 40
0.0847
 41
0.0847
 66
1
 10
0
 20
0
 30
0
  0
VERTEX
  8
LAYER_1
 10
99.3971
 20
194.9705
  0
VERTEX
  8
LAYER_1
 10
99.3971
 20
195.0763
  0
SEQEND
  0
POLYLINE
  8
LAYER_1
 40
0.0847
 41
0.0847
 66
1
 10
0
 20
0
 30
0
  0
VERTEX
  8
LAYER_1
 10
111.8854
 20
194.7059
  0
VERTEX
  8
LAYER_1
 10
111.8854
 20
194.7853
  0
SEQEND
  0
POLYLINE
  8
LAYER_1
 40
0.0847
 41
0.0847
 66
1
 10
0
 20
0
 30
0
  0
VERTEX
  8
LAYER_1
 10
111.8854
 20
194.9705
  0
VERTEX
  8
LAYER_1
 10
111.8854
 20
195.0763
  0
SEQEND
  0
POLYLINE
  8
LAYER_1
 40
0.0847
 41
0.0847
 66
1
 10
0
 20
0
 30
0
  0
VERTEX
  8
LAYER_1
 10
112.5469
 20
194.7059
  0
VERTEX
  8
LAYER_1
 10
112.5469
 20
194.7853
  0
SEQEND
  0
POLYLINE
  8
LAYER_1
 40
0.0847
 41
0.0847
 66
1
 10
0
 20
0
 30
0
  0
VERTEX
  8
LAYER_1
 10
112.5469
 20
194.9705
  0
VERTEX
  8
LAYER_1
 10
112.5469
 20
195.0763
  0
SEQEND
  0
POLYLINE
  8
LAYER_1
 40
0.0847
 41
0.0847
 66
1
 10
0
 20
0
 30
0
  0
VERTEX
  8
LAYER_1
 10
95.6135
 20
192.5892
  0
VERTEX
  8
LAYER_1
 10
95.6135
 20
192.6686
  0
SEQEND
  0
POLYLINE
  8
LAYER_1
 40
0.0847
 41
0.0847
 66
1
 10
0
 20
0
 30
0
  0
VERTEX
  8
LAYER_1
 10
95.6135
 20
192.8538
  0
VERTEX
  8
LAYER_1
 10
95.6135
 20
192.9596
  0
SEQEND
  0
POLYLINE
  8
LAYER_1
 40
0.0847
 41
0.0847
 66
1
 10
0
 20
0
 30
0
  0
VERTEX
  8
LAYER_1
 10
96.275
 20
192.5892
  0
VERTEX
  8
LAYER_1
 10
96.275
 20
192.6686
  0
SEQEND
  0
POLYLINE
  8
LAYER_1
 40
0.0847
 41
0.0847
 66
1
 10
0
 20
0
 30
0
  0
VERTEX
  8
LAYER_1
 10
96.275
 20
192.8538
  0
VERTEX
  8
LAYER_1
 10
96.275
 20
192.9596
  0
SEQEND
  0
POLYLINE
  8
LAYER_1
 40
0.0847
 41
0.0847
 66
1
 10
0
 20
0
 30
0
  0
VERTEX
  8
LAYER_1
 10
115.0075
 20
192.5892
  0
VERTEX
  8
LAYER_1
 10
115.0075
 20
192.6686
  0
SEQEND
  0
POLYLINE
  8
LAYER_1
 40
0.0847
 41
0.0847
 66
1
 10
0
 20
0
 30
0
  0
VERTEX
  8
LAYER_1
 10
115.0075
 20
192.8538
  0
VERTEX
  8
LAYER_1
 10
115.0075
 20
192.9596
  0
SEQEND
  0
POLYLINE
  8
LAYER_1
 40
0.0847
 41
0.0847
 66
1
 10
0
 20
0
 30
0
  0
VERTEX
  8
LAYER_1
 10
115.6689
 20
192.5892
  0
VERTEX
  8
LAYER_1
 10
115.6689
 20
192.6686
  0
SEQEND
  0
POLYLINE
  8
LAYER_1
 40
0.0847
 41
0.0847
 66
1
 10
0
 20
0
 30
0
  0
VERTEX
  8
LAYER_1
 10
115.6689
 20
192.8538
  0
VERTEX
  8
LAYER_1
 10
115.6689
 20
192.9596
  0
SEQEND
  0
POLYLINE
  8
LAYER_1
 40
0.0847
 41
0.0847
 66
1
 10
0
 20
0
 30
0
  0
VERTEX
  8
LAYER_1
 10
100.8523
 20
194.4148
  0
VERTEX
  8
LAYER_1
 10
101.1433
 20
194.7323
  0
SEQEND
  0
POLYLINE
  8
LAYER_1
 40
0.0847
 41
0.0847
 66
1
 10
0
 20
0
 30
0
  0
VERTEX
  8
LAYER_1
 10
100.4289
 20
194.1767
  0
VERTEX
  8
LAYER_1
 10
101.1433
 20
194.8911
  0
SEQEND
  0
POLYLINE
  8
LAYER_1
 40
0.0847
 41
0.0847
 66
1
 10
0
 20
0
 30
0
  0
VERTEX
  8
LAYER_1
 10
100.0056
 20
193.9386
  0
VERTEX
  8
LAYER_1
 10
101.1433
 20
195.0763
  0
SEQEND
  0
POLYLINE
  8
LAYER_1
 40
0.0847
 41
0.0847
 66
1
 10
0
 20
0
 30
0
  0
VERTEX
  8
LAYER_1
 10
99.5823
 20
193.674
  0
VERTEX
  8
LAYER_1
 10
100.9846
 20
195.0763
  0
SEQEND
  0
POLYLINE
  8
LAYER_1
 40
0.0847
 41
0.0847
 66
1
 10
0
 20
0
 30
0
  0
VERTEX
  8
LAYER_1
 10
99.1854
 20
193.4359
  0
VERTEX
  8
LAYER_1
 10
100.8258
 20
195.0763
  0
SEQEND
  0
POLYLINE
  8
LAYER_1
 40
0.0847
 41
0.0847
 66
1
 10
0
 20
0
 30
0
  0
VERTEX
  8
LAYER_1
 10
98.7621
 20
193.1978
  0
VERTEX
  8
LAYER_1
 10
100.6406
 20
195.0763
  0
SEQEND
  0
POLYLINE
  8
LAYER_1
 40
0.0847
 41
0.0847
 66
1
 10
0
 20
0
 30
0
  0
VERTEX
  8
LAYER_1
 10
98.3388
 20
192.9597
  0
VERTEX
  8
LAYER_1
 10
100.4554
 20
195.0763
  0
SEQEND
  0
POLYLINE
  8
LAYER_1
 40
0.0847
 41
0.0847
 66
1
 10
0
 20
0
 30
0
  0
VERTEX
  8
LAYER_1
 10
97.9154
 20
192.7216
  0
VERTEX
  8
LAYER_1
 10
100.2967
 20
195.0763
  0
SEQEND
  0
POLYLINE
  8
LAYER_1
 40
0.0847
 41
0.0847
 66
1
 10
0
 20
0
 30
0
  0
VERTEX
  8
LAYER_1
 10
97.6244
 20
192.5893
  0
VERTEX
  8
LAYER_1
 10
100.1115
 20
195.0763
  0
SEQEND
  0
POLYLINE
  8
LAYER_1
 40
0.0847
 41
0.0847
 66
1
 10
0
 20
0
 30
0
  0
VERTEX
  8
LAYER_1
 10
97.4392
 20
192.5893
  0
VERTEX
  8
LAYER_1
 10
99.9262
 20
195.0763
  0
SEQEND
  0
POLYLINE
  8
LAYER_1
 40
0.0847
 41
0.0847
 66
1
 10
0
 20
0
 30
0
  0
VERTEX
  8
LAYER_1
 10
97.254
 20
192.5893
  0
VERTEX
  8
LAYER_1
 10
99.3706
 20
194.7059
  0
SEQEND
  0
POLYLINE
  8
LAYER_1
 40
0.0847
 41
0.0847
 66
1
 10
0
 20
0
 30
0
  0
VERTEX
  8
LAYER_1
 10
99.3971
 20
194.7324
  0
VERTEX
  8
LAYER_1
 10
99.7675
 20
195.0763
  0
SEQEND
  0
POLYLINE
  8
LAYER_1
 40
0.0847
 41
0.0847
 66
1
 10
0
 20
0
 30
0
  0
VERTEX
  8
LAYER_1
 10
97.0952
 20
192.5893
  0
VERTEX
  8
LAYER_1
 10
99.2119
 20
194.7059
  0
SEQEND
  0
POLYLINE
  8
LAYER_1
 40
0.0847
 41
0.0847
 66
1
 10
0
 20
0
 30
0
  0
VERTEX
  8
LAYER_1
 10
99.3971
 20
194.9176
  0
VERTEX
  8
LAYER_1
 10
99.5823
 20
195.0764
  0
SEQEND
  0
POLYLINE
  8
LAYER_1
 40
0.0847
 41
0.0847
 66
1
 10
0
 20
0
 30
0
  0
VERTEX
  8
LAYER_1
 10
96.91
 20
192.5893
  0
VERTEX
  8
LAYER_1
 10
99.0266
 20
194.7059
  0
SEQEND
  0
POLYLINE
  8
LAYER_1
 40
0.0847
 41
0.0847
 66
1
 10
0
 20
0
 30
0
  0
VERTEX
  8
LAYER_1
 10
96.7248
 20
192.5893
  0
VERTEX
  8
LAYER_1
 10
98.8414
 20
194.7059
  0
SEQEND
  0
POLYLINE
  8
LAYER_1
 40
0.0847
 41
0.0847
 66
1
 10
0
 20
0
 30
0
  0
VERTEX
  8
LAYER_1
 10
96.5396
 20
192.5893
  0
VERTEX
  8
LAYER_1
 10
98.7356
 20
194.7588
  0
SEQEND
  0
POLYLINE
  8
LAYER_1
 40
0.0847
 41
0.0847
 66
1
 10
0
 20
0
 30
0
  0
VERTEX
  8
LAYER_1
 10
96.3808
 20
192.5893
  0
VERTEX
  8
LAYER_1
 10
98.7356
 20
194.944
  0
SEQEND
  0
POLYLINE
  8
LAYER_1
 40
0.0847
 41
0.0847
 66
1
 10
0
 20
0
 30
0
  0
VERTEX
  8
LAYER_1
 10
96.1956
 20
192.5893
  0
VERTEX
  8
LAYER_1
 10
98.7091
 20
195.0763
  0
SEQEND
  0
POLYLINE
  8
LAYER_1
 40
0.0847
 41
0.0847
 66
1
 10
0
 20
0
 30
0
  0
VERTEX
  8
LAYER_1
 10
96.0104
 20
192.5893
  0
VERTEX
  8
LAYER_1
 10
98.5239
 20
195.0763
  0
SEQEND
  0
POLYLINE
  8
LAYER_1
 40
0.0847
 41
0.0847
 66
1
 10
0
 20
0
 30
0
  0
VERTEX
  8
LAYER_1
 10
95.8516
 20
192.5893
  0
VERTEX
  8
LAYER_1
 10
98.3387
 20
195.0763
  0
SEQEND
  0
POLYLINE
  8
LAYER_1
 40
0.0847
 41
0.0847
 66
1
 10
0
 20
0
 30
0
  0
VERTEX
  8
LAYER_1
 10
95.6664
 20
192.5893
  0
VERTEX
  8
LAYER_1
 10
98.18
 20
195.0763
  0
SEQEND
  0
POLYLINE
  8
LAYER_1
 40
0.0847
 41
0.0847
 66
1
 10
0
 20
0
 30
0
  0
VERTEX
  8
LAYER_1
 10
95.4812
 20
192.5893
  0
VERTEX
  8
LAYER_1
 10
97.9947
 20
195.0763
  0
SEQEND
  0
POLYLINE
  8
LAYER_1
 40
0.0847
 41
0.0847
 66
1
 10
0
 20
0
 30
0
  0
VERTEX
  8
LAYER_1
 10
95.3225
 20
192.5893
  0
VERTEX
  8
LAYER_1
 10
97.8095
 20
195.0763
  0
SEQEND
  0
POLYLINE
  8
LAYER_1
 40
0.0847
 41
0.0847
 66
1
 10
0
 20
0
 30
0
  0
VERTEX
  8
LAYER_1
 10
95.1373
 20
192.5893
  0
VERTEX
  8
LAYER_1
 10
97.6243
 20
195.0763
  0
SEQEND
  0
POLYLINE
  8
LAYER_1
 40
0.0847
 41
0.0847
 66
1
 10
0
 20
0
 30
0
  0
VERTEX
  8
LAYER_1
 10
94.952
 20
192.5893
  0
VERTEX
  8
LAYER_1
 10
97.4656
 20
195.0763
  0
SEQEND
  0
POLYLINE
  8
LAYER_1
 40
0.0847
 41
0.0847
 66
1
 10
0
 20
0
 30
0
  0
VERTEX
  8
LAYER_1
 10
94.7933
 20
192.5893
  0
VERTEX
  8
LAYER_1
 10
97.2804
 20
195.0763
  0
SEQEND
  0
POLYLINE
  8
LAYER_1
 40
0.0847
 41
0.0847
 66
1
 10
0
 20
0
 30
0
  0
VERTEX
  8
LAYER_1
 10
94.6081
 20
192.5893
  0
VERTEX
  8
LAYER_1
 10
97.0952
 20
195.0763
  0
SEQEND
  0
POLYLINE
  8
LAYER_1
 40
0.0847
 41
0.0847
 66
1
 10
0
 20
0
 30
0
  0
VERTEX
  8
LAYER_1
 10
94.4229
 20
192.5893
  0
VERTEX
  8
LAYER_1
 10
96.9364
 20
195.0763
  0
SEQEND
  0
POLYLINE
  8
LAYER_1
 40
0.0847
 41
0.0847
 66
1
 10
0
 20
0
 30
0
  0
VERTEX
  8
LAYER_1
 10
94.2641
 20
192.5893
  0
VERTEX
  8
LAYER_1
 10
95.3754
 20
193.7005
  0
SEQEND
  0
POLYLINE
  8
LAYER_1
 40
0.0847
 41
0.0847
 66
1
 10
0
 20
0
 30
0
  0
VERTEX
  8
LAYER_1
 10
96.1691
 20
194.4943
  0
VERTEX
  8
LAYER_1
 10
96.7512
 20
195.0763
  0
SEQEND
  0
POLYLINE
  8
LAYER_1
 40
0.0847
 41
0.0847
 66
1
 10
0
 20
0
 30
0
  0
VERTEX
  8
LAYER_1
 10
94.0789
 20
192.5893
  0
VERTEX
  8
LAYER_1
 10
95.1108
 20
193.6211
  0
SEQEND
  0
POLYLINE
  8
LAYER_1
 40
0.0847
 41
0.0847
 66
1
 10
0
 20
0
 30
0
  0
VERTEX
  8
LAYER_1
 10
96.2485
 20
194.7588
  0
VERTEX
  8
LAYER_1
 10
96.566
 20
195.0763
  0
SEQEND
  0
POLYLINE
  8
LAYER_1
 40
0.0847
 41
0.0847
 66
1
 10
0
 20
0
 30
0
  0
VERTEX
  8
LAYER_1
 10
93.8937
 20
192.5893
  0
VERTEX
  8
LAYER_1
 10
94.8991
 20
193.5947
  0
SEQEND
  0
POLYLINE
  8
LAYER_1
 40
0.0847
 41
0.0847
 66
1
 10
0
 20
0
 30
0
  0
VERTEX
  8
LAYER_1
 10
96.275
 20
194.9705
  0
VERTEX
  8
LAYER_1
 10
96.4073
 20
195.0764
  0
SEQEND
  0
POLYLINE
  8
LAYER_1
 40
0.0847
 41
0.0847
 66
1
 10
0
 20
0
 30
0
  0
VERTEX
  8
LAYER_1
 10
93.735
 20
192.5893
  0
VERTEX
  8
LAYER_1
 10
94.7139
 20
193.5947
  0
SEQEND
  0
POLYLINE
  8
LAYER_1
 40
0.0847
 41
0.0847
 66
1
 10
0
 20
0
 30
0
  0
VERTEX
  8
LAYER_1
 10
93.5498
 20
192.5893
  0
VERTEX
  8
LAYER_1
 10
94.5552
 20
193.5947
  0
SEQEND
  0
POLYLINE
  8
LAYER_1
 40
0.0847
 41
0.0847
 66
1
 10
0
 20
0
 30
0
  0
VERTEX
  8
LAYER_1
 10
93.4175
 20
192.6157
  0
VERTEX
  8
LAYER_1
 10
94.37
 20
193.5947
  0
SEQEND
  0
POLYLINE
  8
LAYER_1
 40
0.0847
 41
0.0847
 66
1
 10
0
 20
0
 30
0
  0
VERTEX
  8
LAYER_1
 10
93.4175
 20
192.8009
  0
VERTEX
  8
LAYER_1
 10
94.1848
 20
193.5947
  0
SEQEND
  0
POLYLINE
  8
LAYER_1
 40
0.0847
 41
0.0847
 66
1
 10
0
 20
0
 30
0
  0
VERTEX
  8
LAYER_1
 10
93.4175
 20
192.9861
  0
VERTEX
  8
LAYER_1
 10
93.9995
 20
193.5682
  0
SEQEND
  0
POLYLINE
  8
LAYER_1
 40
0.0847
 41
0.0847
 66
1
 10
0
 20
0
 30
0
  0
VERTEX
  8
LAYER_1
 10
117.7327
 20
192.5892
  0
VERTEX
  8
LAYER_1
 10
117.865
 20
192.7215
  0
SEQEND
  0
POLYLINE
  8
LAYER_1
 40
0.0847
 41
0.0847
 66
1
 10
0
 20
0
 30
0
  0
VERTEX
  8
LAYER_1
 10
117.5475
 20
192.5892
  0
VERTEX
  8
LAYER_1
 10
117.865
 20
192.9067
  0
SEQEND
  0
POLYLINE
  8
LAYER_1
 40
0.0847
 41
0.0847
 66
1
 10
0
 20
0
 30
0
  0
VERTEX
  8
LAYER_1
 10
117.3887
 20
192.5892
  0
VERTEX
  8
LAYER_1
 10
117.8385
 20
193.0655
  0
SEQEND
  0
POLYLINE
  8
LAYER_1
 40
0.0847
 41
0.0847
 66
1
 10
0
 20
0
 30
0
  0
VERTEX
  8
LAYER_1
 10
117.2035
 20
192.5892
  0
VERTEX
  8
LAYER_1
 10
117.7856
 20
193.1713
  0
SEQEND
  0
POLYLINE
  8
LAYER_1
 40
0.0847
 41
0.0847
 66
1
 10
0
 20
0
 30
0
  0
VERTEX
  8
LAYER_1
 10
117.0183
 20
192.5892
  0
VERTEX
  8
LAYER_1
 10
117.7327
 20
193.2772
  0
SEQEND
  0
POLYLINE
  8
LAYER_1
 40
0.0847
 41
0.0847
 66
1
 10
0
 20
0
 30
0
  0
VERTEX
  8
LAYER_1
 10
116.8331
 20
192.5892
  0
VERTEX
  8
LAYER_1
 10
117.6268
 20
193.383
  0
SEQEND
  0
POLYLINE
  8
LAYER_1
 40
0.0847
 41
0.0847
 66
1
 10
0
 20
0
 30
0
  0
VERTEX
  8
LAYER_1
 10
116.6743
 20
192.5892
  0
VERTEX
  8
LAYER_1
 10
117.5475
 20
193.4624
  0
SEQEND
  0
POLYLINE
  8
LAYER_1
 40
0.0847
 41
0.0847
 66
1
 10
0
 20
0
 30
0
  0
VERTEX
  8
LAYER_1
 10
116.4891
 20
192.5892
  0
VERTEX
  8
LAYER_1
 10
117.4152
 20
193.5153
  0
SEQEND
  0
POLYLINE
  8
LAYER_1
 40
0.0847
 41
0.0847
 66
1
 10
0
 20
0
 30
0
  0
VERTEX
  8
LAYER_1
 10
116.3039
 20
192.5892
  0
VERTEX
  8
LAYER_1
 10
117.2829
 20
193.5682
  0
SEQEND
  0
POLYLINE
  8
LAYER_1
 40
0.0847
 41
0.0847
 66
1
 10
0
 20
0
 30
0
  0
VERTEX
  8
LAYER_1
 10
116.1452
 20
192.5892
  0
VERTEX
  8
LAYER_1
 10
117.1506
 20
193.5946
  0
SEQEND
  0
POLYLINE
  8
LAYER_1
 40
0.0847
 41
0.0847
 66
1
 10
0
 20
0
 30
0
  0
VERTEX
  8
LAYER_1
 10
115.96
 20
192.5892
  0
VERTEX
  8
LAYER_1
 10
116.9654
 20
193.5946
  0
SEQEND
  0
POLYLINE
  8
LAYER_1
 40
0.0847
 41
0.0847
 66
1
 10
0
 20
0
 30
0
  0
VERTEX
  8
LAYER_1
 10
115.7747
 20
192.5892
  0
VERTEX
  8
LAYER_1
 10
116.7802
 20
193.5946
  0
SEQEND
  0
POLYLINE
  8
LAYER_1
 40
0.0847
 41
0.0847
 66
1
 10
0
 20
0
 30
0
  0
VERTEX
  8
LAYER_1
 10
115.616
 20
192.5892
  0
VERTEX
  8
LAYER_1
 10
116.6214
 20
193.5946
  0
SEQEND
  0
POLYLINE
  8
LAYER_1
 40
0.0847
 41
0.0847
 66
1
 10
0
 20
0
 30
0
  0
VERTEX
  8
LAYER_1
 10
115.4308
 20
192.5892
  0
VERTEX
  8
LAYER_1
 10
116.4362
 20
193.5946
  0
SEQEND
  0
POLYLINE
  8
LAYER_1
 40
0.0847
 41
0.0847
 66
1
 10
0
 20
0
 30
0
  0
VERTEX
  8
LAYER_1
 10
115.2456
 20
192.5892
  0
VERTEX
  8
LAYER_1
 10
116.2774
 20
193.5946
  0
SEQEND
  0
POLYLINE
  8
LAYER_1
 40
0.0847
 41
0.0847
 66
1
 10
0
 20
0
 30
0
  0
VERTEX
  8
LAYER_1
 10
115.0868
 20
192.5892
  0
VERTEX
  8
LAYER_1
 10
116.1187
 20
193.6476
  0
SEQEND
  0
POLYLINE
  8
LAYER_1
 40
0.0847
 41
0.0847
 66
1
 10
0
 20
0
 30
0
  0
VERTEX
  8
LAYER_1
 10
114.9016
 20
192.5892
  0
VERTEX
  8
LAYER_1
 10
115.9864
 20
193.674
  0
SEQEND
  0
POLYLINE
  8
LAYER_1
 40
0.0847
 41
0.0847
 66
1
 10
0
 20
0
 30
0
  0
VERTEX
  8
LAYER_1
 10
114.7164
 20
192.5892
  0
VERTEX
  8
LAYER_1
 10
115.8541
 20
193.7269
  0
SEQEND
  0
POLYLINE
  8
LAYER_1
 40
0.0847
 41
0.0847
 66
1
 10
0
 20
0
 30
0
  0
VERTEX
  8
LAYER_1
 10
114.5576
 20
192.5892
  0
VERTEX
  8
LAYER_1
 10
115.7483
 20
193.7798
  0
SEQEND
  0
POLYLINE
  8
LAYER_1
 40
0.0847
 41
0.0847
 66
1
 10
0
 20
0
 30
0
  0
VERTEX
  8
LAYER_1
 10
114.3724
 20
192.5892
  0
VERTEX
  8
LAYER_1
 10
115.6424
 20
193.8592
  0
SEQEND
  0
POLYLINE
  8
LAYER_1
 40
0.0847
 41
0.0847
 66
1
 10
0
 20
0
 30
0
  0
VERTEX
  8
LAYER_1
 10
114.1872
 20
192.5892
  0
VERTEX
  8
LAYER_1
 10
115.5366
 20
193.9386
  0
SEQEND
  0
POLYLINE
  8
LAYER_1
 40
0.0847
 41
0.0847
 66
1
 10
0
 20
0
 30
0
  0
VERTEX
  8
LAYER_1
 10
114.0285
 20
192.5892
  0
VERTEX
  8
LAYER_1
 10
115.4572
 20
194.018
  0
SEQEND
  0
POLYLINE
  8
LAYER_1
 40
0.0847
 41
0.0847
 66
1
 10
0
 20
0
 30
0
  0
VERTEX
  8
LAYER_1
 10
113.8433
 20
192.5892
  0
VERTEX
  8
LAYER_1
 10
115.3514
 20
194.0974
  0
SEQEND
  0
POLYLINE
  8
LAYER_1
 40
0.0847
 41
0.0847
 66
1
 10
0
 20
0
 30
0
  0
VERTEX
  8
LAYER_1
 10
113.658
 20
192.5892
  0
VERTEX
  8
LAYER_1
 10
115.272
 20
194.2032
  0
SEQEND
  0
POLYLINE
  8
LAYER_1
 40
0.0847
 41
0.0847
 66
1
 10
0
 20
0
 30
0
  0
VERTEX
  8
LAYER_1
 10
113.5258
 20
192.6157
  0
VERTEX
  8
LAYER_1
 10
115.2191
 20
194.309
  0
SEQEND
  0
POLYLINE
  8
LAYER_1
 40
0.0847
 41
0.0847
 66
1
 10
0
 20
0
 30
0
  0
VERTEX
  8
LAYER_1
 10
113.4199
 20
192.6951
  0
VERTEX
  8
LAYER_1
 10
115.1397
 20
194.4413
  0
SEQEND
  0
POLYLINE
  8
LAYER_1
 40
0.0847
 41
0.0847
 66
1
 10
0
 20
0
 30
0
  0
VERTEX
  8
LAYER_1
 10
113.3141
 20
192.748
  0
VERTEX
  8
LAYER_1
 10
115.0868
 20
194.5471
  0
SEQEND
  0
POLYLINE
  8
LAYER_1
 40
0.0847
 41
0.0847
 66
1
 10
0
 20
0
 30
0
  0
VERTEX
  8
LAYER_1
 10
113.1818
 20
192.8274
  0
VERTEX
  8
LAYER_1
 10
115.0604
 20
194.6794
  0
SEQEND
  0
POLYLINE
  8
LAYER_1
 40
0.0847
 41
0.0847
 66
1
 10
0
 20
0
 30
0
  0
VERTEX
  8
LAYER_1
 10
113.076
 20
192.8803
  0
VERTEX
  8
LAYER_1
 10
115.0339
 20
194.8382
  0
SEQEND
  0
POLYLINE
  8
LAYER_1
 40
0.0847
 41
0.0847
 66
1
 10
0
 20
0
 30
0
  0
VERTEX
  8
LAYER_1
 10
112.9702
 20
192.9596
  0
VERTEX
  8
LAYER_1
 10
115.0074
 20
194.9969
  0
SEQEND
  0
POLYLINE
  8
LAYER_1
 40
0.0847
 41
0.0847
 66
1
 10
0
 20
0
 30
0
  0
VERTEX
  8
LAYER_1
 10
112.8643
 20
193.0126
  0
VERTEX
  8
LAYER_1
 10
114.9281
 20
195.0763
  0
SEQEND
  0
POLYLINE
  8
LAYER_1
 40
0.0847
 41
0.0847
 66
1
 10
0
 20
0
 30
0
  0
VERTEX
  8
LAYER_1
 10
112.732
 20
193.0655
  0
VERTEX
  8
LAYER_1
 10
114.7429
 20
195.0763
  0
SEQEND
  0
POLYLINE
  8
LAYER_1
 40
0.0847
 41
0.0847
 66
1
 10
0
 20
0
 30
0
  0
VERTEX
  8
LAYER_1
 10
112.6262
 20
193.1448
  0
VERTEX
  8
LAYER_1
 10
114.5841
 20
195.0763
  0
SEQEND
  0
POLYLINE
  8
LAYER_1
 40
0.0847
 41
0.0847
 66
1
 10
0
 20
0
 30
0
  0
VERTEX
  8
LAYER_1
 10
112.5204
 20
193.1978
  0
VERTEX
  8
LAYER_1
 10
114.3989
 20
195.0763
  0
SEQEND
  0
POLYLINE
  8
LAYER_1
 40
0.0847
 41
0.0847
 66
1
 10
0
 20
0
 30
0
  0
VERTEX
  8
LAYER_1
 10
112.4146
 20
193.2771
  0
VERTEX
  8
LAYER_1
 10
114.2137
 20
195.0763
  0
SEQEND
  0
POLYLINE
  8
LAYER_1
 40
0.0847
 41
0.0847
 66
1
 10
0
 20
0
 30
0
  0
VERTEX
  8
LAYER_1
 10
112.2823
 20
193.33
  0
VERTEX
  8
LAYER_1
 10
114.055
 20
195.0763
  0
SEQEND
  0
POLYLINE
  8
LAYER_1
 40
0.0847
 41
0.0847
 66
1
 10
0
 20
0
 30
0
  0
VERTEX
  8
LAYER_1
 10
112.1764
 20
193.4094
  0
VERTEX
  8
LAYER_1
 10
113.8698
 20
195.0763
  0
SEQEND
  0
POLYLINE
  8
LAYER_1
 40
0.0847
 41
0.0847
 66
1
 10
0
 20
0
 30
0
  0
VERTEX
  8
LAYER_1
 10
112.0706
 20
193.4623
  0
VERTEX
  8
LAYER_1
 10
113.6846
 20
195.0763
  0
SEQEND
  0
POLYLINE
  8
LAYER_1
 40
0.0847
 41
0.0847
 66
1
 10
0
 20
0
 30
0
  0
VERTEX
  8
LAYER_1
 10
111.9648
 20
193.5417
  0
VERTEX
  8
LAYER_1
 10
113.5258
 20
195.0763
  0
SEQEND
  0
POLYLINE
  8
LAYER_1
 40
0.0847
 41
0.0847
 66
1
 10
0
 20
0
 30
0
  0
VERTEX
  8
LAYER_1
 10
111.8325
 20
193.5946
  0
VERTEX
  8
LAYER_1
 10
113.3406
 20
195.0763
  0
SEQEND
  0
POLYLINE
  8
LAYER_1
 40
0.0847
 41
0.0847
 66
1
 10
0
 20
0
 30
0
  0
VERTEX
  8
LAYER_1
 10
111.7267
 20
193.6475
  0
VERTEX
  8
LAYER_1
 10
113.1554
 20
195.0763
  0
SEQEND
  0
POLYLINE
  8
LAYER_1
 40
0.0847
 41
0.0847
 66
1
 10
0
 20
0
 30
0
  0
VERTEX
  8
LAYER_1
 10
111.6208
 20
193.7269
  0
VERTEX
  8
LAYER_1
 10
112.9967
 20
195.0763
  0
SEQEND
  0
POLYLINE
  8
LAYER_1
 40
0.0847
 41
0.0847
 66
1
 10
0
 20
0
 30
0
  0
VERTEX
  8
LAYER_1
 10
111.515
 20
193.7798
  0
VERTEX
  8
LAYER_1
 10
112.8115
 20
195.0763
  0
SEQEND
  0
POLYLINE
  8
LAYER_1
 40
0.0847
 41
0.0847
 66
1
 10
0
 20
0
 30
0
  0
VERTEX
  8
LAYER_1
 10
111.4092
 20
193.8592
  0
VERTEX
  8
LAYER_1
 10
112.6263
 20
195.0763
  0
SEQEND
  0
POLYLINE
  8
LAYER_1
 40
0.0847
 41
0.0847
 66
1
 10
0
 20
0
 30
0
  0
VERTEX
  8
LAYER_1
 10
111.2769
 20
193.9121
  0
VERTEX
  8
LAYER_1
 10
112.4411
 20
195.0763
  0
SEQEND
  0
POLYLINE
  8
LAYER_1
 40
0.0847
 41
0.0847
 66
1
 10
0
 20
0
 30
0
  0
VERTEX
  8
LAYER_1
 10
111.1711
 20
193.9915
  0
VERTEX
  8
LAYER_1
 10
112.2823
 20
195.0763
  0
SEQEND
  0
POLYLINE
  8
LAYER_1
 40
0.0847
 41
0.0847
 66
1
 10
0
 20
0
 30
0
  0
VERTEX
  8
LAYER_1
 10
111.0652
 20
194.0444
  0
VERTEX
  8
LAYER_1
 10
112.0971
 20
195.0763
  0
SEQEND
  0
POLYLINE
  8
LAYER_1
 40
0.0847
 41
0.0847
 66
1
 10
0
 20
0
 30
0
  0
VERTEX
  8
LAYER_1
 10
110.9594
 20
194.1238
  0
VERTEX
  8
LAYER_1
 10
111.9119
 20
195.0763
  0
SEQEND
  0
POLYLINE
  8
LAYER_1
 40
0.0847
 41
0.0847
 66
1
 10
0
 20
0
 30
0
  0
VERTEX
  8
LAYER_1
 10
110.8271
 20
194.1767
  0
VERTEX
  8
LAYER_1
 10
111.7532
 20
195.0763
  0
SEQEND
  0
POLYLINE
  8
LAYER_1
 40
0.0847
 41
0.0847
 66
1
 10
0
 20
0
 30
0
  0
VERTEX
  8
LAYER_1
 10
110.7213
 20
194.2296
  0
VERTEX
  8
LAYER_1
 10
111.568
 20
195.0763
  0
SEQEND
  0
POLYLINE
  8
LAYER_1
 40
0.0847
 41
0.0847
 66
1
 10
0
 20
0
 30
0
  0
VERTEX
  8
LAYER_1
 10
110.6155
 20
194.309
  0
VERTEX
  8
LAYER_1
 10
111.3828
 20
195.0763
  0
SEQEND
  0
POLYLINE
  8
LAYER_1
 40
0.0847
 41
0.0847
 66
1
 10
0
 20
0
 30
0
  0
VERTEX
  8
LAYER_1
 10
110.5096
 20
194.3619
  0
VERTEX
  8
LAYER_1
 10
111.224
 20
195.0763
  0
SEQEND
  0
POLYLINE
  8
LAYER_1
 40
0.0847
 41
0.0847
 66
1
 10
0
 20
0
 30
0
  0
VERTEX
  8
LAYER_1
 10
110.3773
 20
194.4413
  0
VERTEX
  8
LAYER_1
 10
111.0388
 20
195.0762
  0
SEQEND
  0
POLYLINE
  8
LAYER_1
 40
0.0847
 41
0.0847
 66
1
 10
0
 20
0
 30
0
  0
VERTEX
  8
LAYER_1
 10
110.2715
 20
194.4942
  0
VERTEX
  8
LAYER_1
 10
110.8536
 20
195.0762
  0
SEQEND
  0
POLYLINE
  8
LAYER_1
 40
0.0847
 41
0.0847
 66
1
 10
0
 20
0
 30
0
  0
VERTEX
  8
LAYER_1
 10
110.1657
 20
194.5735
  0
VERTEX
  8
LAYER_1
 10
110.6948
 20
195.0762
  0
SEQEND
  0
POLYLINE
  8
LAYER_1
 40
0.0847
 41
0.0847
 66
1
 10
0
 20
0
 30
0
  0
VERTEX
  8
LAYER_1
 10
110.1392
 20
194.7058
  0
VERTEX
  8
LAYER_1
 10
110.5096
 20
195.0762
  0
SEQEND
  0
POLYLINE
  8
LAYER_1
 40
0.0847
 41
0.0847
 66
1
 10
0
 20
0
 30
0
  0
VERTEX
  8
LAYER_1
 10
110.1392
 20
194.891
  0
VERTEX
  8
LAYER_1
 10
110.3244
 20
195.0762
  0
SEQEND
  0
POLYLINE
  8
LAYER_1
 40
0.0847
 41
0.0847
 66
1
 10
0
 20
0
 30
0
  0
VERTEX
  8
LAYER_1
 10
110.1392
 20
195.0498
  0
VERTEX
  8
LAYER_1
 10
110.1657
 20
195.0762
  0
SEQEND
  0
POLYLINE
  8
LAYER_1
 40
0.1693
 41
0.1693
 66
1
 10
0
 20
0
 30
0
  0
VERTEX
  8
LAYER_1
 10
112.7321
 20
196.8226
  0
VERTEX
  8
LAYER_1
 10
112.6792
 20
196.7961
  0
SEQEND
  0
POLYLINE
  8
LAYER_1
 40
0.1693
 41
0.1693
 66
1
 10
0
 20
0
 30
0
  0
VERTEX
  8
LAYER_1
 10
112.6527
 20
196.7432
  0
VERTEX
  8
LAYER_1
 10
112.5733
 20
196.6903
  0
VERTEX
  8
LAYER_1
 10
112.5204
 20
196.6638
  0
SEQEND
  0
POLYLINE
  8
LAYER_1
 40
0.1693
 41
0.1693
 66
1
 10
0
 20
0
 30
0
  0
VERTEX
  8
LAYER_1
 10
112.494
 20
196.6374
  0
VERTEX
  8
LAYER_1
 10
112.4146
 20
196.5844
  0
SEQEND
  0
POLYLINE
  8
LAYER_1
 40
0.0847
 41
0.0847
 66
1
 10
0
 20
0
 30
0
  0
VERTEX
  8
LAYER_1
 10
101.8577
 20
192.4569
  0
VERTEX
  8
LAYER_1
 10
102.4663
 20
192.4569
  0
SEQEND
  0
POLYLINE
  8
LAYER_1
 40
0.0847
 41
0.0847
 66
1
 10
0
 20
0
 30
0
  0
VERTEX
  8
LAYER_1
 10
103.7363
 20
192.4569
  0
VERTEX
  8
LAYER_1
 10
105.0063
 20
192.4569
  0
SEQEND
  0
POLYLINE
  8
LAYER_1
 40
0.0847
 41
0.0847
 66
1
 10
0
 20
0
 30
0
  0
VERTEX
  8
LAYER_1
 10
106.2498
 20
192.4569
  0
VERTEX
  8
LAYER_1
 10
107.5198
 20
192.4569
  0
SEQEND
  0
POLYLINE
  8
LAYER_1
 40
0.0847
 41
0.0847
 66
1
 10
0
 20
0
 30
0
  0
VERTEX
  8
LAYER_1
 10
108.7898
 20
192.4569
  0
VERTEX
  8
LAYER_1
 10
109.4248
 20
192.4569
  0
SEQEND
  0
POLYLINE
  8
LAYER_1
 40
0.0847
 41
0.0847
 66
1
 10
0
 20
0
 30
0
  0
VERTEX
  8
LAYER_1
 10
101.6725
 20
192.6421
  0
VERTEX
  8
LAYER_1
 10
102.334
 20
192.6421
  0
SEQEND
  0
POLYLINE
  8
LAYER_1
 40
0.0847
 41
0.0847
 66
1
 10
0
 20
0
 30
0
  0
VERTEX
  8
LAYER_1
 10
103.6569
 20
192.6421
  0
VERTEX
  8
LAYER_1
 10
104.9798
 20
192.6421
  0
SEQEND
  0
POLYLINE
  8
LAYER_1
 40
0.0847
 41
0.0847
 66
1
 10
0
 20
0
 30
0
  0
VERTEX
  8
LAYER_1
 10
106.3027
 20
192.6421
  0
VERTEX
  8
LAYER_1
 10
107.6257
 20
192.6421
  0
SEQEND
  0
POLYLINE
  8
LAYER_1
 40
0.0847
 41
0.0847
 66
1
 10
0
 20
0
 30
0
  0
VERTEX
  8
LAYER_1
 10
108.9486
 20
192.6421
  0
VERTEX
  8
LAYER_1
 10
109.61
 20
192.6421
  0
SEQEND
  0
POLYLINE
  8
LAYER_1
 40
0.1693
 41
0.1693
 66
1
 10
0
 20
0
 30
0
  0
VERTEX
  8
LAYER_1
 10
101.8577
 20
192.4569
  0
VERTEX
  8
LAYER_1
 10
101.6725
 20
192.6421
  0
SEQEND
  0
POLYLINE
  8
LAYER_1
 40
0.1693
 41
0.1693
 66
1
 10
0
 20
0
 30
0
  0
VERTEX
  8
LAYER_1
 10
109.4248
 20
192.4569
  0
VERTEX
  8
LAYER_1
 10
109.61
 20
192.6421
  0
SEQEND
  0
POLYLINE
  8
LAYER_1
 40
0.1693
 41
0.1693
 66
1
 10
0
 20
0
 30
0
  0
VERTEX
  8
LAYER_1
 10
99.0796
 20
196.9019
 42
0.390056353
  0
VERTEX
  8
LAYER_1
 10
98.9473
 20
196.7961
  0
SEQEND
  0
POLYLINE
  8
LAYER_1
 40
0.1693
 41
0.1693
 66
1
 10
0
 20
0
 30
0
  0
VERTEX
  8
LAYER_1
 10
98.9473
 20
196.7432
  0
VERTEX
  8
LAYER_1
 10
98.9473
 20
196.7167
 42
0.2987960569
  0
VERTEX
  8
LAYER_1
 10
99.0267
 20
196.6109
  0
SEQEND
  0
POLYLINE
  8
LAYER_1
 40
0.1693
 41
0.1693
 66
1
 10
0
 20
0
 30
0
  0
VERTEX
  8
LAYER_1
 10
98.9473
 20
196.7167
  0
VERTEX
  8
LAYER_1
 10
98.9473
 20
196.7697
  0
SEQEND
  0
POLYLINE
  8
LAYER_1
 40
0.1693
 41
0.1693
 66
1
 10
0
 20
0
 30
0
  0
VERTEX
  8
LAYER_1
 10
99.0531
 20
196.5845
  0
VERTEX
  8
LAYER_1
 10
100.2702
 20
196.1611
  0
SEQEND
  0
POLYLINE
  8
LAYER_1
 40
0.1693
 41
0.1693
 66
1
 10
0
 20
0
 30
0
  0
VERTEX
  8
LAYER_1
 10
101.0375
 20
195.2615
 42
0.2767774771
  0
VERTEX
  8
LAYER_1
 10
100.2173
 20
196.1876
  0
SEQEND
  0
POLYLINE
  8
LAYER_1
 40
0.1693
 41
0.1693
 66
1
 10
0
 20
0
 30
0
  0
VERTEX
  8
LAYER_1
 10
99.1061
 20
196.8755
  0
VERTEX
  8
LAYER_1
 10
112.1765
 20
196.8755
  0
SEQEND
  0
POLYLINE
  8
LAYER_1
 40
0.1693
 41
0.1693
 66
1
 10
0
 20
0
 30
0
  0
VERTEX
  8
LAYER_1
 10
112.3088
 20
196.7961
 42
0.4413484084
  0
VERTEX
  8
LAYER_1
 10
112.2029
 20
196.9019
  0
VERTEX
  8
LAYER_1
 10
112.15
 20
196.9019
  0
SEQEND
  0
POLYLINE
  8
LAYER_1
 40
0.1693
 41
0.1693
 66
1
 10
0
 20
0
 30
0
  0
VERTEX
  8
LAYER_1
 10
112.2029
 20
196.6109
 42
0.390056353
  0
VERTEX
  8
LAYER_1
 10
112.3352
 20
196.7167
 42
0.5046189213
  0
VERTEX
  8
LAYER_1
 10
112.3088
 20
196.7432
  0
SEQEND
  0
POLYLINE
  8
LAYER_1
 40
0.1693
 41
0.1693
 66
1
 10
0
 20
0
 30
0
  0
VERTEX
  8
LAYER_1
 10
112.3352
 20
196.7167
  0
VERTEX
  8
LAYER_1
 10
112.3352
 20
196.7697
  0
SEQEND
  0
POLYLINE
  8
LAYER_1
 40
0.1693
 41
0.1693
 66
1
 10
0
 20
0
 30
0
  0
VERTEX
  8
LAYER_1
 10
112.2294
 20
196.5845
  0
VERTEX
  8
LAYER_1
 10
111.0123
 20
196.1611
  0
SEQEND
  0
POLYLINE
  8
LAYER_1
 40
0.1693
 41
0.1693
 66
1
 10
0
 20
0
 30
0
  0
VERTEX
  8
LAYER_1
 10
111.0123
 20
196.1876
 42
0.2568623128
  0
VERTEX
  8
LAYER_1
 10
110.2186
 20
195.2615
  0
SEQEND
  0
POLYLINE
  8
LAYER_1
 40
0.1693
 41
0.1693
 66
1
 10
0
 20
0
 30
0
  0
VERTEX
  8
LAYER_1
 10
101.6725
 20
192.6422
  0
VERTEX
  8
LAYER_1
 10
101.0904
 20
195.2615
  0
SEQEND
  0
POLYLINE
  8
LAYER_1
 40
0.1693
 41
0.1693
 66
1
 10
0
 20
0
 30
0
  0
VERTEX
  8
LAYER_1
 10
109.61
 20
192.6422
  0
VERTEX
  8
LAYER_1
 10
110.1921
 20
195.2615
  0
SEQEND
  0
POLYLINE
  8
LAYER_1
 40
0.0847
 41
0.0847
 66
1
 10
0
 20
0
 30
0
  0
VERTEX
  8
LAYER_1
 10
100.2702
 20
196.1611
  0
VERTEX
  8
LAYER_1
 10
111.0123
 20
196.1611
  0
SEQEND
  0
POLYLINE
  8
LAYER_1
 40
0.0847
 41
0.0847
 66
1
 10
0
 20
0
 30
0
  0
VERTEX
  8
LAYER_1
 10
99.0531
 20
196.5845
  0
VERTEX
  8
LAYER_1
 10
112.2294
 20
196.5845
  0
SEQEND
  0
POLYLINE
  8
LAYER_1
 40
0.1693
 41
0.1693
 66
1
 10
0
 20
0
 30
0
  0
VERTEX
  8
LAYER_1
 10
101.6725
 20
188.2765
  0
VERTEX
  8
LAYER_1
 10
101.99
 20
188.0119
  0
VERTEX
  8
LAYER_1
 10
101.6725
 20
187.7738
  0
VERTEX
  8
LAYER_1
 10
101.99
 20
187.5357
  0
VERTEX
  8
LAYER_1
 10
101.6725
 20
187.2711
  0
VERTEX
  8
LAYER_1
 10
101.99
 20
187.033
  0
VERTEX
  8
LAYER_1
 10
101.6725
 20
186.7684
  0
VERTEX
  8
LAYER_1
 10
101.99
 20
186.5303
  0
SEQEND
  0
POLYLINE
  8
LAYER_1
 40
0.1693
 41
0.1693
 66
1
 10
0
 20
0
 30
0
  0
VERTEX
  8
LAYER_1
 10
101.6725
 20
183.2759
  0
VERTEX
  8
LAYER_1
 10
101.99
 20
183.0377
  0
VERTEX
  8
LAYER_1
 10
101.6725
 20
182.7732
  0
VERTEX
  8
LAYER_1
 10
101.99
 20
182.535
  0
VERTEX
  8
LAYER_1
 10
101.6725
 20
182.2705
  0
VERTEX
  8
LAYER_1
 10
101.99
 20
182.0323
  0
VERTEX
  8
LAYER_1
 10
101.6725
 20
181.7677
  0
VERTEX
  8
LAYER_1
 10
101.99
 20
181.5296
  0
VERTEX
  8
LAYER_1
 10
101.6725
 20
181.265
  0
VERTEX
  8
LAYER_1
 10
101.99
 20
181.0269
  0
VERTEX
  8
LAYER_1
 10
101.6725
 20
180.7623
  0
VERTEX
  8
LAYER_1
 10
101.99
 20
180.5242
  0
VERTEX
  8
LAYER_1
 10
101.6725
 20
180.2596
  0
VERTEX
  8
LAYER_1
 10
101.99
 20
180.0215
  0
SEQEND
  0
POLYLINE
  8
LAYER_1
 40
0.1693
 41
0.1693
 66
1
 10
0
 20
0
 30
0
  0
VERTEX
  8
LAYER_1
 10
109.61
 20
188.4617
  0
VERTEX
  8
LAYER_1
 10
109.2925
 20
188.2236
  0
VERTEX
  8
LAYER_1
 10
109.61
 20
187.9855
  0
VERTEX
  8
LAYER_1
 10
109.2925
 20
187.7209
  0
VERTEX
  8
LAYER_1
 10
109.61
 20
187.4828
  0
VERTEX
  8
LAYER_1
 10
109.2925
 20
187.2182
  0
VERTEX
  8
LAYER_1
 10
109.61
 20
186.98
  0
VERTEX
  8
LAYER_1
 10
109.2925
 20
186.7155
  0
SEQEND
  0
POLYLINE
  8
LAYER_1
 40
0.1693
 41
0.1693
 66
1
 10
0
 20
0
 30
0
  0
VERTEX
  8
LAYER_1
 10
109.61
 20
186.4773
  0
VERTEX
  8
LAYER_1
 10
109.2925
 20
186.2127
  0
SEQEND
  0
POLYLINE
  8
LAYER_1
 40
0.1693
 41
0.1693
 66
1
 10
0
 20
0
 30
0
  0
VERTEX
  8
LAYER_1
 10
109.61
 20
183.4875
  0
VERTEX
  8
LAYER_1
 10
109.2925
 20
183.2229
  0
VERTEX
  8
LAYER_1
 10
109.61
 20
182.9848
  0
VERTEX
  8
LAYER_1
 10
109.2925
 20
182.7202
  0
VERTEX
  8
LAYER_1
 10
109.61
 20
182.4821
  0
VERTEX
  8
LAYER_1
 10
109.2925
 20
182.2175
  0
VERTEX
  8
LAYER_1
 10
109.61
 20
181.9794
  0
VERTEX
  8
LAYER_1
 10
109.2925
 20
181.7148
  0
VERTEX
  8
LAYER_1
 10
109.61
 20
181.4767
  0
VERTEX
  8
LAYER_1
 10
109.2925
 20
181.2121
  0
VERTEX
  8
LAYER_1
 10
109.61
 20
180.974
  0
VERTEX
  8
LAYER_1
 10
109.2925
 20
180.7094
  0
VERTEX
  8
LAYER_1
 10
109.61
 20
180.4713
  0
VERTEX
  8
LAYER_1
 10
109.2925
 20
180.2067
  0
VERTEX
  8
LAYER_1
 10
109.61
 20
179.9686
  0
SEQEND
  0
POLYLINE
  8
LAYER_1
 40
0.1693
 41
0.1693
 66
1
 10
0
 20
0
 30
0
  0
VERTEX
  8
LAYER_1
 10
99.3971
 20
196.3463
  0
VERTEX
  8
LAYER_1
 10
111.8854
 20
196.3463
  0
SEQEND
  0
POLYLINE
  8
LAYER_1
 40
0.1693
 41
0.1693
 66
1
 10
0
 20
0
 30
0
  0
VERTEX
  8
LAYER_1
 10
99.3971
 20
196.3463
  0
VERTEX
  8
LAYER_1
 10
99.3971
 20
196.5844
  0
VERTEX
  8
LAYER_1
 10
111.8854
 20
196.5844
  0
SEQEND
  0
POLYLINE
  8
LAYER_1
 40
0.1693
 41
0.1693
 66
1
 10
0
 20
0
 30
0
  0
VERTEX
  8
LAYER_1
 10
111.8854
 20
196.3463
  0
VERTEX
  8
LAYER_1
 10
111.8854
 20
196.5844
  0
SEQEND
  0
POLYLINE
  8
LAYER_1
 40
0.0847
 41
0.0847
 66
1
 10
0
 20
0
 30
0
  0
VERTEX
  8
LAYER_1
 10
99.6088
 20
196.5845
  0
VERTEX
  8
LAYER_1
 10
99.8469
 20
196.3463
  0
SEQEND
  0
POLYLINE
  8
LAYER_1
 40
0.0847
 41
0.0847
 66
1
 10
0
 20
0
 30
0
  0
VERTEX
  8
LAYER_1
 10
100.6671
 20
196.5845
  0
VERTEX
  8
LAYER_1
 10
100.9052
 20
196.3463
  0
SEQEND
  0
POLYLINE
  8
LAYER_1
 40
0.0847
 41
0.0847
 66
1
 10
0
 20
0
 30
0
  0
VERTEX
  8
LAYER_1
 10
101.7254
 20
196.5845
  0
VERTEX
  8
LAYER_1
 10
101.9635
 20
196.3463
  0
SEQEND
  0
POLYLINE
  8
LAYER_1
 40
0.0847
 41
0.0847
 66
1
 10
0
 20
0
 30
0
  0
VERTEX
  8
LAYER_1
 10
102.7838
 20
196.5845
  0
VERTEX
  8
LAYER_1
 10
103.0219
 20
196.3463
  0
SEQEND
  0
POLYLINE
  8
LAYER_1
 40
0.0847
 41
0.0847
 66
1
 10
0
 20
0
 30
0
  0
VERTEX
  8
LAYER_1
 10
103.8421
 20
196.5845
  0
VERTEX
  8
LAYER_1
 10
104.0802
 20
196.3463
  0
SEQEND
  0
POLYLINE
  8
LAYER_1
 40
0.0847
 41
0.0847
 66
1
 10
0
 20
0
 30
0
  0
VERTEX
  8
LAYER_1
 10
104.9004
 20
196.5845
  0
VERTEX
  8
LAYER_1
 10
105.1385
 20
196.3463
  0
SEQEND
  0
POLYLINE
  8
LAYER_1
 40
0.0847
 41
0.0847
 66
1
 10
0
 20
0
 30
0
  0
VERTEX
  8
LAYER_1
 10
105.9323
 20
196.5845
  0
VERTEX
  8
LAYER_1
 10
106.1704
 20
196.3463
  0
SEQEND
  0
POLYLINE
  8
LAYER_1
 40
0.0847
 41
0.0847
 66
1
 10
0
 20
0
 30
0
  0
VERTEX
  8
LAYER_1
 10
106.9906
 20
196.5845
  0
VERTEX
  8
LAYER_1
 10
107.2552
 20
196.3463
  0
SEQEND
  0
POLYLINE
  8
LAYER_1
 40
0.0847
 41
0.0847
 66
1
 10
0
 20
0
 30
0
  0
VERTEX
  8
LAYER_1
 10
108.0489
 20
196.5845
  0
VERTEX
  8
LAYER_1
 10
108.3135
 20
196.3463
  0
SEQEND
  0
POLYLINE
  8
LAYER_1
 40
0.0847
 41
0.0847
 66
1
 10
0
 20
0
 30
0
  0
VERTEX
  8
LAYER_1
 10
109.1073
 20
196.5845
  0
VERTEX
  8
LAYER_1
 10
109.3719
 20
196.3463
  0
SEQEND
  0
POLYLINE
  8
LAYER_1
 40
0.0847
 41
0.0847
 66
1
 10
0
 20
0
 30
0
  0
VERTEX
  8
LAYER_1
 10
110.1656
 20
196.5845
  0
VERTEX
  8
LAYER_1
 10
110.4302
 20
196.3463
  0
SEQEND
  0
POLYLINE
  8
LAYER_1
 40
0.0847
 41
0.0847
 66
1
 10
0
 20
0
 30
0
  0
VERTEX
  8
LAYER_1
 10
111.2239
 20
196.5845
  0
VERTEX
  8
LAYER_1
 10
111.4885
 20
196.3463
  0
SEQEND
  0
POLYLINE
  8
LAYER_1
 40
0.1693
 41
0.1693
 66
1
 10
0
 20
0
 30
0
  0
VERTEX
  8
LAYER_1
 10
99.5294
 20
189.9699
  0
VERTEX
  8
LAYER_1
 10
111.7531
 20
189.9699
  0
VERTEX
  8
LAYER_1
 10
111.7531
 20
190.5784
  0
SEQEND
  0
POLYLINE
  8
LAYER_1
 40
0.1693
 41
0.1693
 66
1
 10
0
 20
0
 30
0
  0
VERTEX
  8
LAYER_1
 10
99.5294
 20
190.5784
  0
VERTEX
  8
LAYER_1
 10
111.7531
 20
190.5784
  0
SEQEND
  0
POLYLINE
  8
LAYER_1
 40
0.1693
 41
0.1693
 66
1
 10
0
 20
0
 30
0
  0
VERTEX
  8
LAYER_1
 10
99.5294
 20
189.9699
  0
VERTEX
  8
LAYER_1
 10
99.5294
 20
190.5784
  0
SEQEND
  0
POLYLINE
  8
LAYER_1
 40
0.1693
 41
0.1693
 66
1
 10
0
 20
0
 30
0
  0
VERTEX
  8
LAYER_1
 10
100.9052
 20
188.4882
  0
VERTEX
  8
LAYER_1
 10
100.9052
 20
189.9699
  0
SEQEND
  0
POLYLINE
  8
LAYER_1
 40
0.1693
 41
0.1693
 66
1
 10
0
 20
0
 30
0
  0
VERTEX
  8
LAYER_1
 10
100.9052
 20
188.4882
  0
VERTEX
  8
LAYER_1
 10
110.3773
 20
188.4882
  0
VERTEX
  8
LAYER_1
 10
110.3773
 20
189.9699
  0
SEQEND
  0
POLYLINE
  8
LAYER_1
 40
0.1693
 41
0.1693
 66
1
 10
0
 20
0
 30
0
  0
VERTEX
  8
LAYER_1
 10
101.7254
 20
192.5892
  0
VERTEX
  8
LAYER_1
 10
99.159
 20
191.0811
  0
SEQEND
  0
POLYLINE
  8
LAYER_1
 40
0.1693
 41
0.1693
 66
1
 10
0
 20
0
 30
0
  0
VERTEX
  8
LAYER_1
 10
99.159
 20
190.7107
  0
VERTEX
  8
LAYER_1
 10
99.159
 20
191.0811
  0
SEQEND
  0
POLYLINE
  8
LAYER_1
 40
0.1693
 41
0.1693
 66
1
 10
0
 20
0
 30
0
  0
VERTEX
  8
LAYER_1
 10
99.159
 20
190.7107
  0
VERTEX
  8
LAYER_1
 10
112.1235
 20
190.7107
  0
VERTEX
  8
LAYER_1
 10
112.1235
 20
191.0811
  0
SEQEND
  0
POLYLINE
  8
LAYER_1
 40
0.1693
 41
0.1693
 66
1
 10
0
 20
0
 30
0
  0
VERTEX
  8
LAYER_1
 10
109.5571
 20
192.5892
  0
VERTEX
  8
LAYER_1
 10
112.1235
 20
191.0811
  0
SEQEND
  0
POLYLINE
  8
LAYER_1
 40
0.1693
 41
0.1693
 66
1
 10
0
 20
0
 30
0
  0
VERTEX
  8
LAYER_1
 10
101.7254
 20
192.5892
  0
VERTEX
  8
LAYER_1
 10
109.5571
 20
192.5892
  0
SEQEND
  0
POLYLINE
  8
LAYER_1
 40
0.0847
 41
0.0847
 66
1
 10
0
 20
0
 30
0
  0
VERTEX
  8
LAYER_1
 10
99.159
 20
191.0811
  0
VERTEX
  8
LAYER_1
 10
112.1236
 20
191.0811
  0
SEQEND
  0
POLYLINE
  8
LAYER_1
 40
0.1693
 41
0.1693
 66
1
 10
0
 20
0
 30
0
  0
VERTEX
  8
LAYER_1
 10
99.3971
 20
190.5784
  0
VERTEX
  8
LAYER_1
 10
99.3971
 20
190.7107
  0
SEQEND
  0
POLYLINE
  8
LAYER_1
 40
0.1693
 41
0.1693
 66
1
 10
0
 20
0
 30
0
  0
VERTEX
  8
LAYER_1
 10
99.3971
 20
190.5784
  0
VERTEX
  8
LAYER_1
 10
111.8854
 20
190.5784
  0
VERTEX
  8
LAYER_1
 10
111.8854
 20
190.7107
  0
SEQEND
  0
POLYLINE
  8
LAYER_1
 40
0.1693
 41
0.1693
 66
1
 10
0
 20
0
 30
0
  0
VERTEX
  8
LAYER_1
 10
99.3971
 20
190.7107
  0
VERTEX
  8
LAYER_1
 10
111.8854
 20
190.7107
  0
SEQEND
  0
POLYLINE
  8
LAYER_1
 40
0.0847
 41
0.0847
 66
1
 10
0
 20
0
 30
0
  0
VERTEX
  8
LAYER_1
 10
105.6413
 20
188.4882
  0
VERTEX
  8
LAYER_1
 10
105.6413
 20
189.9698
  0
SEQEND
  0
POLYLINE
  8
LAYER_1
 40
0.0847
 41
0.0847
 66
1
 10
0
 20
0
 30
0
  0
VERTEX
  8
LAYER_1
 10
111.7002
 20
196.4521
  0
VERTEX
  8
LAYER_1
 10
157.9494
 20
206.5592
  0
SEQEND
  0
POLYLINE
  8
LAYER_1
 40
0.0847
 41
0.0847
 66
1
 10
0
 20
0
 30
0
  0
VERTEX
  8
LAYER_1
 10
110.3509
 20
196.7961
  0
VERTEX
  8
LAYER_1
 10
157.2879
 20
211.3217
  0
SEQEND
  0
POLYLINE
  8
LAYER_1
 40
0.0847
 41
0.0847
 66
1
 10
0
 20
0
 30
0
  0
VERTEX
  8
LAYER_1
 10
107.414
 20
190.6578
  0
VERTEX
  8
LAYER_1
 10
151.1496
 20
152.0551
  0
SEQEND
  0
POLYLINE
  8
LAYER_1
 40
0.0847
 41
0.0847
 66
1
 10
0
 20
0
 30
0
  0
VERTEX
  8
LAYER_1
 10
109.0279
 20
191.822
  0
VERTEX
  8
LAYER_1
 10
163.0823
 20
157.6378
  0
SEQEND
  0
POLYLINE
  8
LAYER_1
 40
0.0847
 41
0.0847
 66
1
 10
0
 20
0
 30
0
  0
VERTEX
  8
LAYER_1
 10
58.1486
 20
160.1249
  0
VERTEX
  8
LAYER_1
 10
101.4608
 20
188.8851
  0
SEQEND
  0
POLYLINE
  8
LAYER_1
 40
0.1693
 41
0.1693
 66
1
 10
0
 20
0
 30
0
  0
VERTEX
  8
LAYER_1
 10
101.9636
 20
188.4882
  0
VERTEX
  8
LAYER_1
 10
101.6725
 20
188.2765
  0
SEQEND
  0
POLYLINE
  8
LAYER_1
 40
0.1693
 41
0.1693
 66
1
 10
0
 20
0
 30
0
  0
VERTEX
  8
LAYER_1
 10
109.5836
 20
188.4882
  0
VERTEX
  8
LAYER_1
 10
109.61
 20
188.4617
  0
SEQEND
  0
POLYLINE
  8
LAYER_1
 40
0.254
 41
0.254
 66
1
 10
0
 20
0
 30
0
  0
VERTEX
  8
LAYER_1
 10
113.7375
 20
186.3451
  0
VERTEX
  8
LAYER_1
 10
113.7375
 20
192.5892
  0
SEQEND
  0
POLYLINE
  8
LAYER_1
 40
0.0847
 41
0.0847
 66
1
 10
0
 20
0
 30
0
  0
VERTEX
  8
LAYER_1
 10
193.9327
 20
186.4509
  0
VERTEX
  8
LAYER_1
 10
194.0121
 20
186.345
  0
SEQEND
  0
POLYLINE
  8
LAYER_1
 40
0.254
 41
0.254
 66
1
 10
0
 20
0
 30
0
  0
VERTEX
  8
LAYER_1
 10
113.7375
 20
186.3451
  0
VERTEX
  8
LAYER_1
 10
194.0121
 20
186.3451
  0
SEQEND
  0
POLYLINE
  8
LAYER_1
 40
0.0847
 41
0.0847
 66
1
 10
0
 20
0
 30
0
  0
VERTEX
  8
LAYER_1
 10
128.5806
 20
186.3451
  0
VERTEX
  8
LAYER_1
 10
134.8248
 20
192.5892
  0
SEQEND
  0
POLYLINE
  8
LAYER_1
 40
0.0847
 41
0.0847
 66
1
 10
0
 20
0
 30
0
  0
VERTEX
  8
LAYER_1
 10
192.1865
 20
186.3451
  0
VERTEX
  8
LAYER_1
 10
193.3506
 20
187.5092
  0
SEQEND
  0
POLYLINE
  8
LAYER_1
 40
0.0847
 41
0.0847
 66
1
 10
0
 20
0
 30
0
  0
VERTEX
  8
LAYER_1
 10
146.2283
 20
186.3451
  0
VERTEX
  8
LAYER_1
 10
152.499
 20
192.5892
  0
SEQEND
  0
POLYLINE
  8
LAYER_1
 40
0.0847
 41
0.0847
 66
1
 10
0
 20
0
 30
0
  0
VERTEX
  8
LAYER_1
 10
149.7738
 20
186.3451
  0
VERTEX
  8
LAYER_1
 10
156.0179
 20
192.5892
  0
SEQEND
  0
POLYLINE
  8
LAYER_1
 40
0.0847
 41
0.0847
 66
1
 10
0
 20
0
 30
0
  0
VERTEX
  8
LAYER_1
 10
153.3192
 20
186.3451
  0
VERTEX
  8
LAYER_1
 10
159.5633
 20
192.5892
  0
SEQEND
  0
POLYLINE
  8
LAYER_1
 40
0.0847
 41
0.0847
 66
1
 10
0
 20
0
 30
0
  0
VERTEX
  8
LAYER_1
 10
156.8381
 20
186.3451
  0
VERTEX
  8
LAYER_1
 10
163.0823
 20
192.5892
  0
SEQEND
  0
POLYLINE
  8
LAYER_1
 40
0.0847
 41
0.0847
 66
1
 10
0
 20
0
 30
0
  0
VERTEX
  8
LAYER_1
 10
160.3836
 20
186.3451
  0
VERTEX
  8
LAYER_1
 10
166.6277
 20
192.5892
  0
SEQEND
  0
POLYLINE
  8
LAYER_1
 40
0.0847
 41
0.0847
 66
1
 10
0
 20
0
 30
0
  0
VERTEX
  8
LAYER_1
 10
163.9025
 20
186.3451
  0
VERTEX
  8
LAYER_1
 10
170.1467
 20
192.5892
  0
SEQEND
  0
POLYLINE
  8
LAYER_1
 40
0.0847
 41
0.0847
 66
1
 10
0
 20
0
 30
0
  0
VERTEX
  8
LAYER_1
 10
167.448
 20
186.3451
  0
VERTEX
  8
LAYER_1
 10
173.6921
 20
192.5892
  0
SEQEND
  0
POLYLINE
  8
LAYER_1
 40
0.0847
 41
0.0847
 66
1
 10
0
 20
0
 30
0
  0
VERTEX
  8
LAYER_1
 10
170.9669
 20
186.3451
  0
VERTEX
  8
LAYER_1
 10
177.2375
 20
192.5892
  0
SEQEND
  0
POLYLINE
  8
LAYER_1
 40
0.0847
 41
0.0847
 66
1
 10
0
 20
0
 30
0
  0
VERTEX
  8
LAYER_1
 10
174.5123
 20
186.3451
  0
VERTEX
  8
LAYER_1
 10
180.7565
 20
192.5892
  0
SEQEND
  0
POLYLINE
  8
LAYER_1
 40
0.0847
 41
0.0847
 66
1
 10
0
 20
0
 30
0
  0
VERTEX
  8
LAYER_1
 10
178.0578
 20
186.3451
  0
VERTEX
  8
LAYER_1
 10
184.3019
 20
192.5892
  0
SEQEND
  0
POLYLINE
  8
LAYER_1
 40
0.0847
 41
0.0847
 66
1
 10
0
 20
0
 30
0
  0
VERTEX
  8
LAYER_1
 10
181.5767
 20
186.3451
  0
VERTEX
  8
LAYER_1
 10
187.8209
 20
192.5892
  0
SEQEND
  0
POLYLINE
  8
LAYER_1
 40
0.0847
 41
0.0847
 66
1
 10
0
 20
0
 30
0
  0
VERTEX
  8
LAYER_1
 10
185.1221
 20
186.3451
  0
VERTEX
  8
LAYER_1
 10
191.3663
 20
192.5892
  0
SEQEND
  0
POLYLINE
  8
LAYER_1
 40
0.0847
 41
0.0847
 66
1
 10
0
 20
0
 30
0
  0
VERTEX
  8
LAYER_1
 10
188.6411
 20
186.3451
  0
VERTEX
  8
LAYER_1
 10
193.8798
 20
191.5573
  0
SEQEND
  0
POLYLINE
  8
LAYER_1
 40
0.0847
 41
0.0847
 66
1
 10
0
 20
0
 30
0
  0
VERTEX
  8
LAYER_1
 10
132.0996
 20
186.3451
  0
VERTEX
  8
LAYER_1
 10
138.3438
 20
192.5892
  0
SEQEND
  0
POLYLINE
  8
LAYER_1
 40
0.0847
 41
0.0847
 66
1
 10
0
 20
0
 30
0
  0
VERTEX
  8
LAYER_1
 10
135.6451
 20
186.3451
  0
VERTEX
  8
LAYER_1
 10
141.8892
 20
192.5892
  0
SEQEND
  0
POLYLINE
  8
LAYER_1
 40
0.0847
 41
0.0847
 66
1
 10
0
 20
0
 30
0
  0
VERTEX
  8
LAYER_1
 10
139.164
 20
186.3451
  0
VERTEX
  8
LAYER_1
 10
145.4082
 20
192.5892
  0
SEQEND
  0
POLYLINE
  8
LAYER_1
 40
0.0847
 41
0.0847
 66
1
 10
0
 20
0
 30
0
  0
VERTEX
  8
LAYER_1
 10
142.7094
 20
186.3451
  0
VERTEX
  8
LAYER_1
 10
148.9536
 20
192.5892
  0
SEQEND
  0
POLYLINE
  8
LAYER_1
 40
0.0847
 41
0.0847
 66
1
 10
0
 20
0
 30
0
  0
VERTEX
  8
LAYER_1
 10
125.0353
 20
186.3451
  0
VERTEX
  8
LAYER_1
 10
131.2794
 20
192.5892
  0
SEQEND
  0
POLYLINE
  8
LAYER_1
 40
0.0847
 41
0.0847
 66
1
 10
0
 20
0
 30
0
  0
VERTEX
  8
LAYER_1
 10
121.4899
 20
186.3451
  0
VERTEX
  8
LAYER_1
 10
127.7605
 20
192.5892
  0
SEQEND
  0
POLYLINE
  8
LAYER_1
 40
0.0847
 41
0.0847
 66
1
 10
0
 20
0
 30
0
  0
VERTEX
  8
LAYER_1
 10
117.9709
 20
186.3451
  0
VERTEX
  8
LAYER_1
 10
124.2151
 20
192.5892
  0
SEQEND
  0
POLYLINE
  8
LAYER_1
 40
0.0847
 41
0.0847
 66
1
 10
0
 20
0
 30
0
  0
VERTEX
  8
LAYER_1
 10
114.4255
 20
186.3451
  0
VERTEX
  8
LAYER_1
 10
120.6696
 20
192.5892
  0
SEQEND
  0
POLYLINE
  8
LAYER_1
 40
0.0847
 41
0.0847
 66
1
 10
0
 20
0
 30
0
  0
VERTEX
  8
LAYER_1
 10
19.0432
 20
186.3451
  0
VERTEX
  8
LAYER_1
 10
25.2874
 20
192.5892
  0
SEQEND
  0
POLYLINE
  8
LAYER_1
 40
0.0847
 41
0.0847
 66
1
 10
0
 20
0
 30
0
  0
VERTEX
  8
LAYER_1
 10
86.1944
 20
186.3451
  0
VERTEX
  8
LAYER_1
 10
92.4386
 20
192.5892
  0
SEQEND
  0
POLYLINE
  8
LAYER_1
 40
0.0847
 41
0.0847
 66
1
 10
0
 20
0
 30
0
  0
VERTEX
  8
LAYER_1
 10
40.2363
 20
186.3451
  0
VERTEX
  8
LAYER_1
 10
46.4805
 20
192.5892
  0
SEQEND
  0
POLYLINE
  8
LAYER_1
 40
0.0847
 41
0.0847
 66
1
 10
0
 20
0
 30
0
  0
VERTEX
  8
LAYER_1
 10
36.7174
 20
186.3451
  0
VERTEX
  8
LAYER_1
 10
42.9615
 20
192.5892
  0
SEQEND
  0
POLYLINE
  8
LAYER_1
 40
0.0847
 41
0.0847
 66
1
 10
0
 20
0
 30
0
  0
VERTEX
  8
LAYER_1
 10
33.1719
 20
186.3451
  0
VERTEX
  8
LAYER_1
 10
39.4161
 20
192.5892
  0
SEQEND
  0
POLYLINE
  8
LAYER_1
 40
0.0847
 41
0.0847
 66
1
 10
0
 20
0
 30
0
  0
VERTEX
  8
LAYER_1
 10
29.653
 20
186.3451
  0
VERTEX
  8
LAYER_1
 10
35.8972
 20
192.5892
  0
SEQEND
  0
POLYLINE
  8
LAYER_1
 40
0.0847
 41
0.0847
 66
1
 10
0
 20
0
 30
0
  0
VERTEX
  8
LAYER_1
 10
26.1076
 20
186.3451
  0
VERTEX
  8
LAYER_1
 10
32.3517
 20
192.5892
  0
SEQEND
  0
POLYLINE
  8
LAYER_1
 40
0.0847
 41
0.0847
 66
1
 10
0
 20
0
 30
0
  0
VERTEX
  8
LAYER_1
 10
82.649
 20
186.3451
  0
VERTEX
  8
LAYER_1
 10
88.8932
 20
192.5892
  0
SEQEND
  0
POLYLINE
  8
LAYER_1
 40
0.0847
 41
0.0847
 66
1
 10
0
 20
0
 30
0
  0
VERTEX
  8
LAYER_1
 10
79.1301
 20
186.3451
  0
VERTEX
  8
LAYER_1
 10
85.3742
 20
192.5892
  0
SEQEND
  0
POLYLINE
  8
LAYER_1
 40
0.0847
 41
0.0847
 66
1
 10
0
 20
0
 30
0
  0
VERTEX
  8
LAYER_1
 10
75.5847
 20
186.3451
  0
VERTEX
  8
LAYER_1
 10
81.8288
 20
192.5892
  0
SEQEND
  0
POLYLINE
  8
LAYER_1
 40
0.0847
 41
0.0847
 66
1
 10
0
 20
0
 30
0
  0
VERTEX
  8
LAYER_1
 10
72.0392
 20
186.3451
  0
VERTEX
  8
LAYER_1
 10
78.3099
 20
192.5892
  0
SEQEND
  0
POLYLINE
  8
LAYER_1
 40
0.0847
 41
0.0847
 66
1
 10
0
 20
0
 30
0
  0
VERTEX
  8
LAYER_1
 10
68.5203
 20
186.3451
  0
VERTEX
  8
LAYER_1
 10
74.7644
 20
192.5892
  0
SEQEND
  0
POLYLINE
  8
LAYER_1
 40
0.0847
 41
0.0847
 66
1
 10
0
 20
0
 30
0
  0
VERTEX
  8
LAYER_1
 10
64.9749
 20
186.3451
  0
VERTEX
  8
LAYER_1
 10
71.219
 20
192.5892
  0
SEQEND
  0
POLYLINE
  8
LAYER_1
 40
0.0847
 41
0.0847
 66
1
 10
0
 20
0
 30
0
  0
VERTEX
  8
LAYER_1
 10
61.4559
 20
186.3451
  0
VERTEX
  8
LAYER_1
 10
67.7001
 20
192.5892
  0
SEQEND
  0
POLYLINE
  8
LAYER_1
 40
0.0847
 41
0.0847
 66
1
 10
0
 20
0
 30
0
  0
VERTEX
  8
LAYER_1
 10
57.9105
 20
186.3451
  0
VERTEX
  8
LAYER_1
 10
64.1547
 20
192.5892
  0
SEQEND
  0
POLYLINE
  8
LAYER_1
 40
0.0847
 41
0.0847
 66
1
 10
0
 20
0
 30
0
  0
VERTEX
  8
LAYER_1
 10
54.3915
 20
186.3451
  0
VERTEX
  8
LAYER_1
 10
60.6357
 20
192.5892
  0
SEQEND
  0
POLYLINE
  8
LAYER_1
 40
0.0847
 41
0.0847
 66
1
 10
0
 20
0
 30
0
  0
VERTEX
  8
LAYER_1
 10
50.8461
 20
186.3451
  0
VERTEX
  8
LAYER_1
 10
57.0903
 20
192.5892
  0
SEQEND
  0
POLYLINE
  8
LAYER_1
 40
0.0847
 41
0.0847
 66
1
 10
0
 20
0
 30
0
  0
VERTEX
  8
LAYER_1
 10
47.3007
 20
186.3451
  0
VERTEX
  8
LAYER_1
 10
53.5713
 20
192.5892
  0
SEQEND
  0
POLYLINE
  8
LAYER_1
 40
0.0847
 41
0.0847
 66
1
 10
0
 20
0
 30
0
  0
VERTEX
  8
LAYER_1
 10
43.7818
 20
186.3451
  0
VERTEX
  8
LAYER_1
 10
50.0259
 20
192.5892
  0
SEQEND
  0
POLYLINE
  8
LAYER_1
 40
0.0847
 41
0.0847
 66
1
 10
0
 20
0
 30
0
  0
VERTEX
  8
LAYER_1
 10
22.5622
 20
186.3451
  0
VERTEX
  8
LAYER_1
 10
28.8328
 20
192.5892
  0
SEQEND
  0
POLYLINE
  8
LAYER_1
 40
0.0847
 41
0.0847
 66
1
 10
0
 20
0
 30
0
  0
VERTEX
  8
LAYER_1
 10
89.7134
 20
186.3451
  0
VERTEX
  8
LAYER_1
 10
95.9576
 20
192.5892
  0
SEQEND
  0
POLYLINE
  8
LAYER_1
 40
0.0847
 41
0.0847
 66
1
 10
0
 20
0
 30
0
  0
VERTEX
  8
LAYER_1
 10
93.2588
 20
186.3451
  0
VERTEX
  8
LAYER_1
 10
97.5451
 20
190.6313
  0
SEQEND
  0
POLYLINE
  8
LAYER_1
 40
0.0847
 41
0.0847
 66
1
 10
0
 20
0
 30
0
  0
VERTEX
  8
LAYER_1
 10
96.7778
 20
186.3451
  0
VERTEX
  8
LAYER_1
 10
97.5451
 20
187.0859
  0
SEQEND
  0
POLYLINE
  8
LAYER_1
 40
0.0847
 41
0.0847
 66
1
 10
0
 20
0
 30
0
  0
VERTEX
  8
LAYER_1
 10
17.3499
 20
186.4509
  0
VERTEX
  8
LAYER_1
 10
17.2705
 20
186.345
  0
SEQEND
  0
POLYLINE
  8
LAYER_1
 40
0.254
 41
0.254
 66
1
 10
0
 20
0
 30
0
  0
VERTEX
  8
LAYER_1
 10
17.2704
 20
186.3451
  0
VERTEX
  8
LAYER_1
 10
97.545
 20
186.3451
  0
SEQEND
  0
POLYLINE
  8
LAYER_1
 40
0.1693
 41
0.1693
 66
1
 10
0
 20
0
 30
0
  0
VERTEX
  8
LAYER_1
 10
102.1488
 20
179.3865
  0
VERTEX
  8
LAYER_1
 10
109.1338
 20
179.3865
  0
SEQEND
  0
POLYLINE
  8
LAYER_1
 40
0.1693
 41
0.1693
 66
1
 10
0
 20
0
 30
0
  0
VERTEX
  8
LAYER_1
 10
101.99
 20
179.757
  0
VERTEX
  8
LAYER_1
 10
102.1488
 20
179.3865
  0
SEQEND
  0
POLYLINE
  8
LAYER_1
 40
0.1693
 41
0.1693
 66
1
 10
0
 20
0
 30
0
  0
VERTEX
  8
LAYER_1
 10
101.99
 20
180.0215
  0
VERTEX
  8
LAYER_1
 10
101.6725
 20
179.7569
  0
SEQEND
  0
POLYLINE
  8
LAYER_1
 40
0.1693
 41
0.1693
 66
1
 10
0
 20
0
 30
0
  0
VERTEX
  8
LAYER_1
 10
109.2925
 20
179.757
  0
VERTEX
  8
LAYER_1
 10
109.1338
 20
179.3865
  0
SEQEND
  0
POLYLINE
  8
LAYER_1
 40
0.1693
 41
0.1693
 66
1
 10
0
 20
0
 30
0
  0
VERTEX
  8
LAYER_1
 10
101.6725
 20
179.757
  0
VERTEX
  8
LAYER_1
 10
109.3454
 20
179.757
  0
SEQEND
  0
POLYLINE
  8
LAYER_1
 40
0.1693
 41
0.1693
 66
1
 10
0
 20
0
 30
0
  0
VERTEX
  8
LAYER_1
 10
109.61
 20
179.9686
  0
VERTEX
  8
LAYER_1
 10
109.3454
 20
179.7569
  0
SEQEND
  0
POLYLINE
  8
LAYER_1
 40
0.1693
 41
0.1693
 66
1
 10
0
 20
0
 30
0
  0
VERTEX
  8
LAYER_1
 10
95.6665
 20
185.6043
  0
VERTEX
  8
LAYER_1
 10
115.6161
 20
185.6043
  0
VERTEX
  8
LAYER_1
 10
115.6161
 20
186.3451
  0
SEQEND
  0
POLYLINE
  8
LAYER_1
 40
0.1693
 41
0.1693
 66
1
 10
0
 20
0
 30
0
  0
VERTEX
  8
LAYER_1
 10
95.6665
 20
186.3451
  0
VERTEX
  8
LAYER_1
 10
115.6161
 20
186.3451
  0
SEQEND
  0
POLYLINE
  8
LAYER_1
 40
0.1693
 41
0.1693
 66
1
 10
0
 20
0
 30
0
  0
VERTEX
  8
LAYER_1
 10
95.6665
 20
185.6043
  0
VERTEX
  8
LAYER_1
 10
95.6665
 20
186.3451
  0
SEQEND
  0
POLYLINE
  8
LAYER_1
 40
0.0847
 41
0.0847
 66
1
 10
0
 20
0
 30
0
  0
VERTEX
  8
LAYER_1
 10
109.7423
 20
185.6042
  0
VERTEX
  8
LAYER_1
 10
109.7423
 20
185.7894
  0
SEQEND
  0
POLYLINE
  8
LAYER_1
 40
0.0847
 41
0.0847
 66
1
 10
0
 20
0
 30
0
  0
VERTEX
  8
LAYER_1
 10
109.7423
 20
186.1599
  0
VERTEX
  8
LAYER_1
 10
109.7423
 20
186.3451
  0
SEQEND
  0
POLYLINE
  8
LAYER_1
 40
0.0847
 41
0.0847
 66
1
 10
0
 20
0
 30
0
  0
VERTEX
  8
LAYER_1
 10
101.5402
 20
185.6042
  0
VERTEX
  8
LAYER_1
 10
101.5402
 20
185.7894
  0
SEQEND
  0
POLYLINE
  8
LAYER_1
 40
0.0847
 41
0.0847
 66
1
 10
0
 20
0
 30
0
  0
VERTEX
  8
LAYER_1
 10
101.5402
 20
186.1599
  0
VERTEX
  8
LAYER_1
 10
101.5402
 20
186.3451
  0
SEQEND
  0
POLYLINE
  8
LAYER_1
 40
0.1693
 41
0.1693
 66
1
 10
0
 20
0
 30
0
  0
VERTEX
  8
LAYER_1
 10
99.5294
 20
184.9692
  0
VERTEX
  8
LAYER_1
 10
111.7531
 20
184.9692
  0
SEQEND
  0
POLYLINE
  8
LAYER_1
 40
0.1693
 41
0.1693
 66
1
 10
0
 20
0
 30
0
  0
VERTEX
  8
LAYER_1
 10
99.5294
 20
185.6042
  0
VERTEX
  8
LAYER_1
 10
111.7531
 20
185.6042
  0
SEQEND
  0
POLYLINE
  8
LAYER_1
 40
0.1693
 41
0.1693
 66
1
 10
0
 20
0
 30
0
  0
VERTEX
  8
LAYER_1
 10
111.7531
 20
184.9692
  0
VERTEX
  8
LAYER_1
 10
111.7531
 20
185.6042
  0
SEQEND
  0
POLYLINE
  8
LAYER_1
 40
0.1693
 41
0.1693
 66
1
 10
0
 20
0
 30
0
  0
VERTEX
  8
LAYER_1
 10
99.5294
 20
184.9692
  0
VERTEX
  8
LAYER_1
 10
99.5294
 20
185.6042
  0
SEQEND
  0
POLYLINE
  8
LAYER_1
 40
0.1693
 41
0.1693
 66
1
 10
0
 20
0
 30
0
  0
VERTEX
  8
LAYER_1
 10
100.9052
 20
183.4876
  0
VERTEX
  8
LAYER_1
 10
100.9052
 20
184.9692
  0
SEQEND
  0
POLYLINE
  8
LAYER_1
 40
0.1693
 41
0.1693
 66
1
 10
0
 20
0
 30
0
  0
VERTEX
  8
LAYER_1
 10
100.9052
 20
183.4876
  0
VERTEX
  8
LAYER_1
 10
110.3773
 20
183.4876
  0
VERTEX
  8
LAYER_1
 10
110.3773
 20
184.9692
  0
SEQEND
  0
POLYLINE
  8
LAYER_1
 40
0.0847
 41
0.0847
 66
1
 10
0
 20
0
 30
0
  0
VERTEX
  8
LAYER_1
 10
105.6413
 20
183.4876
  0
VERTEX
  8
LAYER_1
 10
105.6413
 20
184.9692
  0
SEQEND
  0
POLYLINE
  8
LAYER_1
 40
0.0847
 41
0.0847
 66
1
 10
0
 20
0
 30
0
  0
VERTEX
  8
LAYER_1
 10
102.5192
 20
159.384
  0
VERTEX
  8
LAYER_1
 10
102.5192
 20
160.6276
  0
SEQEND
  0
POLYLINE
  8
LAYER_1
 40
0.0847
 41
0.0847
 66
1
 10
0
 20
0
 30
0
  0
VERTEX
  8
LAYER_1
 10
102.5192
 20
163.1147
  0
VERTEX
  8
LAYER_1
 10
102.5192
 20
165.6282
  0
SEQEND
  0
POLYLINE
  8
LAYER_1
 40
0.0847
 41
0.0847
 66
1
 10
0
 20
0
 30
0
  0
VERTEX
  8
LAYER_1
 10
102.5192
 20
168.1153
  0
VERTEX
  8
LAYER_1
 10
102.5192
 20
170.6288
  0
SEQEND
  0
POLYLINE
  8
LAYER_1
 40
0.0847
 41
0.0847
 66
1
 10
0
 20
0
 30
0
  0
VERTEX
  8
LAYER_1
 10
102.5192
 20
173.1159
  0
VERTEX
  8
LAYER_1
 10
102.5192
 20
175.6295
  0
SEQEND
  0
POLYLINE
  8
LAYER_1
 40
0.0847
 41
0.0847
 66
1
 10
0
 20
0
 30
0
  0
VERTEX
  8
LAYER_1
 10
102.5192
 20
178.1166
  0
VERTEX
  8
LAYER_1
 10
102.5192
 20
179.3866
  0
SEQEND
  0
POLYLINE
  8
LAYER_1
 40
0.0847
 41
0.0847
 66
1
 10
0
 20
0
 30
0
  0
VERTEX
  8
LAYER_1
 10
108.7634
 20
157.8759
  0
VERTEX
  8
LAYER_1
 10
108.7634
 20
158.9343
  0
SEQEND
  0
POLYLINE
  8
LAYER_1
 40
0.0847
 41
0.0847
 66
1
 10
0
 20
0
 30
0
  0
VERTEX
  8
LAYER_1
 10
108.7634
 20
161.0774
  0
VERTEX
  8
LAYER_1
 10
108.7634
 20
163.247
  0
SEQEND
  0
POLYLINE
  8
LAYER_1
 40
0.0847
 41
0.0847
 66
1
 10
0
 20
0
 30
0
  0
VERTEX
  8
LAYER_1
 10
108.7634
 20
165.3901
  0
VERTEX
  8
LAYER_1
 10
108.7634
 20
167.5333
  0
SEQEND
  0
POLYLINE
  8
LAYER_1
 40
0.0847
 41
0.0847
 66
1
 10
0
 20
0
 30
0
  0
VERTEX
  8
LAYER_1
 10
108.7634
 20
169.7029
  0
VERTEX
  8
LAYER_1
 10
108.7634
 20
171.846
  0
SEQEND
  0
POLYLINE
  8
LAYER_1
 40
0.0847
 41
0.0847
 66
1
 10
0
 20
0
 30
0
  0
VERTEX
  8
LAYER_1
 10
108.7634
 20
173.9891
  0
VERTEX
  8
LAYER_1
 10
108.7634
 20
176.1587
  0
SEQEND
  0
POLYLINE
  8
LAYER_1
 40
0.0847
 41
0.0847
 66
1
 10
0
 20
0
 30
0
  0
VERTEX
  8
LAYER_1
 10
108.7634
 20
178.3018
  0
VERTEX
  8
LAYER_1
 10
108.7634
 20
179.3866
  0
SEQEND
  0
TEXT
  8
LAYER_1
 10
149.4301
 20
180.6303
 11
149.4301
 21
180.6303
 40
5.3169
 41
0.5
  1
ôVö┬èJî¹Éíû@üF53055
  0
POLYLINE
  8
LAYER_1
 40
0.0847
 41
0.0847
 66
1
 10
0
 20
0
 30
0
  0
VERTEX
  8
LAYER_1
 10
206.5269
 20
186.3451
  0
VERTEX
  8
LAYER_1
 10
206.5269
 20
192.5892
  0
SEQEND
  0
POLYLINE
  8
LAYER_1
 40
0.1693
 41
0.1693
 66
1
 10
0
 20
0
 30
0
  0
VERTEX
  8
LAYER_1
 10
206.5269
 20
192.5892
  0
VERTEX
  8
LAYER_1
 10
206.0506
 20
194.3884
  0
SEQEND
  0
POLYLINE
  8
LAYER_1
 40
0.1693
 41
0.1693
 66
1
 10
0
 20
0
 30
0
  0
VERTEX
  8
LAYER_1
 10
206.5269
 20
192.5892
  0
VERTEX
  8
LAYER_1
 10
207.0296
 20
194.3884
  0
SEQEND
  0
POLYLINE
  8
LAYER_1
 40
0.1693
 41
0.1693
 66
1
 10
0
 20
0
 30
0
  0
VERTEX
  8
LAYER_1
 10
206.5269
 20
186.3451
  0
VERTEX
  8
LAYER_1
 10
207.0296
 20
184.5195
  0
SEQEND
  0
POLYLINE
  8
LAYER_1
 40
0.1693
 41
0.1693
 66
1
 10
0
 20
0
 30
0
  0
VERTEX
  8
LAYER_1
 10
206.5269
 20
186.3451
  0
VERTEX
  8
LAYER_1
 10
206.0506
 20
184.5195
  0
SEQEND
  0
POLYLINE
  8
LAYER_1
 40
0.0847
 41
0.0847
 66
1
 10
0
 20
0
 30
0
  0
VERTEX
  8
LAYER_1
 10
199.7536
 20
192.5892
  0
VERTEX
  8
LAYER_1
 10
206.5269
 20
192.5892
  0
SEQEND
  0
POLYLINE
  8
LAYER_1
 40
0.0847
 41
0.0847
 66
1
 10
0
 20
0
 30
0
  0
VERTEX
  8
LAYER_1
 10
199.7536
 20
186.3451
  0
VERTEX
  8
LAYER_1
 10
206.5269
 20
186.3451
  0
SEQEND
  0
TEXT
  8
LAYER_1
 10
205.6189
 20
187.4299
 11
205.6189
 21
187.4299
 40
4.5757
 41
0.5
 50
89.99999999
  1
25
  0
POLYLINE
  8
LAYER_1
 40
0.1693
 41
0.1693
 66
1
 10
0
 20
0
 30
0
  0
VERTEX
  8
LAYER_1
 10
101.99
 20
186.5303
  0
VERTEX
  8
LAYER_1
 10
101.7784
 20
186.345
  0
SEQEND
  0
POLYLINE
  8
LAYER_1
 40
0.1693
 41
0.1693
 66
1
 10
0
 20
0
 30
0
  0
VERTEX
  8
LAYER_1
 10
109.2925
 20
186.7155
  0
VERTEX
  8
LAYER_1
 10
109.7688
 20
186.345
  0
SEQEND
  0
POLYLINE
  8
LAYER_1
 40
0.1693
 41
0.1693
 66
1
 10
0
 20
0
 30
0
  0
VERTEX
  8
LAYER_1
 10
109.5836
 20
183.4875
  0
VERTEX
  8
LAYER_1
 10
109.61
 20
183.4875
  0
SEQEND
  0
POLYLINE
  8
LAYER_1
 40
0.1693
 41
0.1693
 66
1
 10
0
 20
0
 30
0
  0
VERTEX
  8
LAYER_1
 10
101.9636
 20
183.4875
  0
VERTEX
  8
LAYER_1
 10
101.6725
 20
183.2759
  0
SEQEND
  0
POLYLINE
  8
LAYER_1
 40
0.0847
 41
0.0847
 66
1
 10
0
 20
0
 30
0
  0
VERTEX
  8
LAYER_1
 10
58.1486
 20
160.1249
  0
VERTEX
  8
LAYER_1
 10
101.355
 20
183.9903
  0
SEQEND
  0
POLYLINE
  8
LAYER_1
 40
0.0847
 41
0.0847
 66
1
 10
0
 20
0
 30
0
  0
VERTEX
  8
LAYER_1
 10
71.5365
 20
149.5151
  0
VERTEX
  8
LAYER_1
 10
98.524
 20
185.9217
  0
SEQEND
  0
POLYLINE
  8
LAYER_1
 40
0.1693
 41
0.1693
 66
1
 10
0
 20
0
 30
0
  0
VERTEX
  8
LAYER_1
 10
98.1536
 20
199.7594
  0
VERTEX
  8
LAYER_1
 10
98.1536
 20
200.5003
  0
VERTEX
  8
LAYER_1
 10
113.129
 20
200.5003
  0
SEQEND
  0
POLYLINE
  8
LAYER_1
 40
0.1693
 41
0.1693
 66
1
 10
0
 20
0
 30
0
  0
VERTEX
  8
LAYER_1
 10
113.129
 20
199.7594
  0
VERTEX
  8
LAYER_1
 10
113.129
 20
200.5003
  0
SEQEND
  0
POLYLINE
  8
LAYER_1
 40
0.1693
 41
0.1693
 66
1
 10
0
 20
0
 30
0
  0
VERTEX
  8
LAYER_1
 10
98.1536
 20
199.7594
  0
VERTEX
  8
LAYER_1
 10
113.129
 20
199.7594
  0
SEQEND
  0
POLYLINE
  8
LAYER_1
 40
0.1693
 41
0.1693
 66
1
 10
0
 20
0
 30
0
  0
VERTEX
  8
LAYER_1
 10
101.4079
 20
198.6217
  0
VERTEX
  8
LAYER_1
 10
104.2919
 20
198.6217
  0
SEQEND
  0
POLYLINE
  8
LAYER_1
 40
0.1693
 41
0.1693
 66
1
 10
0
 20
0
 30
0
  0
VERTEX
  8
LAYER_1
 10
106.9906
 20
198.6217
  0
VERTEX
  8
LAYER_1
 10
109.8746
 20
198.6217
  0
SEQEND
  0
POLYLINE
  8
LAYER_1
 40
0.0847
 41
0.0847
 66
1
 10
0
 20
0
 30
0
  0
VERTEX
  8
LAYER_1
 10
98.4181
 20
199.7594
  0
VERTEX
  8
LAYER_1
 10
98.4181
 20
200.5003
  0
SEQEND
  0
POLYLINE
  8
LAYER_1
 40
0.0847
 41
0.0847
 66
1
 10
0
 20
0
 30
0
  0
VERTEX
  8
LAYER_1
 10
112.8644
 20
199.7594
  0
VERTEX
  8
LAYER_1
 10
112.8644
 20
200.5003
  0
SEQEND
  0
POLYLINE
  8
LAYER_1
 40
0.1693
 41
0.1693
 66
1
 10
0
 20
0
 30
0
  0
VERTEX
  8
LAYER_1
 10
101.4079
 20
196.8755
  0
VERTEX
  8
LAYER_1
 10
101.4079
 20
199.7594
  0
SEQEND
  0
POLYLINE
  8
LAYER_1
 40
0.1693
 41
0.1693
 66
1
 10
0
 20
0
 30
0
  0
VERTEX
  8
LAYER_1
 10
104.2919
 20
196.8755
  0
VERTEX
  8
LAYER_1
 10
104.2919
 20
198.6217
  0
SEQEND
  0
POLYLINE
  8
LAYER_1
 40
0.1693
 41
0.1693
 66
1
 10
0
 20
0
 30
0
  0
VERTEX
  8
LAYER_1
 10
106.9906
 20
196.8755
  0
VERTEX
  8
LAYER_1
 10
106.9906
 20
198.6217
  0
SEQEND
  0
POLYLINE
  8
LAYER_1
 40
0.1693
 41
0.1693
 66
1
 10
0
 20
0
 30
0
  0
VERTEX
  8
LAYER_1
 10
109.8746
 20
196.8755
  0
VERTEX
  8
LAYER_1
 10
109.8746
 20
199.7594
  0
SEQEND
  0
POLYLINE
  8
LAYER_1
 40
0.0847
 41
0.0847
 66
1
 10
0
 20
0
 30
0
  0
VERTEX
  8
LAYER_1
 10
99.0531
 20
194.8646
  0
VERTEX
  8
LAYER_1
 10
48.9675
 20
210.3957
  0
SEQEND
  0
TEXT
  8
LAYER_1
 10
23.4354
 20
210.0521
 11
23.4354
 21
210.0521
 40
3.2224
 41
0.5
  1
äOâèâôâOüiô¹öÆüj
  0
TEXT
  8
LAYER_1
 10
128.2366
 20
225.2921
 11
128.2366
 21
225.2921
 40
3.2224
 41
0.5
  1
ë╗Å¤âLâââbâvâXâNâGâA
  0
TEXT
  8
LAYER_1
 10
31.7432
 20
158.3522
 11
31.7432
 21
158.3522
 40
3.2224
 41
0.5
  1
örÉàû┌ÄMùpâiâbâg
  0
TEXT
  8
LAYER_1
 10
24.3349
 20
148.3511
 11
24.3349
 21
148.3511
 40
3.2224
 41
0.5
  1
â{âEâïî┼ÆÞö┬üiâoâbâNâvâîü[âgüj
  0
TEXT
  8
LAYER_1
 10
150.3558
 20
143.8267
 11
150.3558
 21
143.8267
 40
3.8024
 41
0.5
  1
örÉàâgâëâbâv%%c25
  0
ENDBLK
  0
BLOCK
  8
LAYER_1
  2
AIGNBL0101000E
 70
64
 10
0
 20
0
 30
0
  3
AIGNBL0101000E
  0
INSERT
  8
LAYER_1
  2
AIGNBL0102000F
 10
0
 20
0
 30
0
  0
INSERT
  8
LAYER_1
  2
AIGNBL01020018
 10
0
 20
0
 30
0
  0
ENDBLK
  0
ENDSEC
  0
SECTION
  2
ENTITIES
  0
POLYLINE
  8
LAYER_1
 40
0.0847
 41
0.0847
 66
1
 10
0
 20
0
 30
0
  0
VERTEX
  8
LAYER_1
 10
105.6321
 20
226.7346
  0
VERTEX
  8
LAYER_1
 10
105.6321
 20
227.8723
  0
SEQEND
  0
POLYLINE
  8
LAYER_1
 40
0.0847
 41
0.0847
 66
1
 10
0
 20
0
 30
0
  0
VERTEX
  8
LAYER_1
 10
105.6321
 20
229.0365
  0
VERTEX
  8
LAYER_1
 10
105.6321
 20
231.9205
  0
SEQEND
  0
TEXT
  8
LAYER_1
 10
52.8777
 20
237.1057
 11
52.8777
 21
237.1057
 40
5.1558
 41
0.5
  1
Mimi SQUEREüiâ~â~üEâXâNâGâAü[üjÉ¶û╩â{âEâï ÄµéÞòté»É}
  0
TEXT
  8
LAYER_1
 10
46.4327
 20
139.4081
 11
46.4327
 21
139.4081
 40
3.6606
 41
0.5
  1
üªÅÒïLÄµéÞòté»É}é═üASLAVIA CRYSTAL MimiâRâôâvâèü[âgâZâbâgé­ùpéóé¢éÓé╠éãé╚éÞé▄éÀüB
  0
INSERT
  8
LAYER_1
  2
AIGNBL01010002
 10
0
 20
0
 30
0
  0
INSERT
  8
LAYER_1
  2
AIGNBL01010003
 10
0
 20
0
 30
0
  0
TEXT
  8
LAYER_1
 10
186.826
 20
54.0008
 11
186.826
 21
54.0008
 40
3.3848
 41
0.5
  1
ü£TEL 0120-65-1232ü£FAX 06-6532-1580
  0
TEXT
  8
LAYER_1
 10
186.826
 20
50.4861
 11
186.826
 21
50.4861
 40
3.3848
 41
0.5
  1
hits@hiratatile.co.jp
  0
INSERT
  8
LAYER_1
  2
AIGNBL0101000E
 10
0
 20
0
 30
0
  0
ENDSEC
  0
EOF
