  0
SECTION
  2
HEADER
  9
$ACADVER
  1
AC1009
  9
$LUNITS
 70
2
  9
$LUPREC
 70
4
  9
$LTSCALE
 40
1.0
  9
$EXTMIN
 10
-30.3177
 20
33.3285
 30
0
  9
$EXTMAX
 10
251.6749
 20
230.337
 30
0
  0
ENDSEC
  0
SECTION
  2
TABLES
  0
TABLE
  2
LTYPE
 70
256
  0
LTYPE
  2
AIGENLINE001
 70
64
  3
generate AI->DXF Converter
 72
65
 73
4
 40
0.7056
 49
0.3528
 49
-0.3528
 49
0
 49
0
  0
ENDTAB
  0
TABLE
  2
LAYER
 70
1
  0
LAYER
  2
LAYER_1
 70
64
 62
7
  6
CONTINUOUS
  0
ENDTAB
  0
TABLE
  2
STYLE
 70
6
  0
STYLE
  2
STANDARD
 70
0
 40
0
 50
0
 71
0
 41
0
 42
0
  3
TXT
  4
BIGFONT
  0
ENDTAB
  0
ENDSEC
  0
SECTION
  2
BLOCKS
  0
BLOCK
  8
LAYER_1
  2
AIGNBL01040006
 70
64
 10
0
 20
0
 30
0
  3
AIGNBL01040006
  0
POLYLINE
  8
LAYER_1
 40
0.05
 41
0.05
 66
1
 10
0
 20
0
 30
0
 70
1
  0
VERTEX
  8
LAYER_1
 10
105.4311
 20
39.1418
  0
VERTEX
  8
LAYER_1
 10
104.9422
 20
37.9567
  0
VERTEX
  8
LAYER_1
 10
104.3142
 20
37.9567
  0
VERTEX
  8
LAYER_1
 10
105.9137
 20
41.7225
  0
VERTEX
  8
LAYER_1
 10
106.6468
 20
41.7225
  0
VERTEX
  8
LAYER_1
 10
108.2533
 20
37.9567
  0
VERTEX
  8
LAYER_1
 10
107.6032
 20
37.9567
  0
VERTEX
  8
LAYER_1
 10
107.1006
 20
39.1418
  0
SEQEND
  0
POLYLINE
  8
LAYER_1
 40
0.05
 41
0.05
 66
1
 10
0
 20
0
 30
0
 70
1
  0
VERTEX
  8
LAYER_1
 10
106.9748
 20
39.5207
  0
VERTEX
  8
LAYER_1
 10
106.5138
 20
40.6056
  0
VERTEX
  8
LAYER_1
 10
106.2692
 20
41.2926
  0
VERTEX
  8
LAYER_1
 10
106.2555
 20
41.2926
  0
VERTEX
  8
LAYER_1
 10
106.0178
 20
40.6101
  0
VERTEX
  8
LAYER_1
 10
105.5571
 20
39.5207
  0
SEQEND
  0
ENDBLK
  0
BLOCK
  8
LAYER_1
  2
AIGNBL01040007
 70
64
 10
0
 20
0
 30
0
  3
AIGNBL01040007
  0
POLYLINE
  8
LAYER_1
 40
0.05
 41
0.05
 66
1
 10
0
 20
0
 30
0
 70
1
  0
VERTEX
  8
LAYER_1
 10
112.6186
 20
37.4034
 42
-0.0155848755
  0
VERTEX
  8
LAYER_1
 10
110.8164
 20
37.8395
  0
VERTEX
  8
LAYER_1
 10
110.5298
 20
37.895
 42
-0.08356944747
  0
VERTEX
  8
LAYER_1
 10
109.6658
 20
38.0612
 42
-0.0975043791
  0
VERTEX
  8
LAYER_1
 10
109.0046
 20
38.4671
 42
-0.2129077902
  0
VERTEX
  8
LAYER_1
 10
108.4559
 20
39.7998
 42
-0.0968494152
  0
VERTEX
  8
LAYER_1
 10
108.6005
 20
40.5732
 42
-0.2046438079
  0
VERTEX
  8
LAYER_1
 10
109.648
 20
41.5974
 42
-0.09824750395
  0
VERTEX
  8
LAYER_1
 10
110.649
 20
41.7838
 42
-0.08554009695
  0
VERTEX
  8
LAYER_1
 10
111.5176
 20
41.6425
 42
-0.1004336034
  0
VERTEX
  8
LAYER_1
 10
112.1827
 20
41.2483
 42
-0.2141019095
  0
VERTEX
  8
LAYER_1
 10
112.7581
 20
39.8784
 42
-0.09540850229
  0
VERTEX
  8
LAYER_1
 10
112.6192
 20
39.1106
 42
-0.2143210227
  0
VERTEX
  8
LAYER_1
 10
111.5963
 20
38.1321
 42
-0.02338900436
  0
VERTEX
  8
LAYER_1
 10
111.4172
 20
38.0738
  0
VERTEX
  8
LAYER_1
 10
111.4172
 20
38.0514
 42
0.01711211955
  0
VERTEX
  8
LAYER_1
 10
112.7936
 20
37.8113
  0
SEQEND
  0
POLYLINE
  8
LAYER_1
 40
0.05
 41
0.05
 66
1
 10
0
 20
0
 30
0
 70
1
  0
VERTEX
  8
LAYER_1
 10
112.1159
 20
39.857
 42
0.1071543648
  0
VERTEX
  8
LAYER_1
 10
111.9646
 20
40.5618
 42
0.2976507644
  0
VERTEX
  8
LAYER_1
 10
110.6276
 20
41.3873
 42
0.1072356843
  0
VERTEX
  8
LAYER_1
 10
109.9378
 20
41.2478
 42
0.2385874916
  0
VERTEX
  8
LAYER_1
 10
109.1508
 20
40.2422
 42
0.05751786988
  0
VERTEX
  8
LAYER_1
 10
109.1052
 20
39.8122
 42
0.2180663696
  0
VERTEX
  8
LAYER_1
 10
109.6358
 20
38.6168
 42
0.1772758138
  0
VERTEX
  8
LAYER_1
 10
110.5997
 20
38.2912
 42
0.1075185771
  0
VERTEX
  8
LAYER_1
 10
111.2811
 20
38.4302
 42
0.2370926009
  0
VERTEX
  8
LAYER_1
 10
112.0682
 20
39.4298
 42
0.05601310134
  0
SEQEND
  0
ENDBLK
  0
BLOCK
  8
LAYER_1
  2
AIGNBL01040008
 70
64
 10
0
 20
0
 30
0
  3
AIGNBL01040008
  0
POLYLINE
  8
LAYER_1
 40
0.05
 41
0.05
 66
1
 10
0
 20
0
 30
0
 70
1
  0
VERTEX
  8
LAYER_1
 10
114.0855
 20
41.7225
  0
VERTEX
  8
LAYER_1
 10
114.0855
 20
39.4932
 42
0.1145199457
  0
VERTEX
  8
LAYER_1
 10
114.2194
 20
38.8274
 42
0.1464896694
  0
VERTEX
  8
LAYER_1
 10
114.5697
 20
38.4422
 42
0.1362580474
  0
VERTEX
  8
LAYER_1
 10
115.1821
 20
38.2912
 42
0.1219300979
  0
VERTEX
  8
LAYER_1
 10
115.8052
 20
38.4259
 42
0.1503016186
  0
VERTEX
  8
LAYER_1
 10
116.177
 20
38.7949
 42
0.1256239276
  0
VERTEX
  8
LAYER_1
 10
116.3276
 20
39.4932
  0
VERTEX
  8
LAYER_1
 10
116.3276
 20
41.7225
  0
VERTEX
  8
LAYER_1
 10
116.9422
 20
41.7225
  0
VERTEX
  8
LAYER_1
 10
116.9422
 20
39.5266
 42
-0.09997665689
  0
VERTEX
  8
LAYER_1
 10
116.8073
 20
38.7839
 42
-0.1215019174
  0
VERTEX
  8
LAYER_1
 10
116.434
 20
38.2772
 42
-0.1106228669
  0
VERTEX
  8
LAYER_1
 10
115.8085
 20
37.9706
 42
-0.06128517916
  0
VERTEX
  8
LAYER_1
 10
115.161
 20
37.895
 42
-0.09418763513
  0
VERTEX
  8
LAYER_1
 10
114.3419
 20
38.0331
 42
-0.2431628294
  0
VERTEX
  8
LAYER_1
 10
113.5384
 20
38.9438
 42
-0.06320488118
  0
VERTEX
  8
LAYER_1
 10
113.4709
 20
39.5045
  0
VERTEX
  8
LAYER_1
 10
113.4709
 20
41.7225
  0
SEQEND
  0
ENDBLK
  0
BLOCK
  8
LAYER_1
  2
AIGNBL01040009
 70
64
 10
0
 20
0
 30
0
  3
AIGNBL01040009
  0
POLYLINE
  8
LAYER_1
 40
0.05
 41
0.05
 66
1
 10
0
 20
0
 30
0
 70
1
  0
VERTEX
  8
LAYER_1
 10
118.6885
 20
39.1418
  0
VERTEX
  8
LAYER_1
 10
118.1993
 20
37.9567
  0
VERTEX
  8
LAYER_1
 10
117.5712
 20
37.9567
  0
VERTEX
  8
LAYER_1
 10
119.1705
 20
41.7225
  0
VERTEX
  8
LAYER_1
 10
119.9036
 20
41.7225
  0
VERTEX
  8
LAYER_1
 10
121.51
 20
37.9567
  0
VERTEX
  8
LAYER_1
 10
120.8606
 20
37.9567
  0
VERTEX
  8
LAYER_1
 10
120.358
 20
39.1418
  0
SEQEND
  0
POLYLINE
  8
LAYER_1
 40
0.05
 41
0.05
 66
1
 10
0
 20
0
 30
0
 70
1
  0
VERTEX
  8
LAYER_1
 10
120.2319
 20
39.5207
  0
VERTEX
  8
LAYER_1
 10
119.7706
 20
40.6056
  0
VERTEX
  8
LAYER_1
 10
119.526
 20
41.2926
  0
VERTEX
  8
LAYER_1
 10
119.5122
 20
41.2926
  0
VERTEX
  8
LAYER_1
 10
119.2748
 20
40.6101
  0
VERTEX
  8
LAYER_1
 10
118.8139
 20
39.5207
  0
SEQEND
  0
ENDBLK
  0
BLOCK
  8
LAYER_1
  2
AIGNBL0104000A
 70
64
 10
0
 20
0
 30
0
  3
AIGNBL0104000A
  0
POLYLINE
  8
LAYER_1
 40
0.05
 41
0.05
 66
1
 10
0
 20
0
 30
0
 70
1
  0
VERTEX
  8
LAYER_1
 10
122.5508
 20
41.6777
 42
-0.03246092253
  0
VERTEX
  8
LAYER_1
 10
123.7176
 20
41.7508
 42
-0.08084549745
  0
VERTEX
  8
LAYER_1
 10
124.6741
 20
41.619
 42
-0.07819914268
  0
VERTEX
  8
LAYER_1
 10
125.0374
 20
41.4379
 42
-0.2484709269
  0
VERTEX
  8
LAYER_1
 10
125.4491
 20
40.6497
 42
-0.226147
  0
VERTEX
  8
LAYER_1
 10
125.086
 20
39.8456
 42
-0.109727648
  0
VERTEX
  8
LAYER_1
 10
124.4577
 20
39.5323
 42
-0.06565380896
  0
VERTEX
  8
LAYER_1
 10
123.6473
 20
39.4319
 42
-0.06238309955
  0
VERTEX
  8
LAYER_1
 10
123.1588
 20
39.4653
  0
VERTEX
  8
LAYER_1
 10
123.1588
 20
37.9567
  0
VERTEX
  8
LAYER_1
 10
122.5508
 20
37.9567
  0
SEQEND
  0
POLYLINE
  8
LAYER_1
 40
0.05
 41
0.05
 66
1
 10
0
 20
0
 30
0
 70
1
  0
VERTEX
  8
LAYER_1
 10
123.1588
 20
39.8622
 42
0.04203451964
  0
VERTEX
  8
LAYER_1
 10
123.6611
 20
39.8229
 42
0.1032111168
  0
VERTEX
  8
LAYER_1
 10
124.3803
 20
39.9502
 42
0.1555938032
  0
VERTEX
  8
LAYER_1
 10
124.7451
 20
40.2546
 42
0.1352673748
  0
VERTEX
  8
LAYER_1
 10
124.8421
 20
40.6273
 42
0.1737047371
  0
VERTEX
  8
LAYER_1
 10
124.7073
 20
41.0346
 42
0.1517050813
  0
VERTEX
  8
LAYER_1
 10
124.2862
 20
41.2941
 42
0.06879756253
  0
VERTEX
  8
LAYER_1
 10
123.7317
 20
41.3649
 42
0.06336983159
  0
VERTEX
  8
LAYER_1
 10
123.1588
 20
41.3257
  0
SEQEND
  0
ENDBLK
  0
BLOCK
  8
LAYER_1
  2
AIGNBL0104000B
 70
64
 10
0
 20
0
 30
0
  3
AIGNBL0104000B
  0
POLYLINE
  8
LAYER_1
 40
0.05
 41
0.05
 66
1
 10
0
 20
0
 30
0
 70
1
  0
VERTEX
  8
LAYER_1
 10
127.0011
 20
41.4207
 42
-0.2767461975
  0
VERTEX
  8
LAYER_1
 10
126.8616
 20
41.1806
 42
-0.1265294091
  0
VERTEX
  8
LAYER_1
 10
126.6094
 20
41.1189
 42
-0.2237518698
  0
VERTEX
  8
LAYER_1
 10
126.2991
 20
41.2513
 42
-0.1708341408
  0
VERTEX
  8
LAYER_1
 10
126.2391
 20
41.4207
 42
-0.2643879937
  0
VERTEX
  8
LAYER_1
 10
126.3885
 20
41.6678
 42
-0.1290073663
  0
VERTEX
  8
LAYER_1
 10
126.6232
 20
41.7277
 42
-0.225342086
  0
VERTEX
  8
LAYER_1
 10
126.94
 20
41.597
 42
-0.1691136206
  0
SEQEND
  0
POLYLINE
  8
LAYER_1
 40
0.05
 41
0.05
 66
1
 10
0
 20
0
 30
0
 70
1
  0
VERTEX
  8
LAYER_1
 10
126.3156
 20
37.9567
  0
VERTEX
  8
LAYER_1
 10
126.3156
 20
40.6607
  0
VERTEX
  8
LAYER_1
 10
126.9302
 20
40.6607
  0
VERTEX
  8
LAYER_1
 10
126.9302
 20
37.9567
  0
SEQEND
  0
ENDBLK
  0
BLOCK
  8
LAYER_1
  2
AIGNBL0104000C
 70
64
 10
0
 20
0
 30
0
  3
AIGNBL0104000C
  0
POLYLINE
  8
LAYER_1
 40
0.05
 41
0.05
 66
1
 10
0
 20
0
 30
0
 70
1
  0
VERTEX
  8
LAYER_1
 10
128.8019
 20
39.1418
  0
VERTEX
  8
LAYER_1
 10
128.3137
 20
37.9567
  0
VERTEX
  8
LAYER_1
 10
127.6846
 20
37.9567
  0
VERTEX
  8
LAYER_1
 10
129.2842
 20
41.7225
  0
VERTEX
  8
LAYER_1
 10
130.018
 20
41.7225
  0
VERTEX
  8
LAYER_1
 10
131.6245
 20
37.9567
  0
VERTEX
  8
LAYER_1
 10
130.9747
 20
37.9567
  0
VERTEX
  8
LAYER_1
 10
130.4721
 20
39.1418
  0
SEQEND
  0
POLYLINE
  8
LAYER_1
 40
0.05
 41
0.05
 66
1
 10
0
 20
0
 30
0
 70
1
  0
VERTEX
  8
LAYER_1
 10
130.346
 20
39.5207
  0
VERTEX
  8
LAYER_1
 10
129.885
 20
40.6056
  0
VERTEX
  8
LAYER_1
 10
129.6411
 20
41.2926
  0
VERTEX
  8
LAYER_1
 10
129.6263
 20
41.2926
  0
VERTEX
  8
LAYER_1
 10
129.3893
 20
40.6101
  0
VERTEX
  8
LAYER_1
 10
128.9283
 20
39.5207
  0
SEQEND
  0
ENDBLK
  0
BLOCK
  8
LAYER_1
  2
AIGNBL01030005
 70
64
 10
0
 20
0
 30
0
  3
AIGNBL01030005
  0
INSERT
  8
LAYER_1
  2
AIGNBL01040006
 10
0
 20
0
 30
0
  0
INSERT
  8
LAYER_1
  2
AIGNBL01040007
 10
0
 20
0
 30
0
  0
INSERT
  8
LAYER_1
  2
AIGNBL01040008
 10
0
 20
0
 30
0
  0
INSERT
  8
LAYER_1
  2
AIGNBL01040009
 10
0
 20
0
 30
0
  0
INSERT
  8
LAYER_1
  2
AIGNBL0104000A
 10
0
 20
0
 30
0
  0
INSERT
  8
LAYER_1
  2
AIGNBL0104000B
 10
0
 20
0
 30
0
  0
INSERT
  8
LAYER_1
  2
AIGNBL0104000C
 10
0
 20
0
 30
0
  0
ENDBLK
  0
BLOCK
  8
LAYER_1
  2
AIGNBL0103000E
 70
64
 10
0
 20
0
 30
0
  3
AIGNBL0103000E
  0
POLYLINE
  8
LAYER_1
 40
0.05
 41
0.05
 66
1
 10
0
 20
0
 30
0
 70
1
  0
VERTEX
  8
LAYER_1
 10
104.4241
 20
36.0574
  0
VERTEX
  8
LAYER_1
 10
104.9773
 20
36.0574
  0
VERTEX
  8
LAYER_1
 10
104.9773
 20
35.9637
  0
VERTEX
  8
LAYER_1
 10
104.319
 20
35.9637
  0
VERTEX
  8
LAYER_1
 10
104.319
 20
36.9969
  0
VERTEX
  8
LAYER_1
 10
104.9598
 20
36.9969
  0
VERTEX
  8
LAYER_1
 10
104.9598
 20
36.9035
  0
VERTEX
  8
LAYER_1
 10
104.4241
 20
36.9035
  0
VERTEX
  8
LAYER_1
 10
104.4241
 20
36.549
  0
VERTEX
  8
LAYER_1
 10
104.9246
 20
36.549
  0
VERTEX
  8
LAYER_1
 10
104.9246
 20
36.4557
  0
VERTEX
  8
LAYER_1
 10
104.4241
 20
36.4557
  0
SEQEND
  0
ENDBLK
  0
BLOCK
  8
LAYER_1
  2
AIGNBL0103000F
 70
64
 10
0
 20
0
 30
0
  3
AIGNBL0103000F
  0
POLYLINE
  8
LAYER_1
 40
0.05
 41
0.05
 66
1
 10
0
 20
0
 30
0
 70
1
  0
VERTEX
  8
LAYER_1
 10
106.117
 20
36.117
  0
VERTEX
  8
LAYER_1
 10
106.1197
 20
36.117
  0
VERTEX
  8
LAYER_1
 10
106.1197
 20
36.9969
  0
VERTEX
  8
LAYER_1
 10
106.2248
 20
36.9969
  0
VERTEX
  8
LAYER_1
 10
106.2248
 20
35.9637
  0
VERTEX
  8
LAYER_1
 10
106.0939
 20
35.9637
  0
VERTEX
  8
LAYER_1
 10
105.4927
 20
36.8525
  0
VERTEX
  8
LAYER_1
 10
105.4893
 20
36.8525
  0
VERTEX
  8
LAYER_1
 10
105.4893
 20
35.9637
  0
VERTEX
  8
LAYER_1
 10
105.3845
 20
35.9637
  0
VERTEX
  8
LAYER_1
 10
105.3845
 20
36.9969
  0
VERTEX
  8
LAYER_1
 10
105.5158
 20
36.9969
  0
SEQEND
  0
ENDBLK
  0
BLOCK
  8
LAYER_1
  2
AIGNBL01030010
 70
64
 10
0
 20
0
 30
0
  3
AIGNBL01030010
  0
POLYLINE
  8
LAYER_1
 40
0.05
 41
0.05
 66
1
 10
0
 20
0
 30
0
 70
1
  0
VERTEX
  8
LAYER_1
 10
106.6978
 20
36.1756
  0
VERTEX
  8
LAYER_1
 10
106.7523
 20
36.0725
 42
0.1804993832
  0
VERTEX
  8
LAYER_1
 10
106.8656
 20
36.0309
  0
VERTEX
  8
LAYER_1
 10
106.9548
 20
36.0505
  0
VERTEX
  8
LAYER_1
 10
107.011
 20
36.1039
  0
VERTEX
  8
LAYER_1
 10
107.0399
 20
36.1804
  0
VERTEX
  8
LAYER_1
 10
107.0482
 20
36.27
  0
VERTEX
  8
LAYER_1
 10
107.0482
 20
36.9969
  0
VERTEX
  8
LAYER_1
 10
107.1533
 20
36.9969
  0
VERTEX
  8
LAYER_1
 10
107.1533
 20
36.2614
  0
VERTEX
  8
LAYER_1
 10
107.1419
 20
36.1535
  0
VERTEX
  8
LAYER_1
 10
107.1006
 20
36.0485
  0
VERTEX
  8
LAYER_1
 10
107.0158
 20
35.9689
  0
VERTEX
  8
LAYER_1
 10
106.877
 20
35.9375
 42
-0.1845892347
  0
VERTEX
  8
LAYER_1
 10
106.6923
 20
35.9974
 42
-0.176191571
  0
VERTEX
  8
LAYER_1
 10
106.6
 20
36.149
  0
SEQEND
  0
ENDBLK
  0
BLOCK
  8
LAYER_1
  2
AIGNBL01030011
 70
64
 10
0
 20
0
 30
0
  3
AIGNBL01030011
  0
POLYLINE
  8
LAYER_1
 40
0.05
 41
0.05
 66
1
 10
0
 20
0
 30
0
 70
1
  0
VERTEX
  8
LAYER_1
 10
108.6416
 20
36.4805
 42
-0.10394313
  0
VERTEX
  8
LAYER_1
 10
108.6005
 20
36.2631
 42
-0.1002538824
  0
VERTEX
  8
LAYER_1
 10
108.4879
 20
36.0915
  0
VERTEX
  8
LAYER_1
 10
108.317
 20
35.9785
 42
-0.09506675375
  0
VERTEX
  8
LAYER_1
 10
108.1031
 20
35.9375
 42
-0.1010866674
  0
VERTEX
  8
LAYER_1
 10
107.8895
 20
35.9785
 42
-0.1005668876
  0
VERTEX
  8
LAYER_1
 10
107.7186
 20
36.0915
 42
-0.09506076213
  0
VERTEX
  8
LAYER_1
 10
107.6053
 20
36.2631
 42
-0.09316585798
  0
VERTEX
  8
LAYER_1
 10
107.5646
 20
36.4805
 42
-0.1029152058
  0
VERTEX
  8
LAYER_1
 10
107.6053
 20
36.6978
 42
-0.1008913794
  0
VERTEX
  8
LAYER_1
 10
107.7186
 20
36.8694
 42
-0.09625543395
  0
VERTEX
  8
LAYER_1
 10
107.8895
 20
36.9824
 42
-0.09521573462
  0
VERTEX
  8
LAYER_1
 10
108.1031
 20
37.0234
 42
-0.101175466
  0
VERTEX
  8
LAYER_1
 10
108.317
 20
36.9824
 42
-0.09853409661
  0
VERTEX
  8
LAYER_1
 10
108.4879
 20
36.8694
 42
-0.09556553869
  0
VERTEX
  8
LAYER_1
 10
108.6005
 20
36.6978
 42
-0.09420719768
  0
SEQEND
  0
POLYLINE
  8
LAYER_1
 40
0.05
 41
0.05
 66
1
 10
0
 20
0
 30
0
 70
1
  0
VERTEX
  8
LAYER_1
 10
108.5306
 20
36.4798
  0
VERTEX
  8
LAYER_1
 10
108.5017
 20
36.6517
  0
VERTEX
  8
LAYER_1
 10
108.4169
 20
36.795
  0
VERTEX
  8
LAYER_1
 10
108.2819
 20
36.8932
  0
VERTEX
  8
LAYER_1
 10
108.1031
 20
36.93
  0
VERTEX
  8
LAYER_1
 10
107.9243
 20
36.8932
  0
VERTEX
  8
LAYER_1
 10
107.7896
 20
36.795
  0
VERTEX
  8
LAYER_1
 10
107.7048
 20
36.6517
  0
VERTEX
  8
LAYER_1
 10
107.6755
 20
36.4798
  0
VERTEX
  8
LAYER_1
 10
107.7048
 20
36.3079
  0
VERTEX
  8
LAYER_1
 10
107.7896
 20
36.1649
  0
VERTEX
  8
LAYER_1
 10
107.9243
 20
36.0674
 42
0.1008280473
  0
VERTEX
  8
LAYER_1
 10
108.1031
 20
36.0309
  0
VERTEX
  8
LAYER_1
 10
108.2819
 20
36.0674
  0
VERTEX
  8
LAYER_1
 10
108.4169
 20
36.1649
  0
VERTEX
  8
LAYER_1
 10
108.5017
 20
36.3079
  0
SEQEND
  0
ENDBLK
  0
BLOCK
  8
LAYER_1
  2
AIGNBL01030012
 70
64
 10
0
 20
0
 30
0
  3
AIGNBL01030012
  0
POLYLINE
  8
LAYER_1
 40
0.05
 41
0.05
 66
1
 10
0
 20
0
 30
0
 70
1
  0
VERTEX
  8
LAYER_1
 10
109.4163
 20
35.9637
  0
VERTEX
  8
LAYER_1
 10
109.3116
 20
35.9637
  0
VERTEX
  8
LAYER_1
 10
109.3116
 20
36.4091
  0
VERTEX
  8
LAYER_1
 10
108.9247
 20
36.9969
  0
VERTEX
  8
LAYER_1
 10
109.056
 20
36.9969
  0
VERTEX
  8
LAYER_1
 10
109.3671
 20
36.4967
  0
VERTEX
  8
LAYER_1
 10
109.6806
 20
36.9969
  0
VERTEX
  8
LAYER_1
 10
109.8029
 20
36.9969
  0
VERTEX
  8
LAYER_1
 10
109.4163
 20
36.4091
  0
SEQEND
  0
ENDBLK
  0
BLOCK
  8
LAYER_1
  2
AIGNBL01030013
 70
64
 10
0
 20
0
 30
0
  3
AIGNBL01030013
  0
POLYLINE
  8
LAYER_1
 40
0.05
 41
0.05
 66
1
 10
0
 20
0
 30
0
 70
1
  0
VERTEX
  8
LAYER_1
 10
110.7079
 20
36.9969
  0
VERTEX
  8
LAYER_1
 10
111.0155
 20
36.9969
  0
VERTEX
  8
LAYER_1
 10
111.1341
 20
36.9845
  0
VERTEX
  8
LAYER_1
 10
111.2409
 20
36.9421
  0
VERTEX
  8
LAYER_1
 10
111.3187
 20
36.8611
  0
VERTEX
  8
LAYER_1
 10
111.3483
 20
36.733
 42
-0.1790346201
  0
VERTEX
  8
LAYER_1
 10
111.2984
 20
36.5907
 42
-0.1642259289
  0
VERTEX
  8
LAYER_1
 10
111.1651
 20
36.5111
  0
VERTEX
  8
LAYER_1
 10
111.1651
 20
36.5084
 42
-0.1734673322
  0
VERTEX
  8
LAYER_1
 10
111.3318
 20
36.4302
 42
-0.1921994171
  0
VERTEX
  8
LAYER_1
 10
111.3979
 20
36.2496
  0
VERTEX
  8
LAYER_1
 10
111.3708
 20
36.1325
  0
VERTEX
  8
LAYER_1
 10
111.2946
 20
36.0419
  0
VERTEX
  8
LAYER_1
 10
111.1737
 20
35.9844
  0
VERTEX
  8
LAYER_1
 10
111.0138
 20
35.9637
  0
VERTEX
  8
LAYER_1
 10
110.7079
 20
35.9637
  0
SEQEND
  0
POLYLINE
  8
LAYER_1
 40
0.05
 41
0.05
 66
1
 10
0
 20
0
 30
0
 70
1
  0
VERTEX
  8
LAYER_1
 10
110.813
 20
36.5445
  0
VERTEX
  8
LAYER_1
 10
111.0245
 20
36.5445
  0
VERTEX
  8
LAYER_1
 10
111.1013
 20
36.5535
  0
VERTEX
  8
LAYER_1
 10
111.1716
 20
36.5831
  0
VERTEX
  8
LAYER_1
 10
111.2236
 20
36.6396
  0
VERTEX
  8
LAYER_1
 10
111.2433
 20
36.7258
  0
VERTEX
  8
LAYER_1
 10
111.2236
 20
36.8095
  0
VERTEX
  8
LAYER_1
 10
111.1706
 20
36.8656
  0
VERTEX
  8
LAYER_1
 10
111.0917
 20
36.897
  0
VERTEX
  8
LAYER_1
 10
110.9952
 20
36.9066
  0
VERTEX
  8
LAYER_1
 10
110.813
 20
36.9066
  0
SEQEND
  0
POLYLINE
  8
LAYER_1
 40
0.05
 41
0.05
 66
1
 10
0
 20
0
 30
0
 70
1
  0
VERTEX
  8
LAYER_1
 10
110.813
 20
36.0543
  0
VERTEX
  8
LAYER_1
 10
111.0087
 20
36.0543
  0
VERTEX
  8
LAYER_1
 10
111.1172
 20
36.0653
  0
VERTEX
  8
LAYER_1
 10
111.2078
 20
36.1001
  0
VERTEX
  8
LAYER_1
 10
111.2695
 20
36.1632
  0
VERTEX
  8
LAYER_1
 10
111.2929
 20
36.2559
 42
0.2557371221
  0
VERTEX
  8
LAYER_1
 10
111.2236
 20
36.4081
 42
0.1381508151
  0
VERTEX
  8
LAYER_1
 10
111.0276
 20
36.4584
  0
VERTEX
  8
LAYER_1
 10
110.813
 20
36.4584
  0
SEQEND
  0
ENDBLK
  0
BLOCK
  8
LAYER_1
  2
AIGNBL01030014
 70
64
 10
0
 20
0
 30
0
  3
AIGNBL01030014
  0
POLYLINE
  8
LAYER_1
 40
0.05
 41
0.05
 66
1
 10
0
 20
0
 30
0
 70
1
  0
VERTEX
  8
LAYER_1
 10
111.83
 20
35.9637
  0
VERTEX
  8
LAYER_1
 10
111.7146
 20
35.9637
  0
VERTEX
  8
LAYER_1
 10
112.1614
 20
36.9969
  0
VERTEX
  8
LAYER_1
 10
112.2637
 20
36.9969
  0
VERTEX
  8
LAYER_1
 10
112.7071
 20
35.9637
  0
VERTEX
  8
LAYER_1
 10
112.5903
 20
35.9637
  0
VERTEX
  8
LAYER_1
 10
112.4763
 20
36.2352
  0
VERTEX
  8
LAYER_1
 10
111.9423
 20
36.2352
  0
SEQEND
  0
POLYLINE
  8
LAYER_1
 40
0.05
 41
0.05
 66
1
 10
0
 20
0
 30
0
 70
1
  0
VERTEX
  8
LAYER_1
 10
111.9815
 20
36.3316
  0
VERTEX
  8
LAYER_1
 10
112.437
 20
36.3316
  0
VERTEX
  8
LAYER_1
 10
112.2093
 20
36.8804
  0
SEQEND
  0
ENDBLK
  0
BLOCK
  8
LAYER_1
  2
AIGNBL01030015
 70
64
 10
0
 20
0
 30
0
  3
AIGNBL01030015
  0
POLYLINE
  8
LAYER_1
 40
0.05
 41
0.05
 66
1
 10
0
 20
0
 30
0
 70
1
  0
VERTEX
  8
LAYER_1
 10
113.3916
 20
35.9637
  0
VERTEX
  8
LAYER_1
 10
113.2865
 20
35.9637
  0
VERTEX
  8
LAYER_1
 10
113.2865
 20
36.9035
  0
VERTEX
  8
LAYER_1
 10
112.9403
 20
36.9035
  0
VERTEX
  8
LAYER_1
 10
112.9403
 20
36.9969
  0
VERTEX
  8
LAYER_1
 10
113.7372
 20
36.9969
  0
VERTEX
  8
LAYER_1
 10
113.7372
 20
36.9035
  0
VERTEX
  8
LAYER_1
 10
113.3916
 20
36.9035
  0
SEQEND
  0
ENDBLK
  0
BLOCK
  8
LAYER_1
  2
AIGNBL01030016
 70
64
 10
0
 20
0
 30
0
  3
AIGNBL01030016
  0
POLYLINE
  8
LAYER_1
 40
0.05
 41
0.05
 66
1
 10
0
 20
0
 30
0
 70
1
  0
VERTEX
  8
LAYER_1
 10
114.0934
 20
36.9969
  0
VERTEX
  8
LAYER_1
 10
114.1981
 20
36.9969
  0
VERTEX
  8
LAYER_1
 10
114.1981
 20
36.549
  0
VERTEX
  8
LAYER_1
 10
114.7618
 20
36.549
  0
VERTEX
  8
LAYER_1
 10
114.7618
 20
36.9969
  0
VERTEX
  8
LAYER_1
 10
114.8668
 20
36.9969
  0
VERTEX
  8
LAYER_1
 10
114.8668
 20
35.9637
  0
VERTEX
  8
LAYER_1
 10
114.7618
 20
35.9637
  0
VERTEX
  8
LAYER_1
 10
114.7618
 20
36.4529
  0
VERTEX
  8
LAYER_1
 10
114.1981
 20
36.4529
  0
VERTEX
  8
LAYER_1
 10
114.1981
 20
35.9637
  0
VERTEX
  8
LAYER_1
 10
114.0934
 20
35.9637
  0
SEQEND
  0
ENDBLK
  0
BLOCK
  8
LAYER_1
  2
AIGNBL01030017
 70
64
 10
0
 20
0
 30
0
  3
AIGNBL01030017
  0
POLYLINE
  8
LAYER_1
 40
0.05
 41
0.05
 66
1
 10
0
 20
0
 30
0
 70
1
  0
VERTEX
  8
LAYER_1
 10
115.4473
 20
35.9637
  0
VERTEX
  8
LAYER_1
 10
115.3423
 20
35.9637
  0
VERTEX
  8
LAYER_1
 10
115.3423
 20
36.9969
  0
VERTEX
  8
LAYER_1
 10
115.6461
 20
36.9969
  0
VERTEX
  8
LAYER_1
 10
115.7867
 20
36.9824
  0
VERTEX
  8
LAYER_1
 10
115.8993
 20
36.9349
  0
VERTEX
  8
LAYER_1
 10
115.9727
 20
36.8494
  0
VERTEX
  8
LAYER_1
 10
115.9989
 20
36.7213
  0
VERTEX
  8
LAYER_1
 10
115.9789
 20
36.6176
  0
VERTEX
  8
LAYER_1
 10
115.9235
 20
36.5366
  0
VERTEX
  8
LAYER_1
 10
115.8401
 20
36.4818
  0
VERTEX
  8
LAYER_1
 10
115.735
 20
36.4557
  0
VERTEX
  8
LAYER_1
 10
116.0371
 20
35.9637
  0
VERTEX
  8
LAYER_1
 10
115.9086
 20
35.9637
  0
VERTEX
  8
LAYER_1
 10
115.6227
 20
36.4467
  0
VERTEX
  8
LAYER_1
 10
115.4473
 20
36.4467
  0
SEQEND
  0
POLYLINE
  8
LAYER_1
 40
0.05
 41
0.05
 66
1
 10
0
 20
0
 30
0
 70
1
  0
VERTEX
  8
LAYER_1
 10
115.4473
 20
36.5373
  0
VERTEX
  8
LAYER_1
 10
115.6299
 20
36.5373
 42
0.1654500383
  0
VERTEX
  8
LAYER_1
 10
115.8256
 20
36.5831
 42
0.2503949893
  0
VERTEX
  8
LAYER_1
 10
115.8942
 20
36.7213
  0
VERTEX
  8
LAYER_1
 10
115.8749
 20
36.8071
  0
VERTEX
  8
LAYER_1
 10
115.8225
 20
36.8643
  0
VERTEX
  8
LAYER_1
 10
115.7409
 20
36.8963
  0
VERTEX
  8
LAYER_1
 10
115.6344
 20
36.9066
  0
VERTEX
  8
LAYER_1
 10
115.4473
 20
36.9066
  0
SEQEND
  0
ENDBLK
  0
BLOCK
  8
LAYER_1
  2
AIGNBL01030018
 70
64
 10
0
 20
0
 30
0
  3
AIGNBL01030018
  0
POLYLINE
  8
LAYER_1
 40
0.05
 41
0.05
 66
1
 10
0
 20
0
 30
0
 70
1
  0
VERTEX
  8
LAYER_1
 10
117.4393
 20
36.4805
 42
-0.1005163161
  0
VERTEX
  8
LAYER_1
 10
117.3986
 20
36.2631
 42
-0.1003846159
  0
VERTEX
  8
LAYER_1
 10
117.2853
 20
36.0915
 42
-0.09584766738
  0
VERTEX
  8
LAYER_1
 10
117.1147
 20
35.9785
 42
-0.09506713234
  0
VERTEX
  8
LAYER_1
 10
116.9008
 20
35.9375
 42
-0.101175466
  0
VERTEX
  8
LAYER_1
 10
116.6869
 20
35.9785
 42
-0.09967088569
  0
VERTEX
  8
LAYER_1
 10
116.5163
 20
36.0915
 42
-0.09574135652
  0
VERTEX
  8
LAYER_1
 10
116.4033
 20
36.2631
 42
-0.09293305267
  0
VERTEX
  8
LAYER_1
 10
116.3627
 20
36.4805
 42
-0.1024980643
  0
VERTEX
  8
LAYER_1
 10
116.4033
 20
36.6978
 42
-0.1015030268
  0
VERTEX
  8
LAYER_1
 10
116.5163
 20
36.8694
 42
-0.09577113234
  0
VERTEX
  8
LAYER_1
 10
116.6869
 20
36.9824
 42
-0.09506675375
  0
VERTEX
  8
LAYER_1
 10
116.9008
 20
37.0234
 42
-0.1014233705
  0
VERTEX
  8
LAYER_1
 10
117.1147
 20
36.9824
 42
-0.1017041996
  0
VERTEX
  8
LAYER_1
 10
117.2853
 20
36.8694
 42
-0.09506500802
  0
VERTEX
  8
LAYER_1
 10
117.3986
 20
36.6978
 42
-0.09299771213
  0
SEQEND
  0
POLYLINE
  8
LAYER_1
 40
0.05
 41
0.05
 66
1
 10
0
 20
0
 30
0
 70
1
  0
VERTEX
  8
LAYER_1
 10
117.3284
 20
36.4798
  0
VERTEX
  8
LAYER_1
 10
117.2991
 20
36.6517
  0
VERTEX
  8
LAYER_1
 10
117.2143
 20
36.795
  0
VERTEX
  8
LAYER_1
 10
117.0796
 20
36.8932
  0
VERTEX
  8
LAYER_1
 10
116.9008
 20
36.93
  0
VERTEX
  8
LAYER_1
 10
116.722
 20
36.8932
  0
VERTEX
  8
LAYER_1
 10
116.587
 20
36.795
  0
VERTEX
  8
LAYER_1
 10
116.5022
 20
36.6517
  0
VERTEX
  8
LAYER_1
 10
116.4733
 20
36.4798
  0
VERTEX
  8
LAYER_1
 10
116.5022
 20
36.3079
  0
VERTEX
  8
LAYER_1
 10
116.587
 20
36.1649
  0
VERTEX
  8
LAYER_1
 10
116.722
 20
36.0674
  0
VERTEX
  8
LAYER_1
 10
116.9008
 20
36.0309
 42
0.1157330551
  0
VERTEX
  8
LAYER_1
 10
117.0796
 20
36.0674
  0
VERTEX
  8
LAYER_1
 10
117.2143
 20
36.1649
  0
VERTEX
  8
LAYER_1
 10
117.2991
 20
36.3079
  0
SEQEND
  0
ENDBLK
  0
BLOCK
  8
LAYER_1
  2
AIGNBL01030019
 70
64
 10
0
 20
0
 30
0
  3
AIGNBL01030019
  0
POLYLINE
  8
LAYER_1
 40
0.05
 41
0.05
 66
1
 10
0
 20
0
 30
0
 70
1
  0
VERTEX
  8
LAYER_1
 10
118.881
 20
36.4805
 42
-0.1041417444
  0
VERTEX
  8
LAYER_1
 10
118.84
 20
36.2631
 42
-0.1002538824
  0
VERTEX
  8
LAYER_1
 10
118.7274
 20
36.0915
 42
-0.09536265516
  0
VERTEX
  8
LAYER_1
 10
118.5565
 20
35.9785
 42
-0.09506675375
  0
VERTEX
  8
LAYER_1
 10
118.3426
 20
35.9375
 42
-0.101822328
  0
VERTEX
  8
LAYER_1
 10
118.129
 20
35.9785
 42
-0.102112669
  0
VERTEX
  8
LAYER_1
 10
117.9581
 20
36.0915
 42
-0.09462334812
  0
VERTEX
  8
LAYER_1
 10
117.8447
 20
36.2631
 42
-0.09290316602
  0
VERTEX
  8
LAYER_1
 10
117.8041
 20
36.4805
 42
-0.1018782207
  0
VERTEX
  8
LAYER_1
 10
117.8447
 20
36.6978
 42
-0.1006850025
  0
VERTEX
  8
LAYER_1
 10
117.9581
 20
36.8694
 42
-0.09625543395
  0
VERTEX
  8
LAYER_1
 10
118.129
 20
36.9824
 42
-0.09528409444
  0
VERTEX
  8
LAYER_1
 10
118.3426
 20
37.0234
 42
-0.101175466
  0
VERTEX
  8
LAYER_1
 10
118.5565
 20
36.9824
 42
-0.09853409661
  0
VERTEX
  8
LAYER_1
 10
118.7274
 20
36.8694
 42
-0.09556553869
  0
VERTEX
  8
LAYER_1
 10
118.84
 20
36.6978
 42
-0.09400765476
  0
SEQEND
  0
POLYLINE
  8
LAYER_1
 40
0.05
 41
0.05
 66
1
 10
0
 20
0
 30
0
 70
1
  0
VERTEX
  8
LAYER_1
 10
118.7701
 20
36.4798
  0
VERTEX
  8
LAYER_1
 10
118.7412
 20
36.6517
  0
VERTEX
  8
LAYER_1
 10
118.6564
 20
36.795
  0
VERTEX
  8
LAYER_1
 10
118.5214
 20
36.8932
  0
VERTEX
  8
LAYER_1
 10
118.3426
 20
36.93
  0
VERTEX
  8
LAYER_1
 10
118.1638
 20
36.8932
  0
VERTEX
  8
LAYER_1
 10
118.0291
 20
36.795
  0
VERTEX
  8
LAYER_1
 10
117.9443
 20
36.6517
  0
VERTEX
  8
LAYER_1
 10
117.9151
 20
36.4798
  0
VERTEX
  8
LAYER_1
 10
117.9443
 20
36.3079
  0
VERTEX
  8
LAYER_1
 10
118.0291
 20
36.1649
  0
VERTEX
  8
LAYER_1
 10
118.1638
 20
36.0674
 42
0.1008280473
  0
VERTEX
  8
LAYER_1
 10
118.3426
 20
36.0309
  0
VERTEX
  8
LAYER_1
 10
118.5214
 20
36.0674
  0
VERTEX
  8
LAYER_1
 10
118.6564
 20
36.1649
  0
VERTEX
  8
LAYER_1
 10
118.7412
 20
36.3079
  0
SEQEND
  0
ENDBLK
  0
BLOCK
  8
LAYER_1
  2
AIGNBL0103001A
 70
64
 10
0
 20
0
 30
0
  3
AIGNBL0103001A
  0
POLYLINE
  8
LAYER_1
 40
0.05
 41
0.05
 66
1
 10
0
 20
0
 30
0
 70
1
  0
VERTEX
  8
LAYER_1
 10
119.8119
 20
36.1418
  0
VERTEX
  8
LAYER_1
 10
119.8136
 20
36.1418
  0
VERTEX
  8
LAYER_1
 10
120.1592
 20
36.9969
  0
VERTEX
  8
LAYER_1
 10
120.3201
 20
36.9969
  0
VERTEX
  8
LAYER_1
 10
120.3201
 20
35.9637
  0
VERTEX
  8
LAYER_1
 10
120.2146
 20
35.9637
  0
VERTEX
  8
LAYER_1
 10
120.2146
 20
36.8611
  0
VERTEX
  8
LAYER_1
 10
120.2119
 20
36.8611
  0
VERTEX
  8
LAYER_1
 10
119.8384
 20
35.9637
  0
VERTEX
  8
LAYER_1
 10
119.783
 20
35.9637
  0
VERTEX
  8
LAYER_1
 10
119.4092
 20
36.8611
  0
VERTEX
  8
LAYER_1
 10
119.4064
 20
36.8611
  0
VERTEX
  8
LAYER_1
 10
119.4064
 20
35.9637
  0
VERTEX
  8
LAYER_1
 10
119.3014
 20
35.9637
  0
VERTEX
  8
LAYER_1
 10
119.3014
 20
36.9969
  0
VERTEX
  8
LAYER_1
 10
119.4619
 20
36.9969
  0
SEQEND
  0
ENDBLK
  0
BLOCK
  8
LAYER_1
  2
AIGNBL0103001B
 70
64
 10
0
 20
0
 30
0
  3
AIGNBL0103001B
  0
POLYLINE
  8
LAYER_1
 40
0.05
 41
0.05
 66
1
 10
0
 20
0
 30
0
 70
1
  0
VERTEX
  8
LAYER_1
 10
121.4666
 20
36.0574
  0
VERTEX
  8
LAYER_1
 10
122.0199
 20
36.0574
  0
VERTEX
  8
LAYER_1
 10
122.0199
 20
35.9637
  0
VERTEX
  8
LAYER_1
 10
121.3615
 20
35.9637
  0
VERTEX
  8
LAYER_1
 10
121.3615
 20
36.9969
  0
VERTEX
  8
LAYER_1
 10
122.0023
 20
36.9969
  0
VERTEX
  8
LAYER_1
 10
122.0023
 20
36.9035
  0
VERTEX
  8
LAYER_1
 10
121.4666
 20
36.9035
  0
VERTEX
  8
LAYER_1
 10
121.4666
 20
36.549
  0
VERTEX
  8
LAYER_1
 10
121.9672
 20
36.549
  0
VERTEX
  8
LAYER_1
 10
121.9672
 20
36.4557
  0
VERTEX
  8
LAYER_1
 10
121.4666
 20
36.4557
  0
SEQEND
  0
ENDBLK
  0
BLOCK
  8
LAYER_1
  2
AIGNBL0103001C
 70
64
 10
0
 20
0
 30
0
  3
AIGNBL0103001C
  0
POLYLINE
  8
LAYER_1
 40
0.05
 41
0.05
 66
1
 10
0
 20
0
 30
0
 70
1
  0
VERTEX
  8
LAYER_1
 10
122.765
 20
36.5797
  0
VERTEX
  8
LAYER_1
 10
123.0472
 20
36.9969
  0
VERTEX
  8
LAYER_1
 10
123.1723
 20
36.9969
  0
VERTEX
  8
LAYER_1
 10
122.8298
 20
36.5053
  0
VERTEX
  8
LAYER_1
 10
123.2091
 20
35.9637
  0
VERTEX
  8
LAYER_1
 10
123.0779
 20
35.9637
  0
VERTEX
  8
LAYER_1
 10
122.7623
 20
36.4295
  0
VERTEX
  8
LAYER_1
 10
122.4488
 20
35.9637
  0
VERTEX
  8
LAYER_1
 10
122.3172
 20
35.9637
  0
VERTEX
  8
LAYER_1
 10
122.6969
 20
36.5066
  0
VERTEX
  8
LAYER_1
 10
122.351
 20
36.9969
  0
VERTEX
  8
LAYER_1
 10
122.4825
 20
36.9969
  0
SEQEND
  0
ENDBLK
  0
BLOCK
  8
LAYER_1
  2
AIGNBL0103001D
 70
64
 10
0
 20
0
 30
0
  3
AIGNBL0103001D
  0
POLYLINE
  8
LAYER_1
 40
0.05
 41
0.05
 66
1
 10
0
 20
0
 30
0
 70
1
  0
VERTEX
  8
LAYER_1
 10
123.5753
 20
36.9969
  0
VERTEX
  8
LAYER_1
 10
123.8675
 20
36.9969
  0
VERTEX
  8
LAYER_1
 10
124.0105
 20
36.9804
  0
VERTEX
  8
LAYER_1
 10
124.1203
 20
36.929
  0
VERTEX
  8
LAYER_1
 10
124.1913
 20
36.8429
  0
VERTEX
  8
LAYER_1
 10
124.2158
 20
36.7213
  0
VERTEX
  8
LAYER_1
 10
124.1906
 20
36.5993
  0
VERTEX
  8
LAYER_1
 10
124.119
 20
36.5132
  0
VERTEX
  8
LAYER_1
 10
124.0081
 20
36.4615
  0
VERTEX
  8
LAYER_1
 10
123.8644
 20
36.444
  0
VERTEX
  8
LAYER_1
 10
123.6804
 20
36.444
  0
VERTEX
  8
LAYER_1
 10
123.6804
 20
35.9637
  0
VERTEX
  8
LAYER_1
 10
123.5753
 20
35.9637
  0
SEQEND
  0
POLYLINE
  8
LAYER_1
 40
0.05
 41
0.05
 66
1
 10
0
 20
0
 30
0
 70
1
  0
VERTEX
  8
LAYER_1
 10
123.6804
 20
36.5328
  0
VERTEX
  8
LAYER_1
 10
123.8582
 20
36.5328
 42
0.1829203509
  0
VERTEX
  8
LAYER_1
 10
124.0466
 20
36.581
 42
0.2345943979
  0
VERTEX
  8
LAYER_1
 10
124.111
 20
36.7213
 42
0.2650437466
  0
VERTEX
  8
LAYER_1
 10
124.0446
 20
36.8622
 42
0.1264027561
  0
VERTEX
  8
LAYER_1
 10
123.8582
 20
36.9066
  0
VERTEX
  8
LAYER_1
 10
123.6804
 20
36.9066
  0
SEQEND
  0
ENDBLK
  0
BLOCK
  8
LAYER_1
  2
AIGNBL0103001E
 70
64
 10
0
 20
0
 30
0
  3
AIGNBL0103001E
  0
POLYLINE
  8
LAYER_1
 40
0.05
 41
0.05
 66
1
 10
0
 20
0
 30
0
 70
1
  0
VERTEX
  8
LAYER_1
 10
124.7281
 20
36.0574
  0
VERTEX
  8
LAYER_1
 10
125.2813
 20
36.0574
  0
VERTEX
  8
LAYER_1
 10
125.2813
 20
35.9637
  0
VERTEX
  8
LAYER_1
 10
124.623
 20
35.9637
  0
VERTEX
  8
LAYER_1
 10
124.623
 20
36.9969
  0
VERTEX
  8
LAYER_1
 10
125.2638
 20
36.9969
  0
VERTEX
  8
LAYER_1
 10
125.2638
 20
36.9035
  0
VERTEX
  8
LAYER_1
 10
124.7281
 20
36.9035
  0
VERTEX
  8
LAYER_1
 10
124.7281
 20
36.549
  0
VERTEX
  8
LAYER_1
 10
125.2286
 20
36.549
  0
VERTEX
  8
LAYER_1
 10
125.2286
 20
36.4557
  0
VERTEX
  8
LAYER_1
 10
124.7281
 20
36.4557
  0
SEQEND
  0
ENDBLK
  0
BLOCK
  8
LAYER_1
  2
AIGNBL0103001F
 70
64
 10
0
 20
0
 30
0
  3
AIGNBL0103001F
  0
POLYLINE
  8
LAYER_1
 40
0.05
 41
0.05
 66
1
 10
0
 20
0
 30
0
 70
1
  0
VERTEX
  8
LAYER_1
 10
125.7933
 20
35.9637
  0
VERTEX
  8
LAYER_1
 10
125.6882
 20
35.9637
  0
VERTEX
  8
LAYER_1
 10
125.6882
 20
36.9969
  0
VERTEX
  8
LAYER_1
 10
125.9921
 20
36.9969
  0
VERTEX
  8
LAYER_1
 10
126.1326
 20
36.9824
  0
VERTEX
  8
LAYER_1
 10
126.2453
 20
36.9349
  0
VERTEX
  8
LAYER_1
 10
126.319
 20
36.8494
  0
VERTEX
  8
LAYER_1
 10
126.3449
 20
36.7213
  0
VERTEX
  8
LAYER_1
 10
126.3249
 20
36.6176
  0
VERTEX
  8
LAYER_1
 10
126.2694
 20
36.5366
  0
VERTEX
  8
LAYER_1
 10
126.186
 20
36.4818
  0
VERTEX
  8
LAYER_1
 10
126.0809
 20
36.4557
  0
VERTEX
  8
LAYER_1
 10
126.3831
 20
35.9637
  0
VERTEX
  8
LAYER_1
 10
126.2546
 20
35.9637
  0
VERTEX
  8
LAYER_1
 10
125.9687
 20
36.4467
  0
VERTEX
  8
LAYER_1
 10
125.7933
 20
36.4467
  0
SEQEND
  0
POLYLINE
  8
LAYER_1
 40
0.05
 41
0.05
 66
1
 10
0
 20
0
 30
0
 70
1
  0
VERTEX
  8
LAYER_1
 10
125.7933
 20
36.5373
  0
VERTEX
  8
LAYER_1
 10
125.9759
 20
36.5373
 42
0.1663801652
  0
VERTEX
  8
LAYER_1
 10
126.1716
 20
36.5831
 42
0.2503091692
  0
VERTEX
  8
LAYER_1
 10
126.2401
 20
36.7213
  0
VERTEX
  8
LAYER_1
 10
126.2212
 20
36.8071
  0
VERTEX
  8
LAYER_1
 10
126.1685
 20
36.8643
  0
VERTEX
  8
LAYER_1
 10
126.0868
 20
36.8963
  0
VERTEX
  8
LAYER_1
 10
125.9804
 20
36.9066
  0
VERTEX
  8
LAYER_1
 10
125.7933
 20
36.9066
  0
SEQEND
  0
ENDBLK
  0
BLOCK
  8
LAYER_1
  2
AIGNBL01030020
 70
64
 10
0
 20
0
 30
0
  3
AIGNBL01030020
  0
POLYLINE
  8
LAYER_1
 40
0.05
 41
0.05
 66
1
 10
0
 20
0
 30
0
 70
1
  0
VERTEX
  8
LAYER_1
 10
126.8688
 20
35.9637
  0
VERTEX
  8
LAYER_1
 10
126.7641
 20
35.9637
  0
VERTEX
  8
LAYER_1
 10
126.7641
 20
36.9969
  0
VERTEX
  8
LAYER_1
 10
126.8688
 20
36.9969
  0
SEQEND
  0
ENDBLK
  0
BLOCK
  8
LAYER_1
  2
AIGNBL01030021
 70
64
 10
0
 20
0
 30
0
  3
AIGNBL01030021
  0
POLYLINE
  8
LAYER_1
 40
0.05
 41
0.05
 66
1
 10
0
 20
0
 30
0
 70
1
  0
VERTEX
  8
LAYER_1
 10
127.4497
 20
36.0574
  0
VERTEX
  8
LAYER_1
 10
128.0026
 20
36.0574
  0
VERTEX
  8
LAYER_1
 10
128.0026
 20
35.9637
  0
VERTEX
  8
LAYER_1
 10
127.3446
 20
35.9637
  0
VERTEX
  8
LAYER_1
 10
127.3446
 20
36.9969
  0
VERTEX
  8
LAYER_1
 10
127.9854
 20
36.9969
  0
VERTEX
  8
LAYER_1
 10
127.9854
 20
36.9035
  0
VERTEX
  8
LAYER_1
 10
127.4497
 20
36.9035
  0
VERTEX
  8
LAYER_1
 10
127.4497
 20
36.549
  0
VERTEX
  8
LAYER_1
 10
127.9503
 20
36.549
  0
VERTEX
  8
LAYER_1
 10
127.9503
 20
36.4557
  0
VERTEX
  8
LAYER_1
 10
127.4497
 20
36.4557
  0
SEQEND
  0
ENDBLK
  0
BLOCK
  8
LAYER_1
  2
AIGNBL01030022
 70
64
 10
0
 20
0
 30
0
  3
AIGNBL01030022
  0
POLYLINE
  8
LAYER_1
 40
0.05
 41
0.05
 66
1
 10
0
 20
0
 30
0
 70
1
  0
VERTEX
  8
LAYER_1
 10
129.1426
 20
36.117
  0
VERTEX
  8
LAYER_1
 10
129.1454
 20
36.117
  0
VERTEX
  8
LAYER_1
 10
129.1454
 20
36.9969
  0
VERTEX
  8
LAYER_1
 10
129.2504
 20
36.9969
  0
VERTEX
  8
LAYER_1
 10
129.2504
 20
35.9637
  0
VERTEX
  8
LAYER_1
 10
129.1192
 20
35.9637
  0
VERTEX
  8
LAYER_1
 10
128.518
 20
36.8525
  0
VERTEX
  8
LAYER_1
 10
128.5149
 20
36.8525
  0
VERTEX
  8
LAYER_1
 10
128.5149
 20
35.9637
  0
VERTEX
  8
LAYER_1
 10
128.4098
 20
35.9637
  0
VERTEX
  8
LAYER_1
 10
128.4098
 20
36.9969
  0
VERTEX
  8
LAYER_1
 10
128.5414
 20
36.9969
  0
SEQEND
  0
ENDBLK
  0
BLOCK
  8
LAYER_1
  2
AIGNBL01030023
 70
64
 10
0
 20
0
 30
0
  3
AIGNBL01030023
  0
POLYLINE
  8
LAYER_1
 40
0.05
 41
0.05
 66
1
 10
0
 20
0
 30
0
 70
1
  0
VERTEX
  8
LAYER_1
 10
130.5961
 20
36.1315
  0
VERTEX
  8
LAYER_1
 10
130.5324
 20
36.0571
  0
VERTEX
  8
LAYER_1
 10
130.4463
 20
35.9954
  0
VERTEX
  8
LAYER_1
 10
130.3381
 20
35.953
  0
VERTEX
  8
LAYER_1
 10
130.2092
 20
35.9375
 42
-0.1009408553
  0
VERTEX
  8
LAYER_1
 10
129.9932
 20
35.9785
 42
-0.1036559164
  0
VERTEX
  8
LAYER_1
 10
129.8227
 20
36.0915
 42
-0.09812017057
  0
VERTEX
  8
LAYER_1
 10
129.7111
 20
36.2631
 42
-0.09255697562
  0
VERTEX
  8
LAYER_1
 10
129.6707
 20
36.4805
 42
-0.1035456296
  0
VERTEX
  8
LAYER_1
 10
129.7117
 20
36.6978
 42
-0.1005534539
  0
VERTEX
  8
LAYER_1
 10
129.8244
 20
36.8694
 42
-0.09536265516
  0
VERTEX
  8
LAYER_1
 10
129.9953
 20
36.9824
 42
-0.09506675375
  0
VERTEX
  8
LAYER_1
 10
130.2092
 20
37.0234
  0
VERTEX
  8
LAYER_1
 10
130.3208
 20
37.0114
  0
VERTEX
  8
LAYER_1
 10
130.4239
 20
36.9779
  0
VERTEX
  8
LAYER_1
 10
130.5113
 20
36.9263
  0
VERTEX
  8
LAYER_1
 10
130.5771
 20
36.8584
  0
VERTEX
  8
LAYER_1
 10
130.4896
 20
36.794
  0
VERTEX
  8
LAYER_1
 10
130.4463
 20
36.8439
  0
VERTEX
  8
LAYER_1
 10
130.3829
 20
36.8877
  0
VERTEX
  8
LAYER_1
 10
130.3033
 20
36.9183
  0
VERTEX
  8
LAYER_1
 10
130.2106
 20
36.93
  0
VERTEX
  8
LAYER_1
 10
130.0304
 20
36.8935
  0
VERTEX
  8
LAYER_1
 10
129.8954
 20
36.7954
  0
VERTEX
  8
LAYER_1
 10
129.8106
 20
36.652
  0
VERTEX
  8
LAYER_1
 10
129.7817
 20
36.4805
  0
VERTEX
  8
LAYER_1
 10
129.8116
 20
36.3089
  0
VERTEX
  8
LAYER_1
 10
129.8971
 20
36.1656
  0
VERTEX
  8
LAYER_1
 10
130.0321
 20
36.0674
 42
0.1009931409
  0
VERTEX
  8
LAYER_1
 10
130.2106
 20
36.0309
  0
VERTEX
  8
LAYER_1
 10
130.3798
 20
36.0674
 42
0.1319081761
  0
VERTEX
  8
LAYER_1
 10
130.5141
 20
36.1842
  0
SEQEND
  0
ENDBLK
  0
BLOCK
  8
LAYER_1
  2
AIGNBL01030024
 70
64
 10
0
 20
0
 30
0
  3
AIGNBL01030024
  0
POLYLINE
  8
LAYER_1
 40
0.05
 41
0.05
 66
1
 10
0
 20
0
 30
0
 70
1
  0
VERTEX
  8
LAYER_1
 10
131.0832
 20
36.0574
  0
VERTEX
  8
LAYER_1
 10
131.6365
 20
36.0574
  0
VERTEX
  8
LAYER_1
 10
131.6365
 20
35.9637
  0
VERTEX
  8
LAYER_1
 10
130.9782
 20
35.9637
  0
VERTEX
  8
LAYER_1
 10
130.9782
 20
36.9969
  0
VERTEX
  8
LAYER_1
 10
131.619
 20
36.9969
  0
VERTEX
  8
LAYER_1
 10
131.619
 20
36.9035
  0
VERTEX
  8
LAYER_1
 10
131.0832
 20
36.9035
  0
VERTEX
  8
LAYER_1
 10
131.0832
 20
36.549
  0
VERTEX
  8
LAYER_1
 10
131.5838
 20
36.549
  0
VERTEX
  8
LAYER_1
 10
131.5838
 20
36.4557
  0
VERTEX
  8
LAYER_1
 10
131.0832
 20
36.4557
  0
SEQEND
  0
ENDBLK
  0
BLOCK
  8
LAYER_1
  2
AIGNBL01020004
 70
64
 10
0
 20
0
 30
0
  3
AIGNBL01020004
  0
INSERT
  8
LAYER_1
  2
AIGNBL01030005
 10
0
 20
0
 30
0
  0
ENDBLK
  0
BLOCK
  8
LAYER_1
  2
AIGNBL0102000D
 70
64
 10
0
 20
0
 30
0
  3
AIGNBL0102000D
  0
INSERT
  8
LAYER_1
  2
AIGNBL0103000E
 10
0
 20
0
 30
0
  0
INSERT
  8
LAYER_1
  2
AIGNBL0103000F
 10
0
 20
0
 30
0
  0
INSERT
  8
LAYER_1
  2
AIGNBL01030010
 10
0
 20
0
 30
0
  0
INSERT
  8
LAYER_1
  2
AIGNBL01030011
 10
0
 20
0
 30
0
  0
INSERT
  8
LAYER_1
  2
AIGNBL01030012
 10
0
 20
0
 30
0
  0
INSERT
  8
LAYER_1
  2
AIGNBL01030013
 10
0
 20
0
 30
0
  0
INSERT
  8
LAYER_1
  2
AIGNBL01030014
 10
0
 20
0
 30
0
  0
INSERT
  8
LAYER_1
  2
AIGNBL01030015
 10
0
 20
0
 30
0
  0
INSERT
  8
LAYER_1
  2
AIGNBL01030016
 10
0
 20
0
 30
0
  0
INSERT
  8
LAYER_1
  2
AIGNBL01030017
 10
0
 20
0
 30
0
  0
INSERT
  8
LAYER_1
  2
AIGNBL01030018
 10
0
 20
0
 30
0
  0
INSERT
  8
LAYER_1
  2
AIGNBL01030019
 10
0
 20
0
 30
0
  0
INSERT
  8
LAYER_1
  2
AIGNBL0103001A
 10
0
 20
0
 30
0
  0
INSERT
  8
LAYER_1
  2
AIGNBL0103001B
 10
0
 20
0
 30
0
  0
INSERT
  8
LAYER_1
  2
AIGNBL0103001C
 10
0
 20
0
 30
0
  0
INSERT
  8
LAYER_1
  2
AIGNBL0103001D
 10
0
 20
0
 30
0
  0
INSERT
  8
LAYER_1
  2
AIGNBL0103001E
 10
0
 20
0
 30
0
  0
INSERT
  8
LAYER_1
  2
AIGNBL0103001F
 10
0
 20
0
 30
0
  0
INSERT
  8
LAYER_1
  2
AIGNBL01030020
 10
0
 20
0
 30
0
  0
INSERT
  8
LAYER_1
  2
AIGNBL01030021
 10
0
 20
0
 30
0
  0
INSERT
  8
LAYER_1
  2
AIGNBL01030022
 10
0
 20
0
 30
0
  0
INSERT
  8
LAYER_1
  2
AIGNBL01030023
 10
0
 20
0
 30
0
  0
INSERT
  8
LAYER_1
  2
AIGNBL01030024
 10
0
 20
0
 30
0
  0
ENDBLK
  0
BLOCK
  8
LAYER_1
  2
AIGNBL01010002
 70
64
 10
0
 20
0
 30
0
  3
AIGNBL01010002
  0
POLYLINE
  8
LAYER_1
 40
0.7056
 41
0.7056
 66
1
 10
0
 20
0
 30
0
 70
1
  0
VERTEX
  8
LAYER_1
 10
251.6749
 20
230.337
  0
VERTEX
  8
LAYER_1
 10
251.6749
 20
33.3285
  0
VERTEX
  8
LAYER_1
 10
-30.3177
 20
33.3285
  0
VERTEX
  8
LAYER_1
 10
-30.3177
 20
230.337
  0
SEQEND
  0
ENDBLK
  0
BLOCK
  8
LAYER_1
  2
AIGNBL01010003
 70
64
 10
0
 20
0
 30
0
  3
AIGNBL01010003
  0
INSERT
  8
LAYER_1
  2
AIGNBL01020004
 10
0
 20
0
 30
0
  0
INSERT
  8
LAYER_1
  2
AIGNBL0102000D
 10
0
 20
0
 30
0
  0
ENDBLK
  0
ENDSEC
  0
SECTION
  2
ENTITIES
  0
TEXT
  8
LAYER_1
 10
-26.2556
 20
43.1712
 11
-26.2556
 21
43.1712
 40
3.2991
 41
0.5
  1
仕様
  0
POLYLINE
  8
LAYER_1
 40
0.3528
 41
0.3528
 66
1
 10
0
 20
0
 30
0
  0
VERTEX
  8
LAYER_1
 10
250.6748
 20
51.9507
  0
VERTEX
  8
LAYER_1
 10
-29.3346
 20
51.9507
  0
SEQEND
  0
INSERT
  8
LAYER_1
  2
AIGNBL01010002
 10
0
 20
0
 30
0
  0
POLYLINE
  8
LAYER_1
 40
0.3528
 41
0.3528
 66
1
 10
0
 20
0
 30
0
  0
VERTEX
  8
LAYER_1
 10
-29.3178
 20
229.3369
  0
VERTEX
  8
LAYER_1
 10
-29.3178
 20
34.3283
  0
VERTEX
  8
LAYER_1
 10
250.6748
 20
34.3283
  0
VERTEX
  8
LAYER_1
 10
250.6748
 20
229.3369
  0
VERTEX
  8
LAYER_1
 10
-29.3178
 20
229.3369
  0
SEQEND
  0
POLYLINE
  8
LAYER_1
 40
0.3528
 41
0.3528
 66
1
 10
0
 20
0
 30
0
  0
VERTEX
  8
LAYER_1
 10
250.6748
 20
60.4597
  0
VERTEX
  8
LAYER_1
 10
-29.3346
 20
60.4597
  0
SEQEND
  0
POLYLINE
  8
LAYER_1
 40
0.3528
 41
0.3528
 66
1
 10
0
 20
0
 30
0
  0
VERTEX
  8
LAYER_1
 10
250.6748
 20
43.4416
  0
VERTEX
  8
LAYER_1
 10
100.3837
 20
43.4416
  0
SEQEND
  0
TEXT
  8
LAYER_1
 10
188.1725
 20
45.7175
 11
188.1725
 21
45.7175
 40
3.7609
 41
0.5
  1
-
  0
TEXT
  8
LAYER_1
 10
182.8808
 20
49.4743
 11
182.8808
 21
49.4743
 40
2.1994
 41
0.5
  1
縮尺
  0
POLYLINE
  8
LAYER_1
 40
0.3528
 41
0.3528
 66
1
 10
0
 20
0
 30
0
  0
VERTEX
  8
LAYER_1
 10
181.3526
 20
43.4416
  0
VERTEX
  8
LAYER_1
 10
181.3526
 20
51.9507
  0
SEQEND
  0
TEXT
  8
LAYER_1
 10
101.641
 20
57.9834
 11
101.641
 21
57.9834
 40
2.1994
 41
0.5
  1
品番
  0
TEXT
  8
LAYER_1
 10
-28.1609
 20
57.9834
 11
-28.1609
 21
57.9834
 40
2.1994
 41
0.5
  1
品名
  0
TEXT
  8
LAYER_1
 10
101.641
 20
49.4743
 11
101.641
 21
49.4743
 40
2.1994
 41
0.5
  1
重量
  0
TEXT
  8
LAYER_1
 10
105.0013
 20
54.1714
 11
105.0013
 21
54.1714
 40
4.6883
 41
0.5
  1
SC-WBR-8001/SC-WBR-8002
  0
TEXT
  8
LAYER_1
 10
107.1887
 20
45.7175
 11
107.1887
 21
45.7175
 40
3.7609
 41
0.5
  1
17kg
  0
POLYLINE
  8
LAYER_1
 40
0.3528
 41
0.3528
 66
1
 10
0
 20
0
 30
0
  0
VERTEX
  8
LAYER_1
 10
100.3837
 20
34.9539
  0
VERTEX
  8
LAYER_1
 10
100.3837
 20
60.4597
  0
SEQEND
  0
TEXT
  8
LAYER_1
 10
-15.2256
 20
54.786
 11
-15.2256
 21
54.786
 40
4.1459
 41
0.5
  1
Rhapsody800 クリスタルガラス洗面器
  0
TEXT
  8
LAYER_1
 10
-15.6835
 20
43.9625
 11
-15.6835
 21
43.9625
 40
3.5536
 41
0.5
  1
●サイズ  W800×D470×H121mm(マウンティングディスク含む)●水栓取付穴：なし
  0
TEXT
  8
LAYER_1
 10
-15.6835
 20
39.2124
 11
-15.6835
 21
39.2124
 40
3.1172
 41
0.5
  1
●オーバーフローなし●排水金具別途●設置方法：カウンター置き／オーバーカウンター
  0
TEXT
  8
LAYER_1
 10
237.263
 20
63.2582
 11
237.263
 21
63.2582
 40
2.9614
 41
0.5
  1
単位：mm
  0
TEXT
  8
LAYER_1
 10
-21.3096
 20
205.1359
 11
-21.3096
 21
205.1359
 40
2.9614
 41
0.5
  1
※本製品は吹きガラスによる一品生産品ですので、サイズ、彫刻(エングレビング)は同じ品番であっても
  0
TEXT
  8
LAYER_1
 10
-21.3096
 20
200.3859
 11
-21.3096
 21
200.3859
 40
2.9614
 41
0.5
  1
多少の違いが生じます。また、製品の特性上、小さな気泡が入る場合もございます。予めご了承ください。 
  0
TEXT
  8
LAYER_1
 10
-21.3096
 20
195.6359
 11
-21.3096
 21
195.6359
 40
2.9614
 41
0.5
  1
※混合栓のご使用は可能ですが、45℃までの温度設定でご使用ください。熱湯の吐水はしないでください。
  0
TEXT
  8
LAYER_1
 10
134.702
 20
39.5359
 11
134.702
 21
39.5359
 40
3.3848
 41
0.5
  1
●TEL 0120-65-1232●FAX 06-6532-1580
  0
TEXT
  8
LAYER_1
 10
134.702
 20
36.0212
 11
134.702
 21
36.0212
 40
3.3848
 41
0.5
  1
hits@hiratatile.co.jp
  0
TEXT
  8
LAYER_1
 10
240.3591
 20
225.8432
 11
240.3591
 21
225.8432
 40
2.073
 41
0.5
  1
230907RT
  0
INSERT
  8
LAYER_1
  2
AIGNBL01010003
 10
0
 20
0
 30
0
  0
TEXT
  8
LAYER_1
 10
90.3773
 20
95.2439
 11
90.3773
 21
95.2439
 40
2.5803
 41
0.5
  1
マウンティングディスク（セット済）
  0
POLYLINE
  8
LAYER_1
 40
0.05
 41
0.05
 66
1
 10
0
 20
0
 30
0
 70
1
  0
VERTEX
  8
LAYER_1
 10
54.5395
 20
107.4726
  0
VERTEX
  8
LAYER_1
 10
54.5395
 20
107.1551
  0
VERTEX
  8
LAYER_1
 10
54.857
 20
107.1551
  0
VERTEX
  8
LAYER_1
 10
54.857
 20
107.4726
  0
SEQEND
  0
POLYLINE
  8
LAYER_1
 40
0.0847
 41
0.0847
 66
1
 10
0
 20
0
 30
0
 70
1
  0
VERTEX
  8
LAYER_1
 10
54.5395
 20
107.4726
  0
VERTEX
  8
LAYER_1
 10
54.5395
 20
107.1551
  0
VERTEX
  8
LAYER_1
 10
54.857
 20
107.1551
  0
VERTEX
  8
LAYER_1
 10
54.857
 20
107.4726
  0
SEQEND
  0
POLYLINE
  8
LAYER_1
 40
0.05
 41
0.05
 66
1
 10
0
 20
0
 30
0
 70
1
  0
VERTEX
  8
LAYER_1
 10
65.1017
 20
107.4726
  0
VERTEX
  8
LAYER_1
 10
65.1017
 20
107.1551
  0
VERTEX
  8
LAYER_1
 10
64.7948
 20
107.1551
  0
VERTEX
  8
LAYER_1
 10
64.7948
 20
107.4726
  0
SEQEND
  0
POLYLINE
  8
LAYER_1
 40
0.0847
 41
0.0847
 66
1
 10
0
 20
0
 30
0
 70
1
  0
VERTEX
  8
LAYER_1
 10
65.1017
 20
107.4726
  0
VERTEX
  8
LAYER_1
 10
65.1017
 20
107.1551
  0
VERTEX
  8
LAYER_1
 10
64.7948
 20
107.1551
  0
VERTEX
  8
LAYER_1
 10
64.7948
 20
107.4726
  0
SEQEND
  0
POLYLINE
  8
LAYER_1
 40
0.05
 41
0.05
 66
1
 10
0
 20
0
 30
0
 70
1
  0
VERTEX
  8
LAYER_1
 10
153.6419
 20
107.4726
  0
VERTEX
  8
LAYER_1
 10
153.6419
 20
107.1551
  0
VERTEX
  8
LAYER_1
 10
153.9488
 20
107.1551
  0
VERTEX
  8
LAYER_1
 10
153.9488
 20
107.4726
  0
SEQEND
  0
POLYLINE
  8
LAYER_1
 40
0.0847
 41
0.0847
 66
1
 10
0
 20
0
 30
0
 70
1
  0
VERTEX
  8
LAYER_1
 10
153.6419
 20
107.4726
  0
VERTEX
  8
LAYER_1
 10
153.6419
 20
107.1551
  0
VERTEX
  8
LAYER_1
 10
153.9488
 20
107.1551
  0
VERTEX
  8
LAYER_1
 10
153.9488
 20
107.4726
  0
SEQEND
  0
POLYLINE
  8
LAYER_1
 40
0.05
 41
0.05
 66
1
 10
0
 20
0
 30
0
 70
1
  0
VERTEX
  8
LAYER_1
 10
164.204
 20
107.4726
  0
VERTEX
  8
LAYER_1
 10
164.204
 20
107.1551
  0
VERTEX
  8
LAYER_1
 10
163.8865
 20
107.1551
  0
VERTEX
  8
LAYER_1
 10
163.8865
 20
107.4726
  0
SEQEND
  0
POLYLINE
  8
LAYER_1
 40
0.0847
 41
0.0847
 66
1
 10
0
 20
0
 30
0
 70
1
  0
VERTEX
  8
LAYER_1
 10
164.204
 20
107.4726
  0
VERTEX
  8
LAYER_1
 10
164.204
 20
107.1551
  0
VERTEX
  8
LAYER_1
 10
163.8865
 20
107.1551
  0
VERTEX
  8
LAYER_1
 10
163.8865
 20
107.4726
  0
SEQEND
  0
POLYLINE
  8
LAYER_1
 40
0.0847
 41
0.0847
 66
1
 10
0
 20
0
 30
0
  0
VERTEX
  8
LAYER_1
 10
123.9133
 20
149.7742
  0
VERTEX
  8
LAYER_1
 10
123.9133
 20
193.3669
  0
SEQEND
  0
POLYLINE
  8
LAYER_1
 40
0.0847
 41
0.0847
 66
1
 10
0
 20
0
 30
0
  0
VERTEX
  8
LAYER_1
 10
123.9133
 20
149.7742
  0
VERTEX
  8
LAYER_1
 10
193.922
 20
149.7742
  0
SEQEND
  0
POLYLINE
  8
LAYER_1
 40
0.0847
 41
0.0847
 66
1
 10
0
 20
0
 30
0
  0
VERTEX
  8
LAYER_1
 10
123.9133
 20
193.3669
  0
VERTEX
  8
LAYER_1
 10
193.922
 20
193.3669
  0
SEQEND
  0
POLYLINE
  8
LAYER_1
 40
0.0847
 41
0.0847
 66
1
 10
0
 20
0
 30
0
  0
VERTEX
  8
LAYER_1
 10
193.922
 20
149.7742
  0
VERTEX
  8
LAYER_1
 10
193.922
 20
193.3669
  0
SEQEND
  0
POLYLINE
  8
LAYER_1
 40
0.1693
 41
0.1693
 66
1
 10
0
 20
0
 30
0
  0
VERTEX
  8
LAYER_1
 10
154.5732
 20
167.2261
  0
VERTEX
  8
LAYER_1
 10
163.2727
 20
167.2261
  0
VERTEX
  8
LAYER_1
 10
163.2727
 20
175.9256
  0
SEQEND
  0
POLYLINE
  8
LAYER_1
 40
0.1693
 41
0.1693
 66
1
 10
0
 20
0
 30
0
  0
VERTEX
  8
LAYER_1
 10
154.5732
 20
175.9256
  0
VERTEX
  8
LAYER_1
 10
163.2727
 20
175.9256
  0
SEQEND
  0
POLYLINE
  8
LAYER_1
 40
0.1693
 41
0.1693
 66
1
 10
0
 20
0
 30
0
  0
VERTEX
  8
LAYER_1
 10
154.5732
 20
167.2261
  0
VERTEX
  8
LAYER_1
 10
154.5732
 20
175.9256
  0
SEQEND
  0
POLYLINE
  8
LAYER_1
 40
0.0847
 41
0.0847
 66
1
 10
0
 20
0
 30
0
  0
VERTEX
  8
LAYER_1
 10
163.2727
 20
175.9256
  0
VERTEX
  8
LAYER_1
 10
193.922
 20
193.3669
  0
SEQEND
  0
POLYLINE
  8
LAYER_1
 40
0.0847
 41
0.0847
 66
1
 10
0
 20
0
 30
0
  0
VERTEX
  8
LAYER_1
 10
163.2727
 20
167.2261
  0
VERTEX
  8
LAYER_1
 10
193.922
 20
149.7742
  0
SEQEND
  0
POLYLINE
  8
LAYER_1
 40
0.0847
 41
0.0847
 66
1
 10
0
 20
0
 30
0
  0
VERTEX
  8
LAYER_1
 10
154.5732
 20
167.2261
  0
VERTEX
  8
LAYER_1
 10
123.9133
 20
149.7742
  0
SEQEND
  0
POLYLINE
  8
LAYER_1
 40
0.0847
 41
0.0847
 66
1
 10
0
 20
0
 30
0
  0
VERTEX
  8
LAYER_1
 10
154.5732
 20
175.9256
  0
VERTEX
  8
LAYER_1
 10
123.9133
 20
193.3669
  0
SEQEND
  0
POLYLINE
  8
LAYER_1
 40
0.0847
 41
0.0847
 66
1
 10
0
 20
0
 30
0
  0
VERTEX
  8
LAYER_1
 10
162.4155
 20
171.5864
 42
0.3937796651
  0
VERTEX
  8
LAYER_1
 10
158.9124
 20
175.0789
 42
0.4136409185
  0
VERTEX
  8
LAYER_1
 10
155.4199
 20
171.5864
 42
0.4152790178
  0
VERTEX
  8
LAYER_1
 10
158.9124
 20
168.0833
 42
0.4146484381
  0
VERTEX
  8
LAYER_1
 10
162.4155
 20
171.5864
  0
SEQEND
  0
POLYLINE
  8
LAYER_1
 40
0.0847
 41
0.0847
 66
1
 10
0
 20
0
 30
0
  0
VERTEX
  8
LAYER_1
 10
161.209
 20
171.5864
 42
0.415702075
  0
VERTEX
  8
LAYER_1
 10
158.9124
 20
173.8724
 42
0.41667274
  0
VERTEX
  8
LAYER_1
 10
156.6264
 20
171.5864
 42
0.41570209
  0
VERTEX
  8
LAYER_1
 10
158.9124
 20
169.2898
 42
0.4147396982
  0
VERTEX
  8
LAYER_1
 10
161.209
 20
171.5864
  0
SEQEND
  0
POLYLINE
  8
LAYER_1
 40
0.1693
 41
0.1693
 66
1
 10
0
 20
0
 30
0
  0
VERTEX
  8
LAYER_1
 10
119.4048
 20
195.0708
 42
0.4239231667
  0
VERTEX
  8
LAYER_1
 10
118.918
 20
194.584
  0
SEQEND
  0
POLYLINE
  8
LAYER_1
 40
0.1693
 41
0.1693
 66
1
 10
0
 20
0
 30
0
  0
VERTEX
  8
LAYER_1
 10
119.4154
 20
195.0708
  0
VERTEX
  8
LAYER_1
 10
198.42
 20
195.0708
  0
SEQEND
  0
POLYLINE
  8
LAYER_1
 40
0.1693
 41
0.1693
 66
1
 10
0
 20
0
 30
0
  0
VERTEX
  8
LAYER_1
 10
198.9174
 20
194.584
 42
0.3818020005
  0
VERTEX
  8
LAYER_1
 10
198.42
 20
195.0708
  0
VERTEX
  8
LAYER_1
 10
198.4094
 20
195.0708
  0
SEQEND
  0
POLYLINE
  8
LAYER_1
 40
0.1693
 41
0.1693
 66
1
 10
0
 20
0
 30
0
  0
VERTEX
  8
LAYER_1
 10
198.9174
 20
148.5677
  0
VERTEX
  8
LAYER_1
 10
198.9174
 20
194.5734
  0
SEQEND
  0
POLYLINE
  8
LAYER_1
 40
0.1693
 41
0.1693
 66
1
 10
0
 20
0
 30
0
  0
VERTEX
  8
LAYER_1
 10
198.4094
 20
148.0703
  0
VERTEX
  8
LAYER_1
 10
198.42
 20
148.0703
 42
0.3892151554
  0
VERTEX
  8
LAYER_1
 10
198.9174
 20
148.5677
  0
VERTEX
  8
LAYER_1
 10
198.9174
 20
148.5783
  0
SEQEND
  0
POLYLINE
  8
LAYER_1
 40
0.1693
 41
0.1693
 66
1
 10
0
 20
0
 30
0
  0
VERTEX
  8
LAYER_1
 10
118.918
 20
148.5677
  0
VERTEX
  8
LAYER_1
 10
118.918
 20
194.5734
  0
SEQEND
  0
POLYLINE
  8
LAYER_1
 40
0.1693
 41
0.1693
 66
1
 10
0
 20
0
 30
0
  0
VERTEX
  8
LAYER_1
 10
119.4154
 20
148.0703
  0
VERTEX
  8
LAYER_1
 10
198.42
 20
148.0703
  0
SEQEND
  0
POLYLINE
  8
LAYER_1
 40
0.1693
 41
0.1693
 66
1
 10
0
 20
0
 30
0
  0
VERTEX
  8
LAYER_1
 10
118.918
 20
148.5783
  0
VERTEX
  8
LAYER_1
 10
118.918
 20
148.5677
 42
0.3856894568
  0
VERTEX
  8
LAYER_1
 10
119.4048
 20
148.0703
  0
SEQEND
  0
POLYLINE
  8
LAYER_1
 40
0.0847
 41
0.0847
 66
1
 10
0
 20
0
 30
0
  0
VERTEX
  8
LAYER_1
 10
118.9175
 20
206.2257
  0
VERTEX
  8
LAYER_1
 10
198.9169
 20
206.2257
  0
SEQEND
  0
POLYLINE
  8
LAYER_1
 40
0.1693
 41
0.1693
 66
1
 10
0
 20
0
 30
0
  0
VERTEX
  8
LAYER_1
 10
118.9175
 20
206.2257
  0
VERTEX
  8
LAYER_1
 10
120.3674
 20
206.6173
  0
SEQEND
  0
POLYLINE
  8
LAYER_1
 40
0.1693
 41
0.1693
 66
1
 10
0
 20
0
 30
0
  0
VERTEX
  8
LAYER_1
 10
118.9175
 20
206.2257
  0
VERTEX
  8
LAYER_1
 10
120.3674
 20
205.8341
  0
SEQEND
  0
POLYLINE
  8
LAYER_1
 40
0.1693
 41
0.1693
 66
1
 10
0
 20
0
 30
0
  0
VERTEX
  8
LAYER_1
 10
198.9169
 20
206.2257
  0
VERTEX
  8
LAYER_1
 10
197.467
 20
205.8341
  0
SEQEND
  0
POLYLINE
  8
LAYER_1
 40
0.1693
 41
0.1693
 66
1
 10
0
 20
0
 30
0
  0
VERTEX
  8
LAYER_1
 10
198.9169
 20
206.2257
  0
VERTEX
  8
LAYER_1
 10
197.467
 20
206.6173
  0
SEQEND
  0
TEXT
  8
LAYER_1
 10
157.6739
 20
206.5808
 11
157.6739
 21
206.5808
 40
3.0447
 41
0.5
  1
800
  0
POLYLINE
  8
LAYER_1
 40
0.0847
 41
0.0847
 66
1
 10
0
 20
0
 30
0
  0
VERTEX
  8
LAYER_1
 10
105.1173
 20
148.0703
  0
VERTEX
  8
LAYER_1
 10
105.1173
 20
195.0708
  0
SEQEND
  0
POLYLINE
  8
LAYER_1
 40
0.1693
 41
0.1693
 66
1
 10
0
 20
0
 30
0
  0
VERTEX
  8
LAYER_1
 10
105.1173
 20
195.0708
  0
VERTEX
  8
LAYER_1
 10
105.5089
 20
193.6209
  0
SEQEND
  0
POLYLINE
  8
LAYER_1
 40
0.1693
 41
0.1693
 66
1
 10
0
 20
0
 30
0
  0
VERTEX
  8
LAYER_1
 10
105.1173
 20
195.0708
  0
VERTEX
  8
LAYER_1
 10
104.7257
 20
193.6209
  0
SEQEND
  0
POLYLINE
  8
LAYER_1
 40
0.1693
 41
0.1693
 66
1
 10
0
 20
0
 30
0
  0
VERTEX
  8
LAYER_1
 10
105.1173
 20
148.0703
  0
VERTEX
  8
LAYER_1
 10
104.7257
 20
149.5202
  0
SEQEND
  0
POLYLINE
  8
LAYER_1
 40
0.1693
 41
0.1693
 66
1
 10
0
 20
0
 30
0
  0
VERTEX
  8
LAYER_1
 10
105.1173
 20
148.0703
  0
VERTEX
  8
LAYER_1
 10
105.5089
 20
149.5202
  0
SEQEND
  0
TEXT
  8
LAYER_1
 10
104.7939
 20
170.3163
 11
104.7939
 21
170.3163
 40
3.0447
 41
0.5
 50
89.99999999
  1
470
  0
POLYLINE
  8
LAYER_1
 40
0.0847
 41
0.0847
 66
1
 10
0
 20
0
 30
0
  0
VERTEX
  8
LAYER_1
 10
118.9175
 20
196.5525
  0
VERTEX
  8
LAYER_1
 10
118.9175
 20
206.2257
  0
SEQEND
  0
POLYLINE
  8
LAYER_1
 40
0.0847
 41
0.0847
 66
1
 10
0
 20
0
 30
0
  0
VERTEX
  8
LAYER_1
 10
105.1173
 20
195.0708
  0
VERTEX
  8
LAYER_1
 10
117.214
 20
195.0708
  0
SEQEND
  0
POLYLINE
  8
LAYER_1
 40
0.0847
 41
0.0847
 66
1
 10
0
 20
0
 30
0
  0
VERTEX
  8
LAYER_1
 10
198.9169
 20
196.5525
  0
VERTEX
  8
LAYER_1
 10
198.9169
 20
206.2257
  0
SEQEND
  0
POLYLINE
  8
LAYER_1
 40
0.0847
 41
0.0847
 66
1
 10
0
 20
0
 30
0
  0
VERTEX
  8
LAYER_1
 10
105.1173
 20
148.0703
  0
VERTEX
  8
LAYER_1
 10
117.214
 20
148.0703
  0
SEQEND
  0
POLYLINE
  8
LAYER_1
 40
0.1693
 41
0.1693
 66
1
 10
0
 20
0
 30
0
  0
VERTEX
  8
LAYER_1
 10
36.3256
 20
118.0559
  0
VERTEX
  8
LAYER_1
 10
36.3256
 20
119.2624
  0
SEQEND
  0
POLYLINE
  8
LAYER_1
 40
0.1693
 41
0.1693
 66
1
 10
0
 20
0
 30
0
  0
VERTEX
  8
LAYER_1
 10
36.3256
 20
118.0559
  0
VERTEX
  8
LAYER_1
 10
37.7332
 20
118.0559
  0
SEQEND
  0
POLYLINE
  8
LAYER_1
 40
0.0847
 41
0.0847
 66
1
 10
0
 20
0
 30
0
  0
VERTEX
  8
LAYER_1
 10
62.6252
 20
107.1551
  0
VERTEX
  8
LAYER_1
 10
62.6252
 20
107.6525
  0
SEQEND
  0
POLYLINE
  8
LAYER_1
 40
0.0847
 41
0.0847
 66
1
 10
0
 20
0
 30
0
  0
VERTEX
  8
LAYER_1
 10
62.6252
 20
108.6473
  0
VERTEX
  8
LAYER_1
 10
62.6252
 20
109.1553
  0
SEQEND
  0
POLYLINE
  8
LAYER_1
 40
0.1693
 41
0.1693
 66
1
 10
0
 20
0
 30
0
  0
VERTEX
  8
LAYER_1
 10
56.3281
 20
110.3618
  0
VERTEX
  8
LAYER_1
 10
57.524
 20
109.1553
  0
SEQEND
  0
POLYLINE
  8
LAYER_1
 40
0.1693
 41
0.1693
 66
1
 10
0
 20
0
 30
0
  0
VERTEX
  8
LAYER_1
 10
63.3237
 20
110.3618
  0
VERTEX
  8
LAYER_1
 10
62.1278
 20
109.1553
  0
SEQEND
  0
POLYLINE
  8
LAYER_1
 40
0.1693
 41
0.1693
 66
1
 10
0
 20
0
 30
0
  0
VERTEX
  8
LAYER_1
 10
55.492
 20
110.3618
  0
VERTEX
  8
LAYER_1
 10
64.1492
 20
110.3618
  0
SEQEND
  0
POLYLINE
  8
LAYER_1
 40
0.1693
 41
0.1693
 66
1
 10
0
 20
0
 30
0
  0
VERTEX
  8
LAYER_1
 10
38.019
 20
119.2624
  0
VERTEX
  8
LAYER_1
 10
55.492
 20
110.3618
  0
SEQEND
  0
POLYLINE
  8
LAYER_1
 40
0.1693
 41
0.1693
 66
1
 10
0
 20
0
 30
0
  0
VERTEX
  8
LAYER_1
 10
83.3262
 20
118.0559
  0
VERTEX
  8
LAYER_1
 10
83.3262
 20
119.2624
  0
SEQEND
  0
POLYLINE
  8
LAYER_1
 40
0.1693
 41
0.1693
 66
1
 10
0
 20
0
 30
0
  0
VERTEX
  8
LAYER_1
 10
81.908
 20
118.0559
  0
VERTEX
  8
LAYER_1
 10
83.3262
 20
118.0559
  0
SEQEND
  0
POLYLINE
  8
LAYER_1
 40
0.1693
 41
0.1693
 66
1
 10
0
 20
0
 30
0
  0
VERTEX
  8
LAYER_1
 10
81.6223
 20
119.2624
  0
VERTEX
  8
LAYER_1
 10
64.1492
 20
110.3618
  0
SEQEND
  0
POLYLINE
  8
LAYER_1
 40
0.1693
 41
0.1693
 66
1
 10
0
 20
0
 30
0
  0
VERTEX
  8
LAYER_1
 10
36.3256
 20
119.2624
  0
VERTEX
  8
LAYER_1
 10
83.3262
 20
119.2624
  0
SEQEND
  0
POLYLINE
  8
LAYER_1
 40
0.0847
 41
0.0847
 66
1
 10
0
 20
0
 30
0
  0
VERTEX
  8
LAYER_1
 10
50.8248
 20
98.6673
  0
VERTEX
  8
LAYER_1
 10
68.827
 20
98.6673
  0
SEQEND
  0
POLYLINE
  8
LAYER_1
 40
0.1693
 41
0.1693
 66
1
 10
0
 20
0
 30
0
  0
VERTEX
  8
LAYER_1
 10
50.8248
 20
98.6673
  0
VERTEX
  8
LAYER_1
 10
52.2747
 20
99.0588
  0
SEQEND
  0
POLYLINE
  8
LAYER_1
 40
0.1693
 41
0.1693
 66
1
 10
0
 20
0
 30
0
  0
VERTEX
  8
LAYER_1
 10
50.8248
 20
98.6673
  0
VERTEX
  8
LAYER_1
 10
52.2747
 20
98.2757
  0
SEQEND
  0
POLYLINE
  8
LAYER_1
 40
0.1693
 41
0.1693
 66
1
 10
0
 20
0
 30
0
  0
VERTEX
  8
LAYER_1
 10
68.827
 20
98.6673
  0
VERTEX
  8
LAYER_1
 10
67.3771
 20
98.2757
  0
SEQEND
  0
POLYLINE
  8
LAYER_1
 40
0.1693
 41
0.1693
 66
1
 10
0
 20
0
 30
0
  0
VERTEX
  8
LAYER_1
 10
68.827
 20
98.6673
  0
VERTEX
  8
LAYER_1
 10
67.3771
 20
99.0588
  0
SEQEND
  0
POLYLINE
  8
LAYER_1
 40
0.0847
 41
0.0847
 66
1
 10
0
 20
0
 30
0
  0
VERTEX
  8
LAYER_1
 10
50.8248
 20
98.6673
  0
VERTEX
  8
LAYER_1
 10
50.8248
 20
105.7581
  0
SEQEND
  0
POLYLINE
  8
LAYER_1
 40
0.0847
 41
0.0847
 66
1
 10
0
 20
0
 30
0
  0
VERTEX
  8
LAYER_1
 10
68.827
 20
98.6673
  0
VERTEX
  8
LAYER_1
 10
68.827
 20
105.7581
  0
SEQEND
  0
TEXT
  8
LAYER_1
 10
57.5868
 20
99.0988
 11
57.5868
 21
99.0988
 40
3.0447
 41
0.5
  1
180
  0
POLYLINE
  8
LAYER_1
 40
0.0847
 41
0.0847
 66
1
 10
0
 20
0
 30
0
  0
VERTEX
  8
LAYER_1
 10
57.0266
 20
102.001
  0
VERTEX
  8
LAYER_1
 10
62.6252
 20
102.001
  0
SEQEND
  0
POLYLINE
  8
LAYER_1
 40
0.1693
 41
0.1693
 66
1
 10
0
 20
0
 30
0
  0
VERTEX
  8
LAYER_1
 10
57.0266
 20
102.001
  0
VERTEX
  8
LAYER_1
 10
58.4765
 20
102.382
  0
SEQEND
  0
POLYLINE
  8
LAYER_1
 40
0.1693
 41
0.1693
 66
1
 10
0
 20
0
 30
0
  0
VERTEX
  8
LAYER_1
 10
57.0266
 20
102.001
  0
VERTEX
  8
LAYER_1
 10
58.4765
 20
101.6094
  0
SEQEND
  0
POLYLINE
  8
LAYER_1
 40
0.1693
 41
0.1693
 66
1
 10
0
 20
0
 30
0
  0
VERTEX
  8
LAYER_1
 10
62.6252
 20
102.001
  0
VERTEX
  8
LAYER_1
 10
61.1753
 20
101.6094
  0
SEQEND
  0
POLYLINE
  8
LAYER_1
 40
0.1693
 41
0.1693
 66
1
 10
0
 20
0
 30
0
  0
VERTEX
  8
LAYER_1
 10
62.6252
 20
102.001
  0
VERTEX
  8
LAYER_1
 10
61.1753
 20
102.382
  0
SEQEND
  0
POLYLINE
  8
LAYER_1
 40
0.0847
 41
0.0847
 66
1
 10
0
 20
0
 30
0
  0
VERTEX
  8
LAYER_1
 10
57.0266
 20
102.001
  0
VERTEX
  8
LAYER_1
 10
57.0266
 20
105.7581
  0
SEQEND
  0
POLYLINE
  8
LAYER_1
 40
0.0847
 41
0.0847
 66
1
 10
0
 20
0
 30
0
  0
VERTEX
  8
LAYER_1
 10
62.6252
 20
102.001
  0
VERTEX
  8
LAYER_1
 10
62.6252
 20
105.7581
  0
SEQEND
  0
TEXT
  8
LAYER_1
 10
58.1972
 20
103.0895
 11
58.1972
 21
103.0895
 40
3.0447
 41
0.5
  1
56
  0
POLYLINE
  8
LAYER_1
 40
0.0847
 41
0.0847
 66
1
 10
0
 20
0
 30
0
  0
VERTEX
  8
LAYER_1
 10
57.524
 20
112.4635
  0
VERTEX
  8
LAYER_1
 10
62.1278
 20
112.4635
  0
SEQEND
  0
POLYLINE
  8
LAYER_1
 40
0.1693
 41
0.1693
 66
1
 10
0
 20
0
 30
0
  0
VERTEX
  8
LAYER_1
 10
57.524
 20
112.4635
  0
VERTEX
  8
LAYER_1
 10
58.974
 20
112.8445
  0
SEQEND
  0
POLYLINE
  8
LAYER_1
 40
0.1693
 41
0.1693
 66
1
 10
0
 20
0
 30
0
  0
VERTEX
  8
LAYER_1
 10
57.524
 20
112.4635
  0
VERTEX
  8
LAYER_1
 10
58.974
 20
112.0719
  0
SEQEND
  0
POLYLINE
  8
LAYER_1
 40
0.1693
 41
0.1693
 66
1
 10
0
 20
0
 30
0
  0
VERTEX
  8
LAYER_1
 10
62.1278
 20
112.4635
  0
VERTEX
  8
LAYER_1
 10
60.6779
 20
112.0719
  0
SEQEND
  0
POLYLINE
  8
LAYER_1
 40
0.1693
 41
0.1693
 66
1
 10
0
 20
0
 30
0
  0
VERTEX
  8
LAYER_1
 10
62.1278
 20
112.4635
  0
VERTEX
  8
LAYER_1
 10
60.6779
 20
112.8445
  0
SEQEND
  0
TEXT
  8
LAYER_1
 10
58.2153
 20
113.3452
 11
58.2153
 21
113.3452
 40
3.0447
 41
0.5
  1
46
  0
POLYLINE
  8
LAYER_1
 40
0.0847
 41
0.0847
 66
1
 10
0
 20
0
 30
0
  0
VERTEX
  8
LAYER_1
 10
56.3281
 20
116.4049
  0
VERTEX
  8
LAYER_1
 10
63.3237
 20
116.4049
  0
SEQEND
  0
POLYLINE
  8
LAYER_1
 40
0.1693
 41
0.1693
 66
1
 10
0
 20
0
 30
0
  0
VERTEX
  8
LAYER_1
 10
56.3281
 20
116.4049
  0
VERTEX
  8
LAYER_1
 10
57.7675
 20
116.7965
  0
SEQEND
  0
POLYLINE
  8
LAYER_1
 40
0.1693
 41
0.1693
 66
1
 10
0
 20
0
 30
0
  0
VERTEX
  8
LAYER_1
 10
56.3281
 20
116.4049
  0
VERTEX
  8
LAYER_1
 10
57.7675
 20
116.0239
  0
SEQEND
  0
POLYLINE
  8
LAYER_1
 40
0.1693
 41
0.1693
 66
1
 10
0
 20
0
 30
0
  0
VERTEX
  8
LAYER_1
 10
63.3237
 20
116.4049
  0
VERTEX
  8
LAYER_1
 10
61.8738
 20
116.0239
  0
SEQEND
  0
POLYLINE
  8
LAYER_1
 40
0.1693
 41
0.1693
 66
1
 10
0
 20
0
 30
0
  0
VERTEX
  8
LAYER_1
 10
63.3237
 20
116.4049
  0
VERTEX
  8
LAYER_1
 10
61.8738
 20
116.7965
  0
SEQEND
  0
TEXT
  8
LAYER_1
 10
58.3733
 20
116.9286
 11
58.3733
 21
116.9286
 40
3.0447
 41
0.5
  1
70
  0
POLYLINE
  8
LAYER_1
 40
0.0847
 41
0.0847
 66
1
 10
0
 20
0
 30
0
  0
VERTEX
  8
LAYER_1
 10
63.3237
 20
110.8593
  0
VERTEX
  8
LAYER_1
 10
63.3237
 20
116.4049
  0
SEQEND
  0
POLYLINE
  8
LAYER_1
 40
0.0847
 41
0.0847
 66
1
 10
0
 20
0
 30
0
  0
VERTEX
  8
LAYER_1
 10
62.1278
 20
109.4623
  0
VERTEX
  8
LAYER_1
 10
62.1278
 20
112.4635
  0
SEQEND
  0
POLYLINE
  8
LAYER_1
 40
0.0847
 41
0.0847
 66
1
 10
0
 20
0
 30
0
  0
VERTEX
  8
LAYER_1
 10
57.524
 20
109.4623
  0
VERTEX
  8
LAYER_1
 10
57.524
 20
112.4635
  0
SEQEND
  0
POLYLINE
  8
LAYER_1
 40
0.0847
 41
0.0847
 66
1
 10
0
 20
0
 30
0
  0
VERTEX
  8
LAYER_1
 10
161.717
 20
107.1551
  0
VERTEX
  8
LAYER_1
 10
161.717
 20
107.6525
  0
SEQEND
  0
POLYLINE
  8
LAYER_1
 40
0.0847
 41
0.0847
 66
1
 10
0
 20
0
 30
0
  0
VERTEX
  8
LAYER_1
 10
161.717
 20
108.6473
  0
VERTEX
  8
LAYER_1
 10
161.717
 20
109.1553
  0
SEQEND
  0
POLYLINE
  8
LAYER_1
 40
0.1693
 41
0.1693
 66
1
 10
0
 20
0
 30
0
  0
VERTEX
  8
LAYER_1
 10
118.918
 20
118.0559
  0
VERTEX
  8
LAYER_1
 10
118.918
 20
119.2624
  0
VERTEX
  8
LAYER_1
 10
198.9174
 20
119.2624
  0
SEQEND
  0
POLYLINE
  8
LAYER_1
 40
0.1693
 41
0.1693
 66
1
 10
0
 20
0
 30
0
  0
VERTEX
  8
LAYER_1
 10
155.4199
 20
110.3618
  0
VERTEX
  8
LAYER_1
 10
156.6158
 20
109.1553
  0
SEQEND
  0
POLYLINE
  8
LAYER_1
 40
0.1693
 41
0.1693
 66
1
 10
0
 20
0
 30
0
  0
VERTEX
  8
LAYER_1
 10
162.4155
 20
110.3618
  0
VERTEX
  8
LAYER_1
 10
161.2195
 20
109.1553
  0
SEQEND
  0
POLYLINE
  8
LAYER_1
 40
0.1693
 41
0.1693
 66
1
 10
0
 20
0
 30
0
  0
VERTEX
  8
LAYER_1
 10
154.5944
 20
110.3618
  0
VERTEX
  8
LAYER_1
 10
163.2515
 20
110.3618
  0
SEQEND
  0
POLYLINE
  8
LAYER_1
 40
0.1693
 41
0.1693
 66
1
 10
0
 20
0
 30
0
  0
VERTEX
  8
LAYER_1
 10
198.9174
 20
118.0559
  0
VERTEX
  8
LAYER_1
 10
198.9174
 20
119.2624
  0
SEQEND
  0
POLYLINE
  8
LAYER_1
 40
0.1693
 41
0.1693
 66
1
 10
0
 20
0
 30
0
  0
VERTEX
  8
LAYER_1
 10
198.9174
 20
118.0559
  0
VERTEX
  8
LAYER_1
 10
198.9174
 20
119.2624
  0
SEQEND
  0
POLYLINE
  8
LAYER_1
 40
0.1693
 41
0.1693
 66
1
 10
0
 20
0
 30
0
  0
VERTEX
  8
LAYER_1
 10
123.9133
 20
119.2624
  0
VERTEX
  8
LAYER_1
 10
154.5944
 20
110.3618
  0
SEQEND
  0
POLYLINE
  8
LAYER_1
 40
0.1693
 41
0.1693
 66
1
 10
0
 20
0
 30
0
  0
VERTEX
  8
LAYER_1
 10
118.9179
 20
118.0559
  0
VERTEX
  8
LAYER_1
 10
123.7439
 20
118.0559
  0
SEQEND
  0
POLYLINE
  8
LAYER_1
 40
0.1693
 41
0.1693
 66
1
 10
0
 20
0
 30
0
  0
VERTEX
  8
LAYER_1
 10
198.9174
 20
118.0559
  0
VERTEX
  8
LAYER_1
 10
198.9174
 20
119.2624
  0
SEQEND
  0
POLYLINE
  8
LAYER_1
 40
0.1693
 41
0.1693
 66
1
 10
0
 20
0
 30
0
  0
VERTEX
  8
LAYER_1
 10
194.0914
 20
118.0559
  0
VERTEX
  8
LAYER_1
 10
198.9174
 20
118.0559
  0
SEQEND
  0
POLYLINE
  8
LAYER_1
 40
0.1693
 41
0.1693
 66
1
 10
0
 20
0
 30
0
  0
VERTEX
  8
LAYER_1
 10
193.922
 20
119.2624
  0
VERTEX
  8
LAYER_1
 10
163.2515
 20
110.3618
  0
SEQEND
  0
POLYLINE
  8
LAYER_1
 40
0.0847
 41
0.0847
 66
1
 10
0
 20
0
 30
0
  0
VERTEX
  8
LAYER_1
 10
113.0442
 20
115.5583
  0
VERTEX
  8
LAYER_1
 10
113.0442
 20
118.0559
  0
SEQEND
  0
POLYLINE
  8
LAYER_1
 40
0.0847
 41
0.0847
 66
1
 10
0
 20
0
 30
0
  0
VERTEX
  8
LAYER_1
 10
113.0442
 20
119.2624
  0
VERTEX
  8
LAYER_1
 10
113.0442
 20
121.7601
  0
SEQEND
  0
POLYLINE
  8
LAYER_1
 40
0.0847
 41
0.0847
 66
1
 10
0
 20
0
 30
0
  0
VERTEX
  8
LAYER_1
 10
113.0442
 20
118.0559
  0
VERTEX
  8
LAYER_1
 10
113.0442
 20
119.2624
  0
SEQEND
  0
POLYLINE
  8
LAYER_1
 40
0.1693
 41
0.1693
 66
1
 10
0
 20
0
 30
0
  0
VERTEX
  8
LAYER_1
 10
113.0442
 20
118.0559
  0
VERTEX
  8
LAYER_1
 10
113.4358
 20
116.606
  0
SEQEND
  0
POLYLINE
  8
LAYER_1
 40
0.1693
 41
0.1693
 66
1
 10
0
 20
0
 30
0
  0
VERTEX
  8
LAYER_1
 10
113.0442
 20
118.0559
  0
VERTEX
  8
LAYER_1
 10
112.6526
 20
116.606
  0
SEQEND
  0
POLYLINE
  8
LAYER_1
 40
0.1693
 41
0.1693
 66
1
 10
0
 20
0
 30
0
  0
VERTEX
  8
LAYER_1
 10
113.0442
 20
119.2624
  0
VERTEX
  8
LAYER_1
 10
112.6526
 20
120.7123
  0
SEQEND
  0
POLYLINE
  8
LAYER_1
 40
0.1693
 41
0.1693
 66
1
 10
0
 20
0
 30
0
  0
VERTEX
  8
LAYER_1
 10
113.0442
 20
119.2624
  0
VERTEX
  8
LAYER_1
 10
113.4358
 20
120.7123
  0
SEQEND
  0
TEXT
  8
LAYER_1
 10
112.0992
 20
117.4557
 11
112.0992
 21
117.4557
 40
3.0447
 41
0.5
 50
89.99999999
  1
12
  0
POLYLINE
  8
LAYER_1
 40
0.0847
 41
0.0847
 66
1
 10
0
 20
0
 30
0
  0
VERTEX
  8
LAYER_1
 10
113.0442
 20
119.2624
  0
VERTEX
  8
LAYER_1
 10
117.214
 20
119.2624
  0
SEQEND
  0
POLYLINE
  8
LAYER_1
 40
0.0847
 41
0.0847
 66
1
 10
0
 20
0
 30
0
  0
VERTEX
  8
LAYER_1
 10
113.0442
 20
118.0559
  0
VERTEX
  8
LAYER_1
 10
117.214
 20
118.0559
  0
SEQEND
  0
POLYLINE
  8
LAYER_1
 40
0.1693
 41
0.1693
 66
1
 10
0
 20
0
 30
0
  0
VERTEX
  8
LAYER_1
 10
123.744
 20
118.0559
  0
VERTEX
  8
LAYER_1
 10
154.425
 20
109.1553
  0
SEQEND
  0
POLYLINE
  8
LAYER_1
 40
0.0847
 41
0.0847
 66
1
 10
0
 20
0
 30
0
  0
VERTEX
  8
LAYER_1
 10
208.6858
 20
109.1553
  0
VERTEX
  8
LAYER_1
 10
208.6858
 20
119.2624
  0
SEQEND
  0
POLYLINE
  8
LAYER_1
 40
0.1693
 41
0.1693
 66
1
 10
0
 20
0
 30
0
  0
VERTEX
  8
LAYER_1
 10
208.6858
 20
109.1553
  0
VERTEX
  8
LAYER_1
 10
208.3048
 20
110.6052
  0
SEQEND
  0
POLYLINE
  8
LAYER_1
 40
0.1693
 41
0.1693
 66
1
 10
0
 20
0
 30
0
  0
VERTEX
  8
LAYER_1
 10
208.6858
 20
109.1553
  0
VERTEX
  8
LAYER_1
 10
209.0774
 20
110.6052
  0
SEQEND
  0
POLYLINE
  8
LAYER_1
 40
0.1693
 41
0.1693
 66
1
 10
0
 20
0
 30
0
  0
VERTEX
  8
LAYER_1
 10
208.6858
 20
119.2624
  0
VERTEX
  8
LAYER_1
 10
209.0774
 20
117.8125
  0
SEQEND
  0
POLYLINE
  8
LAYER_1
 40
0.1693
 41
0.1693
 66
1
 10
0
 20
0
 30
0
  0
VERTEX
  8
LAYER_1
 10
208.6858
 20
119.2624
  0
VERTEX
  8
LAYER_1
 10
208.3048
 20
117.8125
  0
SEQEND
  0
TEXT
  8
LAYER_1
 10
208.3623
 20
112.9548
 11
208.3623
 21
112.9548
 40
3.0447
 41
0.5
 50
89.99999999
  1
101
  0
POLYLINE
  8
LAYER_1
 40
0.0847
 41
0.0847
 66
1
 10
0
 20
0
 30
0
  0
VERTEX
  8
LAYER_1
 10
200.833
 20
119.2624
  0
VERTEX
  8
LAYER_1
 10
208.6858
 20
119.2624
  0
SEQEND
  0
POLYLINE
  8
LAYER_1
 40
0.0847
 41
0.0847
 66
1
 10
0
 20
0
 30
0
  0
VERTEX
  8
LAYER_1
 10
165.5375
 20
109.1553
  0
VERTEX
  8
LAYER_1
 10
208.6858
 20
109.1553
  0
SEQEND
  0
POLYLINE
  8
LAYER_1
 40
0.0847
 41
0.0847
 66
1
 10
0
 20
0
 30
0
  0
VERTEX
  8
LAYER_1
 10
214.4643
 20
107.1551
  0
VERTEX
  8
LAYER_1
 10
214.4643
 20
119.2624
  0
SEQEND
  0
POLYLINE
  8
LAYER_1
 40
0.1693
 41
0.1693
 66
1
 10
0
 20
0
 30
0
  0
VERTEX
  8
LAYER_1
 10
214.4643
 20
107.1551
  0
VERTEX
  8
LAYER_1
 10
214.0727
 20
108.605
  0
SEQEND
  0
POLYLINE
  8
LAYER_1
 40
0.1693
 41
0.1693
 66
1
 10
0
 20
0
 30
0
  0
VERTEX
  8
LAYER_1
 10
214.4643
 20
107.1551
  0
VERTEX
  8
LAYER_1
 10
214.8453
 20
108.605
  0
SEQEND
  0
POLYLINE
  8
LAYER_1
 40
0.1693
 41
0.1693
 66
1
 10
0
 20
0
 30
0
  0
VERTEX
  8
LAYER_1
 10
214.4643
 20
119.2624
  0
VERTEX
  8
LAYER_1
 10
214.8453
 20
117.8125
  0
SEQEND
  0
POLYLINE
  8
LAYER_1
 40
0.1693
 41
0.1693
 66
1
 10
0
 20
0
 30
0
  0
VERTEX
  8
LAYER_1
 10
214.4643
 20
119.2624
  0
VERTEX
  8
LAYER_1
 10
214.0727
 20
117.8125
  0
SEQEND
  0
POLYLINE
  8
LAYER_1
 40
0.0847
 41
0.0847
 66
1
 10
0
 20
0
 30
0
  0
VERTEX
  8
LAYER_1
 10
208.6858
 20
119.2624
  0
VERTEX
  8
LAYER_1
 10
214.4643
 20
119.2624
  0
SEQEND
  0
TEXT
  8
LAYER_1
 10
214.1304
 20
111.9598
 11
214.1304
 21
111.9598
 40
3.0447
 41
0.5
 50
89.99999999
  1
121
  0
POLYLINE
  8
LAYER_1
 40
0.0847
 41
0.0847
 66
1
 10
0
 20
0
 30
0
  0
VERTEX
  8
LAYER_1
 10
169.3264
 20
107.1551
  0
VERTEX
  8
LAYER_1
 10
214.4643
 20
107.1551
  0
SEQEND
  0
POLYLINE
  8
LAYER_1
 40
0.0847
 41
0.0847
 66
1
 10
0
 20
0
 30
0
  0
VERTEX
  8
LAYER_1
 10
149.9165
 20
98.6673
  0
VERTEX
  8
LAYER_1
 10
167.9188
 20
98.6673
  0
SEQEND
  0
POLYLINE
  8
LAYER_1
 40
0.1693
 41
0.1693
 66
1
 10
0
 20
0
 30
0
  0
VERTEX
  8
LAYER_1
 10
149.9165
 20
98.6673
  0
VERTEX
  8
LAYER_1
 10
151.3664
 20
99.0588
  0
SEQEND
  0
POLYLINE
  8
LAYER_1
 40
0.1693
 41
0.1693
 66
1
 10
0
 20
0
 30
0
  0
VERTEX
  8
LAYER_1
 10
149.9165
 20
98.6673
  0
VERTEX
  8
LAYER_1
 10
151.3664
 20
98.2757
  0
SEQEND
  0
POLYLINE
  8
LAYER_1
 40
0.1693
 41
0.1693
 66
1
 10
0
 20
0
 30
0
  0
VERTEX
  8
LAYER_1
 10
167.9188
 20
98.6673
  0
VERTEX
  8
LAYER_1
 10
166.4689
 20
98.2757
  0
SEQEND
  0
POLYLINE
  8
LAYER_1
 40
0.1693
 41
0.1693
 66
1
 10
0
 20
0
 30
0
  0
VERTEX
  8
LAYER_1
 10
167.9188
 20
98.6673
  0
VERTEX
  8
LAYER_1
 10
166.4689
 20
99.0588
  0
SEQEND
  0
POLYLINE
  8
LAYER_1
 40
0.0847
 41
0.0847
 66
1
 10
0
 20
0
 30
0
  0
VERTEX
  8
LAYER_1
 10
149.9165
 20
98.6673
  0
VERTEX
  8
LAYER_1
 10
149.9165
 20
105.7581
  0
SEQEND
  0
POLYLINE
  8
LAYER_1
 40
0.0847
 41
0.0847
 66
1
 10
0
 20
0
 30
0
  0
VERTEX
  8
LAYER_1
 10
167.9188
 20
98.6673
  0
VERTEX
  8
LAYER_1
 10
167.9188
 20
105.7581
  0
SEQEND
  0
TEXT
  8
LAYER_1
 10
156.2761
 20
95.5271
 11
156.2761
 21
95.5271
 40
3.0447
 41
0.5
  1
180
  0
POLYLINE
  8
LAYER_1
 40
0.0847
 41
0.0847
 66
1
 10
0
 20
0
 30
0
  0
VERTEX
  8
LAYER_1
 10
156.1184
 20
102.001
  0
VERTEX
  8
LAYER_1
 10
161.717
 20
102.001
  0
SEQEND
  0
POLYLINE
  8
LAYER_1
 40
0.1693
 41
0.1693
 66
1
 10
0
 20
0
 30
0
  0
VERTEX
  8
LAYER_1
 10
156.1184
 20
102.001
  0
VERTEX
  8
LAYER_1
 10
157.5683
 20
102.382
  0
SEQEND
  0
POLYLINE
  8
LAYER_1
 40
0.1693
 41
0.1693
 66
1
 10
0
 20
0
 30
0
  0
VERTEX
  8
LAYER_1
 10
156.1184
 20
102.001
  0
VERTEX
  8
LAYER_1
 10
157.5683
 20
101.6094
  0
SEQEND
  0
POLYLINE
  8
LAYER_1
 40
0.1693
 41
0.1693
 66
1
 10
0
 20
0
 30
0
  0
VERTEX
  8
LAYER_1
 10
161.717
 20
102.001
  0
VERTEX
  8
LAYER_1
 10
160.267
 20
101.6094
  0
SEQEND
  0
POLYLINE
  8
LAYER_1
 40
0.1693
 41
0.1693
 66
1
 10
0
 20
0
 30
0
  0
VERTEX
  8
LAYER_1
 10
161.717
 20
102.001
  0
VERTEX
  8
LAYER_1
 10
160.267
 20
102.382
  0
SEQEND
  0
POLYLINE
  8
LAYER_1
 40
0.0847
 41
0.0847
 66
1
 10
0
 20
0
 30
0
  0
VERTEX
  8
LAYER_1
 10
156.1184
 20
102.001
  0
VERTEX
  8
LAYER_1
 10
156.1184
 20
105.7581
  0
SEQEND
  0
POLYLINE
  8
LAYER_1
 40
0.0847
 41
0.0847
 66
1
 10
0
 20
0
 30
0
  0
VERTEX
  8
LAYER_1
 10
161.717
 20
102.001
  0
VERTEX
  8
LAYER_1
 10
161.717
 20
105.7581
  0
SEQEND
  0
TEXT
  8
LAYER_1
 10
157.4456
 20
102.9404
 11
157.4456
 21
102.9404
 40
3.0447
 41
0.5
  1
56
  0
POLYLINE
  8
LAYER_1
 40
0.0847
 41
0.0847
 66
1
 10
0
 20
0
 30
0
  0
VERTEX
  8
LAYER_1
 10
156.6158
 20
112.1568
  0
VERTEX
  8
LAYER_1
 10
161.2195
 20
112.1568
  0
SEQEND
  0
POLYLINE
  8
LAYER_1
 40
0.1693
 41
0.1693
 66
1
 10
0
 20
0
 30
0
  0
VERTEX
  8
LAYER_1
 10
156.6158
 20
112.1568
  0
VERTEX
  8
LAYER_1
 10
158.0657
 20
112.5378
  0
SEQEND
  0
POLYLINE
  8
LAYER_1
 40
0.1693
 41
0.1693
 66
1
 10
0
 20
0
 30
0
  0
VERTEX
  8
LAYER_1
 10
156.6158
 20
112.1568
  0
VERTEX
  8
LAYER_1
 10
158.0657
 20
111.7653
  0
SEQEND
  0
POLYLINE
  8
LAYER_1
 40
0.1693
 41
0.1693
 66
1
 10
0
 20
0
 30
0
  0
VERTEX
  8
LAYER_1
 10
161.2195
 20
112.1568
  0
VERTEX
  8
LAYER_1
 10
159.7696
 20
111.7653
  0
SEQEND
  0
POLYLINE
  8
LAYER_1
 40
0.1693
 41
0.1693
 66
1
 10
0
 20
0
 30
0
  0
VERTEX
  8
LAYER_1
 10
161.2195
 20
112.1568
  0
VERTEX
  8
LAYER_1
 10
159.7696
 20
112.5378
  0
SEQEND
  0
TEXT
  8
LAYER_1
 10
157.0982
 20
113.056
 11
157.0982
 21
113.056
 40
3.0447
 41
0.5
  1
46
  0
POLYLINE
  8
LAYER_1
 40
0.0847
 41
0.0847
 66
1
 10
0
 20
0
 30
0
  0
VERTEX
  8
LAYER_1
 10
155.4199
 20
115.8076
  0
VERTEX
  8
LAYER_1
 10
162.4155
 20
115.8076
  0
SEQEND
  0
POLYLINE
  8
LAYER_1
 40
0.1693
 41
0.1693
 66
1
 10
0
 20
0
 30
0
  0
VERTEX
  8
LAYER_1
 10
155.4199
 20
115.8076
  0
VERTEX
  8
LAYER_1
 10
156.8698
 20
116.1992
  0
SEQEND
  0
POLYLINE
  8
LAYER_1
 40
0.1693
 41
0.1693
 66
1
 10
0
 20
0
 30
0
  0
VERTEX
  8
LAYER_1
 10
155.4199
 20
115.8076
  0
VERTEX
  8
LAYER_1
 10
156.8698
 20
115.4266
  0
SEQEND
  0
POLYLINE
  8
LAYER_1
 40
0.1693
 41
0.1693
 66
1
 10
0
 20
0
 30
0
  0
VERTEX
  8
LAYER_1
 10
162.4155
 20
115.8076
  0
VERTEX
  8
LAYER_1
 10
160.9655
 20
115.4266
  0
SEQEND
  0
POLYLINE
  8
LAYER_1
 40
0.1693
 41
0.1693
 66
1
 10
0
 20
0
 30
0
  0
VERTEX
  8
LAYER_1
 10
162.4155
 20
115.8076
  0
VERTEX
  8
LAYER_1
 10
160.9655
 20
116.1992
  0
SEQEND
  0
TEXT
  8
LAYER_1
 10
157.4189
 20
116.3904
 11
157.4189
 21
116.3904
 40
3.0447
 41
0.5
  1
70
  0
POLYLINE
  8
LAYER_1
 40
0.0847
 41
0.0847
 66
1
 10
0
 20
0
 30
0
  0
VERTEX
  8
LAYER_1
 10
156.6158
 20
109.4623
  0
VERTEX
  8
LAYER_1
 10
156.6158
 20
112.1568
  0
SEQEND
  0
POLYLINE
  8
LAYER_1
 40
0.0847
 41
0.0847
 66
1
 10
0
 20
0
 30
0
  0
VERTEX
  8
LAYER_1
 10
161.2195
 20
109.4623
  0
VERTEX
  8
LAYER_1
 10
161.2195
 20
112.1568
  0
SEQEND
  0
POLYLINE
  8
LAYER_1
 40
0.0847
 41
0.0847
 66
1
 10
0
 20
0
 30
0
  0
VERTEX
  8
LAYER_1
 10
162.4155
 20
110.8593
  0
VERTEX
  8
LAYER_1
 10
162.4155
 20
115.8076
  0
SEQEND
  0
POLYLINE
  8
LAYER_1
 40
0.0847
 41
0.0847
 66
1
 10
0
 20
0
 30
0
  0
VERTEX
  8
LAYER_1
 10
155.4199
 20
110.8593
  0
VERTEX
  8
LAYER_1
 10
155.4199
 20
115.8076
  0
SEQEND
  0
POLYLINE
  8
LAYER_1
 40
0.0847
 41
0.0847
 66
1
 10
0
 20
0
 30
0
  0
VERTEX
  8
LAYER_1
 10
141.5875
 20
104.6574
  0
VERTEX
  8
LAYER_1
 10
141.5875
 20
107.1551
  0
SEQEND
  0
POLYLINE
  8
LAYER_1
 40
0.0847
 41
0.0847
 66
1
 10
0
 20
0
 30
0
  0
VERTEX
  8
LAYER_1
 10
141.5875
 20
109.1553
  0
VERTEX
  8
LAYER_1
 10
141.5875
 20
111.6636
  0
SEQEND
  0
POLYLINE
  8
LAYER_1
 40
0.0847
 41
0.0847
 66
1
 10
0
 20
0
 30
0
  0
VERTEX
  8
LAYER_1
 10
141.5875
 20
107.1551
  0
VERTEX
  8
LAYER_1
 10
141.5875
 20
109.1553
  0
SEQEND
  0
POLYLINE
  8
LAYER_1
 40
0.1693
 41
0.1693
 66
1
 10
0
 20
0
 30
0
  0
VERTEX
  8
LAYER_1
 10
141.5875
 20
107.1551
  0
VERTEX
  8
LAYER_1
 10
141.9685
 20
105.7158
  0
SEQEND
  0
POLYLINE
  8
LAYER_1
 40
0.1693
 41
0.1693
 66
1
 10
0
 20
0
 30
0
  0
VERTEX
  8
LAYER_1
 10
141.5875
 20
107.1551
  0
VERTEX
  8
LAYER_1
 10
141.1959
 20
105.7158
  0
SEQEND
  0
POLYLINE
  8
LAYER_1
 40
0.1693
 41
0.1693
 66
1
 10
0
 20
0
 30
0
  0
VERTEX
  8
LAYER_1
 10
141.5875
 20
109.1553
  0
VERTEX
  8
LAYER_1
 10
141.1959
 20
110.6053
  0
SEQEND
  0
POLYLINE
  8
LAYER_1
 40
0.1693
 41
0.1693
 66
1
 10
0
 20
0
 30
0
  0
VERTEX
  8
LAYER_1
 10
141.5875
 20
109.1553
  0
VERTEX
  8
LAYER_1
 10
141.9685
 20
110.6053
  0
SEQEND
  0
POLYLINE
  8
LAYER_1
 40
0.0847
 41
0.0847
 66
1
 10
0
 20
0
 30
0
  0
VERTEX
  8
LAYER_1
 10
141.5875
 20
107.1551
  0
VERTEX
  8
LAYER_1
 10
149.4085
 20
107.1551
  0
SEQEND
  0
POLYLINE
  8
LAYER_1
 40
0.0847
 41
0.0847
 66
1
 10
0
 20
0
 30
0
  0
VERTEX
  8
LAYER_1
 10
141.5875
 20
109.1553
  0
VERTEX
  8
LAYER_1
 10
149.4085
 20
109.1553
  0
SEQEND
  0
TEXT
  8
LAYER_1
 10
141.2536
 20
107.3455
 11
141.2536
 21
107.3455
 40
3.0447
 41
0.5
 50
89.99999999
  1
20
  0
POLYLINE
  8
LAYER_1
 40
0.1693
 41
0.1693
 66
1
 10
0
 20
0
 30
0
  0
VERTEX
  8
LAYER_1
 10
194.0914
 20
118.0559
  0
VERTEX
  8
LAYER_1
 10
163.4209
 20
109.1553
  0
SEQEND
  0
POLYLINE
  8
LAYER_1
 40
0.1693
 41
0.1693
 66
1
 10
0
 20
0
 30
0
  0
VERTEX
  8
LAYER_1
 10
194.0914
 20
118.0559
  0
VERTEX
  8
LAYER_1
 10
198.9174
 20
118.0559
  0
SEQEND
  0
POLYLINE
  8
LAYER_1
 40
0.0847
 41
0.0847
 66
1
 10
0
 20
0
 30
0
  0
VERTEX
  8
LAYER_1
 10
33.8174
 20
124.7023
  0
VERTEX
  8
LAYER_1
 10
36.3256
 20
124.7023
  0
VERTEX
  8
LAYER_1
 10
38.019
 20
124.7023
  0
SEQEND
  0
POLYLINE
  8
LAYER_1
 40
0.1693
 41
0.1693
 66
1
 10
0
 20
0
 30
0
  0
VERTEX
  8
LAYER_1
 10
36.3256
 20
124.7023
  0
VERTEX
  8
LAYER_1
 10
34.8757
 20
124.3213
  0
SEQEND
  0
POLYLINE
  8
LAYER_1
 40
0.1693
 41
0.1693
 66
1
 10
0
 20
0
 30
0
  0
VERTEX
  8
LAYER_1
 10
36.3256
 20
124.7023
  0
VERTEX
  8
LAYER_1
 10
34.8757
 20
125.0938
  0
SEQEND
  0
POLYLINE
  8
LAYER_1
 40
0.0847
 41
0.0847
 66
1
 10
0
 20
0
 30
0
  0
VERTEX
  8
LAYER_1
 10
36.3256
 20
120.8288
  0
VERTEX
  8
LAYER_1
 10
36.3256
 20
124.7023
  0
SEQEND
  0
POLYLINE
  8
LAYER_1
 40
0.0847
 41
0.0847
 66
1
 10
0
 20
0
 30
0
  0
VERTEX
  8
LAYER_1
 10
38.019
 20
120.8288
  0
VERTEX
  8
LAYER_1
 10
38.019
 20
124.7023
  0
SEQEND
  0
TEXT
  8
LAYER_1
 10
36.3573
 20
125.0677
 11
36.3573
 21
125.0677
 40
3.0447
 41
0.5
  1
17
  0
POLYLINE
  8
LAYER_1
 40
0.1693
 41
0.1693
 66
1
 10
0
 20
0
 30
0
  0
VERTEX
  8
LAYER_1
 10
36.3256
 20
131.2957
  0
VERTEX
  8
LAYER_1
 10
37.7755
 20
131.6873
  0
SEQEND
  0
POLYLINE
  8
LAYER_1
 40
0.1693
 41
0.1693
 66
1
 10
0
 20
0
 30
0
  0
VERTEX
  8
LAYER_1
 10
36.3256
 20
131.2957
  0
VERTEX
  8
LAYER_1
 10
37.7755
 20
130.9147
  0
SEQEND
  0
POLYLINE
  8
LAYER_1
 40
0.0847
 41
0.0847
 66
1
 10
0
 20
0
 30
0
  0
VERTEX
  8
LAYER_1
 10
36.3256
 20
120.8288
  0
VERTEX
  8
LAYER_1
 10
36.3256
 20
131.2957
  0
SEQEND
  0
POLYLINE
  8
LAYER_1
 40
0.0847
 41
0.0847
 66
1
 10
0
 20
0
 30
0
  0
VERTEX
  8
LAYER_1
 10
38.019
 20
124.7023
  0
VERTEX
  8
LAYER_1
 10
40.5272
 20
124.7023
  0
SEQEND
  0
POLYLINE
  8
LAYER_1
 40
0.1693
 41
0.1693
 66
1
 10
0
 20
0
 30
0
  0
VERTEX
  8
LAYER_1
 10
38.019
 20
124.7023
  0
VERTEX
  8
LAYER_1
 10
39.4689
 20
125.0938
  0
SEQEND
  0
POLYLINE
  8
LAYER_1
 40
0.1693
 41
0.1693
 66
1
 10
0
 20
0
 30
0
  0
VERTEX
  8
LAYER_1
 10
38.019
 20
124.7023
  0
VERTEX
  8
LAYER_1
 10
39.4689
 20
124.3213
  0
SEQEND
  0
POLYLINE
  8
LAYER_1
 40
0.0847
 41
0.0847
 66
1
 10
0
 20
0
 30
0
  0
VERTEX
  8
LAYER_1
 10
36.3256
 20
131.2957
  0
VERTEX
  8
LAYER_1
 10
83.3262
 20
131.2957
  0
SEQEND
  0
POLYLINE
  8
LAYER_1
 40
0.1693
 41
0.1693
 66
1
 10
0
 20
0
 30
0
  0
VERTEX
  8
LAYER_1
 10
83.3262
 20
131.2957
  0
VERTEX
  8
LAYER_1
 10
81.8763
 20
130.9147
  0
SEQEND
  0
POLYLINE
  8
LAYER_1
 40
0.1693
 41
0.1693
 66
1
 10
0
 20
0
 30
0
  0
VERTEX
  8
LAYER_1
 10
83.3262
 20
131.2957
  0
VERTEX
  8
LAYER_1
 10
81.8763
 20
131.6873
  0
SEQEND
  0
POLYLINE
  8
LAYER_1
 40
0.0847
 41
0.0847
 66
1
 10
0
 20
0
 30
0
  0
VERTEX
  8
LAYER_1
 10
83.3262
 20
120.8288
  0
VERTEX
  8
LAYER_1
 10
83.3262
 20
131.2957
  0
SEQEND
  0
TEXT
  8
LAYER_1
 10
58.5716
 20
131.6617
 11
58.5716
 21
131.6617
 40
3.0447
 41
0.5
  1
470
  0
POLYLINE
  8
LAYER_1
 40
0.0847
 41
0.0847
 66
1
 10
0
 20
0
 30
0
  0
VERTEX
  8
LAYER_1
 10
118.918
 20
124.7023
  0
VERTEX
  8
LAYER_1
 10
123.9133
 20
124.7023
  0
SEQEND
  0
POLYLINE
  8
LAYER_1
 40
0.1693
 41
0.1693
 66
1
 10
0
 20
0
 30
0
  0
VERTEX
  8
LAYER_1
 10
118.918
 20
124.7023
  0
VERTEX
  8
LAYER_1
 10
120.3679
 20
125.0938
  0
SEQEND
  0
POLYLINE
  8
LAYER_1
 40
0.1693
 41
0.1693
 66
1
 10
0
 20
0
 30
0
  0
VERTEX
  8
LAYER_1
 10
118.918
 20
124.7023
  0
VERTEX
  8
LAYER_1
 10
120.3679
 20
124.3213
  0
SEQEND
  0
POLYLINE
  8
LAYER_1
 40
0.1693
 41
0.1693
 66
1
 10
0
 20
0
 30
0
  0
VERTEX
  8
LAYER_1
 10
123.9133
 20
124.7023
  0
VERTEX
  8
LAYER_1
 10
122.474
 20
124.3213
  0
SEQEND
  0
POLYLINE
  8
LAYER_1
 40
0.1693
 41
0.1693
 66
1
 10
0
 20
0
 30
0
  0
VERTEX
  8
LAYER_1
 10
123.9133
 20
124.7023
  0
VERTEX
  8
LAYER_1
 10
122.474
 20
125.0938
  0
SEQEND
  0
TEXT
  8
LAYER_1
 10
120.3548
 20
125.7647
 11
120.3548
 21
125.7647
 40
3.0447
 41
0.5
  1
50
  0
POLYLINE
  8
LAYER_1
 40
0.0847
 41
0.0847
 66
1
 10
0
 20
0
 30
0
  0
VERTEX
  8
LAYER_1
 10
118.918
 20
131.2957
  0
VERTEX
  8
LAYER_1
 10
198.9174
 20
131.2957
  0
SEQEND
  0
POLYLINE
  8
LAYER_1
 40
0.1693
 41
0.1693
 66
1
 10
0
 20
0
 30
0
  0
VERTEX
  8
LAYER_1
 10
118.918
 20
131.2957
  0
VERTEX
  8
LAYER_1
 10
120.3679
 20
131.6873
  0
SEQEND
  0
POLYLINE
  8
LAYER_1
 40
0.1693
 41
0.1693
 66
1
 10
0
 20
0
 30
0
  0
VERTEX
  8
LAYER_1
 10
118.918
 20
131.2957
  0
VERTEX
  8
LAYER_1
 10
120.3679
 20
130.9147
  0
SEQEND
  0
POLYLINE
  8
LAYER_1
 40
0.1693
 41
0.1693
 66
1
 10
0
 20
0
 30
0
  0
VERTEX
  8
LAYER_1
 10
198.9174
 20
131.2957
  0
VERTEX
  8
LAYER_1
 10
197.4675
 20
130.9147
  0
SEQEND
  0
POLYLINE
  8
LAYER_1
 40
0.1693
 41
0.1693
 66
1
 10
0
 20
0
 30
0
  0
VERTEX
  8
LAYER_1
 10
198.9174
 20
131.2957
  0
VERTEX
  8
LAYER_1
 10
197.4675
 20
131.6873
  0
SEQEND
  0
POLYLINE
  8
LAYER_1
 40
0.0847
 41
0.0847
 66
1
 10
0
 20
0
 30
0
  0
VERTEX
  8
LAYER_1
 10
118.918
 20
124.7023
  0
VERTEX
  8
LAYER_1
 10
118.918
 20
131.2957
  0
SEQEND
  0
TEXT
  8
LAYER_1
 10
157.6743
 20
131.6617
 11
157.6743
 21
131.6617
 40
3.0447
 41
0.5
  1
800
  0
POLYLINE
  8
LAYER_1
 40
0.0847
 41
0.0847
 66
1
 10
0
 20
0
 30
0
  0
VERTEX
  8
LAYER_1
 10
118.918
 20
120.8288
  0
VERTEX
  8
LAYER_1
 10
118.918
 20
124.7023
  0
SEQEND
  0
POLYLINE
  8
LAYER_1
 40
0.0847
 41
0.0847
 66
1
 10
0
 20
0
 30
0
  0
VERTEX
  8
LAYER_1
 10
198.9174
 20
120.8288
  0
VERTEX
  8
LAYER_1
 10
198.9174
 20
131.2957
  0
SEQEND
  0
POLYLINE
  8
LAYER_1
 40
0.0847
 41
0.0847
 66
1
 10
0
 20
0
 30
0
  0
VERTEX
  8
LAYER_1
 10
123.9133
 20
120.8288
  0
VERTEX
  8
LAYER_1
 10
123.9133
 20
124.7023
  0
SEQEND
  0
POLYLINE
  8
LAYER_1
 40
0.1693
 41
0.1693
 66
1
 10
0
 20
0
 30
0
  0
VERTEX
  8
LAYER_1
 10
54.5395
 20
107.1551
  0
VERTEX
  8
LAYER_1
 10
54.857
 20
107.1551
  0
SEQEND
  0
POLYLINE
  8
LAYER_1
 40
0.1693
 41
0.1693
 66
1
 10
0
 20
0
 30
0
  0
VERTEX
  8
LAYER_1
 10
54.5395
 20
107.1551
  0
VERTEX
  8
LAYER_1
 10
54.5395
 20
107.4726
  0
VERTEX
  8
LAYER_1
 10
54.857
 20
107.4726
  0
SEQEND
  0
POLYLINE
  8
LAYER_1
 40
0.1693
 41
0.1693
 66
1
 10
0
 20
0
 30
0
  0
VERTEX
  8
LAYER_1
 10
54.857
 20
107.1551
  0
VERTEX
  8
LAYER_1
 10
54.857
 20
107.4726
  0
SEQEND
  0
POLYLINE
  8
LAYER_1
 40
0.1693
 41
0.1693
 66
1
 10
0
 20
0
 30
0
  0
VERTEX
  8
LAYER_1
 10
64.7948
 20
107.1551
  0
VERTEX
  8
LAYER_1
 10
65.1017
 20
107.1551
  0
VERTEX
  8
LAYER_1
 10
65.1017
 20
107.4726
  0
SEQEND
  0
POLYLINE
  8
LAYER_1
 40
0.1693
 41
0.1693
 66
1
 10
0
 20
0
 30
0
  0
VERTEX
  8
LAYER_1
 10
64.7948
 20
107.4726
  0
VERTEX
  8
LAYER_1
 10
65.1017
 20
107.4726
  0
SEQEND
  0
POLYLINE
  8
LAYER_1
 40
0.1693
 41
0.1693
 66
1
 10
0
 20
0
 30
0
  0
VERTEX
  8
LAYER_1
 10
64.7948
 20
107.1551
  0
VERTEX
  8
LAYER_1
 10
64.7948
 20
107.4726
  0
SEQEND
  0
POLYLINE
  8
LAYER_1
 40
0.1693
 41
0.1693
 66
1
 10
0
 20
0
 30
0
  0
VERTEX
  8
LAYER_1
 10
153.6419
 20
107.1551
  0
VERTEX
  8
LAYER_1
 10
153.9488
 20
107.1551
  0
SEQEND
  0
POLYLINE
  8
LAYER_1
 40
0.1693
 41
0.1693
 66
1
 10
0
 20
0
 30
0
  0
VERTEX
  8
LAYER_1
 10
153.6419
 20
107.1551
  0
VERTEX
  8
LAYER_1
 10
153.6419
 20
107.4726
  0
VERTEX
  8
LAYER_1
 10
153.9488
 20
107.4726
  0
SEQEND
  0
POLYLINE
  8
LAYER_1
 40
0.1693
 41
0.1693
 66
1
 10
0
 20
0
 30
0
  0
VERTEX
  8
LAYER_1
 10
153.9488
 20
107.1551
  0
VERTEX
  8
LAYER_1
 10
153.9488
 20
107.4726
  0
SEQEND
  0
POLYLINE
  8
LAYER_1
 40
0.1693
 41
0.1693
 66
1
 10
0
 20
0
 30
0
  0
VERTEX
  8
LAYER_1
 10
163.8865
 20
107.1551
  0
VERTEX
  8
LAYER_1
 10
164.204
 20
107.1551
  0
VERTEX
  8
LAYER_1
 10
164.204
 20
107.4726
  0
SEQEND
  0
POLYLINE
  8
LAYER_1
 40
0.1693
 41
0.1693
 66
1
 10
0
 20
0
 30
0
  0
VERTEX
  8
LAYER_1
 10
163.8865
 20
107.4726
  0
VERTEX
  8
LAYER_1
 10
164.204
 20
107.4726
  0
SEQEND
  0
POLYLINE
  8
LAYER_1
 40
0.1693
 41
0.1693
 66
1
 10
0
 20
0
 30
0
  0
VERTEX
  8
LAYER_1
 10
163.8865
 20
107.1551
  0
VERTEX
  8
LAYER_1
 10
163.8865
 20
107.4726
  0
SEQEND
  0
POLYLINE
  8
LAYER_1
 40
0.1693
 41
0.1693
 66
1
 10
0
 20
0
 30
0
  0
VERTEX
  8
LAYER_1
 10
37.7332
 20
118.0559
  0
VERTEX
  8
LAYER_1
 10
55.2063
 20
109.1553
  0
SEQEND
  0
POLYLINE
  8
LAYER_1
 40
0.1693
 41
0.1693
 66
1
 10
0
 20
0
 30
0
  0
VERTEX
  8
LAYER_1
 10
81.908
 20
118.0559
  0
VERTEX
  8
LAYER_1
 10
64.435
 20
109.1553
  0
SEQEND
  0
POLYLINE
  8
LAYER_1
 40
0.254
 41
0.254
 66
1
 10
0
 20
0
 30
0
  0
VERTEX
  8
LAYER_1
 10
149.9165
 20
107.1551
  0
VERTEX
  8
LAYER_1
 10
167.9188
 20
107.1551
  0
SEQEND
  0
POLYLINE
  8
LAYER_1
 40
0.254
 41
0.254
 66
1
 10
0
 20
0
 30
0
  0
VERTEX
  8
LAYER_1
 10
167.9188
 20
107.1657
 42
0.3873350829
  0
VERTEX
  8
LAYER_1
 10
166.924
 20
108.1499
  0
VERTEX
  8
LAYER_1
 10
166.9134
 20
108.1499
  0
SEQEND
  0
POLYLINE
  8
LAYER_1
 40
0.254
 41
0.254
 66
1
 10
0
 20
0
 30
0
  0
VERTEX
  8
LAYER_1
 10
164.4157
 20
108.1605
  0
VERTEX
  8
LAYER_1
 10
166.924
 20
108.1605
  0
SEQEND
  0
POLYLINE
  8
LAYER_1
 40
0.254
 41
0.254
 66
1
 10
0
 20
0
 30
0
  0
VERTEX
  8
LAYER_1
 10
163.7172
 20
108.8696
 42
-1.570796208
  0
VERTEX
  8
LAYER_1
 10
163.7172
 20
108.859
 42
0.4064930927
  0
VERTEX
  8
LAYER_1
 10
164.4051
 20
108.1605
  0
SEQEND
  0
POLYLINE
  8
LAYER_1
 40
0.254
 41
0.254
 66
1
 10
0
 20
0
 30
0
  0
VERTEX
  8
LAYER_1
 10
163.7172
 20
108.859
  0
VERTEX
  8
LAYER_1
 10
163.7172
 20
109.1553
  0
SEQEND
  0
POLYLINE
  8
LAYER_1
 40
0.254
 41
0.254
 66
1
 10
0
 20
0
 30
0
  0
VERTEX
  8
LAYER_1
 10
154.1181
 20
109.1553
  0
VERTEX
  8
LAYER_1
 10
163.7172
 20
109.1553
  0
SEQEND
  0
POLYLINE
  8
LAYER_1
 40
0.254
 41
0.254
 66
1
 10
0
 20
0
 30
0
  0
VERTEX
  8
LAYER_1
 10
154.1181
 20
108.859
  0
VERTEX
  8
LAYER_1
 10
154.1181
 20
109.1553
  0
SEQEND
  0
POLYLINE
  8
LAYER_1
 40
0.254
 41
0.254
 66
1
 10
0
 20
0
 30
0
  0
VERTEX
  8
LAYER_1
 10
153.409
 20
108.1605
  0
VERTEX
  8
LAYER_1
 10
153.4196
 20
108.1605
 42
0.4090906591
  0
VERTEX
  8
LAYER_1
 10
154.1181
 20
108.859
  0
VERTEX
  8
LAYER_1
 10
154.1181
 20
108.8696
  0
SEQEND
  0
POLYLINE
  8
LAYER_1
 40
0.254
 41
0.254
 66
1
 10
0
 20
0
 30
0
  0
VERTEX
  8
LAYER_1
 10
150.922
 20
108.1605
  0
VERTEX
  8
LAYER_1
 10
153.4196
 20
108.1605
  0
SEQEND
  0
POLYLINE
  8
LAYER_1
 40
0.254
 41
0.254
 66
1
 10
0
 20
0
 30
0
  0
VERTEX
  8
LAYER_1
 10
150.9114
 20
108.1499
 42
0.4112892377
  0
VERTEX
  8
LAYER_1
 10
149.9271
 20
107.1657
  0
SEQEND
  0
POLYLINE
  8
LAYER_1
 40
0.254
 41
0.254
 66
1
 10
0
 20
0
 30
0
  0
VERTEX
  8
LAYER_1
 10
55.0264
 20
109.1553
  0
VERTEX
  8
LAYER_1
 10
64.6255
 20
109.1553
  0
SEQEND
  0
POLYLINE
  8
LAYER_1
 40
0.254
 41
0.254
 66
1
 10
0
 20
0
 30
0
  0
VERTEX
  8
LAYER_1
 10
64.6255
 20
108.859
  0
VERTEX
  8
LAYER_1
 10
64.6255
 20
109.1553
  0
SEQEND
  0
POLYLINE
  8
LAYER_1
 40
0.254
 41
0.254
 66
1
 10
0
 20
0
 30
0
  0
VERTEX
  8
LAYER_1
 10
64.6255
 20
108.8696
  0
VERTEX
  8
LAYER_1
 10
64.6255
 20
108.859
 42
0.4065122569
  0
VERTEX
  8
LAYER_1
 10
65.3134
 20
108.1605
  0
SEQEND
  0
POLYLINE
  8
LAYER_1
 40
0.254
 41
0.254
 66
1
 10
0
 20
0
 30
0
  0
VERTEX
  8
LAYER_1
 10
65.324
 20
108.1605
  0
VERTEX
  8
LAYER_1
 10
67.8216
 20
108.1605
  0
SEQEND
  0
POLYLINE
  8
LAYER_1
 40
0.254
 41
0.254
 66
1
 10
0
 20
0
 30
0
  0
VERTEX
  8
LAYER_1
 10
68.8165
 20
107.1657
 42
0.3873592151
  0
VERTEX
  8
LAYER_1
 10
67.8216
 20
108.1499
  0
VERTEX
  8
LAYER_1
 10
67.811
 20
108.1499
  0
SEQEND
  0
POLYLINE
  8
LAYER_1
 40
0.254
 41
0.254
 66
1
 10
0
 20
0
 30
0
  0
VERTEX
  8
LAYER_1
 10
50.8248
 20
107.1551
  0
VERTEX
  8
LAYER_1
 10
68.827
 20
107.1551
  0
SEQEND
  0
POLYLINE
  8
LAYER_1
 40
0.254
 41
0.254
 66
1
 10
0
 20
0
 30
0
  0
VERTEX
  8
LAYER_1
 10
51.809
 20
108.1499
 42
0.4112706611
  0
VERTEX
  8
LAYER_1
 10
50.8248
 20
107.1657
  0
SEQEND
  0
POLYLINE
  8
LAYER_1
 40
0.254
 41
0.254
 66
1
 10
0
 20
0
 30
0
  0
VERTEX
  8
LAYER_1
 10
51.8196
 20
108.1605
  0
VERTEX
  8
LAYER_1
 10
54.3279
 20
108.1605
  0
SEQEND
  0
POLYLINE
  8
LAYER_1
 40
0.254
 41
0.254
 66
1
 10
0
 20
0
 30
0
  0
VERTEX
  8
LAYER_1
 10
54.3173
 20
108.1605
  0
VERTEX
  8
LAYER_1
 10
54.3279
 20
108.1605
 42
0.409075011
  0
VERTEX
  8
LAYER_1
 10
55.0264
 20
108.859
  0
VERTEX
  8
LAYER_1
 10
55.0264
 20
108.8696
  0
SEQEND
  0
POLYLINE
  8
LAYER_1
 40
0.254
 41
0.254
 66
1
 10
0
 20
0
 30
0
  0
VERTEX
  8
LAYER_1
 10
55.0264
 20
108.859
  0
VERTEX
  8
LAYER_1
 10
55.0264
 20
109.1553
  0
SEQEND
  0
POLYLINE
  8
LAYER_1
 40
0.1693
 41
0.1693
 66
1
 10
0
 20
0
 30
0
  0
VERTEX
  8
LAYER_1
 10
57.0266
 20
107.1551
  0
VERTEX
  8
LAYER_1
 10
57.0266
 20
107.6525
  0
SEQEND
  0
POLYLINE
  8
LAYER_1
 40
0.1693
 41
0.1693
 66
1
 10
0
 20
0
 30
0
  0
VERTEX
  8
LAYER_1
 10
57.0266
 20
108.6473
  0
VERTEX
  8
LAYER_1
 10
57.0266
 20
109.1553
  0
SEQEND
  0
POLYLINE
  8
LAYER_1
 40
0.1693
 41
0.1693
 66
1
 10
0
 20
0
 30
0
  0
VERTEX
  8
LAYER_1
 10
62.6252
 20
107.1551
  0
VERTEX
  8
LAYER_1
 10
62.6252
 20
107.6525
  0
SEQEND
  0
POLYLINE
  8
LAYER_1
 40
0.1693
 41
0.1693
 66
1
 10
0
 20
0
 30
0
  0
VERTEX
  8
LAYER_1
 10
62.6252
 20
108.6473
  0
VERTEX
  8
LAYER_1
 10
62.6252
 20
109.1553
  0
SEQEND
  0
POLYLINE
  8
LAYER_1
 40
0.1693
 41
0.1693
 66
1
 10
0
 20
0
 30
0
  0
VERTEX
  8
LAYER_1
 10
156.1184
 20
107.1551
  0
VERTEX
  8
LAYER_1
 10
156.1184
 20
107.6525
  0
SEQEND
  0
POLYLINE
  8
LAYER_1
 40
0.1693
 41
0.1693
 66
1
 10
0
 20
0
 30
0
  0
VERTEX
  8
LAYER_1
 10
156.1184
 20
108.6473
  0
VERTEX
  8
LAYER_1
 10
156.1184
 20
109.1553
  0
SEQEND
  0
POLYLINE
  8
LAYER_1
 40
0.1693
 41
0.1693
 66
1
 10
0
 20
0
 30
0
  0
VERTEX
  8
LAYER_1
 10
161.7169
 20
107.1551
  0
VERTEX
  8
LAYER_1
 10
161.7169
 20
107.6525
  0
SEQEND
  0
POLYLINE
  8
LAYER_1
 40
0.1693
 41
0.1693
 66
1
 10
0
 20
0
 30
0
  0
VERTEX
  8
LAYER_1
 10
161.7169
 20
108.6473
  0
VERTEX
  8
LAYER_1
 10
161.7169
 20
109.1553
  0
SEQEND
  0
POLYLINE
  8
LAYER_1
 40
0.0847
 41
0.0847
 66
1
 10
0
 20
0
 30
0
  0
VERTEX
  8
LAYER_1
 10
67.8534
 20
107.5678
  0
VERTEX
  8
LAYER_1
 10
94.3646
 20
99.4398
  0
SEQEND
  0
POLYLINE
  8
LAYER_1
 40
0.0847
 41
0.0847
 66
1
 10
0
 20
0
 30
0
  0
VERTEX
  8
LAYER_1
 10
124.3578
 20
99.4822
  0
VERTEX
  8
LAYER_1
 10
151.123
 20
107.4091
  0
SEQEND
  0
POLYLINE
  8
LAYER_1
 40
0.0847
 41
0.0847
 66
1
 10
0
 20
0
 30
0
  0
VERTEX
  8
LAYER_1
 10
56.3281
 20
110.8593
  0
VERTEX
  8
LAYER_1
 10
56.3281
 20
116.4049
  0
SEQEND
  0
CIRCLE
  8
LAYER_1
  6
AIGENLINE001
 62
1
 10
158.923
 20
171.5758
 40
3.25
  0
TEXT
  8
LAYER_1
 10
164.2941
 20
171.8535
 11
164.2941
 21
171.8535
 40
3.1022
 41
0.5
  1
カウンター開口
  0
TEXT
  8
LAYER_1
 10
164.2941
 20
168.1264
 11
164.2941
 21
168.1264
 40
3.6606
 41
0.5
  1
65-67mm
  0
ENDSEC
  0
EOF
