  0
SECTION
  2
HEADER
  9
$ACADVER
  1
AC1009
  9
$LUNITS
 70
2
  9
$LUPREC
 70
4
  9
$LTSCALE
 40
1.0
  9
$EXTMIN
 10
18.1836
 20
69.1996
 30
0
  9
$EXTMAX
 10
587.666
 20
241.0004
 30
0
  0
ENDSEC
  0
SECTION
  2
TABLES
  0
TABLE
  2
LTYPE
 70
256
  0
ENDTAB
  0
TABLE
  2
LAYER
 70
1
  0
LAYER
  2
LAYER_1
 70
64
 62
7
  6
CONTINUOUS
  0
ENDTAB
  0
TABLE
  2
STYLE
 70
6
  0
STYLE
  2
STANDARD
 70
0
 40
0
 50
0
 71
0
 41
0
 42
0
  3
TXT
  4
BIGFONT
  0
ENDTAB
  0
ENDSEC
  0
SECTION
  2
BLOCKS
  0
BLOCK
  8
LAYER_1
  2
AIGNBL01020003
 70
64
 10
0
 20
0
 30
0
  3
AIGNBL01020003
  0
POLYLINE
  8
LAYER_1
 40
0.05
 41
0.05
 66
1
 10
0
 20
0
 30
0
 70
1
  0
VERTEX
  8
LAYER_1
 10
493.1833
 20
194.8895
  0
VERTEX
  8
LAYER_1
 10
492.5219
 20
194.8895
  0
VERTEX
  8
LAYER_1
 10
492.5219
 20
194.5191
  0
VERTEX
  8
LAYER_1
 10
493.1833
 20
194.5191
  0
SEQEND
  0
ENDBLK
  0
BLOCK
  8
LAYER_1
  2
AIGNBL01020004
 70
64
 10
0
 20
0
 30
0
  3
AIGNBL01020004
  0
POLYLINE
  8
LAYER_1
 40
0.0847
 41
0.0847
 66
1
 10
0
 20
0
 30
0
 70
1
  0
VERTEX
  8
LAYER_1
 10
493.1833
 20
194.8895
  0
VERTEX
  8
LAYER_1
 10
492.5219
 20
194.8895
  0
VERTEX
  8
LAYER_1
 10
492.5219
 20
194.5191
  0
VERTEX
  8
LAYER_1
 10
493.1833
 20
194.5191
  0
SEQEND
  0
ENDBLK
  0
BLOCK
  8
LAYER_1
  2
AIGNBL01020005
 70
64
 10
0
 20
0
 30
0
  3
AIGNBL01020005
  0
POLYLINE
  8
LAYER_1
 40
0.05
 41
0.05
 66
1
 10
0
 20
0
 30
0
 70
1
  0
VERTEX
  8
LAYER_1
 10
480.0335
 20
194.8895
  0
VERTEX
  8
LAYER_1
 10
479.3721
 20
194.8895
  0
VERTEX
  8
LAYER_1
 10
479.3721
 20
194.5191
  0
VERTEX
  8
LAYER_1
 10
480.0335
 20
194.5191
  0
SEQEND
  0
ENDBLK
  0
BLOCK
  8
LAYER_1
  2
AIGNBL01020006
 70
64
 10
0
 20
0
 30
0
  3
AIGNBL01020006
  0
POLYLINE
  8
LAYER_1
 40
0.0847
 41
0.0847
 66
1
 10
0
 20
0
 30
0
 70
1
  0
VERTEX
  8
LAYER_1
 10
480.0335
 20
194.8895
  0
VERTEX
  8
LAYER_1
 10
479.3721
 20
194.8895
  0
VERTEX
  8
LAYER_1
 10
479.3721
 20
194.5191
  0
VERTEX
  8
LAYER_1
 10
480.0335
 20
194.5191
  0
SEQEND
  0
ENDBLK
  0
BLOCK
  8
LAYER_1
  2
AIGNBL01020007
 70
64
 10
0
 20
0
 30
0
  3
AIGNBL01020007
  0
POLYLINE
  8
LAYER_1
 40
0.05
 41
0.05
 66
1
 10
0
 20
0
 30
0
 70
1
  0
VERTEX
  8
LAYER_1
 10
476.9115
 20
192.7728
  0
VERTEX
  8
LAYER_1
 10
476.25
 20
192.7728
  0
VERTEX
  8
LAYER_1
 10
476.25
 20
192.4024
  0
VERTEX
  8
LAYER_1
 10
476.9115
 20
192.4024
  0
SEQEND
  0
ENDBLK
  0
BLOCK
  8
LAYER_1
  2
AIGNBL01020008
 70
64
 10
0
 20
0
 30
0
  3
AIGNBL01020008
  0
POLYLINE
  8
LAYER_1
 40
0.0847
 41
0.0847
 66
1
 10
0
 20
0
 30
0
 70
1
  0
VERTEX
  8
LAYER_1
 10
476.9115
 20
192.7728
  0
VERTEX
  8
LAYER_1
 10
476.25
 20
192.7728
  0
VERTEX
  8
LAYER_1
 10
476.25
 20
192.4024
  0
VERTEX
  8
LAYER_1
 10
476.9115
 20
192.4024
  0
SEQEND
  0
ENDBLK
  0
BLOCK
  8
LAYER_1
  2
AIGNBL01020009
 70
64
 10
0
 20
0
 30
0
  3
AIGNBL01020009
  0
POLYLINE
  8
LAYER_1
 40
0.05
 41
0.05
 66
1
 10
0
 20
0
 30
0
 70
1
  0
VERTEX
  8
LAYER_1
 10
496.3583
 20
192.7728
  0
VERTEX
  8
LAYER_1
 10
495.644
 20
192.7728
  0
VERTEX
  8
LAYER_1
 10
495.644
 20
192.4024
  0
VERTEX
  8
LAYER_1
 10
496.3583
 20
192.4024
  0
SEQEND
  0
ENDBLK
  0
BLOCK
  8
LAYER_1
  2
AIGNBL0102000A
 70
64
 10
0
 20
0
 30
0
  3
AIGNBL0102000A
  0
POLYLINE
  8
LAYER_1
 40
0.0847
 41
0.0847
 66
1
 10
0
 20
0
 30
0
 70
1
  0
VERTEX
  8
LAYER_1
 10
496.3583
 20
192.7728
  0
VERTEX
  8
LAYER_1
 10
495.644
 20
192.7728
  0
VERTEX
  8
LAYER_1
 10
495.644
 20
192.4024
  0
VERTEX
  8
LAYER_1
 10
496.3583
 20
192.4024
  0
SEQEND
  0
ENDBLK
  0
BLOCK
  8
LAYER_1
  2
AIGNBL0102000B
 70
64
 10
0
 20
0
 30
0
  3
AIGNBL0102000B
  0
POLYLINE
  8
LAYER_1
 40
0.05
 41
0.05
 66
1
 10
0
 20
0
 30
0
 70
1
  0
VERTEX
  8
LAYER_1
 10
492.5219
 20
190.5239
  0
VERTEX
  8
LAYER_1
 10
480.0335
 20
190.5239
  0
VERTEX
  8
LAYER_1
 10
480.0335
 20
190.3916
  0
VERTEX
  8
LAYER_1
 10
492.5219
 20
190.3916
  0
SEQEND
  0
ENDBLK
  0
BLOCK
  8
LAYER_1
  2
AIGNBL0102000C
 70
64
 10
0
 20
0
 30
0
  3
AIGNBL0102000C
  0
POLYLINE
  8
LAYER_1
 40
0.0847
 41
0.0847
 66
1
 10
0
 20
0
 30
0
 70
1
  0
VERTEX
  8
LAYER_1
 10
492.5219
 20
190.5239
  0
VERTEX
  8
LAYER_1
 10
480.0335
 20
190.5239
  0
VERTEX
  8
LAYER_1
 10
480.0335
 20
190.3916
  0
VERTEX
  8
LAYER_1
 10
492.5219
 20
190.3916
  0
SEQEND
  0
ENDBLK
  0
BLOCK
  8
LAYER_1
  2
AIGNBL01010002
 70
64
 10
0
 20
0
 30
0
  3
AIGNBL01010002
  0
INSERT
  8
LAYER_1
  2
AIGNBL01020003
 10
0
 20
0
 30
0
  0
INSERT
  8
LAYER_1
  2
AIGNBL01020004
 10
0
 20
0
 30
0
  0
INSERT
  8
LAYER_1
  2
AIGNBL01020005
 10
0
 20
0
 30
0
  0
INSERT
  8
LAYER_1
  2
AIGNBL01020006
 10
0
 20
0
 30
0
  0
INSERT
  8
LAYER_1
  2
AIGNBL01020007
 10
0
 20
0
 30
0
  0
INSERT
  8
LAYER_1
  2
AIGNBL01020008
 10
0
 20
0
 30
0
  0
INSERT
  8
LAYER_1
  2
AIGNBL01020009
 10
0
 20
0
 30
0
  0
INSERT
  8
LAYER_1
  2
AIGNBL0102000A
 10
0
 20
0
 30
0
  0
INSERT
  8
LAYER_1
  2
AIGNBL0102000B
 10
0
 20
0
 30
0
  0
INSERT
  8
LAYER_1
  2
AIGNBL0102000C
 10
0
 20
0
 30
0
  0
POLYLINE
  8
LAYER_1
 40
0.1693
 41
0.1693
 66
1
 10
0
 20
0
 30
0
  0
VERTEX
  8
LAYER_1
 10
451.2998
 20
219.8926
  0
VERTEX
  8
LAYER_1
 10
521.2556
 20
219.8926
  0
SEQEND
  0
POLYLINE
  8
LAYER_1
 40
0.0847
 41
0.0847
 66
1
 10
0
 20
0
 30
0
  0
VERTEX
  8
LAYER_1
 10
488.4473
 20
157.2128
  0
VERTEX
  8
LAYER_1
 10
488.5267
 20
157.2128
  0
SEQEND
  0
POLYLINE
  8
LAYER_1
 40
0.0847
 41
0.0847
 66
1
 10
0
 20
0
 30
0
  0
VERTEX
  8
LAYER_1
 10
488.6854
 20
157.2657
  0
VERTEX
  8
LAYER_1
 10
488.7648
 20
157.2922
  0
SEQEND
  0
POLYLINE
  8
LAYER_1
 40
0.0847
 41
0.0847
 66
1
 10
0
 20
0
 30
0
  0
VERTEX
  8
LAYER_1
 10
488.0769
 20
157.2128
  0
VERTEX
  8
LAYER_1
 10
488.1033
 20
157.2128
  0
SEQEND
  0
POLYLINE
  8
LAYER_1
 40
0.0847
 41
0.0847
 66
1
 10
0
 20
0
 30
0
  0
VERTEX
  8
LAYER_1
 10
488.2092
 20
157.2128
  0
VERTEX
  8
LAYER_1
 10
488.2621
 20
157.1863
  0
VERTEX
  8
LAYER_1
 10
488.2885
 20
157.1863
  0
SEQEND
  0
POLYLINE
  8
LAYER_1
 40
0.0847
 41
0.0847
 66
1
 10
0
 20
0
 30
0
  0
VERTEX
  8
LAYER_1
 10
488.3944
 20
157.1864
  0
VERTEX
  8
LAYER_1
 10
488.4473
 20
157.2128
  0
SEQEND
  0
POLYLINE
  8
LAYER_1
 40
0.0847
 41
0.0847
 66
1
 10
0
 20
0
 30
0
  0
VERTEX
  8
LAYER_1
 10
483.4467
 20
159.4089
  0
VERTEX
  8
LAYER_1
 10
483.526
 20
159.4353
  0
SEQEND
  0
POLYLINE
  8
LAYER_1
 40
0.0847
 41
0.0847
 66
1
 10
0
 20
0
 30
0
  0
VERTEX
  8
LAYER_1
 10
483.6848
 20
159.5147
  0
VERTEX
  8
LAYER_1
 10
483.7906
 20
159.5676
  0
VERTEX
  8
LAYER_1
 10
483.87
 20
159.5941
  0
SEQEND
  0
POLYLINE
  8
LAYER_1
 40
0.0847
 41
0.0847
 66
1
 10
0
 20
0
 30
0
  0
VERTEX
  8
LAYER_1
 10
484.0288
 20
159.647
  0
VERTEX
  8
LAYER_1
 10
484.1081
 20
159.6734
  0
VERTEX
  8
LAYER_1
 10
484.1346
 20
159.6734
  0
SEQEND
  0
POLYLINE
  8
LAYER_1
 40
0.0847
 41
0.0847
 66
1
 10
0
 20
0
 30
0
  0
VERTEX
  8
LAYER_1
 10
484.2404
 20
159.6734
  0
VERTEX
  8
LAYER_1
 10
484.2933
 20
159.6999
  0
VERTEX
  8
LAYER_1
 10
484.3198
 20
159.6999
  0
SEQEND
  0
POLYLINE
  8
LAYER_1
 40
0.0847
 41
0.0847
 66
1
 10
0
 20
0
 30
0
  0
VERTEX
  8
LAYER_1
 10
484.4256
 20
159.6999
  0
VERTEX
  8
LAYER_1
 10
484.4786
 20
159.6734
  0
VERTEX
  8
LAYER_1
 10
484.5579
 20
159.647
  0
SEQEND
  0
POLYLINE
  8
LAYER_1
 40
0.0847
 41
0.0847
 66
1
 10
0
 20
0
 30
0
  0
VERTEX
  8
LAYER_1
 10
484.7167
 20
159.5941
  0
VERTEX
  8
LAYER_1
 10
484.7961
 20
159.5676
  0
VERTEX
  8
LAYER_1
 10
484.8754
 20
159.5411
  0
SEQEND
  0
POLYLINE
  8
LAYER_1
 40
0.0847
 41
0.0847
 66
1
 10
0
 20
0
 30
0
  0
VERTEX
  8
LAYER_1
 10
485.0342
 20
159.4618
  0
VERTEX
  8
LAYER_1
 10
485.14
 20
159.4088
  0
VERTEX
  8
LAYER_1
 10
485.2194
 20
159.3559
  0
SEQEND
  0
POLYLINE
  8
LAYER_1
 40
0.0847
 41
0.0847
 66
1
 10
0
 20
0
 30
0
  0
VERTEX
  8
LAYER_1
 10
485.3781
 20
159.2501
  0
VERTEX
  8
LAYER_1
 10
485.4575
 20
159.1707
  0
VERTEX
  8
LAYER_1
 10
485.5369
 20
159.1178
  0
SEQEND
  0
POLYLINE
  8
LAYER_1
 40
0.0847
 41
0.0847
 66
1
 10
0
 20
0
 30
0
  0
VERTEX
  8
LAYER_1
 10
485.6956
 20
158.9855
  0
VERTEX
  8
LAYER_1
 10
485.775
 20
158.9061
  0
VERTEX
  8
LAYER_1
 10
485.8544
 20
158.8532
  0
SEQEND
  0
POLYLINE
  8
LAYER_1
 40
0.0847
 41
0.0847
 66
1
 10
0
 20
0
 30
0
  0
VERTEX
  8
LAYER_1
 10
486.0131
 20
158.6945
  0
VERTEX
  8
LAYER_1
 10
486.0925
 20
158.6151
  0
VERTEX
  8
LAYER_1
 10
486.1719
 20
158.5357
  0
SEQEND
  0
POLYLINE
  8
LAYER_1
 40
0.0847
 41
0.0847
 66
1
 10
0
 20
0
 30
0
  0
VERTEX
  8
LAYER_1
 10
486.3571
 20
158.377
  0
VERTEX
  8
LAYER_1
 10
486.4629
 20
158.2712
  0
VERTEX
  8
LAYER_1
 10
486.5423
 20
158.2183
  0
SEQEND
  0
POLYLINE
  8
LAYER_1
 40
0.0847
 41
0.0847
 66
1
 10
0
 20
0
 30
0
  0
VERTEX
  8
LAYER_1
 10
486.7011
 20
158.0595
  0
VERTEX
  8
LAYER_1
 10
486.7804
 20
157.9801
  0
VERTEX
  8
LAYER_1
 10
486.8598
 20
157.9272
  0
SEQEND
  0
POLYLINE
  8
LAYER_1
 40
0.0847
 41
0.0847
 66
1
 10
0
 20
0
 30
0
  0
VERTEX
  8
LAYER_1
 10
487.0186
 20
157.795
  0
VERTEX
  8
LAYER_1
 10
487.0979
 20
157.7156
  0
VERTEX
  8
LAYER_1
 10
487.1773
 20
157.6627
  0
SEQEND
  0
POLYLINE
  8
LAYER_1
 40
0.0847
 41
0.0847
 66
1
 10
0
 20
0
 30
0
  0
VERTEX
  8
LAYER_1
 10
487.3361
 20
157.5569
  0
VERTEX
  8
LAYER_1
 10
487.4154
 20
157.4775
  0
VERTEX
  8
LAYER_1
 10
487.4948
 20
157.451
  0
SEQEND
  0
POLYLINE
  8
LAYER_1
 40
0.0847
 41
0.0847
 66
1
 10
0
 20
0
 30
0
  0
VERTEX
  8
LAYER_1
 10
487.6536
 20
157.3452
  0
VERTEX
  8
LAYER_1
 10
487.7594
 20
157.2923
  0
VERTEX
  8
LAYER_1
 10
487.8388
 20
157.2923
  0
SEQEND
  0
POLYLINE
  8
LAYER_1
 40
0.0847
 41
0.0847
 66
1
 10
0
 20
0
 30
0
  0
VERTEX
  8
LAYER_1
 10
487.9975
 20
157.2394
  0
VERTEX
  8
LAYER_1
 10
488.0769
 20
157.2129
  0
SEQEND
  0
POLYLINE
  8
LAYER_1
 40
0.0847
 41
0.0847
 66
1
 10
0
 20
0
 30
0
  0
VERTEX
  8
LAYER_1
 10
483.1556
 20
159.1973
  0
VERTEX
  8
LAYER_1
 10
483.2086
 20
159.2502
  0
SEQEND
  0
POLYLINE
  8
LAYER_1
 40
0.0847
 41
0.0847
 66
1
 10
0
 20
0
 30
0
  0
VERTEX
  8
LAYER_1
 10
483.3673
 20
159.356
  0
VERTEX
  8
LAYER_1
 10
483.4467
 20
159.4089
  0
SEQEND
  0
POLYLINE
  8
LAYER_1
 40
0.0847
 41
0.0847
 66
1
 10
0
 20
0
 30
0
  0
VERTEX
  8
LAYER_1
 10
488.7648
 20
157.2923
  0
VERTEX
  8
LAYER_1
 10
488.8442
 20
157.3187
  0
SEQEND
  0
POLYLINE
  8
LAYER_1
 40
0.0847
 41
0.0847
 66
1
 10
0
 20
0
 30
0
  0
VERTEX
  8
LAYER_1
 10
489.0029
 20
157.4246
  0
VERTEX
  8
LAYER_1
 10
489.1088
 20
157.4775
  0
VERTEX
  8
LAYER_1
 10
489.1617
 20
157.5304
  0
SEQEND
  0
POLYLINE
  8
LAYER_1
 40
0.0847
 41
0.0847
 66
1
 10
0
 20
0
 30
0
  0
VERTEX
  8
LAYER_1
 10
489.3204
 20
157.6362
  0
VERTEX
  8
LAYER_1
 10
489.3998
 20
157.6891
  0
SEQEND
  0
POLYLINE
  8
LAYER_1
 40
0.0847
 41
0.0847
 66
1
 10
0
 20
0
 30
0
  0
VERTEX
  8
LAYER_1
 10
580.39
 20
192.4025
  0
VERTEX
  8
LAYER_1
 10
587.1633
 20
192.4025
  0
SEQEND
  0
POLYLINE
  8
LAYER_1
 40
0.0847
 41
0.0847
 66
1
 10
0
 20
0
 30
0
  0
VERTEX
  8
LAYER_1
 10
487.7858
 20
201.0808
  0
VERTEX
  8
LAYER_1
 10
508.0265
 20
224.7875
  0
SEQEND
  0
TEXT
  8
LAYER_1
 10
538.5859
 20
205.2616
 11
538.5859
 21
205.2616
 40
3.2224
 41
0.5
  1
âXâ|âôâWâpâbâLâô
  0
POLYLINE
  8
LAYER_1
 40
0.0847
 41
0.0847
 66
1
 10
0
 20
0
 30
0
  0
VERTEX
  8
LAYER_1
 10
497.9988
 20
192.8787
  0
VERTEX
  8
LAYER_1
 10
539.1679
 20
201.8216
  0
SEQEND
  0
TEXT
  8
LAYER_1
 10
539.0358
 20
200.8691
 11
539.0358
 21
200.8691
 40
3.2224
 41
0.5
  1
â}âEâôâeâBâôâOâfâBâXâN
  0
POLYLINE
  8
LAYER_1
 40
0.0847
 41
0.0847
 66
1
 10
0
 20
0
 30
0
  0
VERTEX
  8
LAYER_1
 10
486.2777
 20
148.9578
  0
VERTEX
  8
LAYER_1
 10
486.2777
 20
151.8153
  0
SEQEND
  0
POLYLINE
  8
LAYER_1
 40
0.0847
 41
0.0847
 66
1
 10
0
 20
0
 30
0
  0
VERTEX
  8
LAYER_1
 10
486.2777
 20
152.9795
  0
VERTEX
  8
LAYER_1
 10
486.2777
 20
154.1172
  0
SEQEND
  0
POLYLINE
  8
LAYER_1
 40
0.0847
 41
0.0847
 66
1
 10
0
 20
0
 30
0
  0
VERTEX
  8
LAYER_1
 10
486.2777
 20
155.2814
  0
VERTEX
  8
LAYER_1
 10
486.2777
 20
161.0493
  0
SEQEND
  0
POLYLINE
  8
LAYER_1
 40
0.0847
 41
0.0847
 66
1
 10
0
 20
0
 30
0
  0
VERTEX
  8
LAYER_1
 10
486.2777
 20
162.187
  0
VERTEX
  8
LAYER_1
 10
486.2777
 20
163.3511
  0
SEQEND
  0
POLYLINE
  8
LAYER_1
 40
0.0847
 41
0.0847
 66
1
 10
0
 20
0
 30
0
  0
VERTEX
  8
LAYER_1
 10
486.2777
 20
164.4888
  0
VERTEX
  8
LAYER_1
 10
486.2777
 20
170.2567
  0
SEQEND
  0
POLYLINE
  8
LAYER_1
 40
0.0847
 41
0.0847
 66
1
 10
0
 20
0
 30
0
  0
VERTEX
  8
LAYER_1
 10
486.2777
 20
171.3945
  0
VERTEX
  8
LAYER_1
 10
486.2777
 20
172.5586
  0
SEQEND
  0
POLYLINE
  8
LAYER_1
 40
0.0847
 41
0.0847
 66
1
 10
0
 20
0
 30
0
  0
VERTEX
  8
LAYER_1
 10
486.2777
 20
173.6963
  0
VERTEX
  8
LAYER_1
 10
486.2777
 20
179.4642
  0
SEQEND
  0
POLYLINE
  8
LAYER_1
 40
0.0847
 41
0.0847
 66
1
 10
0
 20
0
 30
0
  0
VERTEX
  8
LAYER_1
 10
486.2777
 20
180.6284
  0
VERTEX
  8
LAYER_1
 10
486.2777
 20
181.7661
  0
SEQEND
  0
POLYLINE
  8
LAYER_1
 40
0.0847
 41
0.0847
 66
1
 10
0
 20
0
 30
0
  0
VERTEX
  8
LAYER_1
 10
486.2777
 20
182.9303
  0
VERTEX
  8
LAYER_1
 10
486.2777
 20
188.6717
  0
SEQEND
  0
POLYLINE
  8
LAYER_1
 40
0.0847
 41
0.0847
 66
1
 10
0
 20
0
 30
0
  0
VERTEX
  8
LAYER_1
 10
486.2777
 20
189.8359
  0
VERTEX
  8
LAYER_1
 10
486.2777
 20
190.9736
  0
SEQEND
  0
POLYLINE
  8
LAYER_1
 40
0.0847
 41
0.0847
 66
1
 10
0
 20
0
 30
0
  0
VERTEX
  8
LAYER_1
 10
486.2777
 20
192.1377
  0
VERTEX
  8
LAYER_1
 10
486.2777
 20
197.8792
  0
SEQEND
  0
POLYLINE
  8
LAYER_1
 40
0.0847
 41
0.0847
 66
1
 10
0
 20
0
 30
0
  0
VERTEX
  8
LAYER_1
 10
486.2777
 20
199.0433
  0
VERTEX
  8
LAYER_1
 10
486.2777
 20
200.181
  0
SEQEND
  0
POLYLINE
  8
LAYER_1
 40
0.0847
 41
0.0847
 66
1
 10
0
 20
0
 30
0
  0
VERTEX
  8
LAYER_1
 10
486.2777
 20
201.3452
  0
VERTEX
  8
LAYER_1
 10
486.2777
 20
207.1131
  0
SEQEND
  0
POLYLINE
  8
LAYER_1
 40
0.0847
 41
0.0847
 66
1
 10
0
 20
0
 30
0
  0
VERTEX
  8
LAYER_1
 10
486.2777
 20
208.2508
  0
VERTEX
  8
LAYER_1
 10
486.2777
 20
209.415
  0
SEQEND
  0
POLYLINE
  8
LAYER_1
 40
0.0847
 41
0.0847
 66
1
 10
0
 20
0
 30
0
  0
VERTEX
  8
LAYER_1
 10
486.2777
 20
210.5527
  0
VERTEX
  8
LAYER_1
 10
486.2777
 20
216.3206
  0
SEQEND
  0
POLYLINE
  8
LAYER_1
 40
0.0847
 41
0.0847
 66
1
 10
0
 20
0
 30
0
  0
VERTEX
  8
LAYER_1
 10
486.2777
 20
217.4583
  0
VERTEX
  8
LAYER_1
 10
486.2777
 20
218.6224
  0
SEQEND
  0
POLYLINE
  8
LAYER_1
 40
0.0847
 41
0.0847
 66
1
 10
0
 20
0
 30
0
  0
VERTEX
  8
LAYER_1
 10
486.2777
 20
219.7602
  0
VERTEX
  8
LAYER_1
 10
486.2777
 20
225.528
  0
SEQEND
  0
POLYLINE
  8
LAYER_1
 40
0.0847
 41
0.0847
 66
1
 10
0
 20
0
 30
0
  0
VERTEX
  8
LAYER_1
 10
486.2777
 20
226.6922
  0
VERTEX
  8
LAYER_1
 10
486.2777
 20
227.8299
  0
SEQEND
  0
POLYLINE
  8
LAYER_1
 40
0.0847
 41
0.0847
 66
1
 10
0
 20
0
 30
0
  0
VERTEX
  8
LAYER_1
 10
486.2777
 20
228.9941
  0
VERTEX
  8
LAYER_1
 10
486.2777
 20
231.878
  0
SEQEND
  0
POLYLINE
  8
LAYER_1
 40
0.0847
 41
0.0847
 66
1
 10
0
 20
0
 30
0
  0
VERTEX
  8
LAYER_1
 10
476.6469
 20
192.6405
  0
VERTEX
  8
LAYER_1
 10
428.5721
 20
170.0187
  0
SEQEND
  0
TEXT
  8
LAYER_1
 10
406.7176
 20
168.8549
 11
406.7176
 21
168.8549
 40
3.2224
 41
0.5
  1
äOâèâôâOüiìòüj
  0
TEXT
  8
LAYER_1
 10
539.4327
 20
163.5897
 11
539.4327
 21
163.5897
 40
3.2224
 41
0.5
  1
äOâèâôâOüiô¹öÆüj
  0
POLYLINE
  8
LAYER_1
 40
0.0847
 41
0.0847
 66
1
 10
0
 20
0
 30
0
  0
VERTEX
  8
LAYER_1
 10
492.6542
 20
194.6778
  0
VERTEX
  8
LAYER_1
 10
538.7181
 20
165.7589
  0
SEQEND
  0
TEXT
  8
LAYER_1
 10
544.3275
 20
155.9695
 11
544.3275
 21
155.9695
 40
3.2224
 41
0.5
  1
ÄOèpâpâbâLâô
  0
TEXT
  8
LAYER_1
 10
532.4743
 20
150.5452
 11
532.4743
 21
150.5452
 40
3.2224
 41
0.5
  1
âXâèâbâvâpâbâLâô
  0
POLYLINE
  8
LAYER_1
 40
0.0847
 41
0.0847
 66
1
 10
0
 20
0
 30
0
  0
VERTEX
  8
LAYER_1
 10
487.3096
 20
160.5201
  0
VERTEX
  8
LAYER_1
 10
528.9021
 20
145.3595
  0
SEQEND
  0
TEXT
  8
LAYER_1
 10
530.0665
 20
173.7493
 11
530.0665
 21
173.7493
 40
5.3169
 41
0.5
  1
ôVö┬èJî¹Éíû@üF53055
  0
POLYLINE
  8
LAYER_1
 40
0.0847
 41
0.0847
 66
1
 10
0
 20
0
 30
0
  0
VERTEX
  8
LAYER_1
 10
587.1633
 20
178.6706
  0
VERTEX
  8
LAYER_1
 10
587.1633
 20
192.4024
  0
SEQEND
  0
POLYLINE
  8
LAYER_1
 40
0.0847
 41
0.0847
 66
1
 10
0
 20
0
 30
0
  0
VERTEX
  8
LAYER_1
 10
580.39
 20
178.6706
  0
VERTEX
  8
LAYER_1
 10
587.1633
 20
178.6706
  0
SEQEND
  0
POLYLINE
  8
LAYER_1
 40
0.0847
 41
0.0847
 66
1
 10
0
 20
0
 30
0
  0
VERTEX
  8
LAYER_1
 10
451.6438
 20
149.4606
  0
VERTEX
  8
LAYER_1
 10
477.5729
 20
178.062
  0
SEQEND
  0
POLYLINE
  8
LAYER_1
 40
0.0847
 41
0.0847
 66
1
 10
0
 20
0
 30
0
  0
VERTEX
  8
LAYER_1
 10
587.1633
 20
178.6706
  0
VERTEX
  8
LAYER_1
 10
587.1633
 20
192.4024
  0
SEQEND
  0
POLYLINE
  8
LAYER_1
 40
0.1693
 41
0.1693
 66
1
 10
0
 20
0
 30
0
  0
VERTEX
  8
LAYER_1
 10
587.1633
 20
178.6706
  0
VERTEX
  8
LAYER_1
 10
586.6871
 20
180.4697
  0
SEQEND
  0
POLYLINE
  8
LAYER_1
 40
0.1693
 41
0.1693
 66
1
 10
0
 20
0
 30
0
  0
VERTEX
  8
LAYER_1
 10
587.1633
 20
178.6706
  0
VERTEX
  8
LAYER_1
 10
587.666
 20
180.4697
  0
SEQEND
  0
POLYLINE
  8
LAYER_1
 40
0.1693
 41
0.1693
 66
1
 10
0
 20
0
 30
0
  0
VERTEX
  8
LAYER_1
 10
587.1633
 20
192.4024
  0
VERTEX
  8
LAYER_1
 10
587.666
 20
190.6033
  0
SEQEND
  0
POLYLINE
  8
LAYER_1
 40
0.1693
 41
0.1693
 66
1
 10
0
 20
0
 30
0
  0
VERTEX
  8
LAYER_1
 10
587.1633
 20
192.4024
  0
VERTEX
  8
LAYER_1
 10
586.6871
 20
190.6033
  0
SEQEND
  0
POLYLINE
  8
LAYER_1
 40
0.0847
 41
0.0847
 66
1
 10
0
 20
0
 30
0
  0
VERTEX
  8
LAYER_1
 10
580.39
 20
178.6706
  0
VERTEX
  8
LAYER_1
 10
587.1633
 20
178.6706
  0
SEQEND
  0
POLYLINE
  8
LAYER_1
 40
0.0847
 41
0.0847
 66
1
 10
0
 20
0
 30
0
  0
VERTEX
  8
LAYER_1
 10
580.39
 20
192.4024
  0
VERTEX
  8
LAYER_1
 10
587.1633
 20
192.4024
  0
SEQEND
  0
TEXT
  8
LAYER_1
 10
586.2553
 20
183.9626
 11
586.2553
 21
183.9626
 40
4.5757
 41
0.5
 50
89.99999999
  1
55
  0
POLYLINE
  8
LAYER_1
 40
0.254
 41
0.254
 66
1
 10
0
 20
0
 30
0
  0
VERTEX
  8
LAYER_1
 10
397.3777
 20
192.4024
  0
VERTEX
  8
LAYER_1
 10
478.1815
 20
192.4024
  0
SEQEND
  0
POLYLINE
  8
LAYER_1
 40
0.254
 41
0.254
 66
1
 10
0
 20
0
 30
0
  0
VERTEX
  8
LAYER_1
 10
478.1815
 20
178.6706
  0
VERTEX
  8
LAYER_1
 10
478.1815
 20
192.4024
  0
SEQEND
  0
POLYLINE
  8
LAYER_1
 40
0.254
 41
0.254
 66
1
 10
0
 20
0
 30
0
  0
VERTEX
  8
LAYER_1
 10
397.166
 20
178.6706
  0
VERTEX
  8
LAYER_1
 10
478.1815
 20
178.6706
  0
SEQEND
  0
POLYLINE
  8
LAYER_1
 40
0.254
 41
0.254
 66
1
 10
0
 20
0
 30
0
  0
VERTEX
  8
LAYER_1
 10
494.374
 20
192.4024
  0
VERTEX
  8
LAYER_1
 10
575.1777
 20
192.4024
  0
SEQEND
  0
POLYLINE
  8
LAYER_1
 40
0.254
 41
0.254
 66
1
 10
0
 20
0
 30
0
  0
VERTEX
  8
LAYER_1
 10
494.374
 20
178.6706
  0
VERTEX
  8
LAYER_1
 10
494.374
 20
192.4024
  0
SEQEND
  0
POLYLINE
  8
LAYER_1
 40
0.254
 41
0.254
 66
1
 10
0
 20
0
 30
0
  0
VERTEX
  8
LAYER_1
 10
494.374
 20
178.6706
  0
VERTEX
  8
LAYER_1
 10
575.3894
 20
178.6706
  0
SEQEND
  0
POLYLINE
  8
LAYER_1
 40
0.0847
 41
0.0847
 66
1
 10
0
 20
0
 30
0
  0
VERTEX
  8
LAYER_1
 10
575.1777
 20
192.4024
  0
VERTEX
  8
LAYER_1
 10
574.9925
 20
192.1378
  0
SEQEND
  0
POLYLINE
  8
LAYER_1
 40
0.0847
 41
0.0847
 66
1
 10
0
 20
0
 30
0
  0
VERTEX
  8
LAYER_1
 10
469.9265
 20
178.6706
  0
VERTEX
  8
LAYER_1
 10
478.1814
 20
186.8991
  0
SEQEND
  0
POLYLINE
  8
LAYER_1
 40
0.0847
 41
0.0847
 66
1
 10
0
 20
0
 30
0
  0
VERTEX
  8
LAYER_1
 10
413.385
 20
178.6706
  0
VERTEX
  8
LAYER_1
 10
427.1169
 20
192.4024
  0
SEQEND
  0
POLYLINE
  8
LAYER_1
 40
0.0847
 41
0.0847
 66
1
 10
0
 20
0
 30
0
  0
VERTEX
  8
LAYER_1
 10
409.8396
 20
178.6706
  0
VERTEX
  8
LAYER_1
 10
423.5979
 20
192.4024
  0
SEQEND
  0
POLYLINE
  8
LAYER_1
 40
0.0847
 41
0.0847
 66
1
 10
0
 20
0
 30
0
  0
VERTEX
  8
LAYER_1
 10
406.3206
 20
178.6706
  0
VERTEX
  8
LAYER_1
 10
420.0525
 20
192.4024
  0
SEQEND
  0
POLYLINE
  8
LAYER_1
 40
0.0847
 41
0.0847
 66
1
 10
0
 20
0
 30
0
  0
VERTEX
  8
LAYER_1
 10
402.7752
 20
178.6706
  0
VERTEX
  8
LAYER_1
 10
416.5335
 20
192.4024
  0
SEQEND
  0
POLYLINE
  8
LAYER_1
 40
0.0847
 41
0.0847
 66
1
 10
0
 20
0
 30
0
  0
VERTEX
  8
LAYER_1
 10
399.2562
 20
178.6706
  0
VERTEX
  8
LAYER_1
 10
412.9881
 20
192.4024
  0
SEQEND
  0
POLYLINE
  8
LAYER_1
 40
0.0847
 41
0.0847
 66
1
 10
0
 20
0
 30
0
  0
VERTEX
  8
LAYER_1
 10
455.7977
 20
178.6706
  0
VERTEX
  8
LAYER_1
 10
469.5296
 20
192.4024
  0
SEQEND
  0
POLYLINE
  8
LAYER_1
 40
0.0847
 41
0.0847
 66
1
 10
0
 20
0
 30
0
  0
VERTEX
  8
LAYER_1
 10
452.2523
 20
178.6706
  0
VERTEX
  8
LAYER_1
 10
466.0106
 20
192.4024
  0
SEQEND
  0
POLYLINE
  8
LAYER_1
 40
0.0847
 41
0.0847
 66
1
 10
0
 20
0
 30
0
  0
VERTEX
  8
LAYER_1
 10
448.7333
 20
178.6706
  0
VERTEX
  8
LAYER_1
 10
462.4652
 20
192.4024
  0
SEQEND
  0
POLYLINE
  8
LAYER_1
 40
0.0847
 41
0.0847
 66
1
 10
0
 20
0
 30
0
  0
VERTEX
  8
LAYER_1
 10
445.1879
 20
178.6706
  0
VERTEX
  8
LAYER_1
 10
458.9463
 20
192.4024
  0
SEQEND
  0
POLYLINE
  8
LAYER_1
 40
0.0847
 41
0.0847
 66
1
 10
0
 20
0
 30
0
  0
VERTEX
  8
LAYER_1
 10
441.669
 20
178.6706
  0
VERTEX
  8
LAYER_1
 10
455.4008
 20
192.4024
  0
SEQEND
  0
POLYLINE
  8
LAYER_1
 40
0.0847
 41
0.0847
 66
1
 10
0
 20
0
 30
0
  0
VERTEX
  8
LAYER_1
 10
438.1236
 20
178.6706
  0
VERTEX
  8
LAYER_1
 10
451.8554
 20
192.4024
  0
SEQEND
  0
POLYLINE
  8
LAYER_1
 40
0.0847
 41
0.0847
 66
1
 10
0
 20
0
 30
0
  0
VERTEX
  8
LAYER_1
 10
434.5781
 20
178.6706
  0
VERTEX
  8
LAYER_1
 10
448.3365
 20
192.4024
  0
SEQEND
  0
POLYLINE
  8
LAYER_1
 40
0.0847
 41
0.0847
 66
1
 10
0
 20
0
 30
0
  0
VERTEX
  8
LAYER_1
 10
431.0592
 20
178.6706
  0
VERTEX
  8
LAYER_1
 10
444.7911
 20
192.4024
  0
SEQEND
  0
POLYLINE
  8
LAYER_1
 40
0.0847
 41
0.0847
 66
1
 10
0
 20
0
 30
0
  0
VERTEX
  8
LAYER_1
 10
427.5138
 20
178.6706
  0
VERTEX
  8
LAYER_1
 10
441.2721
 20
192.4024
  0
SEQEND
  0
POLYLINE
  8
LAYER_1
 40
0.0847
 41
0.0847
 66
1
 10
0
 20
0
 30
0
  0
VERTEX
  8
LAYER_1
 10
423.9948
 20
178.6706
  0
VERTEX
  8
LAYER_1
 10
437.7267
 20
192.4024
  0
SEQEND
  0
POLYLINE
  8
LAYER_1
 40
0.0847
 41
0.0847
 66
1
 10
0
 20
0
 30
0
  0
VERTEX
  8
LAYER_1
 10
420.4494
 20
178.6706
  0
VERTEX
  8
LAYER_1
 10
434.2077
 20
192.4024
  0
SEQEND
  0
POLYLINE
  8
LAYER_1
 40
0.0847
 41
0.0847
 66
1
 10
0
 20
0
 30
0
  0
VERTEX
  8
LAYER_1
 10
416.9304
 20
178.6706
  0
VERTEX
  8
LAYER_1
 10
430.6623
 20
192.4024
  0
SEQEND
  0
POLYLINE
  8
LAYER_1
 40
0.0847
 41
0.0847
 66
1
 10
0
 20
0
 30
0
  0
VERTEX
  8
LAYER_1
 10
459.3167
 20
178.6706
  0
VERTEX
  8
LAYER_1
 10
473.075
 20
192.4024
  0
SEQEND
  0
POLYLINE
  8
LAYER_1
 40
0.0847
 41
0.0847
 66
1
 10
0
 20
0
 30
0
  0
VERTEX
  8
LAYER_1
 10
462.8621
 20
178.6706
  0
VERTEX
  8
LAYER_1
 10
476.594
 20
192.4024
  0
SEQEND
  0
POLYLINE
  8
LAYER_1
 40
0.0847
 41
0.0847
 66
1
 10
0
 20
0
 30
0
  0
VERTEX
  8
LAYER_1
 10
466.4075
 20
178.6706
  0
VERTEX
  8
LAYER_1
 10
478.1815
 20
190.4445
  0
SEQEND
  0
POLYLINE
  8
LAYER_1
 40
0.0847
 41
0.0847
 66
1
 10
0
 20
0
 30
0
  0
VERTEX
  8
LAYER_1
 10
519.3771
 20
178.6706
  0
VERTEX
  8
LAYER_1
 10
533.1354
 20
192.4024
  0
SEQEND
  0
POLYLINE
  8
LAYER_1
 40
0.0847
 41
0.0847
 66
1
 10
0
 20
0
 30
0
  0
VERTEX
  8
LAYER_1
 10
522.9225
 20
178.6706
  0
VERTEX
  8
LAYER_1
 10
536.6544
 20
192.4024
  0
SEQEND
  0
POLYLINE
  8
LAYER_1
 40
0.0847
 41
0.0847
 66
1
 10
0
 20
0
 30
0
  0
VERTEX
  8
LAYER_1
 10
526.4415
 20
178.6706
  0
VERTEX
  8
LAYER_1
 10
540.1998
 20
192.4024
  0
SEQEND
  0
POLYLINE
  8
LAYER_1
 40
0.0847
 41
0.0847
 66
1
 10
0
 20
0
 30
0
  0
VERTEX
  8
LAYER_1
 10
529.9869
 20
178.6706
  0
VERTEX
  8
LAYER_1
 10
543.7188
 20
192.4024
  0
SEQEND
  0
POLYLINE
  8
LAYER_1
 40
0.0847
 41
0.0847
 66
1
 10
0
 20
0
 30
0
  0
VERTEX
  8
LAYER_1
 10
533.5059
 20
178.6706
  0
VERTEX
  8
LAYER_1
 10
547.2642
 20
192.4024
  0
SEQEND
  0
POLYLINE
  8
LAYER_1
 40
0.0847
 41
0.0847
 66
1
 10
0
 20
0
 30
0
  0
VERTEX
  8
LAYER_1
 10
537.0513
 20
178.6706
  0
VERTEX
  8
LAYER_1
 10
550.7832
 20
192.4024
  0
SEQEND
  0
POLYLINE
  8
LAYER_1
 40
0.0847
 41
0.0847
 66
1
 10
0
 20
0
 30
0
  0
VERTEX
  8
LAYER_1
 10
540.5703
 20
178.6706
  0
VERTEX
  8
LAYER_1
 10
554.3286
 20
192.4024
  0
SEQEND
  0
POLYLINE
  8
LAYER_1
 40
0.0847
 41
0.0847
 66
1
 10
0
 20
0
 30
0
  0
VERTEX
  8
LAYER_1
 10
544.1157
 20
178.6706
  0
VERTEX
  8
LAYER_1
 10
557.874
 20
192.4024
  0
SEQEND
  0
POLYLINE
  8
LAYER_1
 40
0.0847
 41
0.0847
 66
1
 10
0
 20
0
 30
0
  0
VERTEX
  8
LAYER_1
 10
547.6611
 20
178.6706
  0
VERTEX
  8
LAYER_1
 10
561.393
 20
192.4024
  0
SEQEND
  0
POLYLINE
  8
LAYER_1
 40
0.0847
 41
0.0847
 66
1
 10
0
 20
0
 30
0
  0
VERTEX
  8
LAYER_1
 10
551.1801
 20
178.6706
  0
VERTEX
  8
LAYER_1
 10
564.9384
 20
192.4024
  0
SEQEND
  0
POLYLINE
  8
LAYER_1
 40
0.0847
 41
0.0847
 66
1
 10
0
 20
0
 30
0
  0
VERTEX
  8
LAYER_1
 10
554.7255
 20
178.6706
  0
VERTEX
  8
LAYER_1
 10
568.4573
 20
192.4024
  0
SEQEND
  0
POLYLINE
  8
LAYER_1
 40
0.0847
 41
0.0847
 66
1
 10
0
 20
0
 30
0
  0
VERTEX
  8
LAYER_1
 10
558.2444
 20
178.6706
  0
VERTEX
  8
LAYER_1
 10
572.0028
 20
192.4024
  0
SEQEND
  0
POLYLINE
  8
LAYER_1
 40
0.0847
 41
0.0847
 66
1
 10
0
 20
0
 30
0
  0
VERTEX
  8
LAYER_1
 10
561.7899
 20
178.6706
  0
VERTEX
  8
LAYER_1
 10
574.5163
 20
191.3705
  0
SEQEND
  0
POLYLINE
  8
LAYER_1
 40
0.0847
 41
0.0847
 66
1
 10
0
 20
0
 30
0
  0
VERTEX
  8
LAYER_1
 10
395.8167
 20
182.2953
  0
VERTEX
  8
LAYER_1
 10
405.9238
 20
192.4024
  0
SEQEND
  0
POLYLINE
  8
LAYER_1
 40
0.0847
 41
0.0847
 66
1
 10
0
 20
0
 30
0
  0
VERTEX
  8
LAYER_1
 10
396.6105
 20
179.5437
  0
VERTEX
  8
LAYER_1
 10
409.4692
 20
192.4024
  0
SEQEND
  0
POLYLINE
  8
LAYER_1
 40
0.0847
 41
0.0847
 66
1
 10
0
 20
0
 30
0
  0
VERTEX
  8
LAYER_1
 10
398.9653
 20
188.9893
  0
VERTEX
  8
LAYER_1
 10
402.3784
 20
192.4024
  0
SEQEND
  0
POLYLINE
  8
LAYER_1
 40
0.0847
 41
0.0847
 66
1
 10
0
 20
0
 30
0
  0
VERTEX
  8
LAYER_1
 10
397.9863
 20
191.5293
  0
VERTEX
  8
LAYER_1
 10
398.8594
 20
192.4024
  0
SEQEND
  0
POLYLINE
  8
LAYER_1
 40
0.0847
 41
0.0847
 66
1
 10
0
 20
0
 30
0
  0
VERTEX
  8
LAYER_1
 10
575.3894
 20
185.047
  0
VERTEX
  8
LAYER_1
 10
575.7069
 20
184.5972
  0
SEQEND
  0
POLYLINE
  8
LAYER_1
 40
0.0847
 41
0.0847
 66
1
 10
0
 20
0
 30
0
  0
VERTEX
  8
LAYER_1
 10
575.1778
 20
192.4024
  0
VERTEX
  8
LAYER_1
 10
574.9396
 20
192.0584
  0
VERTEX
  8
LAYER_1
 10
574.5692
 20
191.5028
  0
VERTEX
  8
LAYER_1
 10
574.2253
 20
190.9207
  0
VERTEX
  8
LAYER_1
 10
573.9342
 20
190.3651
  0
VERTEX
  8
LAYER_1
 10
573.7225
 20
189.783
  0
VERTEX
  8
LAYER_1
 10
573.5903
 20
189.2274
  0
VERTEX
  8
LAYER_1
 10
573.5638
 20
188.8834
  0
VERTEX
  8
LAYER_1
 10
573.5903
 20
188.5659
  0
VERTEX
  8
LAYER_1
 10
573.7225
 20
187.9839
  0
VERTEX
  8
LAYER_1
 10
573.9342
 20
187.4282
  0
VERTEX
  8
LAYER_1
 10
574.2253
 20
186.8461
  0
VERTEX
  8
LAYER_1
 10
574.5692
 20
186.2641
  0
VERTEX
  8
LAYER_1
 10
574.9396
 20
185.7084
  0
VERTEX
  8
LAYER_1
 10
575.3894
 20
185.047
  0
SEQEND
  0
POLYLINE
  8
LAYER_1
 40
0.0847
 41
0.0847
 66
1
 10
0
 20
0
 30
0
  0
VERTEX
  8
LAYER_1
 10
565.3088
 20
178.6705
  0
VERTEX
  8
LAYER_1
 10
573.9871
 20
187.3224
  0
SEQEND
  0
POLYLINE
  8
LAYER_1
 40
0.0847
 41
0.0847
 66
1
 10
0
 20
0
 30
0
  0
VERTEX
  8
LAYER_1
 10
572.3996
 20
178.6705
  0
VERTEX
  8
LAYER_1
 10
576.58
 20
182.8509
  0
SEQEND
  0
POLYLINE
  8
LAYER_1
 40
0.0847
 41
0.0847
 66
1
 10
0
 20
0
 30
0
  0
VERTEX
  8
LAYER_1
 10
568.8542
 20
178.6705
  0
VERTEX
  8
LAYER_1
 10
575.3365
 20
185.1263
  0
SEQEND
  0
POLYLINE
  8
LAYER_1
 40
0.0847
 41
0.0847
 66
1
 10
0
 20
0
 30
0
  0
VERTEX
  8
LAYER_1
 10
473.4719
 20
178.6705
  0
VERTEX
  8
LAYER_1
 10
478.1815
 20
183.3536
  0
SEQEND
  0
POLYLINE
  8
LAYER_1
 40
0.0847
 41
0.0847
 66
1
 10
0
 20
0
 30
0
  0
VERTEX
  8
LAYER_1
 10
476.9909
 20
178.6705
  0
VERTEX
  8
LAYER_1
 10
478.1815
 20
179.8347
  0
SEQEND
  0
POLYLINE
  8
LAYER_1
 40
0.0847
 41
0.0847
 66
1
 10
0
 20
0
 30
0
  0
VERTEX
  8
LAYER_1
 10
397.3777
 20
192.4024
  0
VERTEX
  8
LAYER_1
 10
397.6159
 20
192.0584
  0
VERTEX
  8
LAYER_1
 10
397.9863
 20
191.5028
  0
VERTEX
  8
LAYER_1
 10
398.3302
 20
190.9207
  0
VERTEX
  8
LAYER_1
 10
398.6213
 20
190.3651
  0
VERTEX
  8
LAYER_1
 10
398.833
 20
189.783
  0
VERTEX
  8
LAYER_1
 10
398.9652
 20
189.2274
  0
VERTEX
  8
LAYER_1
 10
398.9917
 20
188.8834
  0
VERTEX
  8
LAYER_1
 10
398.9652
 20
188.5659
  0
VERTEX
  8
LAYER_1
 10
398.833
 20
187.9839
  0
VERTEX
  8
LAYER_1
 10
398.6213
 20
187.4282
  0
VERTEX
  8
LAYER_1
 10
398.3302
 20
186.8461
  0
VERTEX
  8
LAYER_1
 10
397.9863
 20
186.2641
  0
VERTEX
  8
LAYER_1
 10
397.6159
 20
185.7084
  0
VERTEX
  8
LAYER_1
 10
397.1661
 20
185.047
  0
VERTEX
  8
LAYER_1
 10
396.8486
 20
184.5972
  0
SEQEND
  0
POLYLINE
  8
LAYER_1
 40
0.0847
 41
0.0847
 66
1
 10
0
 20
0
 30
0
  0
VERTEX
  8
LAYER_1
 10
397.1661
 20
178.6705
  0
SEQEND
  0
POLYLINE
  8
LAYER_1
 40
0.0847
 41
0.0847
 66
1
 10
0
 20
0
 30
0
  0
VERTEX
  8
LAYER_1
 10
396.7692
 20
179.2526
  0
VERTEX
  8
LAYER_1
 10
397.1661
 20
178.6705
  0
SEQEND
  0
POLYLINE
  8
LAYER_1
 40
0.0847
 41
0.0847
 66
1
 10
0
 20
0
 30
0
  0
VERTEX
  8
LAYER_1
 10
396.4252
 20
179.8082
  0
VERTEX
  8
LAYER_1
 10
396.7692
 20
179.2526
  0
SEQEND
  0
POLYLINE
  8
LAYER_1
 40
0.0847
 41
0.0847
 66
1
 10
0
 20
0
 30
0
  0
VERTEX
  8
LAYER_1
 10
396.1342
 20
180.3903
  0
VERTEX
  8
LAYER_1
 10
396.4252
 20
179.8082
  0
SEQEND
  0
POLYLINE
  8
LAYER_1
 40
0.0847
 41
0.0847
 66
1
 10
0
 20
0
 30
0
  0
VERTEX
  8
LAYER_1
 10
395.9225
 20
180.946
  0
VERTEX
  8
LAYER_1
 10
396.1342
 20
180.3903
  0
SEQEND
  0
POLYLINE
  8
LAYER_1
 40
0.0847
 41
0.0847
 66
1
 10
0
 20
0
 30
0
  0
VERTEX
  8
LAYER_1
 10
395.7902
 20
181.528
  0
VERTEX
  8
LAYER_1
 10
395.9225
 20
180.946
  0
SEQEND
  0
POLYLINE
  8
LAYER_1
 40
0.0847
 41
0.0847
 66
1
 10
0
 20
0
 30
0
  0
VERTEX
  8
LAYER_1
 10
395.7902
 20
181.872
  0
VERTEX
  8
LAYER_1
 10
395.7902
 20
181.528
  0
SEQEND
  0
POLYLINE
  8
LAYER_1
 40
0.0847
 41
0.0847
 66
1
 10
0
 20
0
 30
0
  0
VERTEX
  8
LAYER_1
 10
395.7902
 20
182.1895
  0
VERTEX
  8
LAYER_1
 10
395.7902
 20
181.872
  0
SEQEND
  0
POLYLINE
  8
LAYER_1
 40
0.0847
 41
0.0847
 66
1
 10
0
 20
0
 30
0
  0
VERTEX
  8
LAYER_1
 10
395.9225
 20
182.7716
  0
VERTEX
  8
LAYER_1
 10
395.7902
 20
182.1895
  0
SEQEND
  0
POLYLINE
  8
LAYER_1
 40
0.0847
 41
0.0847
 66
1
 10
0
 20
0
 30
0
  0
VERTEX
  8
LAYER_1
 10
396.1342
 20
183.3272
  0
VERTEX
  8
LAYER_1
 10
395.9225
 20
182.7716
  0
SEQEND
  0
POLYLINE
  8
LAYER_1
 40
0.0847
 41
0.0847
 66
1
 10
0
 20
0
 30
0
  0
VERTEX
  8
LAYER_1
 10
396.4252
 20
183.9093
  0
VERTEX
  8
LAYER_1
 10
396.1342
 20
183.3272
  0
SEQEND
  0
POLYLINE
  8
LAYER_1
 40
0.0847
 41
0.0847
 66
1
 10
0
 20
0
 30
0
  0
VERTEX
  8
LAYER_1
 10
396.7692
 20
184.4649
  0
VERTEX
  8
LAYER_1
 10
396.4252
 20
183.9093
  0
SEQEND
  0
POLYLINE
  8
LAYER_1
 40
0.0847
 41
0.0847
 66
1
 10
0
 20
0
 30
0
  0
VERTEX
  8
LAYER_1
 10
397.1661
 20
185.047
  0
VERTEX
  8
LAYER_1
 10
396.7692
 20
184.4649
  0
SEQEND
  0
POLYLINE
  8
LAYER_1
 40
0.0847
 41
0.0847
 66
1
 10
0
 20
0
 30
0
  0
VERTEX
  8
LAYER_1
 10
397.6159
 20
185.7085
  0
VERTEX
  8
LAYER_1
 10
397.1661
 20
185.047
  0
SEQEND
  0
POLYLINE
  8
LAYER_1
 40
0.0847
 41
0.0847
 66
1
 10
0
 20
0
 30
0
  0
VERTEX
  8
LAYER_1
 10
397.9863
 20
186.2641
  0
VERTEX
  8
LAYER_1
 10
397.6159
 20
185.7085
  0
SEQEND
  0
POLYLINE
  8
LAYER_1
 40
0.0847
 41
0.0847
 66
1
 10
0
 20
0
 30
0
  0
VERTEX
  8
LAYER_1
 10
398.3302
 20
186.8462
  0
VERTEX
  8
LAYER_1
 10
397.9863
 20
186.2641
  0
SEQEND
  0
POLYLINE
  8
LAYER_1
 40
0.0847
 41
0.0847
 66
1
 10
0
 20
0
 30
0
  0
VERTEX
  8
LAYER_1
 10
398.6213
 20
187.4283
  0
VERTEX
  8
LAYER_1
 10
398.3302
 20
186.8462
  0
SEQEND
  0
POLYLINE
  8
LAYER_1
 40
0.0847
 41
0.0847
 66
1
 10
0
 20
0
 30
0
  0
VERTEX
  8
LAYER_1
 10
398.833
 20
187.9839
  0
VERTEX
  8
LAYER_1
 10
398.6213
 20
187.4283
  0
SEQEND
  0
POLYLINE
  8
LAYER_1
 40
0.0847
 41
0.0847
 66
1
 10
0
 20
0
 30
0
  0
VERTEX
  8
LAYER_1
 10
398.9652
 20
188.566
  0
VERTEX
  8
LAYER_1
 10
398.833
 20
187.9839
  0
SEQEND
  0
POLYLINE
  8
LAYER_1
 40
0.0847
 41
0.0847
 66
1
 10
0
 20
0
 30
0
  0
VERTEX
  8
LAYER_1
 10
398.9917
 20
188.8835
  0
VERTEX
  8
LAYER_1
 10
398.9652
 20
188.566
  0
SEQEND
  0
POLYLINE
  8
LAYER_1
 40
0.0847
 41
0.0847
 66
1
 10
0
 20
0
 30
0
  0
VERTEX
  8
LAYER_1
 10
398.9652
 20
189.2275
  0
VERTEX
  8
LAYER_1
 10
398.9917
 20
188.8835
  0
SEQEND
  0
POLYLINE
  8
LAYER_1
 40
0.0847
 41
0.0847
 66
1
 10
0
 20
0
 30
0
  0
VERTEX
  8
LAYER_1
 10
398.833
 20
189.7831
  0
VERTEX
  8
LAYER_1
 10
398.9652
 20
189.2275
  0
SEQEND
  0
POLYLINE
  8
LAYER_1
 40
0.0847
 41
0.0847
 66
1
 10
0
 20
0
 30
0
  0
VERTEX
  8
LAYER_1
 10
398.6213
 20
190.3652
  0
VERTEX
  8
LAYER_1
 10
398.833
 20
189.7831
  0
SEQEND
  0
POLYLINE
  8
LAYER_1
 40
0.0847
 41
0.0847
 66
1
 10
0
 20
0
 30
0
  0
VERTEX
  8
LAYER_1
 10
398.3302
 20
190.9208
  0
VERTEX
  8
LAYER_1
 10
398.6213
 20
190.3652
  0
SEQEND
  0
POLYLINE
  8
LAYER_1
 40
0.0847
 41
0.0847
 66
1
 10
0
 20
0
 30
0
  0
VERTEX
  8
LAYER_1
 10
397.9863
 20
191.5029
  0
VERTEX
  8
LAYER_1
 10
398.3302
 20
190.9208
  0
SEQEND
  0
POLYLINE
  8
LAYER_1
 40
0.0847
 41
0.0847
 66
1
 10
0
 20
0
 30
0
  0
VERTEX
  8
LAYER_1
 10
397.6159
 20
192.0585
  0
VERTEX
  8
LAYER_1
 10
397.9863
 20
191.5029
  0
SEQEND
  0
POLYLINE
  8
LAYER_1
 40
0.0847
 41
0.0847
 66
1
 10
0
 20
0
 30
0
  0
VERTEX
  8
LAYER_1
 10
397.3777
 20
192.4025
  0
VERTEX
  8
LAYER_1
 10
397.6159
 20
192.0585
  0
SEQEND
  0
POLYLINE
  8
LAYER_1
 40
0.0847
 41
0.0847
 66
1
 10
0
 20
0
 30
0
  0
VERTEX
  8
LAYER_1
 10
575.3894
 20
178.6706
  0
SEQEND
  0
POLYLINE
  8
LAYER_1
 40
0.0847
 41
0.0847
 66
1
 10
0
 20
0
 30
0
  0
VERTEX
  8
LAYER_1
 10
575.7863
 20
179.2527
  0
VERTEX
  8
LAYER_1
 10
575.3894
 20
178.6706
  0
SEQEND
  0
POLYLINE
  8
LAYER_1
 40
0.0847
 41
0.0847
 66
1
 10
0
 20
0
 30
0
  0
VERTEX
  8
LAYER_1
 10
576.1302
 20
179.8083
  0
VERTEX
  8
LAYER_1
 10
575.7863
 20
179.2527
  0
SEQEND
  0
POLYLINE
  8
LAYER_1
 40
0.0847
 41
0.0847
 66
1
 10
0
 20
0
 30
0
  0
VERTEX
  8
LAYER_1
 10
576.4213
 20
180.3904
  0
VERTEX
  8
LAYER_1
 10
576.1302
 20
179.8083
  0
SEQEND
  0
POLYLINE
  8
LAYER_1
 40
0.0847
 41
0.0847
 66
1
 10
0
 20
0
 30
0
  0
VERTEX
  8
LAYER_1
 10
576.633
 20
180.946
  0
VERTEX
  8
LAYER_1
 10
576.4213
 20
180.3904
  0
SEQEND
  0
POLYLINE
  8
LAYER_1
 40
0.0847
 41
0.0847
 66
1
 10
0
 20
0
 30
0
  0
VERTEX
  8
LAYER_1
 10
576.7652
 20
181.5281
  0
VERTEX
  8
LAYER_1
 10
576.6329
 20
180.946
  0
SEQEND
  0
POLYLINE
  8
LAYER_1
 40
0.0847
 41
0.0847
 66
1
 10
0
 20
0
 30
0
  0
VERTEX
  8
LAYER_1
 10
576.7652
 20
181.8721
  0
VERTEX
  8
LAYER_1
 10
576.7652
 20
181.5281
  0
SEQEND
  0
POLYLINE
  8
LAYER_1
 40
0.0847
 41
0.0847
 66
1
 10
0
 20
0
 30
0
  0
VERTEX
  8
LAYER_1
 10
576.7652
 20
182.1896
  0
VERTEX
  8
LAYER_1
 10
576.7652
 20
181.8721
  0
SEQEND
  0
POLYLINE
  8
LAYER_1
 40
0.0847
 41
0.0847
 66
1
 10
0
 20
0
 30
0
  0
VERTEX
  8
LAYER_1
 10
576.633
 20
182.7717
  0
VERTEX
  8
LAYER_1
 10
576.7652
 20
182.1896
  0
SEQEND
  0
POLYLINE
  8
LAYER_1
 40
0.0847
 41
0.0847
 66
1
 10
0
 20
0
 30
0
  0
VERTEX
  8
LAYER_1
 10
576.4213
 20
183.3273
  0
VERTEX
  8
LAYER_1
 10
576.6329
 20
182.7717
  0
SEQEND
  0
POLYLINE
  8
LAYER_1
 40
0.0847
 41
0.0847
 66
1
 10
0
 20
0
 30
0
  0
VERTEX
  8
LAYER_1
 10
576.1302
 20
183.9094
  0
VERTEX
  8
LAYER_1
 10
576.4213
 20
183.3273
  0
SEQEND
  0
POLYLINE
  8
LAYER_1
 40
0.0847
 41
0.0847
 66
1
 10
0
 20
0
 30
0
  0
VERTEX
  8
LAYER_1
 10
575.7863
 20
184.465
  0
VERTEX
  8
LAYER_1
 10
576.1302
 20
183.9094
  0
SEQEND
  0
POLYLINE
  8
LAYER_1
 40
0.0847
 41
0.0847
 66
1
 10
0
 20
0
 30
0
  0
VERTEX
  8
LAYER_1
 10
575.3894
 20
185.0471
  0
VERTEX
  8
LAYER_1
 10
575.7863
 20
184.465
  0
SEQEND
  0
POLYLINE
  8
LAYER_1
 40
0.0847
 41
0.0847
 66
1
 10
0
 20
0
 30
0
  0
VERTEX
  8
LAYER_1
 10
574.9396
 20
185.7086
  0
VERTEX
  8
LAYER_1
 10
575.3894
 20
185.0471
  0
SEQEND
  0
POLYLINE
  8
LAYER_1
 40
0.0847
 41
0.0847
 66
1
 10
0
 20
0
 30
0
  0
VERTEX
  8
LAYER_1
 10
574.5692
 20
186.2642
  0
VERTEX
  8
LAYER_1
 10
574.9396
 20
185.7086
  0
SEQEND
  0
POLYLINE
  8
LAYER_1
 40
0.0847
 41
0.0847
 66
1
 10
0
 20
0
 30
0
  0
VERTEX
  8
LAYER_1
 10
574.2252
 20
186.8463
  0
VERTEX
  8
LAYER_1
 10
574.5692
 20
186.2642
  0
SEQEND
  0
POLYLINE
  8
LAYER_1
 40
0.0847
 41
0.0847
 66
1
 10
0
 20
0
 30
0
  0
VERTEX
  8
LAYER_1
 10
573.9342
 20
187.4284
  0
VERTEX
  8
LAYER_1
 10
574.2252
 20
186.8463
  0
SEQEND
  0
POLYLINE
  8
LAYER_1
 40
0.0847
 41
0.0847
 66
1
 10
0
 20
0
 30
0
  0
VERTEX
  8
LAYER_1
 10
573.7225
 20
187.984
  0
VERTEX
  8
LAYER_1
 10
573.9342
 20
187.4284
  0
SEQEND
  0
POLYLINE
  8
LAYER_1
 40
0.0847
 41
0.0847
 66
1
 10
0
 20
0
 30
0
  0
VERTEX
  8
LAYER_1
 10
573.5902
 20
188.5661
  0
VERTEX
  8
LAYER_1
 10
573.7225
 20
187.984
  0
SEQEND
  0
POLYLINE
  8
LAYER_1
 40
0.0847
 41
0.0847
 66
1
 10
0
 20
0
 30
0
  0
VERTEX
  8
LAYER_1
 10
573.5638
 20
188.8836
  0
VERTEX
  8
LAYER_1
 10
573.5902
 20
188.5661
  0
SEQEND
  0
POLYLINE
  8
LAYER_1
 40
0.0847
 41
0.0847
 66
1
 10
0
 20
0
 30
0
  0
VERTEX
  8
LAYER_1
 10
573.5902
 20
189.2275
  0
VERTEX
  8
LAYER_1
 10
573.5638
 20
188.8836
  0
SEQEND
  0
POLYLINE
  8
LAYER_1
 40
0.0847
 41
0.0847
 66
1
 10
0
 20
0
 30
0
  0
VERTEX
  8
LAYER_1
 10
573.7225
 20
189.7832
  0
VERTEX
  8
LAYER_1
 10
573.5902
 20
189.2275
  0
SEQEND
  0
POLYLINE
  8
LAYER_1
 40
0.0847
 41
0.0847
 66
1
 10
0
 20
0
 30
0
  0
VERTEX
  8
LAYER_1
 10
573.9342
 20
190.3653
  0
VERTEX
  8
LAYER_1
 10
573.7225
 20
189.7832
  0
SEQEND
  0
POLYLINE
  8
LAYER_1
 40
0.0847
 41
0.0847
 66
1
 10
0
 20
0
 30
0
  0
VERTEX
  8
LAYER_1
 10
574.2252
 20
190.9209
  0
VERTEX
  8
LAYER_1
 10
573.9342
 20
190.3653
  0
SEQEND
  0
POLYLINE
  8
LAYER_1
 40
0.0847
 41
0.0847
 66
1
 10
0
 20
0
 30
0
  0
VERTEX
  8
LAYER_1
 10
574.5692
 20
191.503
  0
VERTEX
  8
LAYER_1
 10
574.2252
 20
190.9209
  0
SEQEND
  0
POLYLINE
  8
LAYER_1
 40
0.0847
 41
0.0847
 66
1
 10
0
 20
0
 30
0
  0
VERTEX
  8
LAYER_1
 10
574.9396
 20
192.0586
  0
VERTEX
  8
LAYER_1
 10
574.5692
 20
191.503
  0
SEQEND
  0
POLYLINE
  8
LAYER_1
 40
0.0847
 41
0.0847
 66
1
 10
0
 20
0
 30
0
  0
VERTEX
  8
LAYER_1
 10
575.1777
 20
192.4026
  0
VERTEX
  8
LAYER_1
 10
574.9396
 20
192.0586
  0
SEQEND
  0
POLYLINE
  8
LAYER_1
 40
0.0847
 41
0.0847
 66
1
 10
0
 20
0
 30
0
  0
VERTEX
  8
LAYER_1
 10
494.374
 20
189.0159
  0
VERTEX
  8
LAYER_1
 10
497.7871
 20
192.4026
  0
SEQEND
  0
POLYLINE
  8
LAYER_1
 40
0.0847
 41
0.0847
 66
1
 10
0
 20
0
 30
0
  0
VERTEX
  8
LAYER_1
 10
494.374
 20
185.4705
  0
VERTEX
  8
LAYER_1
 10
501.3061
 20
192.4026
  0
SEQEND
  0
POLYLINE
  8
LAYER_1
 40
0.0847
 41
0.0847
 66
1
 10
0
 20
0
 30
0
  0
VERTEX
  8
LAYER_1
 10
494.374
 20
181.9251
  0
VERTEX
  8
LAYER_1
 10
504.8515
 20
192.4026
  0
SEQEND
  0
POLYLINE
  8
LAYER_1
 40
0.0847
 41
0.0847
 66
1
 10
0
 20
0
 30
0
  0
VERTEX
  8
LAYER_1
 10
494.6386
 20
178.6707
  0
VERTEX
  8
LAYER_1
 10
508.3969
 20
192.4026
  0
SEQEND
  0
POLYLINE
  8
LAYER_1
 40
0.0847
 41
0.0847
 66
1
 10
0
 20
0
 30
0
  0
VERTEX
  8
LAYER_1
 10
498.184
 20
178.6707
  0
VERTEX
  8
LAYER_1
 10
511.9159
 20
192.4026
  0
SEQEND
  0
POLYLINE
  8
LAYER_1
 40
0.0847
 41
0.0847
 66
1
 10
0
 20
0
 30
0
  0
VERTEX
  8
LAYER_1
 10
501.703
 20
178.6707
  0
VERTEX
  8
LAYER_1
 10
515.4613
 20
192.4026
  0
SEQEND
  0
POLYLINE
  8
LAYER_1
 40
0.0847
 41
0.0847
 66
1
 10
0
 20
0
 30
0
  0
VERTEX
  8
LAYER_1
 10
505.2484
 20
178.6707
  0
VERTEX
  8
LAYER_1
 10
518.9803
 20
192.4026
  0
SEQEND
  0
POLYLINE
  8
LAYER_1
 40
0.0847
 41
0.0847
 66
1
 10
0
 20
0
 30
0
  0
VERTEX
  8
LAYER_1
 10
508.7674
 20
178.6707
  0
VERTEX
  8
LAYER_1
 10
522.5257
 20
192.4026
  0
SEQEND
  0
POLYLINE
  8
LAYER_1
 40
0.0847
 41
0.0847
 66
1
 10
0
 20
0
 30
0
  0
VERTEX
  8
LAYER_1
 10
512.3128
 20
178.6707
  0
VERTEX
  8
LAYER_1
 10
526.0446
 20
192.4026
  0
SEQEND
  0
POLYLINE
  8
LAYER_1
 40
0.0847
 41
0.0847
 66
1
 10
0
 20
0
 30
0
  0
VERTEX
  8
LAYER_1
 10
515.8317
 20
178.6707
  0
VERTEX
  8
LAYER_1
 10
529.5901
 20
192.4026
  0
SEQEND
  0
POLYLINE
  8
LAYER_1
 40
0.1693
 41
0.1693
 66
1
 10
0
 20
0
 30
0
  0
VERTEX
  8
LAYER_1
 10
476.3029
 20
177.9033
  0
VERTEX
  8
LAYER_1
 10
496.2525
 20
177.9033
  0
VERTEX
  8
LAYER_1
 10
496.2525
 20
178.6706
  0
SEQEND
  0
POLYLINE
  8
LAYER_1
 40
0.1693
 41
0.1693
 66
1
 10
0
 20
0
 30
0
  0
VERTEX
  8
LAYER_1
 10
476.3029
 20
178.6706
  0
VERTEX
  8
LAYER_1
 10
496.2525
 20
178.6706
  0
SEQEND
  0
POLYLINE
  8
LAYER_1
 40
0.1693
 41
0.1693
 66
1
 10
0
 20
0
 30
0
  0
VERTEX
  8
LAYER_1
 10
476.3029
 20
177.9033
  0
VERTEX
  8
LAYER_1
 10
476.3029
 20
178.6706
  0
SEQEND
  0
POLYLINE
  8
LAYER_1
 40
0.0847
 41
0.0847
 66
1
 10
0
 20
0
 30
0
  0
VERTEX
  8
LAYER_1
 10
490.3788
 20
177.9033
  0
VERTEX
  8
LAYER_1
 10
490.3788
 20
178.0885
  0
SEQEND
  0
POLYLINE
  8
LAYER_1
 40
0.0847
 41
0.0847
 66
1
 10
0
 20
0
 30
0
  0
VERTEX
  8
LAYER_1
 10
490.3788
 20
178.4589
  0
VERTEX
  8
LAYER_1
 10
490.3788
 20
178.6706
  0
SEQEND
  0
POLYLINE
  8
LAYER_1
 40
0.0847
 41
0.0847
 66
1
 10
0
 20
0
 30
0
  0
VERTEX
  8
LAYER_1
 10
482.1767
 20
177.9033
  0
VERTEX
  8
LAYER_1
 10
482.1767
 20
178.0885
  0
SEQEND
  0
POLYLINE
  8
LAYER_1
 40
0.0847
 41
0.0847
 66
1
 10
0
 20
0
 30
0
  0
VERTEX
  8
LAYER_1
 10
482.1767
 20
178.4589
  0
VERTEX
  8
LAYER_1
 10
482.1767
 20
178.6706
  0
SEQEND
  0
TEXT
  8
LAYER_1
 10
538.6386
 20
210.5533
 11
538.6386
 21
210.5533
 40
3.2224
 41
0.5
  1
örÉàû┌ÄM
  0
POLYLINE
  8
LAYER_1
 40
0.1693
 41
0.1693
 66
1
 10
0
 20
0
 30
0
  0
VERTEX
  8
LAYER_1
 10
451.2998
 20
219.8926
  0
VERTEX
  8
LAYER_1
 10
521.2556
 20
219.8926
  0
SEQEND
  0
POLYLINE
  8
LAYER_1
 40
0.1693
 41
0.1693
 66
1
 10
0
 20
0
 30
0
  0
VERTEX
  8
LAYER_1
 10
476.9115
 20
194.8895
  0
VERTEX
  8
LAYER_1
 10
495.6439
 20
194.8895
  0
SEQEND
  0
POLYLINE
  8
LAYER_1
 40
0.0847
 41
0.0847
 66
1
 10
0
 20
0
 30
0
  0
VERTEX
  8
LAYER_1
 10
454.5542
 20
219.8926
  0
VERTEX
  8
LAYER_1
 10
455.7183
 20
218.7814
  0
SEQEND
  0
POLYLINE
  8
LAYER_1
 40
0.0847
 41
0.0847
 66
1
 10
0
 20
0
 30
0
  0
VERTEX
  8
LAYER_1
 10
456.5121
 20
218.0405
  0
VERTEX
  8
LAYER_1
 10
458.8404
 20
215.818
  0
SEQEND
  0
POLYLINE
  8
LAYER_1
 40
0.0847
 41
0.0847
 66
1
 10
0
 20
0
 30
0
  0
VERTEX
  8
LAYER_1
 10
459.6342
 20
215.0772
  0
VERTEX
  8
LAYER_1
 10
461.989
 20
212.8547
  0
SEQEND
  0
POLYLINE
  8
LAYER_1
 40
0.0847
 41
0.0847
 66
1
 10
0
 20
0
 30
0
  0
VERTEX
  8
LAYER_1
 10
462.7827
 20
212.1139
  0
VERTEX
  8
LAYER_1
 10
465.111
 20
209.8914
  0
SEQEND
  0
POLYLINE
  8
LAYER_1
 40
0.0847
 41
0.0847
 66
1
 10
0
 20
0
 30
0
  0
VERTEX
  8
LAYER_1
 10
465.9048
 20
209.1506
  0
VERTEX
  8
LAYER_1
 10
468.2596
 20
206.9281
  0
SEQEND
  0
POLYLINE
  8
LAYER_1
 40
0.0847
 41
0.0847
 66
1
 10
0
 20
0
 30
0
  0
VERTEX
  8
LAYER_1
 10
469.0533
 20
206.1873
  0
VERTEX
  8
LAYER_1
 10
471.3817
 20
203.9647
  0
SEQEND
  0
POLYLINE
  8
LAYER_1
 40
0.0847
 41
0.0847
 66
1
 10
0
 20
0
 30
0
  0
VERTEX
  8
LAYER_1
 10
472.1754
 20
203.2239
  0
VERTEX
  8
LAYER_1
 10
474.5302
 20
201.0014
  0
SEQEND
  0
POLYLINE
  8
LAYER_1
 40
0.0847
 41
0.0847
 66
1
 10
0
 20
0
 30
0
  0
VERTEX
  8
LAYER_1
 10
475.324
 20
200.2606
  0
VERTEX
  8
LAYER_1
 10
477.6523
 20
198.0381
  0
SEQEND
  0
POLYLINE
  8
LAYER_1
 40
0.0847
 41
0.0847
 66
1
 10
0
 20
0
 30
0
  0
VERTEX
  8
LAYER_1
 10
478.446
 20
197.2973
  0
VERTEX
  8
LAYER_1
 10
479.6367
 20
196.1596
  0
SEQEND
  0
POLYLINE
  8
LAYER_1
 40
0.0847
 41
0.0847
 66
1
 10
0
 20
0
 30
0
  0
VERTEX
  8
LAYER_1
 10
518.0012
 20
219.8927
  0
VERTEX
  8
LAYER_1
 10
516.8371
 20
218.7814
  0
SEQEND
  0
POLYLINE
  8
LAYER_1
 40
0.0847
 41
0.0847
 66
1
 10
0
 20
0
 30
0
  0
VERTEX
  8
LAYER_1
 10
516.0433
 20
218.0406
  0
VERTEX
  8
LAYER_1
 10
513.715
 20
215.8181
  0
SEQEND
  0
POLYLINE
  8
LAYER_1
 40
0.0847
 41
0.0847
 66
1
 10
0
 20
0
 30
0
  0
VERTEX
  8
LAYER_1
 10
512.9213
 20
215.0773
  0
VERTEX
  8
LAYER_1
 10
510.5664
 20
212.8548
  0
SEQEND
  0
POLYLINE
  8
LAYER_1
 40
0.0847
 41
0.0847
 66
1
 10
0
 20
0
 30
0
  0
VERTEX
  8
LAYER_1
 10
509.7727
 20
212.114
  0
VERTEX
  8
LAYER_1
 10
507.4444
 20
209.8915
  0
SEQEND
  0
POLYLINE
  8
LAYER_1
 40
0.0847
 41
0.0847
 66
1
 10
0
 20
0
 30
0
  0
VERTEX
  8
LAYER_1
 10
506.6506
 20
209.1507
  0
VERTEX
  8
LAYER_1
 10
504.2958
 20
206.9281
  0
SEQEND
  0
POLYLINE
  8
LAYER_1
 40
0.0847
 41
0.0847
 66
1
 10
0
 20
0
 30
0
  0
VERTEX
  8
LAYER_1
 10
503.5021
 20
206.1873
  0
VERTEX
  8
LAYER_1
 10
501.1737
 20
203.9648
  0
SEQEND
  0
POLYLINE
  8
LAYER_1
 40
0.0847
 41
0.0847
 66
1
 10
0
 20
0
 30
0
  0
VERTEX
  8
LAYER_1
 10
500.38
 20
203.224
  0
VERTEX
  8
LAYER_1
 10
498.0252
 20
201.0015
  0
SEQEND
  0
POLYLINE
  8
LAYER_1
 40
0.0847
 41
0.0847
 66
1
 10
0
 20
0
 30
0
  0
VERTEX
  8
LAYER_1
 10
497.2315
 20
200.2607
  0
VERTEX
  8
LAYER_1
 10
494.9031
 20
198.0382
  0
SEQEND
  0
POLYLINE
  8
LAYER_1
 40
0.0847
 41
0.0847
 66
1
 10
0
 20
0
 30
0
  0
VERTEX
  8
LAYER_1
 10
494.1094
 20
197.2974
  0
VERTEX
  8
LAYER_1
 10
492.9187
 20
196.1597
  0
SEQEND
  0
POLYLINE
  8
LAYER_1
 40
0.0847
 41
0.0847
 66
1
 10
0
 20
0
 30
0
  0
VERTEX
  8
LAYER_1
 10
492.9187
 20
194.8897
  0
VERTEX
  8
LAYER_1
 10
492.9187
 20
195.3659
  0
SEQEND
  0
POLYLINE
  8
LAYER_1
 40
0.0847
 41
0.0847
 66
1
 10
0
 20
0
 30
0
  0
VERTEX
  8
LAYER_1
 10
492.9187
 20
195.6834
  0
VERTEX
  8
LAYER_1
 10
492.9187
 20
196.1596
  0
SEQEND
  0
POLYLINE
  8
LAYER_1
 40
0.0847
 41
0.0847
 66
1
 10
0
 20
0
 30
0
  0
VERTEX
  8
LAYER_1
 10
479.6367
 20
194.8897
  0
VERTEX
  8
LAYER_1
 10
479.6367
 20
195.3659
  0
SEQEND
  0
POLYLINE
  8
LAYER_1
 40
0.0847
 41
0.0847
 66
1
 10
0
 20
0
 30
0
  0
VERTEX
  8
LAYER_1
 10
479.6367
 20
195.6834
  0
VERTEX
  8
LAYER_1
 10
479.6367
 20
196.1596
  0
SEQEND
  0
POLYLINE
  8
LAYER_1
 40
0.1693
 41
0.1693
 66
1
 10
0
 20
0
 30
0
  0
VERTEX
  8
LAYER_1
 10
495.8027
 20
195.7891
  0
VERTEX
  8
LAYER_1
 10
521.2556
 20
219.8926
  0
SEQEND
  0
POLYLINE
  8
LAYER_1
 40
0.1693
 41
0.1693
 66
1
 10
0
 20
0
 30
0
  0
VERTEX
  8
LAYER_1
 10
495.644
 20
194.8895
  0
VERTEX
  8
LAYER_1
 10
495.644
 20
195.4451
  0
SEQEND
  0
POLYLINE
  8
LAYER_1
 40
0.1693
 41
0.1693
 66
1
 10
0
 20
0
 30
0
  0
VERTEX
  8
LAYER_1
 10
495.7762
 20
195.8156
 42
0.1700993448
  0
VERTEX
  8
LAYER_1
 10
495.6439
 20
195.4716
  0
SEQEND
  0
POLYLINE
  8
LAYER_1
 40
0.1693
 41
0.1693
 66
1
 10
0
 20
0
 30
0
  0
VERTEX
  8
LAYER_1
 10
476.7527
 20
195.7891
  0
VERTEX
  8
LAYER_1
 10
451.2998
 20
219.8926
  0
SEQEND
  0
POLYLINE
  8
LAYER_1
 40
0.1693
 41
0.1693
 66
1
 10
0
 20
0
 30
0
  0
VERTEX
  8
LAYER_1
 10
476.9115
 20
194.8895
  0
VERTEX
  8
LAYER_1
 10
476.9115
 20
195.4451
  0
SEQEND
  0
POLYLINE
  8
LAYER_1
 40
0.1693
 41
0.1693
 66
1
 10
0
 20
0
 30
0
  0
VERTEX
  8
LAYER_1
 10
476.9115
 20
195.4716
 42
0.1824032714
  0
VERTEX
  8
LAYER_1
 10
476.7262
 20
195.8156
  0
SEQEND
  0
POLYLINE
  8
LAYER_1
 40
0.1693
 41
0.1693
 66
1
 10
0
 20
0
 30
0
  0
VERTEX
  8
LAYER_1
 10
486.2777
 20
192.4024
  0
VERTEX
  8
LAYER_1
 10
495.591
 20
192.4024
  0
SEQEND
  0
POLYLINE
  8
LAYER_1
 40
0.1693
 41
0.1693
 66
1
 10
0
 20
0
 30
0
  0
VERTEX
  8
LAYER_1
 10
474.054
 20
192.4024
  0
VERTEX
  8
LAYER_1
 10
474.054
 20
192.6405
  0
SEQEND
  0
POLYLINE
  8
LAYER_1
 40
0.1693
 41
0.1693
 66
1
 10
0
 20
0
 30
0
  0
VERTEX
  8
LAYER_1
 10
474.7948
 20
193.4079
  0
VERTEX
  8
LAYER_1
 10
475.4298
 20
193.4079
  0
SEQEND
  0
POLYLINE
  8
LAYER_1
 40
0.1693
 41
0.1693
 66
1
 10
0
 20
0
 30
0
  0
VERTEX
  8
LAYER_1
 10
475.4033
 20
193.3814
  0
VERTEX
  8
LAYER_1
 10
475.4298
 20
193.3814
 42
0.4078861144
  0
VERTEX
  8
LAYER_1
 10
476.9379
 20
194.8895
  0
VERTEX
  8
LAYER_1
 10
476.9379
 20
194.916
  0
SEQEND
  0
POLYLINE
  8
LAYER_1
 40
0.1693
 41
0.1693
 66
1
 10
0
 20
0
 30
0
  0
VERTEX
  8
LAYER_1
 10
474.7683
 20
193.3814
 42
0.4166591859
  0
VERTEX
  8
LAYER_1
 10
474.0539
 20
192.667
  0
SEQEND
  0
POLYLINE
  8
LAYER_1
 40
0.1693
 41
0.1693
 66
1
 10
0
 20
0
 30
0
  0
VERTEX
  8
LAYER_1
 10
474.054
 20
192.4025
  0
VERTEX
  8
LAYER_1
 10
474.054
 20
192.6406
  0
SEQEND
  0
POLYLINE
  8
LAYER_1
 40
0.1693
 41
0.1693
 66
1
 10
0
 20
0
 30
0
  0
VERTEX
  8
LAYER_1
 10
498.5015
 20
192.4025
  0
VERTEX
  8
LAYER_1
 10
498.5015
 20
192.6406
  0
SEQEND
  0
POLYLINE
  8
LAYER_1
 40
0.1693
 41
0.1693
 66
1
 10
0
 20
0
 30
0
  0
VERTEX
  8
LAYER_1
 10
497.1256
 20
193.4079
  0
VERTEX
  8
LAYER_1
 10
497.7606
 20
193.4079
  0
SEQEND
  0
POLYLINE
  8
LAYER_1
 40
0.1693
 41
0.1693
 66
1
 10
0
 20
0
 30
0
  0
VERTEX
  8
LAYER_1
 10
495.6175
 20
194.916
  0
VERTEX
  8
LAYER_1
 10
495.6175
 20
194.8895
 42
0.4049009998
  0
VERTEX
  8
LAYER_1
 10
497.0992
 20
193.3814
  0
SEQEND
  0
POLYLINE
  8
LAYER_1
 40
0.1693
 41
0.1693
 66
1
 10
0
 20
0
 30
0
  0
VERTEX
  8
LAYER_1
 10
498.5015
 20
192.6671
 42
0.3955572807
  0
VERTEX
  8
LAYER_1
 10
497.7606
 20
193.3814
  0
VERTEX
  8
LAYER_1
 10
497.7342
 20
193.3814
  0
SEQEND
  0
POLYLINE
  8
LAYER_1
 40
0.1693
 41
0.1693
 66
1
 10
0
 20
0
 30
0
  0
VERTEX
  8
LAYER_1
 10
474.054
 20
192.7729
  0
SEQEND
  0
POLYLINE
  8
LAYER_1
 40
0.1693
 41
0.1693
 66
1
 10
0
 20
0
 30
0
  0
VERTEX
  8
LAYER_1
 10
496.3583
 20
192.4025
  0
VERTEX
  8
LAYER_1
 10
498.2633
 20
192.4025
  0
SEQEND
  0
POLYLINE
  8
LAYER_1
 40
0.0847
 41
0.0847
 66
1
 10
0
 20
0
 30
0
  0
VERTEX
  8
LAYER_1
 10
481.7798
 20
194.4133
  0
VERTEX
  8
LAYER_1
 10
480.9331
 20
193.9106
  0
SEQEND
  0
POLYLINE
  8
LAYER_1
 40
0.0847
 41
0.0847
 66
1
 10
0
 20
0
 30
0
  0
VERTEX
  8
LAYER_1
 10
479.2133
 20
192.9051
  0
VERTEX
  8
LAYER_1
 10
478.3402
 20
192.4024
  0
SEQEND
  0
POLYLINE
  8
LAYER_1
 40
0.0847
 41
0.0847
 66
1
 10
0
 20
0
 30
0
  0
VERTEX
  8
LAYER_1
 10
481.7798
 20
194.4133
  0
VERTEX
  8
LAYER_1
 10
481.7798
 20
194.5191
  0
SEQEND
  0
POLYLINE
  8
LAYER_1
 40
0.0847
 41
0.0847
 66
1
 10
0
 20
0
 30
0
  0
VERTEX
  8
LAYER_1
 10
481.7798
 20
194.7572
  0
VERTEX
  8
LAYER_1
 10
481.7798
 20
194.8895
  0
SEQEND
  0
POLYLINE
  8
LAYER_1
 40
0.0847
 41
0.0847
 66
1
 10
0
 20
0
 30
0
  0
VERTEX
  8
LAYER_1
 10
490.7756
 20
194.4133
  0
VERTEX
  8
LAYER_1
 10
490.7756
 20
194.5191
  0
SEQEND
  0
POLYLINE
  8
LAYER_1
 40
0.0847
 41
0.0847
 66
1
 10
0
 20
0
 30
0
  0
VERTEX
  8
LAYER_1
 10
490.7756
 20
194.7572
  0
VERTEX
  8
LAYER_1
 10
490.7756
 20
194.8895
  0
SEQEND
  0
POLYLINE
  8
LAYER_1
 40
0.0847
 41
0.0847
 66
1
 10
0
 20
0
 30
0
  0
VERTEX
  8
LAYER_1
 10
490.7756
 20
194.4133
  0
VERTEX
  8
LAYER_1
 10
491.6223
 20
193.9106
  0
SEQEND
  0
POLYLINE
  8
LAYER_1
 40
0.0847
 41
0.0847
 66
1
 10
0
 20
0
 30
0
  0
VERTEX
  8
LAYER_1
 10
493.3421
 20
192.9051
  0
VERTEX
  8
LAYER_1
 10
494.2152
 20
192.4024
  0
SEQEND
  0
POLYLINE
  8
LAYER_1
 40
0.1693
 41
0.1693
 66
1
 10
0
 20
0
 30
0
  0
VERTEX
  8
LAYER_1
 10
476.9115
 20
194.8895
  0
VERTEX
  8
LAYER_1
 10
495.6439
 20
194.8895
  0
SEQEND
  0
POLYLINE
  8
LAYER_1
 40
0.1693
 41
0.1693
 66
1
 10
0
 20
0
 30
0
  0
VERTEX
  8
LAYER_1
 10
474.054
 20
192.4024
  0
VERTEX
  8
LAYER_1
 10
498.5014
 20
192.4024
  0
SEQEND
  0
POLYLINE
  8
LAYER_1
 40
0.0847
 41
0.0847
 66
1
 10
0
 20
0
 30
0
  0
VERTEX
  8
LAYER_1
 10
479.3721
 20
194.5191
  0
VERTEX
  8
LAYER_1
 10
479.5308
 20
194.5191
  0
SEQEND
  0
POLYLINE
  8
LAYER_1
 40
0.0847
 41
0.0847
 66
1
 10
0
 20
0
 30
0
  0
VERTEX
  8
LAYER_1
 10
479.8483
 20
194.5191
  0
VERTEX
  8
LAYER_1
 10
480.0335
 20
194.5191
  0
SEQEND
  0
POLYLINE
  8
LAYER_1
 40
0.0847
 41
0.0847
 66
1
 10
0
 20
0
 30
0
  0
VERTEX
  8
LAYER_1
 10
492.5219
 20
194.5191
  0
VERTEX
  8
LAYER_1
 10
492.6806
 20
194.5191
  0
SEQEND
  0
POLYLINE
  8
LAYER_1
 40
0.0847
 41
0.0847
 66
1
 10
0
 20
0
 30
0
  0
VERTEX
  8
LAYER_1
 10
492.9981
 20
194.5191
  0
VERTEX
  8
LAYER_1
 10
493.1833
 20
194.5191
  0
SEQEND
  0
POLYLINE
  8
LAYER_1
 40
0.0847
 41
0.0847
 66
1
 10
0
 20
0
 30
0
  0
VERTEX
  8
LAYER_1
 10
476.25
 20
192.7728
  0
VERTEX
  8
LAYER_1
 10
476.4087
 20
192.7728
  0
SEQEND
  0
POLYLINE
  8
LAYER_1
 40
0.0847
 41
0.0847
 66
1
 10
0
 20
0
 30
0
  0
VERTEX
  8
LAYER_1
 10
476.7262
 20
192.7728
  0
VERTEX
  8
LAYER_1
 10
476.9114
 20
192.7728
  0
SEQEND
  0
POLYLINE
  8
LAYER_1
 40
0.0847
 41
0.0847
 66
1
 10
0
 20
0
 30
0
  0
VERTEX
  8
LAYER_1
 10
495.6439
 20
192.7728
  0
VERTEX
  8
LAYER_1
 10
495.8027
 20
192.7728
  0
SEQEND
  0
POLYLINE
  8
LAYER_1
 40
0.0847
 41
0.0847
 66
1
 10
0
 20
0
 30
0
  0
VERTEX
  8
LAYER_1
 10
496.1202
 20
192.7728
  0
VERTEX
  8
LAYER_1
 10
496.3054
 20
192.7728
  0
SEQEND
  0
POLYLINE
  8
LAYER_1
 40
0.0847
 41
0.0847
 66
1
 10
0
 20
0
 30
0
  0
VERTEX
  8
LAYER_1
 10
479.3721
 20
194.5191
  0
VERTEX
  8
LAYER_1
 10
479.3721
 20
194.5985
  0
SEQEND
  0
POLYLINE
  8
LAYER_1
 40
0.0847
 41
0.0847
 66
1
 10
0
 20
0
 30
0
  0
VERTEX
  8
LAYER_1
 10
479.3721
 20
194.7837
  0
VERTEX
  8
LAYER_1
 10
479.3721
 20
194.8895
  0
SEQEND
  0
POLYLINE
  8
LAYER_1
 40
0.0847
 41
0.0847
 66
1
 10
0
 20
0
 30
0
  0
VERTEX
  8
LAYER_1
 10
480.0335
 20
194.5191
  0
VERTEX
  8
LAYER_1
 10
480.0335
 20
194.5985
  0
SEQEND
  0
POLYLINE
  8
LAYER_1
 40
0.0847
 41
0.0847
 66
1
 10
0
 20
0
 30
0
  0
VERTEX
  8
LAYER_1
 10
480.0335
 20
194.7837
  0
VERTEX
  8
LAYER_1
 10
480.0335
 20
194.8895
  0
SEQEND
  0
POLYLINE
  8
LAYER_1
 40
0.0847
 41
0.0847
 66
1
 10
0
 20
0
 30
0
  0
VERTEX
  8
LAYER_1
 10
492.5218
 20
194.5191
  0
VERTEX
  8
LAYER_1
 10
492.5218
 20
194.5985
  0
SEQEND
  0
POLYLINE
  8
LAYER_1
 40
0.0847
 41
0.0847
 66
1
 10
0
 20
0
 30
0
  0
VERTEX
  8
LAYER_1
 10
492.5218
 20
194.7837
  0
VERTEX
  8
LAYER_1
 10
492.5218
 20
194.8895
  0
SEQEND
  0
POLYLINE
  8
LAYER_1
 40
0.0847
 41
0.0847
 66
1
 10
0
 20
0
 30
0
  0
VERTEX
  8
LAYER_1
 10
493.1833
 20
194.5191
  0
VERTEX
  8
LAYER_1
 10
493.1833
 20
194.5985
  0
SEQEND
  0
POLYLINE
  8
LAYER_1
 40
0.0847
 41
0.0847
 66
1
 10
0
 20
0
 30
0
  0
VERTEX
  8
LAYER_1
 10
493.1833
 20
194.7837
  0
VERTEX
  8
LAYER_1
 10
493.1833
 20
194.8895
  0
SEQEND
  0
POLYLINE
  8
LAYER_1
 40
0.0847
 41
0.0847
 66
1
 10
0
 20
0
 30
0
  0
VERTEX
  8
LAYER_1
 10
476.25
 20
192.4024
  0
VERTEX
  8
LAYER_1
 10
476.25
 20
192.4818
  0
SEQEND
  0
POLYLINE
  8
LAYER_1
 40
0.0847
 41
0.0847
 66
1
 10
0
 20
0
 30
0
  0
VERTEX
  8
LAYER_1
 10
476.25
 20
192.667
  0
VERTEX
  8
LAYER_1
 10
476.25
 20
192.7728
  0
SEQEND
  0
POLYLINE
  8
LAYER_1
 40
0.0847
 41
0.0847
 66
1
 10
0
 20
0
 30
0
  0
VERTEX
  8
LAYER_1
 10
476.9114
 20
192.4024
  0
VERTEX
  8
LAYER_1
 10
476.9114
 20
192.4818
  0
SEQEND
  0
POLYLINE
  8
LAYER_1
 40
0.0847
 41
0.0847
 66
1
 10
0
 20
0
 30
0
  0
VERTEX
  8
LAYER_1
 10
476.9114
 20
192.667
  0
VERTEX
  8
LAYER_1
 10
476.9114
 20
192.7728
  0
SEQEND
  0
POLYLINE
  8
LAYER_1
 40
0.0847
 41
0.0847
 66
1
 10
0
 20
0
 30
0
  0
VERTEX
  8
LAYER_1
 10
495.6439
 20
192.4024
  0
VERTEX
  8
LAYER_1
 10
495.6439
 20
192.4818
  0
SEQEND
  0
POLYLINE
  8
LAYER_1
 40
0.0847
 41
0.0847
 66
1
 10
0
 20
0
 30
0
  0
VERTEX
  8
LAYER_1
 10
495.6439
 20
192.667
  0
VERTEX
  8
LAYER_1
 10
495.6439
 20
192.7728
  0
SEQEND
  0
POLYLINE
  8
LAYER_1
 40
0.0847
 41
0.0847
 66
1
 10
0
 20
0
 30
0
  0
VERTEX
  8
LAYER_1
 10
496.3054
 20
192.4024
  0
VERTEX
  8
LAYER_1
 10
496.3054
 20
192.4818
  0
SEQEND
  0
POLYLINE
  8
LAYER_1
 40
0.0847
 41
0.0847
 66
1
 10
0
 20
0
 30
0
  0
VERTEX
  8
LAYER_1
 10
496.3054
 20
192.667
  0
VERTEX
  8
LAYER_1
 10
496.3054
 20
192.7728
  0
SEQEND
  0
POLYLINE
  8
LAYER_1
 40
0.0847
 41
0.0847
 66
1
 10
0
 20
0
 30
0
  0
VERTEX
  8
LAYER_1
 10
481.4887
 20
194.228
  0
VERTEX
  8
LAYER_1
 10
481.7798
 20
194.5455
  0
SEQEND
  0
POLYLINE
  8
LAYER_1
 40
0.0847
 41
0.0847
 66
1
 10
0
 20
0
 30
0
  0
VERTEX
  8
LAYER_1
 10
481.0654
 20
193.9899
  0
VERTEX
  8
LAYER_1
 10
481.7798
 20
194.7043
  0
SEQEND
  0
POLYLINE
  8
LAYER_1
 40
0.0847
 41
0.0847
 66
1
 10
0
 20
0
 30
0
  0
VERTEX
  8
LAYER_1
 10
480.6421
 20
193.7518
  0
VERTEX
  8
LAYER_1
 10
481.7798
 20
194.8895
  0
SEQEND
  0
POLYLINE
  8
LAYER_1
 40
0.0847
 41
0.0847
 66
1
 10
0
 20
0
 30
0
  0
VERTEX
  8
LAYER_1
 10
480.2187
 20
193.4872
  0
VERTEX
  8
LAYER_1
 10
481.621
 20
194.8895
  0
SEQEND
  0
POLYLINE
  8
LAYER_1
 40
0.0847
 41
0.0847
 66
1
 10
0
 20
0
 30
0
  0
VERTEX
  8
LAYER_1
 10
479.8219
 20
193.2491
  0
VERTEX
  8
LAYER_1
 10
481.4623
 20
194.8895
  0
SEQEND
  0
POLYLINE
  8
LAYER_1
 40
0.0847
 41
0.0847
 66
1
 10
0
 20
0
 30
0
  0
VERTEX
  8
LAYER_1
 10
479.3985
 20
193.011
  0
VERTEX
  8
LAYER_1
 10
481.2771
 20
194.8895
  0
SEQEND
  0
POLYLINE
  8
LAYER_1
 40
0.0847
 41
0.0847
 66
1
 10
0
 20
0
 30
0
  0
VERTEX
  8
LAYER_1
 10
478.9752
 20
192.7729
  0
VERTEX
  8
LAYER_1
 10
481.0919
 20
194.8895
  0
SEQEND
  0
POLYLINE
  8
LAYER_1
 40
0.0847
 41
0.0847
 66
1
 10
0
 20
0
 30
0
  0
VERTEX
  8
LAYER_1
 10
478.5519
 20
192.5347
  0
VERTEX
  8
LAYER_1
 10
480.9331
 20
194.8895
  0
SEQEND
  0
POLYLINE
  8
LAYER_1
 40
0.0847
 41
0.0847
 66
1
 10
0
 20
0
 30
0
  0
VERTEX
  8
LAYER_1
 10
478.2608
 20
192.4025
  0
VERTEX
  8
LAYER_1
 10
480.7479
 20
194.8895
  0
SEQEND
  0
POLYLINE
  8
LAYER_1
 40
0.0847
 41
0.0847
 66
1
 10
0
 20
0
 30
0
  0
VERTEX
  8
LAYER_1
 10
478.0756
 20
192.4025
  0
VERTEX
  8
LAYER_1
 10
480.5627
 20
194.8895
  0
SEQEND
  0
POLYLINE
  8
LAYER_1
 40
0.0847
 41
0.0847
 66
1
 10
0
 20
0
 30
0
  0
VERTEX
  8
LAYER_1
 10
477.8904
 20
192.4025
  0
VERTEX
  8
LAYER_1
 10
480.0071
 20
194.5191
  0
SEQEND
  0
POLYLINE
  8
LAYER_1
 40
0.0847
 41
0.0847
 66
1
 10
0
 20
0
 30
0
  0
VERTEX
  8
LAYER_1
 10
480.0335
 20
194.5456
  0
VERTEX
  8
LAYER_1
 10
480.4039
 20
194.8895
  0
SEQEND
  0
POLYLINE
  8
LAYER_1
 40
0.0847
 41
0.0847
 66
1
 10
0
 20
0
 30
0
  0
VERTEX
  8
LAYER_1
 10
477.7316
 20
192.4025
  0
VERTEX
  8
LAYER_1
 10
479.8483
 20
194.5191
  0
SEQEND
  0
POLYLINE
  8
LAYER_1
 40
0.0847
 41
0.0847
 66
1
 10
0
 20
0
 30
0
  0
VERTEX
  8
LAYER_1
 10
480.0335
 20
194.7308
  0
VERTEX
  8
LAYER_1
 10
480.2187
 20
194.8896
  0
SEQEND
  0
POLYLINE
  8
LAYER_1
 40
0.0847
 41
0.0847
 66
1
 10
0
 20
0
 30
0
  0
VERTEX
  8
LAYER_1
 10
477.5464
 20
192.4025
  0
VERTEX
  8
LAYER_1
 10
479.6631
 20
194.5191
  0
SEQEND
  0
POLYLINE
  8
LAYER_1
 40
0.0847
 41
0.0847
 66
1
 10
0
 20
0
 30
0
  0
VERTEX
  8
LAYER_1
 10
477.3612
 20
192.4025
  0
VERTEX
  8
LAYER_1
 10
479.4779
 20
194.5191
  0
SEQEND
  0
POLYLINE
  8
LAYER_1
 40
0.0847
 41
0.0847
 66
1
 10
0
 20
0
 30
0
  0
VERTEX
  8
LAYER_1
 10
477.176
 20
192.4025
  0
VERTEX
  8
LAYER_1
 10
479.372
 20
194.572
  0
SEQEND
  0
POLYLINE
  8
LAYER_1
 40
0.0847
 41
0.0847
 66
1
 10
0
 20
0
 30
0
  0
VERTEX
  8
LAYER_1
 10
477.0173
 20
192.4025
  0
VERTEX
  8
LAYER_1
 10
479.3721
 20
194.7572
  0
SEQEND
  0
POLYLINE
  8
LAYER_1
 40
0.0847
 41
0.0847
 66
1
 10
0
 20
0
 30
0
  0
VERTEX
  8
LAYER_1
 10
476.832
 20
192.4025
  0
VERTEX
  8
LAYER_1
 10
479.3456
 20
194.8895
  0
SEQEND
  0
POLYLINE
  8
LAYER_1
 40
0.0847
 41
0.0847
 66
1
 10
0
 20
0
 30
0
  0
VERTEX
  8
LAYER_1
 10
476.6468
 20
192.4025
  0
VERTEX
  8
LAYER_1
 10
479.1604
 20
194.8895
  0
SEQEND
  0
POLYLINE
  8
LAYER_1
 40
0.0847
 41
0.0847
 66
1
 10
0
 20
0
 30
0
  0
VERTEX
  8
LAYER_1
 10
476.4881
 20
192.4025
  0
VERTEX
  8
LAYER_1
 10
478.9752
 20
194.8895
  0
SEQEND
  0
POLYLINE
  8
LAYER_1
 40
0.0847
 41
0.0847
 66
1
 10
0
 20
0
 30
0
  0
VERTEX
  8
LAYER_1
 10
476.3029
 20
192.4025
  0
VERTEX
  8
LAYER_1
 10
478.8164
 20
194.8895
  0
SEQEND
  0
POLYLINE
  8
LAYER_1
 40
0.0847
 41
0.0847
 66
1
 10
0
 20
0
 30
0
  0
VERTEX
  8
LAYER_1
 10
476.1177
 20
192.4025
  0
VERTEX
  8
LAYER_1
 10
478.6312
 20
194.8895
  0
SEQEND
  0
POLYLINE
  8
LAYER_1
 40
0.0847
 41
0.0847
 66
1
 10
0
 20
0
 30
0
  0
VERTEX
  8
LAYER_1
 10
475.9589
 20
192.4025
  0
VERTEX
  8
LAYER_1
 10
478.446
 20
194.8895
  0
SEQEND
  0
POLYLINE
  8
LAYER_1
 40
0.0847
 41
0.0847
 66
1
 10
0
 20
0
 30
0
  0
VERTEX
  8
LAYER_1
 10
475.7737
 20
192.4025
  0
VERTEX
  8
LAYER_1
 10
478.2608
 20
194.8895
  0
SEQEND
  0
POLYLINE
  8
LAYER_1
 40
0.0847
 41
0.0847
 66
1
 10
0
 20
0
 30
0
  0
VERTEX
  8
LAYER_1
 10
475.5885
 20
192.4025
  0
VERTEX
  8
LAYER_1
 10
478.102
 20
194.8895
  0
SEQEND
  0
POLYLINE
  8
LAYER_1
 40
0.0847
 41
0.0847
 66
1
 10
0
 20
0
 30
0
  0
VERTEX
  8
LAYER_1
 10
475.4297
 20
192.4025
  0
VERTEX
  8
LAYER_1
 10
477.9168
 20
194.8895
  0
SEQEND
  0
POLYLINE
  8
LAYER_1
 40
0.0847
 41
0.0847
 66
1
 10
0
 20
0
 30
0
  0
VERTEX
  8
LAYER_1
 10
475.2445
 20
192.4025
  0
VERTEX
  8
LAYER_1
 10
477.7316
 20
194.8895
  0
SEQEND
  0
POLYLINE
  8
LAYER_1
 40
0.0847
 41
0.0847
 66
1
 10
0
 20
0
 30
0
  0
VERTEX
  8
LAYER_1
 10
475.0593
 20
192.4025
  0
VERTEX
  8
LAYER_1
 10
477.5728
 20
194.8895
  0
SEQEND
  0
POLYLINE
  8
LAYER_1
 40
0.0847
 41
0.0847
 66
1
 10
0
 20
0
 30
0
  0
VERTEX
  8
LAYER_1
 10
474.9006
 20
192.4025
  0
VERTEX
  8
LAYER_1
 10
476.0118
 20
193.5137
  0
SEQEND
  0
POLYLINE
  8
LAYER_1
 40
0.0847
 41
0.0847
 66
1
 10
0
 20
0
 30
0
  0
VERTEX
  8
LAYER_1
 10
476.8056
 20
194.3075
  0
VERTEX
  8
LAYER_1
 10
477.3876
 20
194.8895
  0
SEQEND
  0
POLYLINE
  8
LAYER_1
 40
0.0847
 41
0.0847
 66
1
 10
0
 20
0
 30
0
  0
VERTEX
  8
LAYER_1
 10
474.7154
 20
192.4025
  0
VERTEX
  8
LAYER_1
 10
475.7472
 20
193.4343
  0
SEQEND
  0
POLYLINE
  8
LAYER_1
 40
0.0847
 41
0.0847
 66
1
 10
0
 20
0
 30
0
  0
VERTEX
  8
LAYER_1
 10
476.885
 20
194.572
  0
VERTEX
  8
LAYER_1
 10
477.2024
 20
194.8895
  0
SEQEND
  0
POLYLINE
  8
LAYER_1
 40
0.0847
 41
0.0847
 66
1
 10
0
 20
0
 30
0
  0
VERTEX
  8
LAYER_1
 10
474.5302
 20
192.4025
  0
VERTEX
  8
LAYER_1
 10
475.5356
 20
193.4079
  0
SEQEND
  0
POLYLINE
  8
LAYER_1
 40
0.0847
 41
0.0847
 66
1
 10
0
 20
0
 30
0
  0
VERTEX
  8
LAYER_1
 10
476.9114
 20
194.7837
  0
VERTEX
  8
LAYER_1
 10
477.0437
 20
194.8896
  0
SEQEND
  0
POLYLINE
  8
LAYER_1
 40
0.0847
 41
0.0847
 66
1
 10
0
 20
0
 30
0
  0
VERTEX
  8
LAYER_1
 10
474.3714
 20
192.4025
  0
VERTEX
  8
LAYER_1
 10
475.3504
 20
193.4079
  0
SEQEND
  0
POLYLINE
  8
LAYER_1
 40
0.0847
 41
0.0847
 66
1
 10
0
 20
0
 30
0
  0
VERTEX
  8
LAYER_1
 10
474.1862
 20
192.4025
  0
VERTEX
  8
LAYER_1
 10
475.1916
 20
193.4079
  0
SEQEND
  0
POLYLINE
  8
LAYER_1
 40
0.0847
 41
0.0847
 66
1
 10
0
 20
0
 30
0
  0
VERTEX
  8
LAYER_1
 10
474.0539
 20
192.4289
  0
VERTEX
  8
LAYER_1
 10
475.0064
 20
193.4079
  0
SEQEND
  0
POLYLINE
  8
LAYER_1
 40
0.0847
 41
0.0847
 66
1
 10
0
 20
0
 30
0
  0
VERTEX
  8
LAYER_1
 10
474.0539
 20
192.6141
  0
VERTEX
  8
LAYER_1
 10
474.8212
 20
193.4079
  0
SEQEND
  0
POLYLINE
  8
LAYER_1
 40
0.0847
 41
0.0847
 66
1
 10
0
 20
0
 30
0
  0
VERTEX
  8
LAYER_1
 10
474.0539
 20
192.7993
  0
VERTEX
  8
LAYER_1
 10
474.636
 20
193.3814
  0
SEQEND
  0
POLYLINE
  8
LAYER_1
 40
0.0847
 41
0.0847
 66
1
 10
0
 20
0
 30
0
  0
VERTEX
  8
LAYER_1
 10
498.3691
 20
192.4024
  0
VERTEX
  8
LAYER_1
 10
498.5014
 20
192.5347
  0
SEQEND
  0
POLYLINE
  8
LAYER_1
 40
0.0847
 41
0.0847
 66
1
 10
0
 20
0
 30
0
  0
VERTEX
  8
LAYER_1
 10
498.1839
 20
192.4024
  0
VERTEX
  8
LAYER_1
 10
498.5014
 20
192.7199
  0
SEQEND
  0
POLYLINE
  8
LAYER_1
 40
0.0847
 41
0.0847
 66
1
 10
0
 20
0
 30
0
  0
VERTEX
  8
LAYER_1
 10
498.0252
 20
192.4024
  0
VERTEX
  8
LAYER_1
 10
498.475
 20
192.8787
  0
SEQEND
  0
POLYLINE
  8
LAYER_1
 40
0.0847
 41
0.0847
 66
1
 10
0
 20
0
 30
0
  0
VERTEX
  8
LAYER_1
 10
497.84
 20
192.4024
  0
VERTEX
  8
LAYER_1
 10
498.422
 20
192.9845
  0
SEQEND
  0
POLYLINE
  8
LAYER_1
 40
0.0847
 41
0.0847
 66
1
 10
0
 20
0
 30
0
  0
VERTEX
  8
LAYER_1
 10
497.6547
 20
192.4024
  0
VERTEX
  8
LAYER_1
 10
498.3691
 20
193.0903
  0
SEQEND
  0
POLYLINE
  8
LAYER_1
 40
0.0847
 41
0.0847
 66
1
 10
0
 20
0
 30
0
  0
VERTEX
  8
LAYER_1
 10
497.4695
 20
192.4024
  0
VERTEX
  8
LAYER_1
 10
498.2633
 20
193.1962
  0
SEQEND
  0
POLYLINE
  8
LAYER_1
 40
0.0847
 41
0.0847
 66
1
 10
0
 20
0
 30
0
  0
VERTEX
  8
LAYER_1
 10
497.3108
 20
192.4024
  0
VERTEX
  8
LAYER_1
 10
498.1839
 20
193.2756
  0
SEQEND
  0
POLYLINE
  8
LAYER_1
 40
0.0847
 41
0.0847
 66
1
 10
0
 20
0
 30
0
  0
VERTEX
  8
LAYER_1
 10
497.1256
 20
192.4024
  0
VERTEX
  8
LAYER_1
 10
498.0516
 20
193.3285
  0
SEQEND
  0
POLYLINE
  8
LAYER_1
 40
0.0847
 41
0.0847
 66
1
 10
0
 20
0
 30
0
  0
VERTEX
  8
LAYER_1
 10
496.9404
 20
192.4024
  0
VERTEX
  8
LAYER_1
 10
497.9193
 20
193.3814
  0
SEQEND
  0
POLYLINE
  8
LAYER_1
 40
0.0847
 41
0.0847
 66
1
 10
0
 20
0
 30
0
  0
VERTEX
  8
LAYER_1
 10
496.7816
 20
192.4024
  0
VERTEX
  8
LAYER_1
 10
497.787
 20
193.4078
  0
SEQEND
  0
POLYLINE
  8
LAYER_1
 40
0.0847
 41
0.0847
 66
1
 10
0
 20
0
 30
0
  0
VERTEX
  8
LAYER_1
 10
496.5964
 20
192.4024
  0
VERTEX
  8
LAYER_1
 10
497.6018
 20
193.4078
  0
SEQEND
  0
POLYLINE
  8
LAYER_1
 40
0.0847
 41
0.0847
 66
1
 10
0
 20
0
 30
0
  0
VERTEX
  8
LAYER_1
 10
496.4112
 20
192.4024
  0
VERTEX
  8
LAYER_1
 10
497.4166
 20
193.4078
  0
SEQEND
  0
POLYLINE
  8
LAYER_1
 40
0.0847
 41
0.0847
 66
1
 10
0
 20
0
 30
0
  0
VERTEX
  8
LAYER_1
 10
496.2524
 20
192.4024
  0
VERTEX
  8
LAYER_1
 10
497.2579
 20
193.4078
  0
SEQEND
  0
POLYLINE
  8
LAYER_1
 40
0.0847
 41
0.0847
 66
1
 10
0
 20
0
 30
0
  0
VERTEX
  8
LAYER_1
 10
496.0672
 20
192.4024
  0
VERTEX
  8
LAYER_1
 10
497.0726
 20
193.4078
  0
SEQEND
  0
POLYLINE
  8
LAYER_1
 40
0.0847
 41
0.0847
 66
1
 10
0
 20
0
 30
0
  0
VERTEX
  8
LAYER_1
 10
495.882
 20
192.4024
  0
VERTEX
  8
LAYER_1
 10
496.9139
 20
193.4078
  0
SEQEND
  0
POLYLINE
  8
LAYER_1
 40
0.0847
 41
0.0847
 66
1
 10
0
 20
0
 30
0
  0
VERTEX
  8
LAYER_1
 10
495.7233
 20
192.4024
  0
VERTEX
  8
LAYER_1
 10
496.7551
 20
193.4608
  0
SEQEND
  0
POLYLINE
  8
LAYER_1
 40
0.0847
 41
0.0847
 66
1
 10
0
 20
0
 30
0
  0
VERTEX
  8
LAYER_1
 10
495.5381
 20
192.4024
  0
VERTEX
  8
LAYER_1
 10
496.6228
 20
193.4872
  0
SEQEND
  0
POLYLINE
  8
LAYER_1
 40
0.0847
 41
0.0847
 66
1
 10
0
 20
0
 30
0
  0
VERTEX
  8
LAYER_1
 10
495.3528
 20
192.4024
  0
VERTEX
  8
LAYER_1
 10
496.4905
 20
193.5401
  0
SEQEND
  0
POLYLINE
  8
LAYER_1
 40
0.0847
 41
0.0847
 66
1
 10
0
 20
0
 30
0
  0
VERTEX
  8
LAYER_1
 10
495.1941
 20
192.4024
  0
VERTEX
  8
LAYER_1
 10
496.3847
 20
193.593
  0
SEQEND
  0
POLYLINE
  8
LAYER_1
 40
0.0847
 41
0.0847
 66
1
 10
0
 20
0
 30
0
  0
VERTEX
  8
LAYER_1
 10
495.0089
 20
192.4024
  0
VERTEX
  8
LAYER_1
 10
496.2789
 20
193.6724
  0
SEQEND
  0
POLYLINE
  8
LAYER_1
 40
0.0847
 41
0.0847
 66
1
 10
0
 20
0
 30
0
  0
VERTEX
  8
LAYER_1
 10
494.8237
 20
192.4024
  0
VERTEX
  8
LAYER_1
 10
496.173
 20
193.7518
  0
SEQEND
  0
POLYLINE
  8
LAYER_1
 40
0.0847
 41
0.0847
 66
1
 10
0
 20
0
 30
0
  0
VERTEX
  8
LAYER_1
 10
494.6649
 20
192.4024
  0
VERTEX
  8
LAYER_1
 10
496.0937
 20
193.8312
  0
SEQEND
  0
POLYLINE
  8
LAYER_1
 40
0.0847
 41
0.0847
 66
1
 10
0
 20
0
 30
0
  0
VERTEX
  8
LAYER_1
 10
494.4797
 20
192.4024
  0
VERTEX
  8
LAYER_1
 10
495.9878
 20
193.9106
  0
SEQEND
  0
POLYLINE
  8
LAYER_1
 40
0.0847
 41
0.0847
 66
1
 10
0
 20
0
 30
0
  0
VERTEX
  8
LAYER_1
 10
494.2945
 20
192.4024
  0
VERTEX
  8
LAYER_1
 10
495.9084
 20
194.0164
  0
SEQEND
  0
POLYLINE
  8
LAYER_1
 40
0.0847
 41
0.0847
 66
1
 10
0
 20
0
 30
0
  0
VERTEX
  8
LAYER_1
 10
494.1622
 20
192.4289
  0
VERTEX
  8
LAYER_1
 10
495.8555
 20
194.1222
  0
SEQEND
  0
POLYLINE
  8
LAYER_1
 40
0.0847
 41
0.0847
 66
1
 10
0
 20
0
 30
0
  0
VERTEX
  8
LAYER_1
 10
494.0564
 20
192.5083
  0
VERTEX
  8
LAYER_1
 10
495.7762
 20
194.2545
  0
SEQEND
  0
POLYLINE
  8
LAYER_1
 40
0.0847
 41
0.0847
 66
1
 10
0
 20
0
 30
0
  0
VERTEX
  8
LAYER_1
 10
493.9506
 20
192.5612
  0
VERTEX
  8
LAYER_1
 10
495.7233
 20
194.3603
  0
SEQEND
  0
POLYLINE
  8
LAYER_1
 40
0.0847
 41
0.0847
 66
1
 10
0
 20
0
 30
0
  0
VERTEX
  8
LAYER_1
 10
493.8183
 20
192.6405
  0
VERTEX
  8
LAYER_1
 10
495.6968
 20
194.4926
  0
SEQEND
  0
POLYLINE
  8
LAYER_1
 40
0.0847
 41
0.0847
 66
1
 10
0
 20
0
 30
0
  0
VERTEX
  8
LAYER_1
 10
493.7124
 20
192.6935
  0
VERTEX
  8
LAYER_1
 10
495.6703
 20
194.6514
  0
SEQEND
  0
POLYLINE
  8
LAYER_1
 40
0.0847
 41
0.0847
 66
1
 10
0
 20
0
 30
0
  0
VERTEX
  8
LAYER_1
 10
493.6066
 20
192.7728
  0
VERTEX
  8
LAYER_1
 10
495.6439
 20
194.8101
  0
SEQEND
  0
POLYLINE
  8
LAYER_1
 40
0.0847
 41
0.0847
 66
1
 10
0
 20
0
 30
0
  0
VERTEX
  8
LAYER_1
 10
493.5008
 20
192.8257
  0
VERTEX
  8
LAYER_1
 10
495.5645
 20
194.8895
  0
SEQEND
  0
POLYLINE
  8
LAYER_1
 40
0.0847
 41
0.0847
 66
1
 10
0
 20
0
 30
0
  0
VERTEX
  8
LAYER_1
 10
493.3685
 20
192.8787
  0
VERTEX
  8
LAYER_1
 10
495.3793
 20
194.8895
  0
SEQEND
  0
POLYLINE
  8
LAYER_1
 40
0.0847
 41
0.0847
 66
1
 10
0
 20
0
 30
0
  0
VERTEX
  8
LAYER_1
 10
493.2627
 20
192.958
  0
VERTEX
  8
LAYER_1
 10
495.2206
 20
194.8895
  0
SEQEND
  0
POLYLINE
  8
LAYER_1
 40
0.0847
 41
0.0847
 66
1
 10
0
 20
0
 30
0
  0
VERTEX
  8
LAYER_1
 10
493.1568
 20
193.011
  0
VERTEX
  8
LAYER_1
 10
495.0354
 20
194.8895
  0
SEQEND
  0
POLYLINE
  8
LAYER_1
 40
0.0847
 41
0.0847
 66
1
 10
0
 20
0
 30
0
  0
VERTEX
  8
LAYER_1
 10
493.051
 20
193.0903
  0
VERTEX
  8
LAYER_1
 10
494.8502
 20
194.8895
  0
SEQEND
  0
POLYLINE
  8
LAYER_1
 40
0.0847
 41
0.0847
 66
1
 10
0
 20
0
 30
0
  0
VERTEX
  8
LAYER_1
 10
492.9187
 20
193.1432
  0
VERTEX
  8
LAYER_1
 10
494.6914
 20
194.8895
  0
SEQEND
  0
POLYLINE
  8
LAYER_1
 40
0.0847
 41
0.0847
 66
1
 10
0
 20
0
 30
0
  0
VERTEX
  8
LAYER_1
 10
492.8129
 20
193.2226
  0
VERTEX
  8
LAYER_1
 10
494.5062
 20
194.8895
  0
SEQEND
  0
POLYLINE
  8
LAYER_1
 40
0.0847
 41
0.0847
 66
1
 10
0
 20
0
 30
0
  0
VERTEX
  8
LAYER_1
 10
492.7071
 20
193.2755
  0
VERTEX
  8
LAYER_1
 10
494.321
 20
194.8895
  0
SEQEND
  0
POLYLINE
  8
LAYER_1
 40
0.0847
 41
0.0847
 66
1
 10
0
 20
0
 30
0
  0
VERTEX
  8
LAYER_1
 10
492.6012
 20
193.3549
  0
VERTEX
  8
LAYER_1
 10
494.1623
 20
194.8895
  0
SEQEND
  0
POLYLINE
  8
LAYER_1
 40
0.0847
 41
0.0847
 66
1
 10
0
 20
0
 30
0
  0
VERTEX
  8
LAYER_1
 10
492.4689
 20
193.4078
  0
VERTEX
  8
LAYER_1
 10
493.9771
 20
194.8895
  0
SEQEND
  0
POLYLINE
  8
LAYER_1
 40
0.0847
 41
0.0847
 66
1
 10
0
 20
0
 30
0
  0
VERTEX
  8
LAYER_1
 10
492.3631
 20
193.4607
  0
VERTEX
  8
LAYER_1
 10
493.7919
 20
194.8895
  0
SEQEND
  0
POLYLINE
  8
LAYER_1
 40
0.0847
 41
0.0847
 66
1
 10
0
 20
0
 30
0
  0
VERTEX
  8
LAYER_1
 10
492.2573
 20
193.5401
  0
VERTEX
  8
LAYER_1
 10
493.6331
 20
194.8895
  0
SEQEND
  0
POLYLINE
  8
LAYER_1
 40
0.0847
 41
0.0847
 66
1
 10
0
 20
0
 30
0
  0
VERTEX
  8
LAYER_1
 10
492.1515
 20
193.593
  0
VERTEX
  8
LAYER_1
 10
493.4479
 20
194.8894
  0
SEQEND
  0
POLYLINE
  8
LAYER_1
 40
0.0847
 41
0.0847
 66
1
 10
0
 20
0
 30
0
  0
VERTEX
  8
LAYER_1
 10
492.0456
 20
193.6724
  0
VERTEX
  8
LAYER_1
 10
493.2627
 20
194.8894
  0
SEQEND
  0
POLYLINE
  8
LAYER_1
 40
0.0847
 41
0.0847
 66
1
 10
0
 20
0
 30
0
  0
VERTEX
  8
LAYER_1
 10
491.9133
 20
193.7253
  0
VERTEX
  8
LAYER_1
 10
493.0775
 20
194.8894
  0
SEQEND
  0
POLYLINE
  8
LAYER_1
 40
0.0847
 41
0.0847
 66
1
 10
0
 20
0
 30
0
  0
VERTEX
  8
LAYER_1
 10
491.8075
 20
193.8047
  0
VERTEX
  8
LAYER_1
 10
492.9188
 20
194.8894
  0
SEQEND
  0
POLYLINE
  8
LAYER_1
 40
0.0847
 41
0.0847
 66
1
 10
0
 20
0
 30
0
  0
VERTEX
  8
LAYER_1
 10
491.7017
 20
193.8576
  0
VERTEX
  8
LAYER_1
 10
492.7336
 20
194.8894
  0
SEQEND
  0
POLYLINE
  8
LAYER_1
 40
0.0847
 41
0.0847
 66
1
 10
0
 20
0
 30
0
  0
VERTEX
  8
LAYER_1
 10
491.5959
 20
193.937
  0
VERTEX
  8
LAYER_1
 10
492.5483
 20
194.8894
  0
SEQEND
  0
POLYLINE
  8
LAYER_1
 40
0.0847
 41
0.0847
 66
1
 10
0
 20
0
 30
0
  0
VERTEX
  8
LAYER_1
 10
491.4636
 20
193.9899
  0
VERTEX
  8
LAYER_1
 10
492.3896
 20
194.8894
  0
SEQEND
  0
POLYLINE
  8
LAYER_1
 40
0.0847
 41
0.0847
 66
1
 10
0
 20
0
 30
0
  0
VERTEX
  8
LAYER_1
 10
491.3577
 20
194.0428
  0
VERTEX
  8
LAYER_1
 10
492.2044
 20
194.8894
  0
SEQEND
  0
POLYLINE
  8
LAYER_1
 40
0.0847
 41
0.0847
 66
1
 10
0
 20
0
 30
0
  0
VERTEX
  8
LAYER_1
 10
491.2519
 20
194.1222
  0
VERTEX
  8
LAYER_1
 10
492.0192
 20
194.8894
  0
SEQEND
  0
POLYLINE
  8
LAYER_1
 40
0.0847
 41
0.0847
 66
1
 10
0
 20
0
 30
0
  0
VERTEX
  8
LAYER_1
 10
491.1461
 20
194.1751
  0
VERTEX
  8
LAYER_1
 10
491.8605
 20
194.8894
  0
SEQEND
  0
POLYLINE
  8
LAYER_1
 40
0.0847
 41
0.0847
 66
1
 10
0
 20
0
 30
0
  0
VERTEX
  8
LAYER_1
 10
491.0138
 20
194.2544
  0
VERTEX
  8
LAYER_1
 10
491.6753
 20
194.8894
  0
SEQEND
  0
POLYLINE
  8
LAYER_1
 40
0.0847
 41
0.0847
 66
1
 10
0
 20
0
 30
0
  0
VERTEX
  8
LAYER_1
 10
490.908
 20
194.3074
  0
VERTEX
  8
LAYER_1
 10
491.49
 20
194.8894
  0
SEQEND
  0
POLYLINE
  8
LAYER_1
 40
0.0847
 41
0.0847
 66
1
 10
0
 20
0
 30
0
  0
VERTEX
  8
LAYER_1
 10
490.8021
 20
194.3867
  0
VERTEX
  8
LAYER_1
 10
491.3313
 20
194.8894
  0
SEQEND
  0
POLYLINE
  8
LAYER_1
 40
0.0847
 41
0.0847
 66
1
 10
0
 20
0
 30
0
  0
VERTEX
  8
LAYER_1
 10
490.7757
 20
194.519
  0
VERTEX
  8
LAYER_1
 10
491.1461
 20
194.8894
  0
SEQEND
  0
POLYLINE
  8
LAYER_1
 40
0.0847
 41
0.0847
 66
1
 10
0
 20
0
 30
0
  0
VERTEX
  8
LAYER_1
 10
490.7757
 20
194.7042
  0
VERTEX
  8
LAYER_1
 10
490.9609
 20
194.8894
  0
SEQEND
  0
POLYLINE
  8
LAYER_1
 40
0.0847
 41
0.0847
 66
1
 10
0
 20
0
 30
0
  0
VERTEX
  8
LAYER_1
 10
490.7757
 20
194.863
  0
VERTEX
  8
LAYER_1
 10
490.8021
 20
194.8894
  0
SEQEND
  0
POLYLINE
  8
LAYER_1
 40
0.1693
 41
0.1693
 66
1
 10
0
 20
0
 30
0
  0
VERTEX
  8
LAYER_1
 10
493.3685
 20
196.6358
  0
VERTEX
  8
LAYER_1
 10
493.3156
 20
196.6093
  0
SEQEND
  0
POLYLINE
  8
LAYER_1
 40
0.1693
 41
0.1693
 66
1
 10
0
 20
0
 30
0
  0
VERTEX
  8
LAYER_1
 10
493.2892
 20
196.5564
  0
VERTEX
  8
LAYER_1
 10
493.2098
 20
196.5034
  0
VERTEX
  8
LAYER_1
 10
493.1569
 20
196.477
  0
SEQEND
  0
POLYLINE
  8
LAYER_1
 40
0.1693
 41
0.1693
 66
1
 10
0
 20
0
 30
0
  0
VERTEX
  8
LAYER_1
 10
493.1304
 20
196.4506
  0
VERTEX
  8
LAYER_1
 10
493.051
 20
196.3976
  0
SEQEND
  0
POLYLINE
  8
LAYER_1
 40
0.0847
 41
0.0847
 66
1
 10
0
 20
0
 30
0
  0
VERTEX
  8
LAYER_1
 10
482.4942
 20
192.2701
  0
VERTEX
  8
LAYER_1
 10
483.1027
 20
192.2701
  0
SEQEND
  0
POLYLINE
  8
LAYER_1
 40
0.0847
 41
0.0847
 66
1
 10
0
 20
0
 30
0
  0
VERTEX
  8
LAYER_1
 10
484.3727
 20
192.2701
  0
VERTEX
  8
LAYER_1
 10
485.6427
 20
192.2701
  0
SEQEND
  0
POLYLINE
  8
LAYER_1
 40
0.0847
 41
0.0847
 66
1
 10
0
 20
0
 30
0
  0
VERTEX
  8
LAYER_1
 10
486.8863
 20
192.2701
  0
VERTEX
  8
LAYER_1
 10
488.1562
 20
192.2701
  0
SEQEND
  0
POLYLINE
  8
LAYER_1
 40
0.0847
 41
0.0847
 66
1
 10
0
 20
0
 30
0
  0
VERTEX
  8
LAYER_1
 10
489.4263
 20
192.2701
  0
VERTEX
  8
LAYER_1
 10
490.0613
 20
192.2701
  0
SEQEND
  0
POLYLINE
  8
LAYER_1
 40
0.0847
 41
0.0847
 66
1
 10
0
 20
0
 30
0
  0
VERTEX
  8
LAYER_1
 10
482.309
 20
192.4553
  0
VERTEX
  8
LAYER_1
 10
482.9704
 20
192.4553
  0
SEQEND
  0
POLYLINE
  8
LAYER_1
 40
0.0847
 41
0.0847
 66
1
 10
0
 20
0
 30
0
  0
VERTEX
  8
LAYER_1
 10
484.2934
 20
192.4553
  0
VERTEX
  8
LAYER_1
 10
485.6163
 20
192.4553
  0
SEQEND
  0
POLYLINE
  8
LAYER_1
 40
0.0847
 41
0.0847
 66
1
 10
0
 20
0
 30
0
  0
VERTEX
  8
LAYER_1
 10
486.9392
 20
192.4553
  0
VERTEX
  8
LAYER_1
 10
488.2621
 20
192.4553
  0
SEQEND
  0
POLYLINE
  8
LAYER_1
 40
0.0847
 41
0.0847
 66
1
 10
0
 20
0
 30
0
  0
VERTEX
  8
LAYER_1
 10
489.585
 20
192.4553
  0
VERTEX
  8
LAYER_1
 10
490.2465
 20
192.4553
  0
SEQEND
  0
POLYLINE
  8
LAYER_1
 40
0.1693
 41
0.1693
 66
1
 10
0
 20
0
 30
0
  0
VERTEX
  8
LAYER_1
 10
482.4942
 20
192.2701
  0
VERTEX
  8
LAYER_1
 10
482.309
 20
192.4553
  0
SEQEND
  0
POLYLINE
  8
LAYER_1
 40
0.1693
 41
0.1693
 66
1
 10
0
 20
0
 30
0
  0
VERTEX
  8
LAYER_1
 10
490.0613
 20
192.2701
  0
VERTEX
  8
LAYER_1
 10
490.2465
 20
192.4553
  0
SEQEND
  0
POLYLINE
  8
LAYER_1
 40
0.1693
 41
0.1693
 66
1
 10
0
 20
0
 30
0
  0
VERTEX
  8
LAYER_1
 10
479.716
 20
196.7151
 42
0.3897906016
  0
VERTEX
  8
LAYER_1
 10
479.5837
 20
196.6093
  0
SEQEND
  0
POLYLINE
  8
LAYER_1
 40
0.1693
 41
0.1693
 66
1
 10
0
 20
0
 30
0
  0
VERTEX
  8
LAYER_1
 10
479.5838
 20
196.5564
  0
VERTEX
  8
LAYER_1
 10
479.5838
 20
196.5299
 42
0.2990490219
  0
VERTEX
  8
LAYER_1
 10
479.6631
 20
196.4241
  0
SEQEND
  0
POLYLINE
  8
LAYER_1
 40
0.1693
 41
0.1693
 66
1
 10
0
 20
0
 30
0
  0
VERTEX
  8
LAYER_1
 10
479.5838
 20
196.5299
  0
VERTEX
  8
LAYER_1
 10
479.5838
 20
196.5828
  0
SEQEND
  0
POLYLINE
  8
LAYER_1
 40
0.1693
 41
0.1693
 66
1
 10
0
 20
0
 30
0
  0
VERTEX
  8
LAYER_1
 10
479.6896
 20
196.3976
  0
VERTEX
  8
LAYER_1
 10
480.9067
 20
195.9743
  0
SEQEND
  0
POLYLINE
  8
LAYER_1
 40
0.1693
 41
0.1693
 66
1
 10
0
 20
0
 30
0
  0
VERTEX
  8
LAYER_1
 10
481.674
 20
195.0747
 42
0.2767774771
  0
VERTEX
  8
LAYER_1
 10
480.8538
 20
196.0008
  0
SEQEND
  0
POLYLINE
  8
LAYER_1
 40
0.1693
 41
0.1693
 66
1
 10
0
 20
0
 30
0
  0
VERTEX
  8
LAYER_1
 10
479.7425
 20
196.6887
  0
VERTEX
  8
LAYER_1
 10
492.8129
 20
196.6887
  0
SEQEND
  0
POLYLINE
  8
LAYER_1
 40
0.1693
 41
0.1693
 66
1
 10
0
 20
0
 30
0
  0
VERTEX
  8
LAYER_1
 10
492.9452
 20
196.6093
 42
0.4415047716
  0
VERTEX
  8
LAYER_1
 10
492.8394
 20
196.7151
  0
VERTEX
  8
LAYER_1
 10
492.7865
 20
196.7151
  0
SEQEND
  0
POLYLINE
  8
LAYER_1
 40
0.1693
 41
0.1693
 66
1
 10
0
 20
0
 30
0
  0
VERTEX
  8
LAYER_1
 10
492.8394
 20
196.4241
 42
0.390056353
  0
VERTEX
  8
LAYER_1
 10
492.9717
 20
196.5299
 42
0.5037895123
  0
VERTEX
  8
LAYER_1
 10
492.9452
 20
196.5564
  0
SEQEND
  0
POLYLINE
  8
LAYER_1
 40
0.1693
 41
0.1693
 66
1
 10
0
 20
0
 30
0
  0
VERTEX
  8
LAYER_1
 10
492.9717
 20
196.5299
  0
VERTEX
  8
LAYER_1
 10
492.9717
 20
196.5828
  0
SEQEND
  0
POLYLINE
  8
LAYER_1
 40
0.1693
 41
0.1693
 66
1
 10
0
 20
0
 30
0
  0
VERTEX
  8
LAYER_1
 10
492.8658
 20
196.3976
  0
VERTEX
  8
LAYER_1
 10
491.6488
 20
195.9743
  0
SEQEND
  0
POLYLINE
  8
LAYER_1
 40
0.1693
 41
0.1693
 66
1
 10
0
 20
0
 30
0
  0
VERTEX
  8
LAYER_1
 10
491.6488
 20
196.0008
 42
0.2568453835
  0
VERTEX
  8
LAYER_1
 10
490.855
 20
195.0747
  0
SEQEND
  0
POLYLINE
  8
LAYER_1
 40
0.1693
 41
0.1693
 66
1
 10
0
 20
0
 30
0
  0
VERTEX
  8
LAYER_1
 10
482.309
 20
192.4553
  0
VERTEX
  8
LAYER_1
 10
481.7269
 20
195.0747
  0
SEQEND
  0
POLYLINE
  8
LAYER_1
 40
0.1693
 41
0.1693
 66
1
 10
0
 20
0
 30
0
  0
VERTEX
  8
LAYER_1
 10
490.2465
 20
192.4553
  0
VERTEX
  8
LAYER_1
 10
490.8285
 20
195.0747
  0
SEQEND
  0
POLYLINE
  8
LAYER_1
 40
0.0847
 41
0.0847
 66
1
 10
0
 20
0
 30
0
  0
VERTEX
  8
LAYER_1
 10
480.9067
 20
195.9743
  0
VERTEX
  8
LAYER_1
 10
491.6487
 20
195.9743
  0
SEQEND
  0
POLYLINE
  8
LAYER_1
 40
0.0847
 41
0.0847
 66
1
 10
0
 20
0
 30
0
  0
VERTEX
  8
LAYER_1
 10
479.6896
 20
196.3976
  0
VERTEX
  8
LAYER_1
 10
492.8658
 20
196.3976
  0
SEQEND
  0
POLYLINE
  8
LAYER_1
 40
0.1693
 41
0.1693
 66
1
 10
0
 20
0
 30
0
  0
VERTEX
  8
LAYER_1
 10
482.309
 20
188.0897
  0
VERTEX
  8
LAYER_1
 10
482.6265
 20
187.8251
  0
VERTEX
  8
LAYER_1
 10
482.309
 20
187.587
  0
VERTEX
  8
LAYER_1
 10
482.6265
 20
187.3489
  0
VERTEX
  8
LAYER_1
 10
482.309
 20
187.0843
  0
VERTEX
  8
LAYER_1
 10
482.6265
 20
186.8462
  0
VERTEX
  8
LAYER_1
 10
482.309
 20
186.5816
  0
VERTEX
  8
LAYER_1
 10
482.6265
 20
186.3435
  0
VERTEX
  8
LAYER_1
 10
482.309
 20
186.0789
  0
VERTEX
  8
LAYER_1
 10
482.6265
 20
185.8407
  0
VERTEX
  8
LAYER_1
 10
482.309
 20
185.5762
  0
VERTEX
  8
LAYER_1
 10
482.6265
 20
185.338
  0
VERTEX
  8
LAYER_1
 10
482.309
 20
185.0735
  0
VERTEX
  8
LAYER_1
 10
482.6265
 20
184.8353
  0
VERTEX
  8
LAYER_1
 10
482.309
 20
184.5707
  0
VERTEX
  8
LAYER_1
 10
482.6265
 20
184.3326
  0
VERTEX
  8
LAYER_1
 10
482.309
 20
184.068
  0
VERTEX
  8
LAYER_1
 10
482.6265
 20
183.8299
  0
VERTEX
  8
LAYER_1
 10
482.309
 20
183.5918
  0
VERTEX
  8
LAYER_1
 10
482.6265
 20
183.3272
  0
VERTEX
  8
LAYER_1
 10
482.309
 20
183.0891
  0
VERTEX
  8
LAYER_1
 10
482.6265
 20
182.851
  0
VERTEX
  8
LAYER_1
 10
482.309
 20
182.5864
  0
VERTEX
  8
LAYER_1
 10
482.6265
 20
182.3482
  0
VERTEX
  8
LAYER_1
 10
482.309
 20
182.0836
  0
VERTEX
  8
LAYER_1
 10
482.6265
 20
181.8455
  0
VERTEX
  8
LAYER_1
 10
482.309
 20
181.581
  0
VERTEX
  8
LAYER_1
 10
482.6265
 20
181.3428
  0
VERTEX
  8
LAYER_1
 10
482.309
 20
181.0782
  0
VERTEX
  8
LAYER_1
 10
482.6265
 20
180.8401
  0
VERTEX
  8
LAYER_1
 10
482.309
 20
180.5755
  0
VERTEX
  8
LAYER_1
 10
482.6265
 20
180.3374
  0
VERTEX
  8
LAYER_1
 10
482.309
 20
180.0728
  0
VERTEX
  8
LAYER_1
 10
482.6265
 20
179.8347
  0
VERTEX
  8
LAYER_1
 10
482.309
 20
179.5701
  0
VERTEX
  8
LAYER_1
 10
482.6265
 20
179.332
  0
VERTEX
  8
LAYER_1
 10
482.309
 20
179.0674
  0
VERTEX
  8
LAYER_1
 10
482.6265
 20
178.8293
  0
SEQEND
  0
POLYLINE
  8
LAYER_1
 40
0.1693
 41
0.1693
 66
1
 10
0
 20
0
 30
0
  0
VERTEX
  8
LAYER_1
 10
482.309
 20
174.5695
  0
VERTEX
  8
LAYER_1
 10
482.6265
 20
174.3314
  0
VERTEX
  8
LAYER_1
 10
482.309
 20
174.0933
  0
VERTEX
  8
LAYER_1
 10
482.6265
 20
173.8287
  0
VERTEX
  8
LAYER_1
 10
482.309
 20
173.5905
  0
VERTEX
  8
LAYER_1
 10
482.6265
 20
173.326
  0
VERTEX
  8
LAYER_1
 10
482.309
 20
173.0878
  0
VERTEX
  8
LAYER_1
 10
482.6265
 20
172.8497
  0
VERTEX
  8
LAYER_1
 10
482.309
 20
172.5851
  0
VERTEX
  8
LAYER_1
 10
482.6265
 20
172.347
  0
SEQEND
  0
POLYLINE
  8
LAYER_1
 40
0.1693
 41
0.1693
 66
1
 10
0
 20
0
 30
0
  0
VERTEX
  8
LAYER_1
 10
490.2465
 20
188.2749
  0
VERTEX
  8
LAYER_1
 10
489.929
 20
188.0368
  0
VERTEX
  8
LAYER_1
 10
490.2465
 20
187.7987
  0
VERTEX
  8
LAYER_1
 10
489.929
 20
187.5341
  0
VERTEX
  8
LAYER_1
 10
490.2465
 20
187.296
  0
VERTEX
  8
LAYER_1
 10
489.929
 20
187.0314
  0
VERTEX
  8
LAYER_1
 10
490.2465
 20
186.7933
  0
VERTEX
  8
LAYER_1
 10
489.929
 20
186.5287
  0
VERTEX
  8
LAYER_1
 10
490.2465
 20
186.2906
  0
VERTEX
  8
LAYER_1
 10
489.929
 20
186.026
  0
VERTEX
  8
LAYER_1
 10
490.2465
 20
185.7879
  0
VERTEX
  8
LAYER_1
 10
489.929
 20
185.5233
  0
VERTEX
  8
LAYER_1
 10
490.2465
 20
185.2851
  0
VERTEX
  8
LAYER_1
 10
489.929
 20
185.0206
  0
VERTEX
  8
LAYER_1
 10
490.2465
 20
184.7824
  0
VERTEX
  8
LAYER_1
 10
489.929
 20
184.5178
  0
VERTEX
  8
LAYER_1
 10
490.2465
 20
184.2797
  0
VERTEX
  8
LAYER_1
 10
489.929
 20
184.0416
  0
VERTEX
  8
LAYER_1
 10
490.2465
 20
183.777
  0
VERTEX
  8
LAYER_1
 10
489.929
 20
183.5389
  0
VERTEX
  8
LAYER_1
 10
490.2465
 20
183.3008
  0
VERTEX
  8
LAYER_1
 10
489.929
 20
183.0362
  0
VERTEX
  8
LAYER_1
 10
490.2465
 20
182.798
  0
VERTEX
  8
LAYER_1
 10
489.929
 20
182.5335
  0
VERTEX
  8
LAYER_1
 10
490.2465
 20
182.2953
  0
VERTEX
  8
LAYER_1
 10
489.929
 20
182.0308
  0
VERTEX
  8
LAYER_1
 10
490.2465
 20
181.7926
  0
VERTEX
  8
LAYER_1
 10
489.929
 20
181.528
  0
VERTEX
  8
LAYER_1
 10
490.2465
 20
181.2899
  0
VERTEX
  8
LAYER_1
 10
489.929
 20
181.0254
  0
VERTEX
  8
LAYER_1
 10
490.2465
 20
180.7872
  0
VERTEX
  8
LAYER_1
 10
489.929
 20
180.5226
  0
VERTEX
  8
LAYER_1
 10
490.2465
 20
180.2845
  0
VERTEX
  8
LAYER_1
 10
489.929
 20
180.0199
  0
VERTEX
  8
LAYER_1
 10
490.2465
 20
179.7818
  0
VERTEX
  8
LAYER_1
 10
489.929
 20
179.5172
  0
VERTEX
  8
LAYER_1
 10
490.2465
 20
179.2791
  0
VERTEX
  8
LAYER_1
 10
489.929
 20
179.041
  0
VERTEX
  8
LAYER_1
 10
490.2465
 20
178.7764
  0
SEQEND
  0
POLYLINE
  8
LAYER_1
 40
0.1693
 41
0.1693
 66
1
 10
0
 20
0
 30
0
  0
VERTEX
  8
LAYER_1
 10
489.929
 20
174.5431
  0
VERTEX
  8
LAYER_1
 10
490.2465
 20
174.2785
  0
VERTEX
  8
LAYER_1
 10
489.929
 20
174.0403
  0
VERTEX
  8
LAYER_1
 10
490.2465
 20
173.7757
  0
VERTEX
  8
LAYER_1
 10
489.929
 20
173.5376
  0
VERTEX
  8
LAYER_1
 10
490.2465
 20
173.2995
  0
VERTEX
  8
LAYER_1
 10
489.929
 20
173.0349
  0
VERTEX
  8
LAYER_1
 10
490.2465
 20
172.7968
  0
VERTEX
  8
LAYER_1
 10
489.929
 20
172.5322
  0
VERTEX
  8
LAYER_1
 10
490.2465
 20
172.2941
  0
SEQEND
  0
POLYLINE
  8
LAYER_1
 40
0.1693
 41
0.1693
 66
1
 10
0
 20
0
 30
0
  0
VERTEX
  8
LAYER_1
 10
489.9025
 20
172.0031
  0
VERTEX
  8
LAYER_1
 10
489.7702
 20
171.712
  0
SEQEND
  0
POLYLINE
  8
LAYER_1
 40
0.1693
 41
0.1693
 66
1
 10
0
 20
0
 30
0
  0
VERTEX
  8
LAYER_1
 10
490.2465
 20
172.2941
  0
VERTEX
  8
LAYER_1
 10
489.9025
 20
172.003
  0
SEQEND
  0
POLYLINE
  8
LAYER_1
 40
0.1693
 41
0.1693
 66
1
 10
0
 20
0
 30
0
  0
VERTEX
  8
LAYER_1
 10
482.6265
 20
172.347
  0
VERTEX
  8
LAYER_1
 10
482.309
 20
172.0824
  0
VERTEX
  8
LAYER_1
 10
489.9819
 20
172.0824
  0
SEQEND
  0
POLYLINE
  8
LAYER_1
 40
0.1693
 41
0.1693
 66
1
 10
0
 20
0
 30
0
  0
VERTEX
  8
LAYER_1
 10
482.6265
 20
172.0824
  0
VERTEX
  8
LAYER_1
 10
482.7852
 20
171.712
  0
VERTEX
  8
LAYER_1
 10
489.7702
 20
171.712
  0
SEQEND
  0
POLYLINE
  8
LAYER_1
 40
0.1693
 41
0.1693
 66
1
 10
0
 20
0
 30
0
  0
VERTEX
  8
LAYER_1
 10
482.5471
 20
174.7547
  0
VERTEX
  8
LAYER_1
 10
482.309
 20
174.5695
  0
SEQEND
  0
POLYLINE
  8
LAYER_1
 40
0.1693
 41
0.1693
 66
1
 10
0
 20
0
 30
0
  0
VERTEX
  8
LAYER_1
 10
490.22
 20
174.7547
  0
VERTEX
  8
LAYER_1
 10
489.929
 20
174.543
  0
SEQEND
  0
POLYLINE
  8
LAYER_1
 40
0.1693
 41
0.1693
 66
1
 10
0
 20
0
 30
0
  0
VERTEX
  8
LAYER_1
 10
480.0335
 20
196.1595
  0
VERTEX
  8
LAYER_1
 10
492.5219
 20
196.1595
  0
SEQEND
  0
POLYLINE
  8
LAYER_1
 40
0.1693
 41
0.1693
 66
1
 10
0
 20
0
 30
0
  0
VERTEX
  8
LAYER_1
 10
480.0335
 20
196.1595
  0
VERTEX
  8
LAYER_1
 10
480.0335
 20
196.3976
  0
VERTEX
  8
LAYER_1
 10
492.5219
 20
196.3976
  0
SEQEND
  0
POLYLINE
  8
LAYER_1
 40
0.1693
 41
0.1693
 66
1
 10
0
 20
0
 30
0
  0
VERTEX
  8
LAYER_1
 10
492.5219
 20
196.1595
  0
VERTEX
  8
LAYER_1
 10
492.5219
 20
196.3976
  0
SEQEND
  0
POLYLINE
  8
LAYER_1
 40
0.0847
 41
0.0847
 66
1
 10
0
 20
0
 30
0
  0
VERTEX
  8
LAYER_1
 10
480.2452
 20
196.3976
  0
VERTEX
  8
LAYER_1
 10
480.4833
 20
196.1595
  0
SEQEND
  0
POLYLINE
  8
LAYER_1
 40
0.0847
 41
0.0847
 66
1
 10
0
 20
0
 30
0
  0
VERTEX
  8
LAYER_1
 10
481.3035
 20
196.3976
  0
VERTEX
  8
LAYER_1
 10
481.5417
 20
196.1595
  0
SEQEND
  0
POLYLINE
  8
LAYER_1
 40
0.0847
 41
0.0847
 66
1
 10
0
 20
0
 30
0
  0
VERTEX
  8
LAYER_1
 10
482.3619
 20
196.3976
  0
VERTEX
  8
LAYER_1
 10
482.6
 20
196.1595
  0
SEQEND
  0
POLYLINE
  8
LAYER_1
 40
0.0847
 41
0.0847
 66
1
 10
0
 20
0
 30
0
  0
VERTEX
  8
LAYER_1
 10
483.4202
 20
196.3976
  0
VERTEX
  8
LAYER_1
 10
483.6583
 20
196.1595
  0
SEQEND
  0
POLYLINE
  8
LAYER_1
 40
0.0847
 41
0.0847
 66
1
 10
0
 20
0
 30
0
  0
VERTEX
  8
LAYER_1
 10
484.4785
 20
196.3976
  0
VERTEX
  8
LAYER_1
 10
484.7166
 20
196.1595
  0
SEQEND
  0
POLYLINE
  8
LAYER_1
 40
0.0847
 41
0.0847
 66
1
 10
0
 20
0
 30
0
  0
VERTEX
  8
LAYER_1
 10
485.5369
 20
196.3976
  0
VERTEX
  8
LAYER_1
 10
485.775
 20
196.1595
  0
SEQEND
  0
POLYLINE
  8
LAYER_1
 40
0.0847
 41
0.0847
 66
1
 10
0
 20
0
 30
0
  0
VERTEX
  8
LAYER_1
 10
486.5687
 20
196.3976
  0
VERTEX
  8
LAYER_1
 10
486.8068
 20
196.1595
  0
SEQEND
  0
POLYLINE
  8
LAYER_1
 40
0.0847
 41
0.0847
 66
1
 10
0
 20
0
 30
0
  0
VERTEX
  8
LAYER_1
 10
487.6271
 20
196.3976
  0
VERTEX
  8
LAYER_1
 10
487.8916
 20
196.1595
  0
SEQEND
  0
POLYLINE
  8
LAYER_1
 40
0.0847
 41
0.0847
 66
1
 10
0
 20
0
 30
0
  0
VERTEX
  8
LAYER_1
 10
488.6854
 20
196.3976
  0
VERTEX
  8
LAYER_1
 10
488.95
 20
196.1595
  0
SEQEND
  0
POLYLINE
  8
LAYER_1
 40
0.0847
 41
0.0847
 66
1
 10
0
 20
0
 30
0
  0
VERTEX
  8
LAYER_1
 10
489.7437
 20
196.3976
  0
VERTEX
  8
LAYER_1
 10
490.0083
 20
196.1595
  0
SEQEND
  0
POLYLINE
  8
LAYER_1
 40
0.0847
 41
0.0847
 66
1
 10
0
 20
0
 30
0
  0
VERTEX
  8
LAYER_1
 10
490.8021
 20
196.3976
  0
VERTEX
  8
LAYER_1
 10
491.0666
 20
196.1595
  0
SEQEND
  0
POLYLINE
  8
LAYER_1
 40
0.0847
 41
0.0847
 66
1
 10
0
 20
0
 30
0
  0
VERTEX
  8
LAYER_1
 10
491.8604
 20
196.3976
  0
VERTEX
  8
LAYER_1
 10
492.125
 20
196.1595
  0
SEQEND
  0
POLYLINE
  8
LAYER_1
 40
0.1693
 41
0.1693
 66
1
 10
0
 20
0
 30
0
  0
VERTEX
  8
LAYER_1
 10
480.1658
 20
189.7831
  0
VERTEX
  8
LAYER_1
 10
492.3896
 20
189.7831
  0
VERTEX
  8
LAYER_1
 10
492.3896
 20
190.3916
  0
SEQEND
  0
POLYLINE
  8
LAYER_1
 40
0.1693
 41
0.1693
 66
1
 10
0
 20
0
 30
0
  0
VERTEX
  8
LAYER_1
 10
480.1658
 20
190.3916
  0
VERTEX
  8
LAYER_1
 10
492.3896
 20
190.3916
  0
SEQEND
  0
POLYLINE
  8
LAYER_1
 40
0.1693
 41
0.1693
 66
1
 10
0
 20
0
 30
0
  0
VERTEX
  8
LAYER_1
 10
480.1658
 20
189.7831
  0
VERTEX
  8
LAYER_1
 10
480.1658
 20
190.3916
  0
SEQEND
  0
POLYLINE
  8
LAYER_1
 40
0.1693
 41
0.1693
 66
1
 10
0
 20
0
 30
0
  0
VERTEX
  8
LAYER_1
 10
481.5417
 20
188.3014
  0
VERTEX
  8
LAYER_1
 10
481.5417
 20
189.7831
  0
SEQEND
  0
POLYLINE
  8
LAYER_1
 40
0.1693
 41
0.1693
 66
1
 10
0
 20
0
 30
0
  0
VERTEX
  8
LAYER_1
 10
481.5417
 20
188.3014
  0
VERTEX
  8
LAYER_1
 10
491.0137
 20
188.3014
  0
VERTEX
  8
LAYER_1
 10
491.0137
 20
189.7831
  0
SEQEND
  0
POLYLINE
  8
LAYER_1
 40
0.1693
 41
0.1693
 66
1
 10
0
 20
0
 30
0
  0
VERTEX
  8
LAYER_1
 10
482.3619
 20
192.4024
  0
VERTEX
  8
LAYER_1
 10
479.7954
 20
190.8943
  0
SEQEND
  0
POLYLINE
  8
LAYER_1
 40
0.1693
 41
0.1693
 66
1
 10
0
 20
0
 30
0
  0
VERTEX
  8
LAYER_1
 10
479.7954
 20
190.5239
  0
VERTEX
  8
LAYER_1
 10
479.7954
 20
190.8943
  0
SEQEND
  0
POLYLINE
  8
LAYER_1
 40
0.1693
 41
0.1693
 66
1
 10
0
 20
0
 30
0
  0
VERTEX
  8
LAYER_1
 10
479.7954
 20
190.5239
  0
VERTEX
  8
LAYER_1
 10
492.76
 20
190.5239
  0
VERTEX
  8
LAYER_1
 10
492.76
 20
190.8943
  0
SEQEND
  0
POLYLINE
  8
LAYER_1
 40
0.1693
 41
0.1693
 66
1
 10
0
 20
0
 30
0
  0
VERTEX
  8
LAYER_1
 10
490.1935
 20
192.4024
  0
VERTEX
  8
LAYER_1
 10
492.76
 20
190.8943
  0
SEQEND
  0
POLYLINE
  8
LAYER_1
 40
0.1693
 41
0.1693
 66
1
 10
0
 20
0
 30
0
  0
VERTEX
  8
LAYER_1
 10
482.3619
 20
192.4024
  0
VERTEX
  8
LAYER_1
 10
490.1935
 20
192.4024
  0
SEQEND
  0
POLYLINE
  8
LAYER_1
 40
0.0847
 41
0.0847
 66
1
 10
0
 20
0
 30
0
  0
VERTEX
  8
LAYER_1
 10
479.7954
 20
190.8943
  0
VERTEX
  8
LAYER_1
 10
492.76
 20
190.8943
  0
SEQEND
  0
POLYLINE
  8
LAYER_1
 40
0.1693
 41
0.1693
 66
1
 10
0
 20
0
 30
0
  0
VERTEX
  8
LAYER_1
 10
480.0335
 20
190.3916
  0
VERTEX
  8
LAYER_1
 10
480.0335
 20
190.5239
  0
SEQEND
  0
POLYLINE
  8
LAYER_1
 40
0.1693
 41
0.1693
 66
1
 10
0
 20
0
 30
0
  0
VERTEX
  8
LAYER_1
 10
480.0335
 20
190.3916
  0
VERTEX
  8
LAYER_1
 10
492.5219
 20
190.3916
  0
VERTEX
  8
LAYER_1
 10
492.5219
 20
190.5239
  0
SEQEND
  0
POLYLINE
  8
LAYER_1
 40
0.1693
 41
0.1693
 66
1
 10
0
 20
0
 30
0
  0
VERTEX
  8
LAYER_1
 10
480.0335
 20
190.5239
  0
VERTEX
  8
LAYER_1
 10
492.5219
 20
190.5239
  0
SEQEND
  0
POLYLINE
  8
LAYER_1
 40
0.0847
 41
0.0847
 66
1
 10
0
 20
0
 30
0
  0
VERTEX
  8
LAYER_1
 10
486.2777
 20
188.3014
  0
VERTEX
  8
LAYER_1
 10
486.2777
 20
189.783
  0
SEQEND
  0
POLYLINE
  8
LAYER_1
 40
0.0847
 41
0.0847
 66
1
 10
0
 20
0
 30
0
  0
VERTEX
  8
LAYER_1
 10
492.3367
 20
196.2653
  0
VERTEX
  8
LAYER_1
 10
538.5858
 20
206.3724
  0
SEQEND
  0
POLYLINE
  8
LAYER_1
 40
0.0847
 41
0.0847
 66
1
 10
0
 20
0
 30
0
  0
VERTEX
  8
LAYER_1
 10
490.9873
 20
196.6093
  0
VERTEX
  8
LAYER_1
 10
537.9244
 20
211.1349
  0
SEQEND
  0
POLYLINE
  8
LAYER_1
 40
0.0847
 41
0.0847
 66
1
 10
0
 20
0
 30
0
  0
VERTEX
  8
LAYER_1
 10
488.0504
 20
190.471
  0
VERTEX
  8
LAYER_1
 10
531.786
 20
151.8682
  0
SEQEND
  0
POLYLINE
  8
LAYER_1
 40
0.0847
 41
0.0847
 66
1
 10
0
 20
0
 30
0
  0
VERTEX
  8
LAYER_1
 10
489.6644
 20
191.6351
  0
VERTEX
  8
LAYER_1
 10
543.7188
 20
157.451
  0
SEQEND
  0
POLYLINE
  8
LAYER_1
 40
0.0847
 41
0.0847
 66
1
 10
0
 20
0
 30
0
  0
VERTEX
  8
LAYER_1
 10
438.785
 20
159.9381
  0
VERTEX
  8
LAYER_1
 10
482.0973
 20
188.6983
  0
SEQEND
  0
POLYLINE
  8
LAYER_1
 40
0.1693
 41
0.1693
 66
1
 10
0
 20
0
 30
0
  0
VERTEX
  8
LAYER_1
 10
482.6
 20
188.3014
  0
VERTEX
  8
LAYER_1
 10
482.309
 20
188.0897
  0
SEQEND
  0
POLYLINE
  8
LAYER_1
 40
0.1693
 41
0.1693
 66
1
 10
0
 20
0
 30
0
  0
VERTEX
  8
LAYER_1
 10
490.22
 20
188.3014
  0
VERTEX
  8
LAYER_1
 10
490.2465
 20
188.2749
  0
SEQEND
  0
POLYLINE
  8
LAYER_1
 40
0.1693
 41
0.1693
 66
1
 10
0
 20
0
 30
0
  0
VERTEX
  8
LAYER_1
 10
482.6265
 20
178.8293
  0
VERTEX
  8
LAYER_1
 10
482.4148
 20
178.6705
  0
SEQEND
  0
POLYLINE
  8
LAYER_1
 40
0.1693
 41
0.1693
 66
1
 10
0
 20
0
 30
0
  0
VERTEX
  8
LAYER_1
 10
490.2465
 20
178.7764
  0
VERTEX
  8
LAYER_1
 10
490.0877
 20
178.6705
  0
SEQEND
  0
POLYLINE
  8
LAYER_1
 40
0.1693
 41
0.1693
 66
1
 10
0
 20
0
 30
0
  0
VERTEX
  8
LAYER_1
 10
480.1658
 20
177.2947
  0
VERTEX
  8
LAYER_1
 10
492.3896
 20
177.2947
  0
SEQEND
  0
POLYLINE
  8
LAYER_1
 40
0.1693
 41
0.1693
 66
1
 10
0
 20
0
 30
0
  0
VERTEX
  8
LAYER_1
 10
480.1658
 20
177.9033
  0
VERTEX
  8
LAYER_1
 10
492.3896
 20
177.9033
  0
SEQEND
  0
POLYLINE
  8
LAYER_1
 40
0.1693
 41
0.1693
 66
1
 10
0
 20
0
 30
0
  0
VERTEX
  8
LAYER_1
 10
492.3896
 20
177.2947
  0
VERTEX
  8
LAYER_1
 10
492.3896
 20
177.9032
  0
SEQEND
  0
POLYLINE
  8
LAYER_1
 40
0.1693
 41
0.1693
 66
1
 10
0
 20
0
 30
0
  0
VERTEX
  8
LAYER_1
 10
480.1658
 20
177.2947
  0
VERTEX
  8
LAYER_1
 10
480.1658
 20
177.9032
  0
SEQEND
  0
POLYLINE
  8
LAYER_1
 40
0.1693
 41
0.1693
 66
1
 10
0
 20
0
 30
0
  0
VERTEX
  8
LAYER_1
 10
481.5417
 20
175.8131
  0
VERTEX
  8
LAYER_1
 10
481.5417
 20
177.2947
  0
SEQEND
  0
POLYLINE
  8
LAYER_1
 40
0.1693
 41
0.1693
 66
1
 10
0
 20
0
 30
0
  0
VERTEX
  8
LAYER_1
 10
481.5417
 20
175.8131
  0
VERTEX
  8
LAYER_1
 10
491.0137
 20
175.8131
  0
VERTEX
  8
LAYER_1
 10
491.0137
 20
177.2947
  0
SEQEND
  0
POLYLINE
  8
LAYER_1
 40
0.0847
 41
0.0847
 66
1
 10
0
 20
0
 30
0
  0
VERTEX
  8
LAYER_1
 10
486.2777
 20
175.8131
  0
VERTEX
  8
LAYER_1
 10
486.2777
 20
177.2947
  0
SEQEND
  0
POLYLINE
  8
LAYER_1
 40
0.0847
 41
0.0847
 66
1
 10
0
 20
0
 30
0
  0
VERTEX
  8
LAYER_1
 10
438.785
 20
159.9381
  0
VERTEX
  8
LAYER_1
 10
481.965
 20
176.2893
  0
SEQEND
  0
POLYLINE
  8
LAYER_1
 40
0.0847
 41
0.0847
 66
1
 10
0
 20
0
 30
0
  0
VERTEX
  8
LAYER_1
 10
483.1556
 20
159.1972
  0
VERTEX
  8
LAYER_1
 10
483.1556
 20
160.7583
  0
SEQEND
  0
POLYLINE
  8
LAYER_1
 40
0.0847
 41
0.0847
 66
1
 10
0
 20
0
 30
0
  0
VERTEX
  8
LAYER_1
 10
483.1556
 20
163.8804
  0
VERTEX
  8
LAYER_1
 10
483.1556
 20
167.0024
  0
SEQEND
  0
POLYLINE
  8
LAYER_1
 40
0.0847
 41
0.0847
 66
1
 10
0
 20
0
 30
0
  0
VERTEX
  8
LAYER_1
 10
483.1556
 20
170.1245
  0
VERTEX
  8
LAYER_1
 10
483.1556
 20
171.712
  0
SEQEND
  0
POLYLINE
  8
LAYER_1
 40
0.0847
 41
0.0847
 66
1
 10
0
 20
0
 30
0
  0
VERTEX
  8
LAYER_1
 10
489.3998
 20
157.6891
  0
VERTEX
  8
LAYER_1
 10
489.3998
 20
158.8532
  0
SEQEND
  0
POLYLINE
  8
LAYER_1
 40
0.0847
 41
0.0847
 66
1
 10
0
 20
0
 30
0
  0
VERTEX
  8
LAYER_1
 10
489.3998
 20
161.1816
  0
VERTEX
  8
LAYER_1
 10
489.3998
 20
163.5099
  0
SEQEND
  0
POLYLINE
  8
LAYER_1
 40
0.0847
 41
0.0847
 66
1
 10
0
 20
0
 30
0
  0
VERTEX
  8
LAYER_1
 10
489.3998
 20
165.8647
  0
VERTEX
  8
LAYER_1
 10
489.3998
 20
168.193
  0
SEQEND
  0
POLYLINE
  8
LAYER_1
 40
0.0847
 41
0.0847
 66
1
 10
0
 20
0
 30
0
  0
VERTEX
  8
LAYER_1
 10
489.3998
 20
170.5214
  0
VERTEX
  8
LAYER_1
 10
489.3998
 20
171.712
  0
SEQEND
  0
POLYLINE
  8
LAYER_1
 40
0.1693
 41
0.1693
 66
1
 10
0
 20
0
 30
0
  0
VERTEX
  8
LAYER_1
 10
482.309
 20
175.5749
  0
VERTEX
  8
LAYER_1
 10
482.6265
 20
175.3368
  0
VERTEX
  8
LAYER_1
 10
482.309
 20
175.0722
  0
VERTEX
  8
LAYER_1
 10
482.6265
 20
174.8341
  0
VERTEX
  8
LAYER_1
 10
482.309
 20
174.5695
  0
VERTEX
  8
LAYER_1
 10
482.6265
 20
174.3314
  0
SEQEND
  0
POLYLINE
  8
LAYER_1
 40
0.1693
 41
0.1693
 66
1
 10
0
 20
0
 30
0
  0
VERTEX
  8
LAYER_1
 10
489.929
 20
175.522
  0
VERTEX
  8
LAYER_1
 10
490.2465
 20
175.2839
  0
VERTEX
  8
LAYER_1
 10
489.929
 20
175.0193
  0
VERTEX
  8
LAYER_1
 10
490.2465
 20
174.7811
  0
VERTEX
  8
LAYER_1
 10
489.929
 20
174.543
  0
VERTEX
  8
LAYER_1
 10
490.2465
 20
174.2785
  0
SEQEND
  0
POLYLINE
  8
LAYER_1
 40
0.1693
 41
0.1693
 66
1
 10
0
 20
0
 30
0
  0
VERTEX
  8
LAYER_1
 10
482.5471
 20
175.7601
  0
VERTEX
  8
LAYER_1
 10
482.309
 20
175.5749
  0
SEQEND
  0
POLYLINE
  8
LAYER_1
 40
0.1693
 41
0.1693
 66
1
 10
0
 20
0
 30
0
  0
VERTEX
  8
LAYER_1
 10
490.2465
 20
175.7866
  0
VERTEX
  8
LAYER_1
 10
489.929
 20
175.522
  0
SEQEND
  0
POLYLINE
  8
LAYER_1
 40
0.1693
 41
0.1693
 66
1
 10
0
 20
0
 30
0
  0
VERTEX
  8
LAYER_1
 10
490.22
 20
175.813
  0
VERTEX
  8
LAYER_1
 10
490.2465
 20
175.7865
  0
SEQEND
  0
POLYLINE
  8
LAYER_1
 40
0.1693
 41
0.1693
 66
1
 10
0
 20
0
 30
0
  0
VERTEX
  8
LAYER_1
 10
482.6
 20
175.813
  0
VERTEX
  8
LAYER_1
 10
482.309
 20
175.5749
  0
SEQEND
  0
POLYLINE
  8
LAYER_1
 40
0.1693
 41
0.1693
 66
1
 10
0
 20
0
 30
0
  0
VERTEX
  8
LAYER_1
 10
478.79
 20
199.5726
  0
VERTEX
  8
LAYER_1
 10
478.79
 20
200.3134
  0
VERTEX
  8
LAYER_1
 10
493.7654
 20
200.3134
  0
SEQEND
  0
POLYLINE
  8
LAYER_1
 40
0.1693
 41
0.1693
 66
1
 10
0
 20
0
 30
0
  0
VERTEX
  8
LAYER_1
 10
493.7654
 20
199.5726
  0
VERTEX
  8
LAYER_1
 10
493.7654
 20
200.3134
  0
SEQEND
  0
POLYLINE
  8
LAYER_1
 40
0.1693
 41
0.1693
 66
1
 10
0
 20
0
 30
0
  0
VERTEX
  8
LAYER_1
 10
478.79
 20
199.5726
  0
VERTEX
  8
LAYER_1
 10
493.7654
 20
199.5726
  0
SEQEND
  0
POLYLINE
  8
LAYER_1
 40
0.1693
 41
0.1693
 66
1
 10
0
 20
0
 30
0
  0
VERTEX
  8
LAYER_1
 10
482.0444
 20
198.4349
  0
VERTEX
  8
LAYER_1
 10
484.9283
 20
198.4349
  0
SEQEND
  0
POLYLINE
  8
LAYER_1
 40
0.1693
 41
0.1693
 66
1
 10
0
 20
0
 30
0
  0
VERTEX
  8
LAYER_1
 10
487.6271
 20
198.4349
  0
VERTEX
  8
LAYER_1
 10
490.511
 20
198.4349
  0
SEQEND
  0
POLYLINE
  8
LAYER_1
 40
0.0847
 41
0.0847
 66
1
 10
0
 20
0
 30
0
  0
VERTEX
  8
LAYER_1
 10
479.0546
 20
199.5726
  0
VERTEX
  8
LAYER_1
 10
479.0546
 20
200.3134
  0
SEQEND
  0
POLYLINE
  8
LAYER_1
 40
0.0847
 41
0.0847
 66
1
 10
0
 20
0
 30
0
  0
VERTEX
  8
LAYER_1
 10
493.5008
 20
199.5726
  0
VERTEX
  8
LAYER_1
 10
493.5008
 20
200.3134
  0
SEQEND
  0
POLYLINE
  8
LAYER_1
 40
0.1693
 41
0.1693
 66
1
 10
0
 20
0
 30
0
  0
VERTEX
  8
LAYER_1
 10
482.0444
 20
196.6887
  0
VERTEX
  8
LAYER_1
 10
482.0444
 20
199.5726
  0
SEQEND
  0
POLYLINE
  8
LAYER_1
 40
0.1693
 41
0.1693
 66
1
 10
0
 20
0
 30
0
  0
VERTEX
  8
LAYER_1
 10
484.9283
 20
196.6887
  0
VERTEX
  8
LAYER_1
 10
484.9283
 20
198.4349
  0
SEQEND
  0
POLYLINE
  8
LAYER_1
 40
0.1693
 41
0.1693
 66
1
 10
0
 20
0
 30
0
  0
VERTEX
  8
LAYER_1
 10
487.6271
 20
196.6887
  0
VERTEX
  8
LAYER_1
 10
487.6271
 20
198.4349
  0
SEQEND
  0
POLYLINE
  8
LAYER_1
 40
0.1693
 41
0.1693
 66
1
 10
0
 20
0
 30
0
  0
VERTEX
  8
LAYER_1
 10
490.5111
 20
196.6887
  0
VERTEX
  8
LAYER_1
 10
490.5111
 20
199.5726
  0
SEQEND
  0
TEXT
  8
LAYER_1
 10
508.873
 20
225.1053
 11
508.873
 21
225.1053
 40
3.2224
 41
0.5
  1
ë╗Å¤âLâââbâvâXâNâGâA
  0
TEXT
  8
LAYER_1
 10
530.9922
 20
143.6399
 11
530.9922
 21
143.6399
 40
3.8024
 41
0.5
  1
örÉàâgâëâbâv%%c25
  0
TEXT
  8
LAYER_1
 10
413.1203
 20
158.0858
 11
413.1203
 21
158.0858
 40
3.2224
 41
0.5
  1
örÉàû┌ÄMùpâiâbâg
  0
TEXT
  8
LAYER_1
 10
403.6219
 20
146.9471
 11
403.6219
 21
146.9471
 40
3.2224
 41
0.5
  1
â{âEâïî┼ÆÞö┬üiâoâbâNâvâîü[âgüj
  0
ENDBLK
  0
BLOCK
  8
LAYER_1
  2
AIGNBL0101000D
 70
64
 10
0
 20
0
 30
0
  3
AIGNBL0101000D
  0
POLYLINE
  8
LAYER_1
 40
0.05
 41
0.05
 66
1
 10
0
 20
0
 30
0
 70
1
  0
VERTEX
  8
LAYER_1
 10
94.9979
 20
192.9859
  0
VERTEX
  8
LAYER_1
 10
94.9979
 20
192.3721
  0
VERTEX
  8
LAYER_1
 10
95.6117
 20
192.3721
  0
VERTEX
  8
LAYER_1
 10
95.6117
 20
192.9859
  0
SEQEND
  0
POLYLINE
  8
LAYER_1
 40
0.0847
 41
0.0847
 66
1
 10
0
 20
0
 30
0
 70
1
  0
VERTEX
  8
LAYER_1
 10
94.9979
 20
192.9859
  0
VERTEX
  8
LAYER_1
 10
94.9979
 20
192.3721
  0
VERTEX
  8
LAYER_1
 10
95.6117
 20
192.3721
  0
VERTEX
  8
LAYER_1
 10
95.6117
 20
192.9859
  0
SEQEND
  0
POLYLINE
  8
LAYER_1
 40
0.05
 41
0.05
 66
1
 10
0
 20
0
 30
0
 70
1
  0
VERTEX
  8
LAYER_1
 10
116.0799
 20
192.9859
  0
VERTEX
  8
LAYER_1
 10
116.0799
 20
192.3721
  0
VERTEX
  8
LAYER_1
 10
115.4661
 20
192.3721
  0
VERTEX
  8
LAYER_1
 10
115.4661
 20
192.9859
  0
SEQEND
  0
POLYLINE
  8
LAYER_1
 40
0.0847
 41
0.0847
 66
1
 10
0
 20
0
 30
0
 70
1
  0
VERTEX
  8
LAYER_1
 10
116.0799
 20
192.9859
  0
VERTEX
  8
LAYER_1
 10
116.0799
 20
192.3721
  0
VERTEX
  8
LAYER_1
 10
115.4661
 20
192.3721
  0
VERTEX
  8
LAYER_1
 10
115.4661
 20
192.9859
  0
SEQEND
  0
POLYLINE
  8
LAYER_1
 40
0.254
 41
0.254
 66
1
 10
0
 20
0
 30
0
  0
VERTEX
  8
LAYER_1
 10
34.3977
 20
183.3763
  0
VERTEX
  8
LAYER_1
 10
99.0407
 20
183.3763
  0
SEQEND
  0
POLYLINE
  8
LAYER_1
 40
0.0847
 41
0.0847
 66
1
 10
0
 20
0
 30
0
  0
VERTEX
  8
LAYER_1
 10
162.3079
 20
183.3763
  0
VERTEX
  8
LAYER_1
 10
171.3038
 20
192.3721
  0
SEQEND
  0
POLYLINE
  8
LAYER_1
 40
0.0847
 41
0.0847
 66
1
 10
0
 20
0
 30
0
  0
VERTEX
  8
LAYER_1
 10
159.4928
 20
183.3763
  0
VERTEX
  8
LAYER_1
 10
168.4886
 20
192.3721
  0
SEQEND
  0
POLYLINE
  8
LAYER_1
 40
0.0847
 41
0.0847
 66
1
 10
0
 20
0
 30
0
  0
VERTEX
  8
LAYER_1
 10
156.6564
 20
183.3763
  0
VERTEX
  8
LAYER_1
 10
165.6523
 20
192.3721
  0
SEQEND
  0
POLYLINE
  8
LAYER_1
 40
0.0847
 41
0.0847
 66
1
 10
0
 20
0
 30
0
  0
VERTEX
  8
LAYER_1
 10
153.8201
 20
183.3763
  0
VERTEX
  8
LAYER_1
 10
162.8371
 20
192.3721
  0
SEQEND
  0
POLYLINE
  8
LAYER_1
 40
0.0847
 41
0.0847
 66
1
 10
0
 20
0
 30
0
  0
VERTEX
  8
LAYER_1
 10
151.005
 20
183.3763
  0
VERTEX
  8
LAYER_1
 10
160.0008
 20
192.3721
  0
SEQEND
  0
POLYLINE
  8
LAYER_1
 40
0.0847
 41
0.0847
 66
1
 10
0
 20
0
 30
0
  0
VERTEX
  8
LAYER_1
 10
105.539
 20
157.6164
  0
VERTEX
  8
LAYER_1
 10
105.539
 20
159.8813
  0
SEQEND
  0
POLYLINE
  8
LAYER_1
 40
0.0847
 41
0.0847
 66
1
 10
0
 20
0
 30
0
  0
VERTEX
  8
LAYER_1
 10
105.539
 20
160.7914
  0
VERTEX
  8
LAYER_1
 10
105.539
 20
161.7016
  0
SEQEND
  0
POLYLINE
  8
LAYER_1
 40
0.0847
 41
0.0847
 66
1
 10
0
 20
0
 30
0
  0
VERTEX
  8
LAYER_1
 10
105.539
 20
162.6118
  0
VERTEX
  8
LAYER_1
 10
105.539
 20
167.1626
  0
SEQEND
  0
POLYLINE
  8
LAYER_1
 40
0.0847
 41
0.0847
 66
1
 10
0
 20
0
 30
0
  0
VERTEX
  8
LAYER_1
 10
105.539
 20
168.0728
  0
VERTEX
  8
LAYER_1
 10
105.539
 20
168.9829
  0
SEQEND
  0
POLYLINE
  8
LAYER_1
 40
0.0847
 41
0.0847
 66
1
 10
0
 20
0
 30
0
  0
VERTEX
  8
LAYER_1
 10
105.539
 20
169.8931
  0
VERTEX
  8
LAYER_1
 10
105.539
 20
174.4439
  0
SEQEND
  0
POLYLINE
  8
LAYER_1
 40
0.0847
 41
0.0847
 66
1
 10
0
 20
0
 30
0
  0
VERTEX
  8
LAYER_1
 10
105.539
 20
175.3541
  0
VERTEX
  8
LAYER_1
 10
105.539
 20
176.2643
  0
SEQEND
  0
POLYLINE
  8
LAYER_1
 40
0.0847
 41
0.0847
 66
1
 10
0
 20
0
 30
0
  0
VERTEX
  8
LAYER_1
 10
105.539
 20
177.1744
  0
VERTEX
  8
LAYER_1
 10
105.539
 20
181.7253
  0
SEQEND
  0
POLYLINE
  8
LAYER_1
 40
0.0847
 41
0.0847
 66
1
 10
0
 20
0
 30
0
  0
VERTEX
  8
LAYER_1
 10
105.539
 20
182.6354
  0
VERTEX
  8
LAYER_1
 10
105.539
 20
183.5456
  0
SEQEND
  0
POLYLINE
  8
LAYER_1
 40
0.0847
 41
0.0847
 66
1
 10
0
 20
0
 30
0
  0
VERTEX
  8
LAYER_1
 10
105.539
 20
184.4558
  0
VERTEX
  8
LAYER_1
 10
105.539
 20
189.0066
  0
SEQEND
  0
POLYLINE
  8
LAYER_1
 40
0.0847
 41
0.0847
 66
1
 10
0
 20
0
 30
0
  0
VERTEX
  8
LAYER_1
 10
105.539
 20
189.9168
  0
VERTEX
  8
LAYER_1
 10
105.539
 20
190.8269
  0
SEQEND
  0
POLYLINE
  8
LAYER_1
 40
0.0847
 41
0.0847
 66
1
 10
0
 20
0
 30
0
  0
VERTEX
  8
LAYER_1
 10
105.539
 20
191.7371
  0
VERTEX
  8
LAYER_1
 10
105.539
 20
196.2879
  0
SEQEND
  0
POLYLINE
  8
LAYER_1
 40
0.0847
 41
0.0847
 66
1
 10
0
 20
0
 30
0
  0
VERTEX
  8
LAYER_1
 10
105.539
 20
197.1981
  0
VERTEX
  8
LAYER_1
 10
105.539
 20
198.1083
  0
SEQEND
  0
POLYLINE
  8
LAYER_1
 40
0.0847
 41
0.0847
 66
1
 10
0
 20
0
 30
0
  0
VERTEX
  8
LAYER_1
 10
105.539
 20
199.0184
  0
VERTEX
  8
LAYER_1
 10
105.539
 20
203.5693
  0
SEQEND
  0
POLYLINE
  8
LAYER_1
 40
0.0847
 41
0.0847
 66
1
 10
0
 20
0
 30
0
  0
VERTEX
  8
LAYER_1
 10
105.539
 20
204.4794
  0
VERTEX
  8
LAYER_1
 10
105.539
 20
205.3896
  0
SEQEND
  0
POLYLINE
  8
LAYER_1
 40
0.0847
 41
0.0847
 66
1
 10
0
 20
0
 30
0
  0
VERTEX
  8
LAYER_1
 10
105.539
 20
206.2998
  0
VERTEX
  8
LAYER_1
 10
105.539
 20
210.8506
  0
SEQEND
  0
POLYLINE
  8
LAYER_1
 40
0.0847
 41
0.0847
 66
1
 10
0
 20
0
 30
0
  0
VERTEX
  8
LAYER_1
 10
105.539
 20
211.7608
  0
VERTEX
  8
LAYER_1
 10
105.539
 20
212.6709
  0
SEQEND
  0
POLYLINE
  8
LAYER_1
 40
0.0847
 41
0.0847
 66
1
 10
0
 20
0
 30
0
  0
VERTEX
  8
LAYER_1
 10
105.539
 20
213.5811
  0
VERTEX
  8
LAYER_1
 10
105.539
 20
218.1319
  0
SEQEND
  0
POLYLINE
  8
LAYER_1
 40
0.0847
 41
0.0847
 66
1
 10
0
 20
0
 30
0
  0
VERTEX
  8
LAYER_1
 10
105.539
 20
219.0421
  0
VERTEX
  8
LAYER_1
 10
105.539
 20
219.9523
  0
SEQEND
  0
POLYLINE
  8
LAYER_1
 40
0.0847
 41
0.0847
 66
1
 10
0
 20
0
 30
0
  0
VERTEX
  8
LAYER_1
 10
105.539
 20
220.8624
  0
VERTEX
  8
LAYER_1
 10
105.539
 20
225.4133
  0
SEQEND
  0
POLYLINE
  8
LAYER_1
 40
0.0847
 41
0.0847
 66
1
 10
0
 20
0
 30
0
  0
VERTEX
  8
LAYER_1
 10
105.539
 20
226.3234
  0
VERTEX
  8
LAYER_1
 10
105.539
 20
227.2336
  0
SEQEND
  0
POLYLINE
  8
LAYER_1
 40
0.254
 41
0.254
 66
1
 10
0
 20
0
 30
0
  0
VERTEX
  8
LAYER_1
 10
99.0407
 20
183.3763
  0
VERTEX
  8
LAYER_1
 10
99.0407
 20
192.3721
  0
SEQEND
  0
POLYLINE
  8
LAYER_1
 40
0.254
 41
0.254
 66
1
 10
0
 20
0
 30
0
  0
VERTEX
  8
LAYER_1
 10
112.0371
 20
183.3763
  0
VERTEX
  8
LAYER_1
 10
112.0371
 20
192.3721
  0
SEQEND
  0
POLYLINE
  8
LAYER_1
 40
0.254
 41
0.254
 66
1
 10
0
 20
0
 30
0
  0
VERTEX
  8
LAYER_1
 10
34.3977
 20
192.3721
  0
VERTEX
  8
LAYER_1
 10
99.0407
 20
192.3721
  0
SEQEND
  0
POLYLINE
  8
LAYER_1
 40
0.254
 41
0.254
 66
1
 10
0
 20
0
 30
0
  0
VERTEX
  8
LAYER_1
 10
112.0371
 20
192.3721
  0
VERTEX
  8
LAYER_1
 10
176.6801
 20
192.3721
  0
SEQEND
  0
POLYLINE
  8
LAYER_1
 40
0.254
 41
0.254
 66
1
 10
0
 20
0
 30
0
  0
VERTEX
  8
LAYER_1
 10
112.0371
 20
183.3763
  0
VERTEX
  8
LAYER_1
 10
176.6801
 20
183.3763
  0
SEQEND
  0
POLYLINE
  8
LAYER_1
 40
0.0847
 41
0.0847
 66
1
 10
0
 20
0
 30
0
  0
VERTEX
  8
LAYER_1
 10
176.4469
 20
183.3763
  0
VERTEX
  8
LAYER_1
 10
177.1242
 20
184.0536
  0
SEQEND
  0
POLYLINE
  8
LAYER_1
 40
0.0847
 41
0.0847
 66
1
 10
0
 20
0
 30
0
  0
VERTEX
  8
LAYER_1
 10
173.6317
 20
183.3763
  0
VERTEX
  8
LAYER_1
 10
177.2512
 20
186.9958
  0
SEQEND
  0
POLYLINE
  8
LAYER_1
 40
0.0847
 41
0.0847
 66
1
 10
0
 20
0
 30
0
  0
VERTEX
  8
LAYER_1
 10
170.7954
 20
183.3763
  0
VERTEX
  8
LAYER_1
 10
176.1294
 20
188.7103
  0
SEQEND
  0
POLYLINE
  8
LAYER_1
 40
0.0847
 41
0.0847
 66
1
 10
0
 20
0
 30
0
  0
VERTEX
  8
LAYER_1
 10
167.9803
 20
183.3763
  0
VERTEX
  8
LAYER_1
 10
176.1506
 20
191.5466
  0
SEQEND
  0
POLYLINE
  8
LAYER_1
 40
0.0847
 41
0.0847
 66
1
 10
0
 20
0
 30
0
  0
VERTEX
  8
LAYER_1
 10
165.1439
 20
183.3763
  0
VERTEX
  8
LAYER_1
 10
174.1398
 20
192.3721
  0
SEQEND
  0
POLYLINE
  8
LAYER_1
 40
0.0847
 41
0.0847
 66
1
 10
0
 20
0
 30
0
  0
VERTEX
  8
LAYER_1
 10
148.1683
 20
183.3763
  0
VERTEX
  8
LAYER_1
 10
157.1641
 20
192.3721
  0
SEQEND
  0
POLYLINE
  8
LAYER_1
 40
0.0847
 41
0.0847
 66
1
 10
0
 20
0
 30
0
  0
VERTEX
  8
LAYER_1
 10
145.3531
 20
183.3763
  0
VERTEX
  8
LAYER_1
 10
154.3489
 20
192.3721
  0
SEQEND
  0
POLYLINE
  8
LAYER_1
 40
0.0847
 41
0.0847
 66
1
 10
0
 20
0
 30
0
  0
VERTEX
  8
LAYER_1
 10
142.5168
 20
183.3763
  0
VERTEX
  8
LAYER_1
 10
151.5126
 20
192.3721
  0
SEQEND
  0
POLYLINE
  8
LAYER_1
 40
0.0847
 41
0.0847
 66
1
 10
0
 20
0
 30
0
  0
VERTEX
  8
LAYER_1
 10
139.6805
 20
183.3763
  0
VERTEX
  8
LAYER_1
 10
148.6763
 20
192.3721
  0
SEQEND
  0
POLYLINE
  8
LAYER_1
 40
0.0847
 41
0.0847
 66
1
 10
0
 20
0
 30
0
  0
VERTEX
  8
LAYER_1
 10
136.8653
 20
183.3763
  0
VERTEX
  8
LAYER_1
 10
145.8611
 20
192.3721
  0
SEQEND
  0
POLYLINE
  8
LAYER_1
 40
0.0847
 41
0.0847
 66
1
 10
0
 20
0
 30
0
  0
VERTEX
  8
LAYER_1
 10
134.0289
 20
183.3763
  0
VERTEX
  8
LAYER_1
 10
143.0248
 20
192.3721
  0
SEQEND
  0
POLYLINE
  8
LAYER_1
 40
0.0847
 41
0.0847
 66
1
 10
0
 20
0
 30
0
  0
VERTEX
  8
LAYER_1
 10
131.1926
 20
183.3763
  0
VERTEX
  8
LAYER_1
 10
140.2096
 20
192.3721
  0
SEQEND
  0
POLYLINE
  8
LAYER_1
 40
0.0847
 41
0.0847
 66
1
 10
0
 20
0
 30
0
  0
VERTEX
  8
LAYER_1
 10
128.3774
 20
183.3763
  0
VERTEX
  8
LAYER_1
 10
137.3733
 20
192.3721
  0
SEQEND
  0
POLYLINE
  8
LAYER_1
 40
0.0847
 41
0.0847
 66
1
 10
0
 20
0
 30
0
  0
VERTEX
  8
LAYER_1
 10
125.5411
 20
183.3763
  0
VERTEX
  8
LAYER_1
 10
134.5369
 20
192.3721
  0
SEQEND
  0
POLYLINE
  8
LAYER_1
 40
0.0847
 41
0.0847
 66
1
 10
0
 20
0
 30
0
  0
VERTEX
  8
LAYER_1
 10
122.7259
 20
183.3763
  0
VERTEX
  8
LAYER_1
 10
131.7218
 20
192.3721
  0
SEQEND
  0
POLYLINE
  8
LAYER_1
 40
0.0847
 41
0.0847
 66
1
 10
0
 20
0
 30
0
  0
VERTEX
  8
LAYER_1
 10
119.8896
 20
183.3763
  0
VERTEX
  8
LAYER_1
 10
128.8854
 20
192.3721
  0
SEQEND
  0
POLYLINE
  8
LAYER_1
 40
0.0847
 41
0.0847
 66
1
 10
0
 20
0
 30
0
  0
VERTEX
  8
LAYER_1
 10
117.0533
 20
183.3763
  0
VERTEX
  8
LAYER_1
 10
126.0491
 20
192.3721
  0
SEQEND
  0
POLYLINE
  8
LAYER_1
 40
0.0847
 41
0.0847
 66
1
 10
0
 20
0
 30
0
  0
VERTEX
  8
LAYER_1
 10
114.2381
 20
183.3763
  0
VERTEX
  8
LAYER_1
 10
123.2339
 20
192.3721
  0
SEQEND
  0
POLYLINE
  8
LAYER_1
 40
0.0847
 41
0.0847
 66
1
 10
0
 20
0
 30
0
  0
VERTEX
  8
LAYER_1
 10
112.0368
 20
183.9901
  0
VERTEX
  8
LAYER_1
 10
120.3976
 20
192.3721
  0
SEQEND
  0
POLYLINE
  8
LAYER_1
 40
0.0847
 41
0.0847
 66
1
 10
0
 20
0
 30
0
  0
VERTEX
  8
LAYER_1
 10
112.0368
 20
186.8264
  0
VERTEX
  8
LAYER_1
 10
117.5824
 20
192.3721
  0
SEQEND
  0
POLYLINE
  8
LAYER_1
 40
0.0847
 41
0.0847
 66
1
 10
0
 20
0
 30
0
  0
VERTEX
  8
LAYER_1
 10
112.0368
 20
189.6628
  0
VERTEX
  8
LAYER_1
 10
114.7461
 20
192.3721
  0
SEQEND
  0
POLYLINE
  8
LAYER_1
 40
0.0847
 41
0.0847
 66
1
 10
0
 20
0
 30
0
  0
VERTEX
  8
LAYER_1
 10
97.2836
 20
183.3763
  0
VERTEX
  8
LAYER_1
 10
99.0404
 20
185.1331
  0
SEQEND
  0
POLYLINE
  8
LAYER_1
 40
0.0847
 41
0.0847
 66
1
 10
0
 20
0
 30
0
  0
VERTEX
  8
LAYER_1
 10
94.4473
 20
183.3763
  0
VERTEX
  8
LAYER_1
 10
99.0404
 20
187.9694
  0
SEQEND
  0
POLYLINE
  8
LAYER_1
 40
0.0847
 41
0.0847
 66
1
 10
0
 20
0
 30
0
  0
VERTEX
  8
LAYER_1
 10
91.6321
 20
183.3763
  0
VERTEX
  8
LAYER_1
 10
99.0404
 20
190.8058
  0
SEQEND
  0
POLYLINE
  8
LAYER_1
 40
0.0847
 41
0.0847
 66
1
 10
0
 20
0
 30
0
  0
VERTEX
  8
LAYER_1
 10
88.7957
 20
183.3763
  0
VERTEX
  8
LAYER_1
 10
97.7916
 20
192.3721
  0
SEQEND
  0
POLYLINE
  8
LAYER_1
 40
0.0847
 41
0.0847
 66
1
 10
0
 20
0
 30
0
  0
VERTEX
  8
LAYER_1
 10
85.9594
 20
183.3763
  0
VERTEX
  8
LAYER_1
 10
94.9764
 20
192.3721
  0
SEQEND
  0
POLYLINE
  8
LAYER_1
 40
0.0847
 41
0.0847
 66
1
 10
0
 20
0
 30
0
  0
VERTEX
  8
LAYER_1
 10
83.1442
 20
183.3763
  0
VERTEX
  8
LAYER_1
 10
92.1401
 20
192.3721
  0
SEQEND
  0
POLYLINE
  8
LAYER_1
 40
0.0847
 41
0.0847
 66
1
 10
0
 20
0
 30
0
  0
VERTEX
  8
LAYER_1
 10
80.3079
 20
183.3763
  0
VERTEX
  8
LAYER_1
 10
89.3037
 20
192.3721
  0
SEQEND
  0
POLYLINE
  8
LAYER_1
 40
0.0847
 41
0.0847
 66
1
 10
0
 20
0
 30
0
  0
VERTEX
  8
LAYER_1
 10
77.4927
 20
183.3763
  0
VERTEX
  8
LAYER_1
 10
86.4886
 20
192.3721
  0
SEQEND
  0
POLYLINE
  8
LAYER_1
 40
0.0847
 41
0.0847
 66
1
 10
0
 20
0
 30
0
  0
VERTEX
  8
LAYER_1
 10
74.6564
 20
183.3763
  0
VERTEX
  8
LAYER_1
 10
83.6522
 20
192.3721
  0
SEQEND
  0
POLYLINE
  8
LAYER_1
 40
0.0847
 41
0.0847
 66
1
 10
0
 20
0
 30
0
  0
VERTEX
  8
LAYER_1
 10
71.8201
 20
183.3763
  0
VERTEX
  8
LAYER_1
 10
80.8371
 20
192.3721
  0
SEQEND
  0
POLYLINE
  8
LAYER_1
 40
0.0847
 41
0.0847
 66
1
 10
0
 20
0
 30
0
  0
VERTEX
  8
LAYER_1
 10
69.0049
 20
183.3763
  0
VERTEX
  8
LAYER_1
 10
78.0007
 20
192.3721
  0
SEQEND
  0
POLYLINE
  8
LAYER_1
 40
0.0847
 41
0.0847
 66
1
 10
0
 20
0
 30
0
  0
VERTEX
  8
LAYER_1
 10
66.1686
 20
183.3763
  0
VERTEX
  8
LAYER_1
 10
75.1644
 20
192.3721
  0
SEQEND
  0
POLYLINE
  8
LAYER_1
 40
0.0847
 41
0.0847
 66
1
 10
0
 20
0
 30
0
  0
VERTEX
  8
LAYER_1
 10
63.3322
 20
183.3763
  0
VERTEX
  8
LAYER_1
 10
72.3492
 20
192.3721
  0
SEQEND
  0
POLYLINE
  8
LAYER_1
 40
0.0847
 41
0.0847
 66
1
 10
0
 20
0
 30
0
  0
VERTEX
  8
LAYER_1
 10
60.517
 20
183.3763
  0
VERTEX
  8
LAYER_1
 10
69.5129
 20
192.3721
  0
SEQEND
  0
POLYLINE
  8
LAYER_1
 40
0.0847
 41
0.0847
 66
1
 10
0
 20
0
 30
0
  0
VERTEX
  8
LAYER_1
 10
57.6807
 20
183.3763
  0
VERTEX
  8
LAYER_1
 10
66.6765
 20
192.3721
  0
SEQEND
  0
POLYLINE
  8
LAYER_1
 40
0.0847
 41
0.0847
 66
1
 10
0
 20
0
 30
0
  0
VERTEX
  8
LAYER_1
 10
54.8655
 20
183.3763
  0
VERTEX
  8
LAYER_1
 10
63.8614
 20
192.3721
  0
SEQEND
  0
POLYLINE
  8
LAYER_1
 40
0.0847
 41
0.0847
 66
1
 10
0
 20
0
 30
0
  0
VERTEX
  8
LAYER_1
 10
52.0292
 20
183.3763
  0
VERTEX
  8
LAYER_1
 10
61.025
 20
192.3721
  0
SEQEND
  0
POLYLINE
  8
LAYER_1
 40
0.0847
 41
0.0847
 66
1
 10
0
 20
0
 30
0
  0
VERTEX
  8
LAYER_1
 10
49.1929
 20
183.3763
  0
VERTEX
  8
LAYER_1
 10
58.2099
 20
192.3721
  0
SEQEND
  0
POLYLINE
  8
LAYER_1
 40
0.0847
 41
0.0847
 66
1
 10
0
 20
0
 30
0
  0
VERTEX
  8
LAYER_1
 10
46.3777
 20
183.3763
  0
VERTEX
  8
LAYER_1
 10
55.3735
 20
192.3721
  0
SEQEND
  0
POLYLINE
  8
LAYER_1
 40
0.0847
 41
0.0847
 66
1
 10
0
 20
0
 30
0
  0
VERTEX
  8
LAYER_1
 10
43.5414
 20
183.3763
  0
VERTEX
  8
LAYER_1
 10
52.5372
 20
192.3721
  0
SEQEND
  0
POLYLINE
  8
LAYER_1
 40
0.0847
 41
0.0847
 66
1
 10
0
 20
0
 30
0
  0
VERTEX
  8
LAYER_1
 10
40.7262
 20
183.3763
  0
VERTEX
  8
LAYER_1
 10
49.722
 20
192.3721
  0
SEQEND
  0
POLYLINE
  8
LAYER_1
 40
0.0847
 41
0.0847
 66
1
 10
0
 20
0
 30
0
  0
VERTEX
  8
LAYER_1
 10
37.8899
 20
183.3763
  0
VERTEX
  8
LAYER_1
 10
46.8857
 20
192.3721
  0
SEQEND
  0
POLYLINE
  8
LAYER_1
 40
0.0847
 41
0.0847
 66
1
 10
0
 20
0
 30
0
  0
VERTEX
  8
LAYER_1
 10
35.0535
 20
183.3763
  0
VERTEX
  8
LAYER_1
 10
44.0494
 20
192.3721
  0
SEQEND
  0
POLYLINE
  8
LAYER_1
 40
0.0847
 41
0.0847
 66
1
 10
0
 20
0
 30
0
  0
VERTEX
  8
LAYER_1
 10
33.593
 20
184.7309
  0
VERTEX
  8
LAYER_1
 10
41.2342
 20
192.3721
  0
SEQEND
  0
POLYLINE
  8
LAYER_1
 40
0.0847
 41
0.0847
 66
1
 10
0
 20
0
 30
0
  0
VERTEX
  8
LAYER_1
 10
35.1594
 20
189.1336
  0
VERTEX
  8
LAYER_1
 10
38.3979
 20
192.3721
  0
SEQEND
  0
POLYLINE
  8
LAYER_1
 40
0.0847
 41
0.0847
 66
1
 10
0
 20
0
 30
0
  0
VERTEX
  8
LAYER_1
 10
34.863
 20
191.6524
  0
VERTEX
  8
LAYER_1
 10
35.5827
 20
192.3721
  0
SEQEND
  0
TEXT
  8
LAYER_1
 10
150.243
 20
197.2616
 11
150.243
 21
197.2616
 40
2.5779
 41
0.5
  1
âXâ`âìü[âïâpâbâLâô
  0
TEXT
  8
LAYER_1
 10
116.6514
 20
211.0472
 11
116.6514
 21
211.0472
 40
3.0419
 41
0.5
  1
JORGERÉ╗ örÉàïÓï´100mm
  0
POLYLINE
  8
LAYER_1
 40
0.0847
 41
0.0847
 66
1
 10
0
 20
0
 30
0
  0
VERTEX
  8
LAYER_1
 10
107.8672
 20
200.6271
  0
VERTEX
  8
LAYER_1
 10
115.9741
 20
210.9141
  0
SEQEND
  0
TEXT
  8
LAYER_1
 10
140.2097
 20
179.2912
 11
140.2097
 21
179.2912
 40
4.2535
 41
0.5
  1
ôVö┬èJî¹Éíû@üF65067
  0
POLYLINE
  8
LAYER_1
 40
0.0847
 41
0.0847
 66
1
 10
0
 20
0
 30
0
  0
VERTEX
  8
LAYER_1
 10
100.5648
 20
191.1868
  0
VERTEX
  8
LAYER_1
 10
51.3523
 20
164.4321
  0
SEQEND
  0
TEXT
  8
LAYER_1
 10
18.1835
 20
163.056
 11
18.1835
 21
163.056
 40
2.5779
 41
0.5
  1
Ä¸ÄëâpâbâLâôòtì└òté½âiâbâg
  0
POLYLINE
  8
LAYER_1
 40
0.0847
 41
0.0847
 66
1
 10
0
 20
0
 30
0
  0
VERTEX
  8
LAYER_1
 10
34.3977
 20
192.3721
  0
VERTEX
  8
LAYER_1
 10
34.5459
 20
192.1604
  0
VERTEX
  8
LAYER_1
 10
34.7787
 20
191.8006
  0
VERTEX
  8
LAYER_1
 10
35.0116
 20
191.4408
  0
VERTEX
  8
LAYER_1
 10
35.1809
 20
191.0598
  0
VERTEX
  8
LAYER_1
 10
35.3291
 20
190.6999
  0
VERTEX
  8
LAYER_1
 10
35.4137
 20
190.3401
  0
VERTEX
  8
LAYER_1
 10
35.4137
 20
190.1284
  0
VERTEX
  8
LAYER_1
 10
35.4137
 20
189.9168
  0
VERTEX
  8
LAYER_1
 10
35.3291
 20
189.5358
  0
VERTEX
  8
LAYER_1
 10
35.1809
 20
189.1759
  0
VERTEX
  8
LAYER_1
 10
35.0116
 20
188.8161
  0
VERTEX
  8
LAYER_1
 10
34.7787
 20
188.4563
  0
VERTEX
  8
LAYER_1
 10
34.5459
 20
188.0753
  0
VERTEX
  8
LAYER_1
 10
34.2496
 20
187.6519
  0
VERTEX
  8
LAYER_1
 10
34.0167
 20
187.2921
  0
VERTEX
  8
LAYER_1
 10
33.7839
 20
186.9323
  0
VERTEX
  8
LAYER_1
 10
33.5934
 20
186.5724
  0
VERTEX
  8
LAYER_1
 10
33.4664
 20
186.1914
  0
VERTEX
  8
LAYER_1
 10
33.3817
 20
185.8316
  0
VERTEX
  8
LAYER_1
 10
33.3606
 20
185.6199
  0
VERTEX
  8
LAYER_1
 10
33.3817
 20
185.4083
  0
VERTEX
  8
LAYER_1
 10
33.4664
 20
185.0484
  0
VERTEX
  8
LAYER_1
 10
33.5934
 20
184.6886
  0
VERTEX
  8
LAYER_1
 10
33.7839
 20
184.3076
  0
VERTEX
  8
LAYER_1
 10
34.0167
 20
183.9478
  0
VERTEX
  8
LAYER_1
 10
34.2496
 20
183.5879
  0
VERTEX
  8
LAYER_1
 10
34.3977
 20
183.3763
  0
SEQEND
  0
POLYLINE
  8
LAYER_1
 40
0.0847
 41
0.0847
 66
1
 10
0
 20
0
 30
0
  0
VERTEX
  8
LAYER_1
 10
176.6801
 20
192.3721
  0
VERTEX
  8
LAYER_1
 10
176.5319
 20
192.1604
  0
VERTEX
  8
LAYER_1
 10
176.2991
 20
191.8006
  0
VERTEX
  8
LAYER_1
 10
176.0662
 20
191.4408
  0
VERTEX
  8
LAYER_1
 10
175.8969
 20
191.0598
  0
VERTEX
  8
LAYER_1
 10
175.7487
 20
190.6999
  0
VERTEX
  8
LAYER_1
 10
175.6641
 20
190.3401
  0
VERTEX
  8
LAYER_1
 10
175.6641
 20
190.1284
  0
VERTEX
  8
LAYER_1
 10
175.6641
 20
189.9168
  0
VERTEX
  8
LAYER_1
 10
175.7487
 20
189.5358
  0
VERTEX
  8
LAYER_1
 10
175.8969
 20
189.1759
  0
VERTEX
  8
LAYER_1
 10
176.0662
 20
188.8161
  0
VERTEX
  8
LAYER_1
 10
176.2991
 20
188.4563
  0
VERTEX
  8
LAYER_1
 10
176.5319
 20
188.0753
  0
VERTEX
  8
LAYER_1
 10
176.8282
 20
187.6519
  0
VERTEX
  8
LAYER_1
 10
177.0611
 20
187.2921
  0
VERTEX
  8
LAYER_1
 10
177.2939
 20
186.9323
  0
VERTEX
  8
LAYER_1
 10
177.4844
 20
186.5724
  0
VERTEX
  8
LAYER_1
 10
177.6114
 20
186.1914
  0
VERTEX
  8
LAYER_1
 10
177.6961
 20
185.8316
  0
VERTEX
  8
LAYER_1
 10
177.7172
 20
185.6199
  0
VERTEX
  8
LAYER_1
 10
177.6961
 20
185.4083
  0
VERTEX
  8
LAYER_1
 10
177.6114
 20
185.0484
  0
VERTEX
  8
LAYER_1
 10
177.4844
 20
184.6886
  0
VERTEX
  8
LAYER_1
 10
177.2939
 20
184.3076
  0
VERTEX
  8
LAYER_1
 10
177.0611
 20
183.9478
  0
VERTEX
  8
LAYER_1
 10
176.8282
 20
183.5879
  0
VERTEX
  8
LAYER_1
 10
176.6801
 20
183.3763
  0
SEQEND
  0
POLYLINE
  8
LAYER_1
 40
0.0847
 41
0.0847
 66
1
 10
0
 20
0
 30
0
  0
VERTEX
  8
LAYER_1
 10
102.3428
 20
165.1941
  0
VERTEX
  8
LAYER_1
 10
102.3639
 20
165.2153
  0
SEQEND
  0
POLYLINE
  8
LAYER_1
 40
0.0847
 41
0.0847
 66
1
 10
0
 20
0
 30
0
  0
VERTEX
  8
LAYER_1
 10
102.4486
 20
165.2999
  0
VERTEX
  8
LAYER_1
 10
102.4909
 20
165.3423
  0
VERTEX
  8
LAYER_1
 10
102.5544
 20
165.3846
  0
SEQEND
  0
POLYLINE
  8
LAYER_1
 40
0.0847
 41
0.0847
 66
1
 10
0
 20
0
 30
0
  0
VERTEX
  8
LAYER_1
 10
102.6814
 20
165.5116
  0
VERTEX
  8
LAYER_1
 10
102.7661
 20
165.5751
  0
VERTEX
  8
LAYER_1
 10
102.8296
 20
165.6174
  0
SEQEND
  0
POLYLINE
  8
LAYER_1
 40
0.0847
 41
0.0847
 66
1
 10
0
 20
0
 30
0
  0
VERTEX
  8
LAYER_1
 10
102.9566
 20
165.7233
  0
VERTEX
  8
LAYER_1
 10
103.0201
 20
165.7868
  0
VERTEX
  8
LAYER_1
 10
103.0836
 20
165.8291
  0
SEQEND
  0
POLYLINE
  8
LAYER_1
 40
0.0847
 41
0.0847
 66
1
 10
0
 20
0
 30
0
  0
VERTEX
  8
LAYER_1
 10
103.2106
 20
165.9138
  0
VERTEX
  8
LAYER_1
 10
103.2741
 20
165.9773
  0
VERTEX
  8
LAYER_1
 10
103.3376
 20
165.9984
  0
SEQEND
  0
POLYLINE
  8
LAYER_1
 40
0.0847
 41
0.0847
 66
1
 10
0
 20
0
 30
0
  0
VERTEX
  8
LAYER_1
 10
103.4646
 20
166.0619
  0
VERTEX
  8
LAYER_1
 10
103.5492
 20
166.1043
  0
VERTEX
  8
LAYER_1
 10
103.6127
 20
166.1254
  0
SEQEND
  0
POLYLINE
  8
LAYER_1
 40
0.0847
 41
0.0847
 66
1
 10
0
 20
0
 30
0
  0
VERTEX
  8
LAYER_1
 10
103.7398
 20
166.1678
  0
VERTEX
  8
LAYER_1
 10
103.8032
 20
166.1889
  0
VERTEX
  8
LAYER_1
 10
103.8244
 20
166.1889
  0
SEQEND
  0
POLYLINE
  8
LAYER_1
 40
0.0847
 41
0.0847
 66
1
 10
0
 20
0
 30
0
  0
VERTEX
  8
LAYER_1
 10
103.9091
 20
166.1889
  0
VERTEX
  8
LAYER_1
 10
103.9514
 20
166.1889
  0
VERTEX
  8
LAYER_1
 10
103.9726
 20
166.1889
  0
SEQEND
  0
POLYLINE
  8
LAYER_1
 40
0.0847
 41
0.0847
 66
1
 10
0
 20
0
 30
0
  0
VERTEX
  8
LAYER_1
 10
104.0573
 20
166.1889
  0
VERTEX
  8
LAYER_1
 10
104.0996
 20
166.1889
  0
VERTEX
  8
LAYER_1
 10
104.1631
 20
166.1678
  0
SEQEND
  0
POLYLINE
  8
LAYER_1
 40
0.0847
 41
0.0847
 66
1
 10
0
 20
0
 30
0
  0
VERTEX
  8
LAYER_1
 10
104.2901
 20
166.1254
  0
VERTEX
  8
LAYER_1
 10
104.3536
 20
166.1043
  0
VERTEX
  8
LAYER_1
 10
104.4171
 20
166.0831
  0
SEQEND
  0
POLYLINE
  8
LAYER_1
 40
0.0847
 41
0.0847
 66
1
 10
0
 20
0
 30
0
  0
VERTEX
  8
LAYER_1
 10
104.5441
 20
166.0196
  0
VERTEX
  8
LAYER_1
 10
104.6288
 20
165.9773
  0
VERTEX
  8
LAYER_1
 10
104.6923
 20
165.9349
  0
SEQEND
  0
POLYLINE
  8
LAYER_1
 40
0.0847
 41
0.0847
 66
1
 10
0
 20
0
 30
0
  0
VERTEX
  8
LAYER_1
 10
104.8193
 20
165.8503
  0
VERTEX
  8
LAYER_1
 10
104.8828
 20
165.7868
  0
VERTEX
  8
LAYER_1
 10
104.9463
 20
165.7444
  0
SEQEND
  0
POLYLINE
  8
LAYER_1
 40
0.0847
 41
0.0847
 66
1
 10
0
 20
0
 30
0
  0
VERTEX
  8
LAYER_1
 10
105.0733
 20
165.6386
  0
VERTEX
  8
LAYER_1
 10
105.1368
 20
165.5751
  0
VERTEX
  8
LAYER_1
 10
105.2003
 20
165.5328
  0
SEQEND
  0
POLYLINE
  8
LAYER_1
 40
0.0847
 41
0.0847
 66
1
 10
0
 20
0
 30
0
  0
VERTEX
  8
LAYER_1
 10
105.3273
 20
165.4058
  0
VERTEX
  8
LAYER_1
 10
105.3908
 20
165.3423
  0
VERTEX
  8
LAYER_1
 10
105.4543
 20
165.2788
  0
SEQEND
  0
POLYLINE
  8
LAYER_1
 40
0.0847
 41
0.0847
 66
1
 10
0
 20
0
 30
0
  0
VERTEX
  8
LAYER_1
 10
105.6024
 20
165.1306
  0
VERTEX
  8
LAYER_1
 10
105.6871
 20
165.0459
  0
VERTEX
  8
LAYER_1
 10
105.7506
 20
165.0036
  0
SEQEND
  0
POLYLINE
  8
LAYER_1
 40
0.0847
 41
0.0847
 66
1
 10
0
 20
0
 30
0
  0
VERTEX
  8
LAYER_1
 10
105.8776
 20
164.8766
  0
VERTEX
  8
LAYER_1
 10
105.9411
 20
164.8131
  0
VERTEX
  8
LAYER_1
 10
106.0046
 20
164.7708
  0
SEQEND
  0
POLYLINE
  8
LAYER_1
 40
0.0847
 41
0.0847
 66
1
 10
0
 20
0
 30
0
  0
VERTEX
  8
LAYER_1
 10
106.1316
 20
164.6649
  0
VERTEX
  8
LAYER_1
 10
106.1951
 20
164.6014
  0
VERTEX
  8
LAYER_1
 10
106.2586
 20
164.5591
  0
SEQEND
  0
POLYLINE
  8
LAYER_1
 40
0.0847
 41
0.0847
 66
1
 10
0
 20
0
 30
0
  0
VERTEX
  8
LAYER_1
 10
106.3856
 20
164.4744
  0
VERTEX
  8
LAYER_1
 10
106.4491
 20
164.4109
  0
VERTEX
  8
LAYER_1
 10
106.5126
 20
164.3898
  0
SEQEND
  0
POLYLINE
  8
LAYER_1
 40
0.0847
 41
0.0847
 66
1
 10
0
 20
0
 30
0
  0
VERTEX
  8
LAYER_1
 10
106.6396
 20
164.3262
  0
VERTEX
  8
LAYER_1
 10
106.7243
 20
164.2839
  0
VERTEX
  8
LAYER_1
 10
106.7878
 20
164.2627
  0
SEQEND
  0
POLYLINE
  8
LAYER_1
 40
0.0847
 41
0.0847
 66
1
 10
0
 20
0
 30
0
  0
VERTEX
  8
LAYER_1
 10
106.9148
 20
164.2204
  0
VERTEX
  8
LAYER_1
 10
106.9783
 20
164.1993
  0
VERTEX
  8
LAYER_1
 10
106.9994
 20
164.1993
  0
SEQEND
  0
POLYLINE
  8
LAYER_1
 40
0.0847
 41
0.0847
 66
1
 10
0
 20
0
 30
0
  0
VERTEX
  8
LAYER_1
 10
107.0841
 20
164.1993
  0
VERTEX
  8
LAYER_1
 10
107.1264
 20
164.1993
  0
VERTEX
  8
LAYER_1
 10
107.1476
 20
164.1993
  0
SEQEND
  0
POLYLINE
  8
LAYER_1
 40
0.0847
 41
0.0847
 66
1
 10
0
 20
0
 30
0
  0
VERTEX
  8
LAYER_1
 10
107.2323
 20
164.1993
  0
VERTEX
  8
LAYER_1
 10
107.2746
 20
164.1993
  0
VERTEX
  8
LAYER_1
 10
107.3381
 20
164.2204
  0
SEQEND
  0
POLYLINE
  8
LAYER_1
 40
0.0847
 41
0.0847
 66
1
 10
0
 20
0
 30
0
  0
VERTEX
  8
LAYER_1
 10
107.4651
 20
164.2627
  0
VERTEX
  8
LAYER_1
 10
107.5286
 20
164.2839
  0
VERTEX
  8
LAYER_1
 10
107.5921
 20
164.3051
  0
SEQEND
  0
POLYLINE
  8
LAYER_1
 40
0.0847
 41
0.0847
 66
1
 10
0
 20
0
 30
0
  0
VERTEX
  8
LAYER_1
 10
107.7191
 20
164.3686
  0
VERTEX
  8
LAYER_1
 10
107.8038
 20
164.4109
  0
VERTEX
  8
LAYER_1
 10
107.8673
 20
164.4533
  0
SEQEND
  0
POLYLINE
  8
LAYER_1
 40
0.0847
 41
0.0847
 66
1
 10
0
 20
0
 30
0
  0
VERTEX
  8
LAYER_1
 10
107.9943
 20
164.5379
  0
VERTEX
  8
LAYER_1
 10
108.0578
 20
164.6014
  0
VERTEX
  8
LAYER_1
 10
108.1213
 20
164.6438
  0
SEQEND
  0
POLYLINE
  8
LAYER_1
 40
0.0847
 41
0.0847
 66
1
 10
0
 20
0
 30
0
  0
VERTEX
  8
LAYER_1
 10
108.2483
 20
164.7496
  0
VERTEX
  8
LAYER_1
 10
108.3118
 20
164.8131
  0
VERTEX
  8
LAYER_1
 10
108.3753
 20
164.8554
  0
SEQEND
  0
POLYLINE
  8
LAYER_1
 40
0.0847
 41
0.0847
 66
1
 10
0
 20
0
 30
0
  0
VERTEX
  8
LAYER_1
 10
108.5023
 20
164.9824
  0
VERTEX
  8
LAYER_1
 10
108.5869
 20
165.0459
  0
VERTEX
  8
LAYER_1
 10
108.6081
 20
165.0671
  0
SEQEND
  0
POLYLINE
  8
LAYER_1
 40
0.0847
 41
0.0847
 66
1
 10
0
 20
0
 30
0
  0
VERTEX
  8
LAYER_1
 10
108.6928
 20
165.1518
  0
VERTEX
  8
LAYER_1
 10
108.7351
 20
165.1941
  0
SEQEND
  0
POLYLINE
  8
LAYER_1
 40
0.0847
 41
0.0847
 66
1
 10
0
 20
0
 30
0
  0
VERTEX
  8
LAYER_1
 10
111.1269
 20
192.3721
  0
VERTEX
  8
LAYER_1
 10
111.1269
 20
193.3669
  0
SEQEND
  0
POLYLINE
  8
LAYER_1
 40
0.0847
 41
0.0847
 66
1
 10
0
 20
0
 30
0
  0
VERTEX
  8
LAYER_1
 10
111.1269
 20
195.3566
  0
VERTEX
  8
LAYER_1
 10
111.1269
 20
196.3726
  0
SEQEND
  0
POLYLINE
  8
LAYER_1
 40
0.1693
 41
0.1693
 66
1
 10
0
 20
0
 30
0
  0
VERTEX
  8
LAYER_1
 10
25.5501
 20
214.1738
  0
VERTEX
  8
LAYER_1
 10
25.5501
 20
216.5656
  0
SEQEND
  0
POLYLINE
  8
LAYER_1
 40
0.1693
 41
0.1693
 66
1
 10
0
 20
0
 30
0
  0
VERTEX
  8
LAYER_1
 10
98.5539
 20
198.7644
  0
VERTEX
  8
LAYER_1
 10
100.9457
 20
196.3726
  0
SEQEND
  0
POLYLINE
  8
LAYER_1
 40
0.1693
 41
0.1693
 66
1
 10
0
 20
0
 30
0
  0
VERTEX
  8
LAYER_1
 10
112.5239
 20
198.7644
  0
VERTEX
  8
LAYER_1
 10
110.1321
 20
196.3726
  0
SEQEND
  0
POLYLINE
  8
LAYER_1
 40
0.1693
 41
0.1693
 66
1
 10
0
 20
0
 30
0
  0
VERTEX
  8
LAYER_1
 10
185.5277
 20
214.1738
  0
VERTEX
  8
LAYER_1
 10
185.5277
 20
216.5656
  0
SEQEND
  0
POLYLINE
  8
LAYER_1
 40
0.1693
 41
0.1693
 66
1
 10
0
 20
0
 30
0
  0
VERTEX
  8
LAYER_1
 10
185.5277
 20
214.1738
  0
VERTEX
  8
LAYER_1
 10
185.5277
 20
216.5656
  0
SEQEND
  0
POLYLINE
  8
LAYER_1
 40
0.1693
 41
0.1693
 66
1
 10
0
 20
0
 30
0
  0
VERTEX
  8
LAYER_1
 10
25.5501
 20
214.1738
  0
VERTEX
  8
LAYER_1
 10
35.2021
 20
214.1738
  0
SEQEND
  0
POLYLINE
  8
LAYER_1
 40
0.1693
 41
0.1693
 66
1
 10
0
 20
0
 30
0
  0
VERTEX
  8
LAYER_1
 10
185.5277
 20
214.1738
  0
VERTEX
  8
LAYER_1
 10
185.5277
 20
216.5656
  0
SEQEND
  0
POLYLINE
  8
LAYER_1
 40
0.1693
 41
0.1693
 66
1
 10
0
 20
0
 30
0
  0
VERTEX
  8
LAYER_1
 10
175.8757
 20
214.1738
  0
VERTEX
  8
LAYER_1
 10
185.5277
 20
214.1738
  0
SEQEND
  0
POLYLINE
  8
LAYER_1
 40
0.1693
 41
0.1693
 66
1
 10
0
 20
0
 30
0
  0
VERTEX
  8
LAYER_1
 10
35.2021
 20
214.1738
  0
VERTEX
  8
LAYER_1
 10
96.5431
 20
196.3726
  0
SEQEND
  0
POLYLINE
  8
LAYER_1
 40
0.1693
 41
0.1693
 66
1
 10
0
 20
0
 30
0
  0
VERTEX
  8
LAYER_1
 10
175.8757
 20
214.1738
  0
VERTEX
  8
LAYER_1
 10
114.5347
 20
196.3726
  0
SEQEND
  0
POLYLINE
  8
LAYER_1
 40
0.1693
 41
0.1693
 66
1
 10
0
 20
0
 30
0
  0
VERTEX
  8
LAYER_1
 10
175.8757
 20
214.1738
  0
VERTEX
  8
LAYER_1
 10
185.5277
 20
214.1738
  0
SEQEND
  0
POLYLINE
  8
LAYER_1
 40
0.1693
 41
0.1693
 66
1
 10
0
 20
0
 30
0
  0
VERTEX
  8
LAYER_1
 10
94.9979
 20
192.3721
  0
VERTEX
  8
LAYER_1
 10
95.6117
 20
192.3721
  0
SEQEND
  0
POLYLINE
  8
LAYER_1
 40
0.1693
 41
0.1693
 66
1
 10
0
 20
0
 30
0
  0
VERTEX
  8
LAYER_1
 10
94.9979
 20
192.3721
  0
VERTEX
  8
LAYER_1
 10
94.9979
 20
192.9859
  0
VERTEX
  8
LAYER_1
 10
95.6117
 20
192.9859
  0
SEQEND
  0
POLYLINE
  8
LAYER_1
 40
0.1693
 41
0.1693
 66
1
 10
0
 20
0
 30
0
  0
VERTEX
  8
LAYER_1
 10
95.6117
 20
192.3721
  0
VERTEX
  8
LAYER_1
 10
95.6117
 20
192.9859
  0
SEQEND
  0
POLYLINE
  8
LAYER_1
 40
0.1693
 41
0.1693
 66
1
 10
0
 20
0
 30
0
  0
VERTEX
  8
LAYER_1
 10
115.4661
 20
192.3721
  0
VERTEX
  8
LAYER_1
 10
116.0799
 20
192.3721
  0
VERTEX
  8
LAYER_1
 10
116.0799
 20
192.9859
  0
SEQEND
  0
POLYLINE
  8
LAYER_1
 40
0.1693
 41
0.1693
 66
1
 10
0
 20
0
 30
0
  0
VERTEX
  8
LAYER_1
 10
115.4661
 20
192.9859
  0
VERTEX
  8
LAYER_1
 10
116.0799
 20
192.9859
  0
SEQEND
  0
POLYLINE
  8
LAYER_1
 40
0.1693
 41
0.1693
 66
1
 10
0
 20
0
 30
0
  0
VERTEX
  8
LAYER_1
 10
115.4661
 20
192.3721
  0
VERTEX
  8
LAYER_1
 10
115.4661
 20
192.9859
  0
SEQEND
  0
POLYLINE
  8
LAYER_1
 40
0.254
 41
0.254
 66
1
 10
0
 20
0
 30
0
  0
VERTEX
  8
LAYER_1
 10
87.5472
 20
192.3721
  0
VERTEX
  8
LAYER_1
 10
123.5306
 20
192.3721
  0
SEQEND
  0
POLYLINE
  8
LAYER_1
 40
0.254
 41
0.254
 66
1
 10
0
 20
0
 30
0
  0
VERTEX
  8
LAYER_1
 10
123.5094
 20
192.3933
 42
0.387062504
  0
VERTEX
  8
LAYER_1
 10
121.5197
 20
194.3618
  0
VERTEX
  8
LAYER_1
 10
121.4986
 20
194.3618
  0
SEQEND
  0
POLYLINE
  8
LAYER_1
 40
0.254
 41
0.254
 66
1
 10
0
 20
0
 30
0
  0
VERTEX
  8
LAYER_1
 10
116.5244
 20
194.3829
  0
VERTEX
  8
LAYER_1
 10
121.5197
 20
194.3829
  0
SEQEND
  0
POLYLINE
  8
LAYER_1
 40
0.254
 41
0.254
 66
1
 10
0
 20
0
 30
0
  0
VERTEX
  8
LAYER_1
 10
115.1274
 20
195.8011
 42
-1.570796088
  0
VERTEX
  8
LAYER_1
 10
115.1274
 20
195.7799
 42
0.4064963314
  0
VERTEX
  8
LAYER_1
 10
116.5032
 20
194.3829
  0
SEQEND
  0
POLYLINE
  8
LAYER_1
 40
0.254
 41
0.254
 66
1
 10
0
 20
0
 30
0
  0
VERTEX
  8
LAYER_1
 10
115.1274
 20
195.7799
  0
VERTEX
  8
LAYER_1
 10
115.1274
 20
196.3726
  0
SEQEND
  0
POLYLINE
  8
LAYER_1
 40
0.254
 41
0.254
 66
1
 10
0
 20
0
 30
0
  0
VERTEX
  8
LAYER_1
 10
95.9504
 20
196.3726
  0
VERTEX
  8
LAYER_1
 10
115.1274
 20
196.3726
  0
SEQEND
  0
POLYLINE
  8
LAYER_1
 40
0.254
 41
0.254
 66
1
 10
0
 20
0
 30
0
  0
VERTEX
  8
LAYER_1
 10
95.9504
 20
195.7799
  0
VERTEX
  8
LAYER_1
 10
95.9504
 20
196.3726
  0
SEQEND
  0
POLYLINE
  8
LAYER_1
 40
0.254
 41
0.254
 66
1
 10
0
 20
0
 30
0
  0
VERTEX
  8
LAYER_1
 10
94.5322
 20
194.3829
  0
VERTEX
  8
LAYER_1
 10
94.5534
 20
194.3829
 42
0.4090868033
  0
VERTEX
  8
LAYER_1
 10
95.9504
 20
195.7799
  0
VERTEX
  8
LAYER_1
 10
95.9504
 20
195.8011
  0
SEQEND
  0
POLYLINE
  8
LAYER_1
 40
0.254
 41
0.254
 66
1
 10
0
 20
0
 30
0
  0
VERTEX
  8
LAYER_1
 10
89.5581
 20
194.3829
  0
VERTEX
  8
LAYER_1
 10
94.5534
 20
194.3829
  0
SEQEND
  0
POLYLINE
  8
LAYER_1
 40
0.254
 41
0.254
 66
1
 10
0
 20
0
 30
0
  0
VERTEX
  8
LAYER_1
 10
89.5369
 20
194.3618
 42
0.4112840838
  0
VERTEX
  8
LAYER_1
 10
87.5684
 20
192.3933
  0
SEQEND
  0
POLYLINE
  8
LAYER_1
 40
0.1693
 41
0.1693
 66
1
 10
0
 20
0
 30
0
  0
VERTEX
  8
LAYER_1
 10
99.9509
 20
192.3721
  0
VERTEX
  8
LAYER_1
 10
99.9509
 20
193.3669
  0
SEQEND
  0
POLYLINE
  8
LAYER_1
 40
0.1693
 41
0.1693
 66
1
 10
0
 20
0
 30
0
  0
VERTEX
  8
LAYER_1
 10
99.9509
 20
195.3566
  0
VERTEX
  8
LAYER_1
 10
99.9509
 20
196.3726
  0
SEQEND
  0
POLYLINE
  8
LAYER_1
 40
0.1693
 41
0.1693
 66
1
 10
0
 20
0
 30
0
  0
VERTEX
  8
LAYER_1
 10
111.1269
 20
192.3721
  0
VERTEX
  8
LAYER_1
 10
111.1269
 20
193.3669
  0
SEQEND
  0
POLYLINE
  8
LAYER_1
 40
0.1693
 41
0.1693
 66
1
 10
0
 20
0
 30
0
  0
VERTEX
  8
LAYER_1
 10
111.1269
 20
195.3566
  0
VERTEX
  8
LAYER_1
 10
111.1269
 20
196.3726
  0
SEQEND
  0
POLYLINE
  8
LAYER_1
 40
0.1693
 41
0.1693
 66
1
 10
0
 20
0
 30
0
  0
VERTEX
  8
LAYER_1
 10
99.3582
 20
198.2776
  0
VERTEX
  8
LAYER_1
 10
111.7196
 20
198.2776
  0
SEQEND
  0
POLYLINE
  8
LAYER_1
 40
0.1693
 41
0.1693
 66
1
 10
0
 20
0
 30
0
  0
VERTEX
  8
LAYER_1
 10
101.5384
 20
178.2963
  0
VERTEX
  8
LAYER_1
 10
109.5817
 20
178.2963
  0
SEQEND
  0
POLYLINE
  8
LAYER_1
 40
0.1693
 41
0.1693
 66
1
 10
0
 20
0
 30
0
  0
VERTEX
  8
LAYER_1
 10
101.5384
 20
178.0846
  0
VERTEX
  8
LAYER_1
 10
101.5384
 20
178.2963
  0
SEQEND
  0
POLYLINE
  8
LAYER_1
 40
0.1693
 41
0.1693
 66
1
 10
0
 20
0
 30
0
  0
VERTEX
  8
LAYER_1
 10
109.6876
 20
178.3598
  0
VERTEX
  8
LAYER_1
 10
109.5817
 20
178.2963
  0
SEQEND
  0
POLYLINE
  8
LAYER_1
 40
0.1693
 41
0.1693
 66
1
 10
0
 20
0
 30
0
  0
VERTEX
  8
LAYER_1
 10
109.5182
 20
178.0846
  0
VERTEX
  8
LAYER_1
 10
109.5182
 20
178.2963
  0
SEQEND
  0
POLYLINE
  8
LAYER_1
 40
0.1693
 41
0.1693
 66
1
 10
0
 20
0
 30
0
  0
VERTEX
  8
LAYER_1
 10
101.5384
 20
178.0846
  0
VERTEX
  8
LAYER_1
 10
109.5182
 20
178.0846
  0
SEQEND
  0
POLYLINE
  8
LAYER_1
 40
0.1693
 41
0.1693
 66
1
 10
0
 20
0
 30
0
  0
VERTEX
  8
LAYER_1
 10
101.7077
 20
178.3386
  0
VERTEX
  8
LAYER_1
 10
101.6231
 20
178.2963
  0
SEQEND
  0
POLYLINE
  8
LAYER_1
 40
0.1693
 41
0.1693
 66
1
 10
0
 20
0
 30
0
  0
VERTEX
  8
LAYER_1
 10
109.3701
 20
185.1331
  0
VERTEX
  8
LAYER_1
 10
109.6876
 20
184.8791
  0
SEQEND
  0
POLYLINE
  8
LAYER_1
 40
0.1693
 41
0.1693
 66
1
 10
0
 20
0
 30
0
  0
VERTEX
  8
LAYER_1
 10
109.5606
 20
192.7954
  0
VERTEX
  8
LAYER_1
 10
109.3701
 20
192.6261
  0
SEQEND
  0
POLYLINE
  8
LAYER_1
 40
0.1693
 41
0.1693
 66
1
 10
0
 20
0
 30
0
  0
VERTEX
  8
LAYER_1
 10
101.6231
 20
192.7954
  0
VERTEX
  8
LAYER_1
 10
101.3902
 20
192.6049
  0
SEQEND
  0
POLYLINE
  8
LAYER_1
 40
0.1693
 41
0.1693
 66
1
 10
0
 20
0
 30
0
  0
VERTEX
  8
LAYER_1
 10
101.3902
 20
192.7954
  0
VERTEX
  8
LAYER_1
 10
109.6876
 20
192.7954
  0
SEQEND
  0
POLYLINE
  8
LAYER_1
 40
0.1693
 41
0.1693
 66
1
 10
0
 20
0
 30
0
  0
VERTEX
  8
LAYER_1
 10
109.3701
 20
178.6349
  0
VERTEX
  8
LAYER_1
 10
109.6876
 20
178.3598
  0
SEQEND
  0
POLYLINE
  8
LAYER_1
 40
0.1693
 41
0.1693
 66
1
 10
0
 20
0
 30
0
  0
VERTEX
  8
LAYER_1
 10
109.6876
 20
178.8678
  0
VERTEX
  8
LAYER_1
 10
109.3701
 20
178.6349
  0
SEQEND
  0
POLYLINE
  8
LAYER_1
 40
0.1693
 41
0.1693
 66
1
 10
0
 20
0
 30
0
  0
VERTEX
  8
LAYER_1
 10
109.3701
 20
179.1218
  0
VERTEX
  8
LAYER_1
 10
109.6876
 20
178.8678
  0
SEQEND
  0
POLYLINE
  8
LAYER_1
 40
0.1693
 41
0.1693
 66
1
 10
0
 20
0
 30
0
  0
VERTEX
  8
LAYER_1
 10
109.6876
 20
179.3546
  0
VERTEX
  8
LAYER_1
 10
109.3701
 20
179.1218
  0
SEQEND
  0
POLYLINE
  8
LAYER_1
 40
0.1693
 41
0.1693
 66
1
 10
0
 20
0
 30
0
  0
VERTEX
  8
LAYER_1
 10
109.3701
 20
179.6298
  0
VERTEX
  8
LAYER_1
 10
109.6876
 20
179.3546
  0
SEQEND
  0
POLYLINE
  8
LAYER_1
 40
0.1693
 41
0.1693
 66
1
 10
0
 20
0
 30
0
  0
VERTEX
  8
LAYER_1
 10
109.6876
 20
179.8626
  0
VERTEX
  8
LAYER_1
 10
109.3701
 20
179.6298
  0
SEQEND
  0
POLYLINE
  8
LAYER_1
 40
0.1693
 41
0.1693
 66
1
 10
0
 20
0
 30
0
  0
VERTEX
  8
LAYER_1
 10
109.6876
 20
185.3659
  0
VERTEX
  8
LAYER_1
 10
109.3701
 20
185.1331
  0
SEQEND
  0
POLYLINE
  8
LAYER_1
 40
0.1693
 41
0.1693
 66
1
 10
0
 20
0
 30
0
  0
VERTEX
  8
LAYER_1
 10
109.3701
 20
185.6199
  0
VERTEX
  8
LAYER_1
 10
109.6876
 20
185.3659
  0
SEQEND
  0
POLYLINE
  8
LAYER_1
 40
0.1693
 41
0.1693
 66
1
 10
0
 20
0
 30
0
  0
VERTEX
  8
LAYER_1
 10
109.6876
 20
185.8739
  0
VERTEX
  8
LAYER_1
 10
109.3701
 20
185.6199
  0
SEQEND
  0
POLYLINE
  8
LAYER_1
 40
0.1693
 41
0.1693
 66
1
 10
0
 20
0
 30
0
  0
VERTEX
  8
LAYER_1
 10
109.3701
 20
186.1279
  0
VERTEX
  8
LAYER_1
 10
109.6876
 20
185.8739
  0
SEQEND
  0
POLYLINE
  8
LAYER_1
 40
0.1693
 41
0.1693
 66
1
 10
0
 20
0
 30
0
  0
VERTEX
  8
LAYER_1
 10
109.6876
 20
186.3608
  0
VERTEX
  8
LAYER_1
 10
109.3701
 20
186.1279
  0
SEQEND
  0
POLYLINE
  8
LAYER_1
 40
0.1693
 41
0.1693
 66
1
 10
0
 20
0
 30
0
  0
VERTEX
  8
LAYER_1
 10
109.3701
 20
186.6359
  0
VERTEX
  8
LAYER_1
 10
109.6876
 20
186.3608
  0
SEQEND
  0
POLYLINE
  8
LAYER_1
 40
0.1693
 41
0.1693
 66
1
 10
0
 20
0
 30
0
  0
VERTEX
  8
LAYER_1
 10
109.6876
 20
186.8688
  0
VERTEX
  8
LAYER_1
 10
109.3701
 20
186.6359
  0
SEQEND
  0
POLYLINE
  8
LAYER_1
 40
0.1693
 41
0.1693
 66
1
 10
0
 20
0
 30
0
  0
VERTEX
  8
LAYER_1
 10
109.3701
 20
187.1228
  0
VERTEX
  8
LAYER_1
 10
109.6876
 20
186.8688
  0
SEQEND
  0
POLYLINE
  8
LAYER_1
 40
0.1693
 41
0.1693
 66
1
 10
0
 20
0
 30
0
  0
VERTEX
  8
LAYER_1
 10
109.6876
 20
187.3768
  0
VERTEX
  8
LAYER_1
 10
109.3701
 20
187.1228
  0
SEQEND
  0
POLYLINE
  8
LAYER_1
 40
0.1693
 41
0.1693
 66
1
 10
0
 20
0
 30
0
  0
VERTEX
  8
LAYER_1
 10
109.3701
 20
187.6308
  0
VERTEX
  8
LAYER_1
 10
109.6876
 20
187.3768
  0
SEQEND
  0
POLYLINE
  8
LAYER_1
 40
0.1693
 41
0.1693
 66
1
 10
0
 20
0
 30
0
  0
VERTEX
  8
LAYER_1
 10
109.6876
 20
187.8636
  0
VERTEX
  8
LAYER_1
 10
109.3701
 20
187.6308
  0
SEQEND
  0
POLYLINE
  8
LAYER_1
 40
0.1693
 41
0.1693
 66
1
 10
0
 20
0
 30
0
  0
VERTEX
  8
LAYER_1
 10
109.3701
 20
188.1388
  0
VERTEX
  8
LAYER_1
 10
109.6876
 20
187.8636
  0
SEQEND
  0
POLYLINE
  8
LAYER_1
 40
0.1693
 41
0.1693
 66
1
 10
0
 20
0
 30
0
  0
VERTEX
  8
LAYER_1
 10
109.6876
 20
188.3716
  0
VERTEX
  8
LAYER_1
 10
109.3701
 20
188.1388
  0
SEQEND
  0
POLYLINE
  8
LAYER_1
 40
0.1693
 41
0.1693
 66
1
 10
0
 20
0
 30
0
  0
VERTEX
  8
LAYER_1
 10
109.3701
 20
188.6256
  0
VERTEX
  8
LAYER_1
 10
109.6876
 20
188.3716
  0
SEQEND
  0
POLYLINE
  8
LAYER_1
 40
0.1693
 41
0.1693
 66
1
 10
0
 20
0
 30
0
  0
VERTEX
  8
LAYER_1
 10
109.6876
 20
188.8796
  0
VERTEX
  8
LAYER_1
 10
109.3701
 20
188.6256
  0
SEQEND
  0
POLYLINE
  8
LAYER_1
 40
0.1693
 41
0.1693
 66
1
 10
0
 20
0
 30
0
  0
VERTEX
  8
LAYER_1
 10
109.3701
 20
189.1336
  0
VERTEX
  8
LAYER_1
 10
109.6876
 20
188.8796
  0
SEQEND
  0
POLYLINE
  8
LAYER_1
 40
0.1693
 41
0.1693
 66
1
 10
0
 20
0
 30
0
  0
VERTEX
  8
LAYER_1
 10
109.6876
 20
189.3664
  0
VERTEX
  8
LAYER_1
 10
109.3701
 20
189.1336
  0
SEQEND
  0
POLYLINE
  8
LAYER_1
 40
0.1693
 41
0.1693
 66
1
 10
0
 20
0
 30
0
  0
VERTEX
  8
LAYER_1
 10
109.3701
 20
192.6261
  0
VERTEX
  8
LAYER_1
 10
109.6876
 20
192.3721
  0
SEQEND
  0
POLYLINE
  8
LAYER_1
 40
0.1693
 41
0.1693
 66
1
 10
0
 20
0
 30
0
  0
VERTEX
  8
LAYER_1
 10
101.3902
 20
178.5926
  0
VERTEX
  8
LAYER_1
 10
101.7077
 20
178.3386
  0
SEQEND
  0
POLYLINE
  8
LAYER_1
 40
0.1693
 41
0.1693
 66
1
 10
0
 20
0
 30
0
  0
VERTEX
  8
LAYER_1
 10
101.7077
 20
178.8466
  0
VERTEX
  8
LAYER_1
 10
101.3902
 20
178.5926
  0
SEQEND
  0
POLYLINE
  8
LAYER_1
 40
0.1693
 41
0.1693
 66
1
 10
0
 20
0
 30
0
  0
VERTEX
  8
LAYER_1
 10
101.3902
 20
179.0794
  0
VERTEX
  8
LAYER_1
 10
101.7077
 20
178.8466
  0
SEQEND
  0
POLYLINE
  8
LAYER_1
 40
0.1693
 41
0.1693
 66
1
 10
0
 20
0
 30
0
  0
VERTEX
  8
LAYER_1
 10
101.7077
 20
179.3546
  0
VERTEX
  8
LAYER_1
 10
101.3902
 20
179.0794
  0
SEQEND
  0
POLYLINE
  8
LAYER_1
 40
0.1693
 41
0.1693
 66
1
 10
0
 20
0
 30
0
  0
VERTEX
  8
LAYER_1
 10
101.3902
 20
179.5874
  0
VERTEX
  8
LAYER_1
 10
101.7077
 20
179.3546
  0
SEQEND
  0
POLYLINE
  8
LAYER_1
 40
0.1693
 41
0.1693
 66
1
 10
0
 20
0
 30
0
  0
VERTEX
  8
LAYER_1
 10
101.7077
 20
179.8414
  0
VERTEX
  8
LAYER_1
 10
101.3902
 20
179.5874
  0
SEQEND
  0
POLYLINE
  8
LAYER_1
 40
0.1693
 41
0.1693
 66
1
 10
0
 20
0
 30
0
  0
VERTEX
  8
LAYER_1
 10
101.7077
 20
185.3448
  0
VERTEX
  8
LAYER_1
 10
101.3902
 20
185.0908
  0
SEQEND
  0
POLYLINE
  8
LAYER_1
 40
0.1693
 41
0.1693
 66
1
 10
0
 20
0
 30
0
  0
VERTEX
  8
LAYER_1
 10
101.3902
 20
185.5988
  0
VERTEX
  8
LAYER_1
 10
101.7077
 20
185.3448
  0
SEQEND
  0
POLYLINE
  8
LAYER_1
 40
0.1693
 41
0.1693
 66
1
 10
0
 20
0
 30
0
  0
VERTEX
  8
LAYER_1
 10
101.7077
 20
185.8528
  0
VERTEX
  8
LAYER_1
 10
101.3902
 20
185.5988
  0
SEQEND
  0
POLYLINE
  8
LAYER_1
 40
0.1693
 41
0.1693
 66
1
 10
0
 20
0
 30
0
  0
VERTEX
  8
LAYER_1
 10
101.3902
 20
186.0856
  0
VERTEX
  8
LAYER_1
 10
101.7077
 20
185.8528
  0
SEQEND
  0
POLYLINE
  8
LAYER_1
 40
0.1693
 41
0.1693
 66
1
 10
0
 20
0
 30
0
  0
VERTEX
  8
LAYER_1
 10
101.7077
 20
186.3608
  0
VERTEX
  8
LAYER_1
 10
101.3902
 20
186.0856
  0
SEQEND
  0
POLYLINE
  8
LAYER_1
 40
0.1693
 41
0.1693
 66
1
 10
0
 20
0
 30
0
  0
VERTEX
  8
LAYER_1
 10
101.3902
 20
186.5936
  0
VERTEX
  8
LAYER_1
 10
101.7077
 20
186.3608
  0
SEQEND
  0
POLYLINE
  8
LAYER_1
 40
0.1693
 41
0.1693
 66
1
 10
0
 20
0
 30
0
  0
VERTEX
  8
LAYER_1
 10
101.7077
 20
186.8476
  0
VERTEX
  8
LAYER_1
 10
101.3902
 20
186.5936
  0
SEQEND
  0
POLYLINE
  8
LAYER_1
 40
0.1693
 41
0.1693
 66
1
 10
0
 20
0
 30
0
  0
VERTEX
  8
LAYER_1
 10
101.3902
 20
187.1016
  0
VERTEX
  8
LAYER_1
 10
101.7077
 20
186.8476
  0
SEQEND
  0
POLYLINE
  8
LAYER_1
 40
0.1693
 41
0.1693
 66
1
 10
0
 20
0
 30
0
  0
VERTEX
  8
LAYER_1
 10
101.7077
 20
187.3556
  0
VERTEX
  8
LAYER_1
 10
101.3902
 20
187.1016
  0
SEQEND
  0
POLYLINE
  8
LAYER_1
 40
0.1693
 41
0.1693
 66
1
 10
0
 20
0
 30
0
  0
VERTEX
  8
LAYER_1
 10
101.3902
 20
187.5885
  0
VERTEX
  8
LAYER_1
 10
101.7077
 20
187.3556
  0
SEQEND
  0
POLYLINE
  8
LAYER_1
 40
0.1693
 41
0.1693
 66
1
 10
0
 20
0
 30
0
  0
VERTEX
  8
LAYER_1
 10
101.7077
 20
187.8636
  0
VERTEX
  8
LAYER_1
 10
101.3902
 20
187.5885
  0
SEQEND
  0
POLYLINE
  8
LAYER_1
 40
0.1693
 41
0.1693
 66
1
 10
0
 20
0
 30
0
  0
VERTEX
  8
LAYER_1
 10
101.3902
 20
188.0965
  0
VERTEX
  8
LAYER_1
 10
101.7077
 20
187.8636
  0
SEQEND
  0
POLYLINE
  8
LAYER_1
 40
0.1693
 41
0.1693
 66
1
 10
0
 20
0
 30
0
  0
VERTEX
  8
LAYER_1
 10
101.7077
 20
188.3505
  0
VERTEX
  8
LAYER_1
 10
101.3902
 20
188.0965
  0
SEQEND
  0
POLYLINE
  8
LAYER_1
 40
0.1693
 41
0.1693
 66
1
 10
0
 20
0
 30
0
  0
VERTEX
  8
LAYER_1
 10
101.3902
 20
188.5833
  0
VERTEX
  8
LAYER_1
 10
101.7077
 20
188.3505
  0
SEQEND
  0
POLYLINE
  8
LAYER_1
 40
0.1693
 41
0.1693
 66
1
 10
0
 20
0
 30
0
  0
VERTEX
  8
LAYER_1
 10
101.7077
 20
188.8585
  0
VERTEX
  8
LAYER_1
 10
101.3902
 20
188.5833
  0
SEQEND
  0
POLYLINE
  8
LAYER_1
 40
0.1693
 41
0.1693
 66
1
 10
0
 20
0
 30
0
  0
VERTEX
  8
LAYER_1
 10
101.3902
 20
189.0913
  0
VERTEX
  8
LAYER_1
 10
101.7077
 20
188.8585
  0
SEQEND
  0
POLYLINE
  8
LAYER_1
 40
0.1693
 41
0.1693
 66
1
 10
0
 20
0
 30
0
  0
VERTEX
  8
LAYER_1
 10
101.7077
 20
189.3453
  0
VERTEX
  8
LAYER_1
 10
101.3902
 20
189.0913
  0
SEQEND
  0
POLYLINE
  8
LAYER_1
 40
0.1693
 41
0.1693
 66
1
 10
0
 20
0
 30
0
  0
VERTEX
  8
LAYER_1
 10
101.3902
 20
194.2771
  0
VERTEX
  8
LAYER_1
 10
109.6876
 20
194.2771
  0
SEQEND
  0
POLYLINE
  8
LAYER_1
 40
0.1693
 41
0.1693
 66
1
 10
0
 20
0
 30
0
  0
VERTEX
  8
LAYER_1
 10
98.8291
 20
200.6906
 42
0.3749731589
  0
VERTEX
  8
LAYER_1
 10
98.7444
 20
200.606
  0
SEQEND
  0
POLYLINE
  8
LAYER_1
 40
0.1693
 41
0.1693
 66
1
 10
0
 20
0
 30
0
  0
VERTEX
  8
LAYER_1
 10
98.7444
 20
200.3943
  0
VERTEX
  8
LAYER_1
 10
98.7444
 20
200.5848
  0
SEQEND
  0
POLYLINE
  8
LAYER_1
 40
0.1693
 41
0.1693
 66
1
 10
0
 20
0
 30
0
  0
VERTEX
  8
LAYER_1
 10
98.7444
 20
200.4155
  0
VERTEX
  8
LAYER_1
 10
98.7444
 20
200.3943
 42
0.4404387411
  0
VERTEX
  8
LAYER_1
 10
98.8291
 20
200.3096
  0
SEQEND
  0
POLYLINE
  8
LAYER_1
 40
0.1693
 41
0.1693
 66
1
 10
0
 20
0
 30
0
  0
VERTEX
  8
LAYER_1
 10
98.8502
 20
200.6906
  0
VERTEX
  8
LAYER_1
 10
112.2276
 20
200.6906
  0
SEQEND
  0
POLYLINE
  8
LAYER_1
 40
0.1693
 41
0.1693
 66
1
 10
0
 20
0
 30
0
  0
VERTEX
  8
LAYER_1
 10
112.3122
 20
200.6059
 42
0.439569916
  0
VERTEX
  8
LAYER_1
 10
112.2276
 20
200.6906
  0
VERTEX
  8
LAYER_1
 10
112.2064
 20
200.6906
  0
SEQEND
  0
POLYLINE
  8
LAYER_1
 40
0.1693
 41
0.1693
 66
1
 10
0
 20
0
 30
0
  0
VERTEX
  8
LAYER_1
 10
98.8502
 20
200.2885
  0
VERTEX
  8
LAYER_1
 10
112.2276
 20
200.2885
  0
SEQEND
  0
POLYLINE
  8
LAYER_1
 40
0.1693
 41
0.1693
 66
1
 10
0
 20
0
 30
0
  0
VERTEX
  8
LAYER_1
 10
112.3334
 20
200.3943
  0
VERTEX
  8
LAYER_1
 10
112.3334
 20
200.5848
  0
SEQEND
  0
POLYLINE
  8
LAYER_1
 40
0.1693
 41
0.1693
 66
1
 10
0
 20
0
 30
0
  0
VERTEX
  8
LAYER_1
 10
112.2064
 20
200.3096
 42
0.4448279163
  0
VERTEX
  8
LAYER_1
 10
112.2276
 20
200.2885
 42
0.2999471041
  0
VERTEX
  8
LAYER_1
 10
112.3334
 20
200.3943
 42
0.4459787266
  0
VERTEX
  8
LAYER_1
 10
112.3122
 20
200.4155
  0
SEQEND
  0
POLYLINE
  8
LAYER_1
 40
0.1693
 41
0.1693
 66
1
 10
0
 20
0
 30
0
  0
VERTEX
  8
LAYER_1
 10
102.2581
 20
198.2776
  0
VERTEX
  8
LAYER_1
 10
102.2581
 20
200.2885
  0
SEQEND
  0
POLYLINE
  8
LAYER_1
 40
0.1693
 41
0.1693
 66
1
 10
0
 20
0
 30
0
  0
VERTEX
  8
LAYER_1
 10
108.8197
 20
198.2776
  0
VERTEX
  8
LAYER_1
 10
108.8197
 20
200.2885
  0
SEQEND
  0
POLYLINE
  8
LAYER_1
 40
0.1693
 41
0.1693
 66
1
 10
0
 20
0
 30
0
  0
VERTEX
  8
LAYER_1
 10
99.3371
 20
198.2988
 42
0.3782120695
  0
VERTEX
  8
LAYER_1
 10
99.2524
 20
198.193
 42
0.440718166
  0
VERTEX
  8
LAYER_1
 10
99.3371
 20
198.1083
  0
SEQEND
  0
POLYLINE
  8
LAYER_1
 40
0.1693
 41
0.1693
 66
1
 10
0
 20
0
 30
0
  0
VERTEX
  8
LAYER_1
 10
111.6984
 20
198.1083
 42
0.4459787268
  0
VERTEX
  8
LAYER_1
 10
111.7196
 20
198.0871
 42
0.3000327473
  0
VERTEX
  8
LAYER_1
 10
111.8254
 20
198.193
 42
0.3599078685
  0
VERTEX
  8
LAYER_1
 10
111.7196
 20
198.2988
  0
VERTEX
  8
LAYER_1
 10
111.6984
 20
198.2988
  0
SEQEND
  0
POLYLINE
  8
LAYER_1
 40
0.1693
 41
0.1693
 66
1
 10
0
 20
0
 30
0
  0
VERTEX
  8
LAYER_1
 10
99.3582
 20
198.0871
  0
VERTEX
  8
LAYER_1
 10
111.7196
 20
198.0871
  0
SEQEND
  0
POLYLINE
  8
LAYER_1
 40
0.1693
 41
0.1693
 66
1
 10
0
 20
0
 30
0
  0
VERTEX
  8
LAYER_1
 10
100.6706
 20
197.7061
  0
VERTEX
  8
LAYER_1
 10
99.3582
 20
198.0871
  0
SEQEND
  0
POLYLINE
  8
LAYER_1
 40
0.1693
 41
0.1693
 66
1
 10
0
 20
0
 30
0
  0
VERTEX
  8
LAYER_1
 10
110.4072
 20
197.7061
  0
VERTEX
  8
LAYER_1
 10
111.7196
 20
198.0871
  0
SEQEND
  0
POLYLINE
  8
LAYER_1
 40
0.1693
 41
0.1693
 66
1
 10
0
 20
0
 30
0
  0
VERTEX
  8
LAYER_1
 10
101.0516
 20
197.4945
 42
0.09401177752
  0
VERTEX
  8
LAYER_1
 10
100.6494
 20
197.7061
  0
SEQEND
  0
POLYLINE
  8
LAYER_1
 40
0.1693
 41
0.1693
 66
1
 10
0
 20
0
 30
0
  0
VERTEX
  8
LAYER_1
 10
101.3902
 20
192.7954
  0
VERTEX
  8
LAYER_1
 10
101.3902
 20
196.7325
  0
SEQEND
  0
POLYLINE
  8
LAYER_1
 40
0.1693
 41
0.1693
 66
1
 10
0
 20
0
 30
0
  0
VERTEX
  8
LAYER_1
 10
110.3861
 20
197.7061
 42
0.08064922006
  0
VERTEX
  8
LAYER_1
 10
110.0051
 20
197.4945
  0
SEQEND
  0
POLYLINE
  8
LAYER_1
 40
0.1693
 41
0.1693
 66
1
 10
0
 20
0
 30
0
  0
VERTEX
  8
LAYER_1
 10
109.6876
 20
192.7954
  0
VERTEX
  8
LAYER_1
 10
109.6876
 20
196.7325
  0
SEQEND
  0
POLYLINE
  8
LAYER_1
 40
0.1693
 41
0.1693
 66
1
 10
0
 20
0
 30
0
  0
VERTEX
  8
LAYER_1
 10
101.3902
 20
196.7536
 42
0.1861006038
  0
VERTEX
  8
LAYER_1
 10
101.0516
 20
197.4945
  0
SEQEND
  0
POLYLINE
  8
LAYER_1
 40
0.1693
 41
0.1693
 66
1
 10
0
 20
0
 30
0
  0
VERTEX
  8
LAYER_1
 10
110.0051
 20
197.4945
 42
0.2118802012
  0
VERTEX
  8
LAYER_1
 10
109.6876
 20
196.7536
  0
SEQEND
  0
POLYLINE
  8
LAYER_1
 40
0.0847
 41
0.0847
 66
1
 10
0
 20
0
 30
0
  0
VERTEX
  8
LAYER_1
 10
99.6546
 20
198.0871
  0
VERTEX
  8
LAYER_1
 10
99.8662
 20
197.8966
  0
SEQEND
  0
POLYLINE
  8
LAYER_1
 40
0.0847
 41
0.0847
 66
1
 10
0
 20
0
 30
0
  0
VERTEX
  8
LAYER_1
 10
100.5012
 20
198.0871
  0
VERTEX
  8
LAYER_1
 10
100.7129
 20
197.8966
  0
SEQEND
  0
POLYLINE
  8
LAYER_1
 40
0.0847
 41
0.0847
 66
1
 10
0
 20
0
 30
0
  0
VERTEX
  8
LAYER_1
 10
101.3479
 20
198.0871
  0
VERTEX
  8
LAYER_1
 10
101.5596
 20
197.8966
  0
SEQEND
  0
POLYLINE
  8
LAYER_1
 40
0.0847
 41
0.0847
 66
1
 10
0
 20
0
 30
0
  0
VERTEX
  8
LAYER_1
 10
102.1946
 20
198.0871
  0
VERTEX
  8
LAYER_1
 10
102.4062
 20
197.8966
  0
SEQEND
  0
POLYLINE
  8
LAYER_1
 40
0.0847
 41
0.0847
 66
1
 10
0
 20
0
 30
0
  0
VERTEX
  8
LAYER_1
 10
103.0624
 20
198.0871
  0
VERTEX
  8
LAYER_1
 10
103.2529
 20
197.8966
  0
SEQEND
  0
POLYLINE
  8
LAYER_1
 40
0.0847
 41
0.0847
 66
1
 10
0
 20
0
 30
0
  0
VERTEX
  8
LAYER_1
 10
103.9091
 20
198.0871
  0
VERTEX
  8
LAYER_1
 10
104.0996
 20
197.8966
  0
SEQEND
  0
POLYLINE
  8
LAYER_1
 40
0.0847
 41
0.0847
 66
1
 10
0
 20
0
 30
0
  0
VERTEX
  8
LAYER_1
 10
104.7557
 20
198.0871
  0
VERTEX
  8
LAYER_1
 10
104.9462
 20
197.8966
  0
SEQEND
  0
POLYLINE
  8
LAYER_1
 40
0.0847
 41
0.0847
 66
1
 10
0
 20
0
 30
0
  0
VERTEX
  8
LAYER_1
 10
105.5812
 20
198.0871
  0
VERTEX
  8
LAYER_1
 10
105.7717
 20
197.8966
  0
SEQEND
  0
POLYLINE
  8
LAYER_1
 40
0.0847
 41
0.0847
 66
1
 10
0
 20
0
 30
0
  0
VERTEX
  8
LAYER_1
 10
106.4279
 20
198.0871
  0
VERTEX
  8
LAYER_1
 10
106.6184
 20
197.8966
  0
SEQEND
  0
POLYLINE
  8
LAYER_1
 40
0.0847
 41
0.0847
 66
1
 10
0
 20
0
 30
0
  0
VERTEX
  8
LAYER_1
 10
107.2746
 20
198.0871
  0
VERTEX
  8
LAYER_1
 10
107.4651
 20
197.8966
  0
SEQEND
  0
POLYLINE
  8
LAYER_1
 40
0.0847
 41
0.0847
 66
1
 10
0
 20
0
 30
0
  0
VERTEX
  8
LAYER_1
 10
108.1212
 20
198.0871
  0
VERTEX
  8
LAYER_1
 10
108.3117
 20
197.8966
  0
SEQEND
  0
POLYLINE
  8
LAYER_1
 40
0.0847
 41
0.0847
 66
1
 10
0
 20
0
 30
0
  0
VERTEX
  8
LAYER_1
 10
108.9679
 20
198.0871
  0
VERTEX
  8
LAYER_1
 10
109.1795
 20
197.8966
  0
SEQEND
  0
POLYLINE
  8
LAYER_1
 40
0.0847
 41
0.0847
 66
1
 10
0
 20
0
 30
0
  0
VERTEX
  8
LAYER_1
 10
109.8146
 20
198.0871
  0
VERTEX
  8
LAYER_1
 10
110.0262
 20
197.8966
  0
SEQEND
  0
POLYLINE
  8
LAYER_1
 40
0.0847
 41
0.0847
 66
1
 10
0
 20
0
 30
0
  0
VERTEX
  8
LAYER_1
 10
110.6612
 20
198.0871
  0
VERTEX
  8
LAYER_1
 10
110.8729
 20
197.8966
  0
SEQEND
  0
POLYLINE
  8
LAYER_1
 40
0.1693
 41
0.1693
 66
1
 10
0
 20
0
 30
0
  0
VERTEX
  8
LAYER_1
 10
99.2313
 20
198.0871
  0
VERTEX
  8
LAYER_1
 10
99.4429
 20
197.8966
  0
VERTEX
  8
LAYER_1
 10
111.6349
 20
197.8966
  0
SEQEND
  0
POLYLINE
  8
LAYER_1
 40
0.1693
 41
0.1693
 66
1
 10
0
 20
0
 30
0
  0
VERTEX
  8
LAYER_1
 10
111.8466
 20
198.0871
  0
VERTEX
  8
LAYER_1
 10
111.6349
 20
197.8966
  0
SEQEND
  0
POLYLINE
  8
LAYER_1
 40
0.1693
 41
0.1693
 66
1
 10
0
 20
0
 30
0
  0
VERTEX
  8
LAYER_1
 10
99.2313
 20
198.0871
  0
VERTEX
  8
LAYER_1
 10
111.8466
 20
198.0871
  0
SEQEND
  0
POLYLINE
  8
LAYER_1
 40
0.0847
 41
0.0847
 66
1
 10
0
 20
0
 30
0
  0
VERTEX
  8
LAYER_1
 10
111.5079
 20
198.0871
  0
VERTEX
  8
LAYER_1
 10
111.6772
 20
197.9178
  0
SEQEND
  0
POLYLINE
  8
LAYER_1
 40
0.1693
 41
0.1693
 66
1
 10
0
 20
0
 30
0
  0
VERTEX
  8
LAYER_1
 10
99.5487
 20
191.2714
  0
VERTEX
  8
LAYER_1
 10
111.5291
 20
191.2714
  0
SEQEND
  0
POLYLINE
  8
LAYER_1
 40
0.1693
 41
0.1693
 66
1
 10
0
 20
0
 30
0
  0
VERTEX
  8
LAYER_1
 10
101.3902
 20
192.3721
  0
VERTEX
  8
LAYER_1
 10
101.4114
 20
192.3721
  0
SEQEND
  0
POLYLINE
  8
LAYER_1
 40
0.1693
 41
0.1693
 66
1
 10
0
 20
0
 30
0
  0
VERTEX
  8
LAYER_1
 10
99.9933
 20
192.3721
 42
0.3549701446
  0
VERTEX
  8
LAYER_1
 10
99.8874
 20
192.3298
  0
SEQEND
  0
POLYLINE
  8
LAYER_1
 40
0.1693
 41
0.1693
 66
1
 10
0
 20
0
 30
0
  0
VERTEX
  8
LAYER_1
 10
100.0144
 20
192.3721
  0
VERTEX
  8
LAYER_1
 10
111.0634
 20
192.3721
  0
SEQEND
  0
POLYLINE
  8
LAYER_1
 40
0.1693
 41
0.1693
 66
1
 10
0
 20
0
 30
0
  0
VERTEX
  8
LAYER_1
 10
99.4218
 20
191.9276
  0
VERTEX
  8
LAYER_1
 10
99.8874
 20
192.3298
  0
SEQEND
  0
POLYLINE
  8
LAYER_1
 40
0.1693
 41
0.1693
 66
1
 10
0
 20
0
 30
0
  0
VERTEX
  8
LAYER_1
 10
111.7196
 20
191.8006
 42
0.132955867
  0
VERTEX
  8
LAYER_1
 10
111.6349
 20
191.9488
  0
SEQEND
  0
POLYLINE
  8
LAYER_1
 40
0.1693
 41
0.1693
 66
1
 10
0
 20
0
 30
0
  0
VERTEX
  8
LAYER_1
 10
111.6561
 20
191.9276
  0
VERTEX
  8
LAYER_1
 10
111.1904
 20
192.3298
  0
SEQEND
  0
POLYLINE
  8
LAYER_1
 40
0.1693
 41
0.1693
 66
1
 10
0
 20
0
 30
0
  0
VERTEX
  8
LAYER_1
 10
111.1692
 20
192.3509
  0
VERTEX
  8
LAYER_1
 10
111.0634
 20
192.3721
  0
VERTEX
  8
LAYER_1
 10
111.0422
 20
192.3721
  0
SEQEND
  0
POLYLINE
  8
LAYER_1
 40
0.1693
 41
0.1693
 66
1
 10
0
 20
0
 30
0
  0
VERTEX
  8
LAYER_1
 10
99.3582
 20
191.2714
  0
VERTEX
  8
LAYER_1
 10
111.7196
 20
191.2714
  0
VERTEX
  8
LAYER_1
 10
111.7196
 20
191.7794
  0
SEQEND
  0
POLYLINE
  8
LAYER_1
 40
0.1693
 41
0.1693
 66
1
 10
0
 20
0
 30
0
  0
VERTEX
  8
LAYER_1
 10
99.4217
 20
191.9276
 42
0.2328101076
  0
VERTEX
  8
LAYER_1
 10
99.3582
 20
191.8006
  0
SEQEND
  0
POLYLINE
  8
LAYER_1
 40
0.1693
 41
0.1693
 66
1
 10
0
 20
0
 30
0
  0
VERTEX
  8
LAYER_1
 10
99.3582
 20
191.2714
  0
VERTEX
  8
LAYER_1
 10
99.3582
 20
191.7794
  0
SEQEND
  0
POLYLINE
  8
LAYER_1
 40
0.1693
 41
0.1693
 66
1
 10
0
 20
0
 30
0
  0
VERTEX
  8
LAYER_1
 10
101.0092
 20
189.4723
  0
VERTEX
  8
LAYER_1
 10
110.0686
 20
189.4723
  0
SEQEND
  0
POLYLINE
  8
LAYER_1
 40
0.1693
 41
0.1693
 66
1
 10
0
 20
0
 30
0
  0
VERTEX
  8
LAYER_1
 10
99.5487
 20
191.2714
  0
VERTEX
  8
LAYER_1
 10
111.5291
 20
191.2714
  0
SEQEND
  0
POLYLINE
  8
LAYER_1
 40
0.0847
 41
0.0847
 66
1
 10
0
 20
0
 30
0
  0
VERTEX
  8
LAYER_1
 10
109.5182
 20
189.4723
  0
VERTEX
  8
LAYER_1
 10
109.5182
 20
189.9168
  0
SEQEND
  0
POLYLINE
  8
LAYER_1
 40
0.0847
 41
0.0847
 66
1
 10
0
 20
0
 30
0
  0
VERTEX
  8
LAYER_1
 10
109.5182
 20
190.8058
  0
VERTEX
  8
LAYER_1
 10
109.5182
 20
191.2714
  0
SEQEND
  0
POLYLINE
  8
LAYER_1
 40
0.0847
 41
0.0847
 66
1
 10
0
 20
0
 30
0
  0
VERTEX
  8
LAYER_1
 10
101.5596
 20
189.4723
  0
VERTEX
  8
LAYER_1
 10
101.5596
 20
189.9168
  0
SEQEND
  0
POLYLINE
  8
LAYER_1
 40
0.0847
 41
0.0847
 66
1
 10
0
 20
0
 30
0
  0
VERTEX
  8
LAYER_1
 10
101.5596
 20
190.8058
  0
VERTEX
  8
LAYER_1
 10
101.5596
 20
191.2714
  0
SEQEND
  0
POLYLINE
  8
LAYER_1
 40
0.0847
 41
0.0847
 66
1
 10
0
 20
0
 30
0
  0
VERTEX
  8
LAYER_1
 10
99.5487
 20
191.0809
  0
VERTEX
  8
LAYER_1
 10
111.5291
 20
191.0809
  0
SEQEND
  0
POLYLINE
  8
LAYER_1
 40
0.1693
 41
0.1693
 66
1
 10
0
 20
0
 30
0
  0
VERTEX
  8
LAYER_1
 10
99.5487
 20
191.0809
  0
VERTEX
  8
LAYER_1
 10
99.5487
 20
191.2714
  0
SEQEND
  0
POLYLINE
  8
LAYER_1
 40
0.1693
 41
0.1693
 66
1
 10
0
 20
0
 30
0
  0
VERTEX
  8
LAYER_1
 10
111.5291
 20
191.0809
  0
VERTEX
  8
LAYER_1
 10
111.5291
 20
191.2714
  0
SEQEND
  0
POLYLINE
  8
LAYER_1
 40
0.1693
 41
0.1693
 66
1
 10
0
 20
0
 30
0
  0
VERTEX
  8
LAYER_1
 10
101.0092
 20
189.4723
  0
VERTEX
  8
LAYER_1
 10
101.0092
 20
190.7634
  0
SEQEND
  0
POLYLINE
  8
LAYER_1
 40
0.1693
 41
0.1693
 66
1
 10
0
 20
0
 30
0
  0
VERTEX
  8
LAYER_1
 10
99.5487
 20
191.0809
  0
VERTEX
  8
LAYER_1
 10
99.8451
 20
190.7634
  0
SEQEND
  0
POLYLINE
  8
LAYER_1
 40
0.1693
 41
0.1693
 66
1
 10
0
 20
0
 30
0
  0
VERTEX
  8
LAYER_1
 10
110.0686
 20
189.4723
  0
VERTEX
  8
LAYER_1
 10
110.0686
 20
190.7634
  0
SEQEND
  0
POLYLINE
  8
LAYER_1
 40
0.1693
 41
0.1693
 66
1
 10
0
 20
0
 30
0
  0
VERTEX
  8
LAYER_1
 10
99.8451
 20
190.7634
  0
VERTEX
  8
LAYER_1
 10
111.2327
 20
190.7634
  0
SEQEND
  0
POLYLINE
  8
LAYER_1
 40
0.1693
 41
0.1693
 66
1
 10
0
 20
0
 30
0
  0
VERTEX
  8
LAYER_1
 10
111.5291
 20
191.0809
  0
VERTEX
  8
LAYER_1
 10
111.2327
 20
190.7634
  0
SEQEND
  0
POLYLINE
  8
LAYER_1
 40
0.1693
 41
0.1693
 66
1
 10
0
 20
0
 30
0
  0
VERTEX
  8
LAYER_1
 10
109.3701
 20
183.1223
  0
VERTEX
  8
LAYER_1
 10
109.6876
 20
182.8683
  0
SEQEND
  0
POLYLINE
  8
LAYER_1
 40
0.1693
 41
0.1693
 66
1
 10
0
 20
0
 30
0
  0
VERTEX
  8
LAYER_1
 10
109.6876
 20
183.3763
  0
VERTEX
  8
LAYER_1
 10
109.3701
 20
183.1223
  0
SEQEND
  0
POLYLINE
  8
LAYER_1
 40
0.1693
 41
0.1693
 66
1
 10
0
 20
0
 30
0
  0
VERTEX
  8
LAYER_1
 10
109.3701
 20
183.6303
  0
VERTEX
  8
LAYER_1
 10
109.6876
 20
183.3763
  0
SEQEND
  0
POLYLINE
  8
LAYER_1
 40
0.1693
 41
0.1693
 66
1
 10
0
 20
0
 30
0
  0
VERTEX
  8
LAYER_1
 10
109.6876
 20
183.8631
  0
VERTEX
  8
LAYER_1
 10
109.3701
 20
183.6303
  0
SEQEND
  0
POLYLINE
  8
LAYER_1
 40
0.1693
 41
0.1693
 66
1
 10
0
 20
0
 30
0
  0
VERTEX
  8
LAYER_1
 10
109.3701
 20
184.1383
  0
VERTEX
  8
LAYER_1
 10
109.6876
 20
183.8631
  0
SEQEND
  0
POLYLINE
  8
LAYER_1
 40
0.1693
 41
0.1693
 66
1
 10
0
 20
0
 30
0
  0
VERTEX
  8
LAYER_1
 10
109.6876
 20
184.3711
  0
VERTEX
  8
LAYER_1
 10
109.3701
 20
184.1383
  0
SEQEND
  0
POLYLINE
  8
LAYER_1
 40
0.1693
 41
0.1693
 66
1
 10
0
 20
0
 30
0
  0
VERTEX
  8
LAYER_1
 10
109.3701
 20
184.6251
  0
VERTEX
  8
LAYER_1
 10
109.6876
 20
184.3711
  0
SEQEND
  0
POLYLINE
  8
LAYER_1
 40
0.1693
 41
0.1693
 66
1
 10
0
 20
0
 30
0
  0
VERTEX
  8
LAYER_1
 10
109.6876
 20
184.8791
  0
VERTEX
  8
LAYER_1
 10
109.3701
 20
184.6251
  0
SEQEND
  0
POLYLINE
  8
LAYER_1
 40
0.1693
 41
0.1693
 66
1
 10
0
 20
0
 30
0
  0
VERTEX
  8
LAYER_1
 10
101.3902
 20
183.0799
  0
VERTEX
  8
LAYER_1
 10
101.7077
 20
182.8471
  0
SEQEND
  0
POLYLINE
  8
LAYER_1
 40
0.1693
 41
0.1693
 66
1
 10
0
 20
0
 30
0
  0
VERTEX
  8
LAYER_1
 10
101.7077
 20
183.3551
  0
VERTEX
  8
LAYER_1
 10
101.3902
 20
183.0799
  0
SEQEND
  0
POLYLINE
  8
LAYER_1
 40
0.1693
 41
0.1693
 66
1
 10
0
 20
0
 30
0
  0
VERTEX
  8
LAYER_1
 10
101.3902
 20
183.5879
  0
VERTEX
  8
LAYER_1
 10
101.7077
 20
183.3551
  0
SEQEND
  0
POLYLINE
  8
LAYER_1
 40
0.1693
 41
0.1693
 66
1
 10
0
 20
0
 30
0
  0
VERTEX
  8
LAYER_1
 10
101.7077
 20
183.8419
  0
VERTEX
  8
LAYER_1
 10
101.3902
 20
183.5879
  0
SEQEND
  0
POLYLINE
  8
LAYER_1
 40
0.1693
 41
0.1693
 66
1
 10
0
 20
0
 30
0
  0
VERTEX
  8
LAYER_1
 10
101.3902
 20
184.0959
  0
VERTEX
  8
LAYER_1
 10
101.7077
 20
183.8419
  0
SEQEND
  0
POLYLINE
  8
LAYER_1
 40
0.1693
 41
0.1693
 66
1
 10
0
 20
0
 30
0
  0
VERTEX
  8
LAYER_1
 10
101.7077
 20
184.3499
  0
VERTEX
  8
LAYER_1
 10
101.3902
 20
184.0959
  0
SEQEND
  0
POLYLINE
  8
LAYER_1
 40
0.1693
 41
0.1693
 66
1
 10
0
 20
0
 30
0
  0
VERTEX
  8
LAYER_1
 10
101.3902
 20
184.5828
  0
VERTEX
  8
LAYER_1
 10
101.7077
 20
184.3499
  0
SEQEND
  0
POLYLINE
  8
LAYER_1
 40
0.1693
 41
0.1693
 66
1
 10
0
 20
0
 30
0
  0
VERTEX
  8
LAYER_1
 10
101.7077
 20
184.8579
  0
VERTEX
  8
LAYER_1
 10
101.3902
 20
184.5828
  0
SEQEND
  0
POLYLINE
  8
LAYER_1
 40
0.1693
 41
0.1693
 66
1
 10
0
 20
0
 30
0
  0
VERTEX
  8
LAYER_1
 10
101.3902
 20
185.0908
  0
VERTEX
  8
LAYER_1
 10
101.7077
 20
184.8579
  0
SEQEND
  0
POLYLINE
  8
LAYER_1
 40
0.1693
 41
0.1693
 66
1
 10
0
 20
0
 30
0
  0
VERTEX
  8
LAYER_1
 10
101.5596
 20
189.4723
  0
VERTEX
  8
LAYER_1
 10
101.7077
 20
189.3453
  0
SEQEND
  0
POLYLINE
  8
LAYER_1
 40
0.1693
 41
0.1693
 66
1
 10
0
 20
0
 30
0
  0
VERTEX
  8
LAYER_1
 10
109.5606
 20
189.4723
  0
VERTEX
  8
LAYER_1
 10
109.6876
 20
189.3664
  0
SEQEND
  0
POLYLINE
  8
LAYER_1
 40
0.1693
 41
0.1693
 66
1
 10
0
 20
0
 30
0
  0
VERTEX
  8
LAYER_1
 10
101.3902
 20
192.6049
  0
VERTEX
  8
LAYER_1
 10
101.6866
 20
192.3721
  0
SEQEND
  0
POLYLINE
  8
LAYER_1
 40
0.1693
 41
0.1693
 66
1
 10
0
 20
0
 30
0
  0
VERTEX
  8
LAYER_1
 10
109.6876
 20
192.3721
  0
SEQEND
  0
POLYLINE
  8
LAYER_1
 40
0.1693
 41
0.1693
 66
1
 10
0
 20
0
 30
0
  0
VERTEX
  8
LAYER_1
 10
95.5482
 20
182.7836
  0
VERTEX
  8
LAYER_1
 10
95.5482
 20
183.3763
  0
SEQEND
  0
POLYLINE
  8
LAYER_1
 40
0.1693
 41
0.1693
 66
1
 10
0
 20
0
 30
0
  0
VERTEX
  8
LAYER_1
 10
115.5296
 20
182.7836
  0
VERTEX
  8
LAYER_1
 10
115.5296
 20
183.3763
  0
SEQEND
  0
POLYLINE
  8
LAYER_1
 40
0.1693
 41
0.1693
 66
1
 10
0
 20
0
 30
0
  0
VERTEX
  8
LAYER_1
 10
95.5482
 20
182.7836
  0
VERTEX
  8
LAYER_1
 10
101.0516
 20
182.7836
  0
SEQEND
  0
POLYLINE
  8
LAYER_1
 40
0.1693
 41
0.1693
 66
1
 10
0
 20
0
 30
0
  0
VERTEX
  8
LAYER_1
 10
95.5482
 20
183.3763
  0
VERTEX
  8
LAYER_1
 10
101.0516
 20
183.3763
  0
SEQEND
  0
POLYLINE
  8
LAYER_1
 40
0.1693
 41
0.1693
 66
1
 10
0
 20
0
 30
0
  0
VERTEX
  8
LAYER_1
 10
110.0262
 20
183.3763
  0
VERTEX
  8
LAYER_1
 10
115.5296
 20
183.3763
  0
SEQEND
  0
POLYLINE
  8
LAYER_1
 40
0.1693
 41
0.1693
 66
1
 10
0
 20
0
 30
0
  0
VERTEX
  8
LAYER_1
 10
110.0262
 20
182.7836
  0
VERTEX
  8
LAYER_1
 10
115.5296
 20
182.7836
  0
SEQEND
  0
POLYLINE
  8
LAYER_1
 40
0.0847
 41
0.0847
 66
1
 10
0
 20
0
 30
0
  0
VERTEX
  8
LAYER_1
 10
109.6876
 20
183.3763
  0
VERTEX
  8
LAYER_1
 10
109.8146
 20
183.3763
  0
SEQEND
  0
POLYLINE
  8
LAYER_1
 40
0.0847
 41
0.0847
 66
1
 10
0
 20
0
 30
0
  0
VERTEX
  8
LAYER_1
 10
109.8992
 20
183.3763
  0
VERTEX
  8
LAYER_1
 10
110.0262
 20
183.3763
  0
SEQEND
  0
POLYLINE
  8
LAYER_1
 40
0.0847
 41
0.0847
 66
1
 10
0
 20
0
 30
0
  0
VERTEX
  8
LAYER_1
 10
101.0516
 20
183.3763
  0
VERTEX
  8
LAYER_1
 10
101.2632
 20
183.3763
  0
SEQEND
  0
POLYLINE
  8
LAYER_1
 40
0.0847
 41
0.0847
 66
1
 10
0
 20
0
 30
0
  0
VERTEX
  8
LAYER_1
 10
101.4326
 20
183.3763
  0
VERTEX
  8
LAYER_1
 10
101.6654
 20
183.3763
  0
SEQEND
  0
POLYLINE
  8
LAYER_1
 40
0.0847
 41
0.0847
 66
1
 10
0
 20
0
 30
0
  0
VERTEX
  8
LAYER_1
 10
109.5606
 20
182.7836
  0
VERTEX
  8
LAYER_1
 10
109.7299
 20
182.7836
  0
SEQEND
  0
POLYLINE
  8
LAYER_1
 40
0.0847
 41
0.0847
 66
1
 10
0
 20
0
 30
0
  0
VERTEX
  8
LAYER_1
 10
109.8358
 20
182.7836
  0
VERTEX
  8
LAYER_1
 10
110.0262
 20
182.7836
  0
SEQEND
  0
POLYLINE
  8
LAYER_1
 40
0.0847
 41
0.0847
 66
1
 10
0
 20
0
 30
0
  0
VERTEX
  8
LAYER_1
 10
101.0516
 20
182.7836
  0
VERTEX
  8
LAYER_1
 10
101.2421
 20
182.7836
  0
SEQEND
  0
POLYLINE
  8
LAYER_1
 40
0.0847
 41
0.0847
 66
1
 10
0
 20
0
 30
0
  0
VERTEX
  8
LAYER_1
 10
101.3902
 20
182.7836
  0
VERTEX
  8
LAYER_1
 10
101.6019
 20
182.7836
  0
SEQEND
  0
POLYLINE
  8
LAYER_1
 40
0.0847
 41
0.0847
 66
1
 10
0
 20
0
 30
0
  0
VERTEX
  8
LAYER_1
 10
101.0516
 20
182.7836
  0
VERTEX
  8
LAYER_1
 10
101.0516
 20
182.9953
  0
SEQEND
  0
POLYLINE
  8
LAYER_1
 40
0.0847
 41
0.0847
 66
1
 10
0
 20
0
 30
0
  0
VERTEX
  8
LAYER_1
 10
101.0516
 20
183.1434
  0
VERTEX
  8
LAYER_1
 10
101.0516
 20
183.3763
  0
SEQEND
  0
POLYLINE
  8
LAYER_1
 40
0.0847
 41
0.0847
 66
1
 10
0
 20
0
 30
0
  0
VERTEX
  8
LAYER_1
 10
110.0263
 20
182.7836
  0
VERTEX
  8
LAYER_1
 10
110.0263
 20
182.9953
  0
SEQEND
  0
POLYLINE
  8
LAYER_1
 40
0.0847
 41
0.0847
 66
1
 10
0
 20
0
 30
0
  0
VERTEX
  8
LAYER_1
 10
110.0263
 20
183.1434
  0
VERTEX
  8
LAYER_1
 10
110.0263
 20
183.3763
  0
SEQEND
  0
POLYLINE
  8
LAYER_1
 40
0.0847
 41
0.0847
 66
1
 10
0
 20
0
 30
0
  0
VERTEX
  8
LAYER_1
 10
100.7976
 20
182.7836
  0
VERTEX
  8
LAYER_1
 10
101.0516
 20
183.0164
  0
SEQEND
  0
POLYLINE
  8
LAYER_1
 40
0.0847
 41
0.0847
 66
1
 10
0
 20
0
 30
0
  0
VERTEX
  8
LAYER_1
 10
100.5224
 20
182.7836
  0
VERTEX
  8
LAYER_1
 10
101.0516
 20
183.3128
  0
SEQEND
  0
POLYLINE
  8
LAYER_1
 40
0.0847
 41
0.0847
 66
1
 10
0
 20
0
 30
0
  0
VERTEX
  8
LAYER_1
 10
100.2261
 20
182.7836
  0
VERTEX
  8
LAYER_1
 10
100.8399
 20
183.3763
  0
SEQEND
  0
POLYLINE
  8
LAYER_1
 40
0.0847
 41
0.0847
 66
1
 10
0
 20
0
 30
0
  0
VERTEX
  8
LAYER_1
 10
99.9509
 20
182.7836
  0
VERTEX
  8
LAYER_1
 10
100.5436
 20
183.3763
  0
SEQEND
  0
POLYLINE
  8
LAYER_1
 40
0.0847
 41
0.0847
 66
1
 10
0
 20
0
 30
0
  0
VERTEX
  8
LAYER_1
 10
99.6758
 20
182.7836
  0
VERTEX
  8
LAYER_1
 10
100.2684
 20
183.3763
  0
SEQEND
  0
POLYLINE
  8
LAYER_1
 40
0.0847
 41
0.0847
 66
1
 10
0
 20
0
 30
0
  0
VERTEX
  8
LAYER_1
 10
99.3794
 20
182.7836
  0
VERTEX
  8
LAYER_1
 10
99.9933
 20
183.3763
  0
SEQEND
  0
POLYLINE
  8
LAYER_1
 40
0.0847
 41
0.0847
 66
1
 10
0
 20
0
 30
0
  0
VERTEX
  8
LAYER_1
 10
99.1043
 20
182.7836
  0
VERTEX
  8
LAYER_1
 10
99.6969
 20
183.3763
  0
SEQEND
  0
POLYLINE
  8
LAYER_1
 40
0.0847
 41
0.0847
 66
1
 10
0
 20
0
 30
0
  0
VERTEX
  8
LAYER_1
 10
98.8291
 20
182.7836
  0
VERTEX
  8
LAYER_1
 10
99.4218
 20
183.3763
  0
SEQEND
  0
POLYLINE
  8
LAYER_1
 40
0.0847
 41
0.0847
 66
1
 10
0
 20
0
 30
0
  0
VERTEX
  8
LAYER_1
 10
98.5328
 20
182.7836
  0
VERTEX
  8
LAYER_1
 10
99.1466
 20
183.3763
  0
SEQEND
  0
POLYLINE
  8
LAYER_1
 40
0.0847
 41
0.0847
 66
1
 10
0
 20
0
 30
0
  0
VERTEX
  8
LAYER_1
 10
98.2576
 20
182.7836
  0
VERTEX
  8
LAYER_1
 10
98.8503
 20
183.3763
  0
SEQEND
  0
POLYLINE
  8
LAYER_1
 40
0.0847
 41
0.0847
 66
1
 10
0
 20
0
 30
0
  0
VERTEX
  8
LAYER_1
 10
97.9824
 20
182.7836
  0
VERTEX
  8
LAYER_1
 10
98.5751
 20
183.3763
  0
SEQEND
  0
POLYLINE
  8
LAYER_1
 40
0.0847
 41
0.0847
 66
1
 10
0
 20
0
 30
0
  0
VERTEX
  8
LAYER_1
 10
97.6861
 20
182.7836
  0
VERTEX
  8
LAYER_1
 10
98.2999
 20
183.3763
  0
SEQEND
  0
POLYLINE
  8
LAYER_1
 40
0.0847
 41
0.0847
 66
1
 10
0
 20
0
 30
0
  0
VERTEX
  8
LAYER_1
 10
97.4109
 20
182.7836
  0
VERTEX
  8
LAYER_1
 10
98.0036
 20
183.3763
  0
SEQEND
  0
POLYLINE
  8
LAYER_1
 40
0.0847
 41
0.0847
 66
1
 10
0
 20
0
 30
0
  0
VERTEX
  8
LAYER_1
 10
97.1146
 20
182.7836
  0
VERTEX
  8
LAYER_1
 10
97.7284
 20
183.3763
  0
SEQEND
  0
POLYLINE
  8
LAYER_1
 40
0.0847
 41
0.0847
 66
1
 10
0
 20
0
 30
0
  0
VERTEX
  8
LAYER_1
 10
96.8394
 20
182.7836
  0
VERTEX
  8
LAYER_1
 10
97.4321
 20
183.3763
  0
SEQEND
  0
POLYLINE
  8
LAYER_1
 40
0.0847
 41
0.0847
 66
1
 10
0
 20
0
 30
0
  0
VERTEX
  8
LAYER_1
 10
96.5643
 20
182.7836
  0
VERTEX
  8
LAYER_1
 10
97.1569
 20
183.3763
  0
SEQEND
  0
POLYLINE
  8
LAYER_1
 40
0.0847
 41
0.0847
 66
1
 10
0
 20
0
 30
0
  0
VERTEX
  8
LAYER_1
 10
96.2679
 20
182.7836
  0
VERTEX
  8
LAYER_1
 10
96.8818
 20
183.3763
  0
SEQEND
  0
POLYLINE
  8
LAYER_1
 40
0.0847
 41
0.0847
 66
1
 10
0
 20
0
 30
0
  0
VERTEX
  8
LAYER_1
 10
95.9928
 20
182.7836
  0
VERTEX
  8
LAYER_1
 10
96.5854
 20
183.3763
  0
SEQEND
  0
POLYLINE
  8
LAYER_1
 40
0.0847
 41
0.0847
 66
1
 10
0
 20
0
 30
0
  0
VERTEX
  8
LAYER_1
 10
95.7176
 20
182.7836
  0
VERTEX
  8
LAYER_1
 10
96.3103
 20
183.3763
  0
SEQEND
  0
POLYLINE
  8
LAYER_1
 40
0.0847
 41
0.0847
 66
1
 10
0
 20
0
 30
0
  0
VERTEX
  8
LAYER_1
 10
95.5483
 20
182.8894
  0
VERTEX
  8
LAYER_1
 10
96.0351
 20
183.3763
  0
SEQEND
  0
POLYLINE
  8
LAYER_1
 40
0.0847
 41
0.0847
 66
1
 10
0
 20
0
 30
0
  0
VERTEX
  8
LAYER_1
 10
95.5483
 20
183.1858
  0
VERTEX
  8
LAYER_1
 10
95.7388
 20
183.3763
  0
SEQEND
  0
POLYLINE
  8
LAYER_1
 40
0.0847
 41
0.0847
 66
1
 10
0
 20
0
 30
0
  0
VERTEX
  8
LAYER_1
 10
115.4873
 20
182.7836
  0
VERTEX
  8
LAYER_1
 10
115.5296
 20
182.8048
  0
SEQEND
  0
POLYLINE
  8
LAYER_1
 40
0.0847
 41
0.0847
 66
1
 10
0
 20
0
 30
0
  0
VERTEX
  8
LAYER_1
 10
115.2121
 20
182.7836
  0
VERTEX
  8
LAYER_1
 10
115.5296
 20
183.1011
  0
SEQEND
  0
POLYLINE
  8
LAYER_1
 40
0.0847
 41
0.0847
 66
1
 10
0
 20
0
 30
0
  0
VERTEX
  8
LAYER_1
 10
114.6406
 20
182.7836
  0
VERTEX
  8
LAYER_1
 10
115.2333
 20
183.3763
  0
SEQEND
  0
POLYLINE
  8
LAYER_1
 40
0.0847
 41
0.0847
 66
1
 10
0
 20
0
 30
0
  0
VERTEX
  8
LAYER_1
 10
114.3654
 20
182.7836
  0
VERTEX
  8
LAYER_1
 10
114.9581
 20
183.3763
  0
SEQEND
  0
POLYLINE
  8
LAYER_1
 40
0.0847
 41
0.0847
 66
1
 10
0
 20
0
 30
0
  0
VERTEX
  8
LAYER_1
 10
114.0691
 20
182.7836
  0
VERTEX
  8
LAYER_1
 10
114.6829
 20
183.3763
  0
SEQEND
  0
POLYLINE
  8
LAYER_1
 40
0.0847
 41
0.0847
 66
1
 10
0
 20
0
 30
0
  0
VERTEX
  8
LAYER_1
 10
113.7939
 20
182.7836
  0
VERTEX
  8
LAYER_1
 10
114.3866
 20
183.3763
  0
SEQEND
  0
POLYLINE
  8
LAYER_1
 40
0.0847
 41
0.0847
 66
1
 10
0
 20
0
 30
0
  0
VERTEX
  8
LAYER_1
 10
113.4976
 20
182.7836
  0
VERTEX
  8
LAYER_1
 10
114.1114
 20
183.3763
  0
SEQEND
  0
POLYLINE
  8
LAYER_1
 40
0.0847
 41
0.0847
 66
1
 10
0
 20
0
 30
0
  0
VERTEX
  8
LAYER_1
 10
113.2224
 20
182.7836
  0
VERTEX
  8
LAYER_1
 10
113.8151
 20
183.3763
  0
SEQEND
  0
POLYLINE
  8
LAYER_1
 40
0.0847
 41
0.0847
 66
1
 10
0
 20
0
 30
0
  0
VERTEX
  8
LAYER_1
 10
112.9473
 20
182.7836
  0
VERTEX
  8
LAYER_1
 10
113.5399
 20
183.3763
  0
SEQEND
  0
POLYLINE
  8
LAYER_1
 40
0.0847
 41
0.0847
 66
1
 10
0
 20
0
 30
0
  0
VERTEX
  8
LAYER_1
 10
112.6509
 20
182.7836
  0
VERTEX
  8
LAYER_1
 10
113.2648
 20
183.3763
  0
SEQEND
  0
POLYLINE
  8
LAYER_1
 40
0.0847
 41
0.0847
 66
1
 10
0
 20
0
 30
0
  0
VERTEX
  8
LAYER_1
 10
112.3758
 20
182.7836
  0
VERTEX
  8
LAYER_1
 10
112.9684
 20
183.3763
  0
SEQEND
  0
POLYLINE
  8
LAYER_1
 40
0.0847
 41
0.0847
 66
1
 10
0
 20
0
 30
0
  0
VERTEX
  8
LAYER_1
 10
112.1006
 20
182.7836
  0
VERTEX
  8
LAYER_1
 10
112.6933
 20
183.3763
  0
SEQEND
  0
POLYLINE
  8
LAYER_1
 40
0.0847
 41
0.0847
 66
1
 10
0
 20
0
 30
0
  0
VERTEX
  8
LAYER_1
 10
111.8043
 20
182.7836
  0
VERTEX
  8
LAYER_1
 10
112.4181
 20
183.3763
  0
SEQEND
  0
POLYLINE
  8
LAYER_1
 40
0.0847
 41
0.0847
 66
1
 10
0
 20
0
 30
0
  0
VERTEX
  8
LAYER_1
 10
111.5291
 20
182.7836
  0
VERTEX
  8
LAYER_1
 10
112.1218
 20
183.3763
  0
SEQEND
  0
POLYLINE
  8
LAYER_1
 40
0.0847
 41
0.0847
 66
1
 10
0
 20
0
 30
0
  0
VERTEX
  8
LAYER_1
 10
111.2539
 20
182.7836
  0
VERTEX
  8
LAYER_1
 10
111.8466
 20
183.3763
  0
SEQEND
  0
POLYLINE
  8
LAYER_1
 40
0.0847
 41
0.0847
 66
1
 10
0
 20
0
 30
0
  0
VERTEX
  8
LAYER_1
 10
110.9576
 20
182.7836
  0
VERTEX
  8
LAYER_1
 10
111.5714
 20
183.3763
  0
SEQEND
  0
POLYLINE
  8
LAYER_1
 40
0.0847
 41
0.0847
 66
1
 10
0
 20
0
 30
0
  0
VERTEX
  8
LAYER_1
 10
110.6824
 20
182.7836
  0
VERTEX
  8
LAYER_1
 10
111.2751
 20
183.3763
  0
SEQEND
  0
POLYLINE
  8
LAYER_1
 40
0.0847
 41
0.0847
 66
1
 10
0
 20
0
 30
0
  0
VERTEX
  8
LAYER_1
 10
110.3861
 20
182.7836
  0
VERTEX
  8
LAYER_1
 10
110.9999
 20
183.3763
  0
SEQEND
  0
POLYLINE
  8
LAYER_1
 40
0.0847
 41
0.0847
 66
1
 10
0
 20
0
 30
0
  0
VERTEX
  8
LAYER_1
 10
110.1109
 20
182.7836
  0
VERTEX
  8
LAYER_1
 10
110.7036
 20
183.3763
  0
SEQEND
  0
POLYLINE
  8
LAYER_1
 40
0.0847
 41
0.0847
 66
1
 10
0
 20
0
 30
0
  0
VERTEX
  8
LAYER_1
 10
110.0263
 20
182.9741
  0
VERTEX
  8
LAYER_1
 10
110.4284
 20
183.3763
  0
SEQEND
  0
POLYLINE
  8
LAYER_1
 40
0.0847
 41
0.0847
 66
1
 10
0
 20
0
 30
0
  0
VERTEX
  8
LAYER_1
 10
110.0263
 20
183.2493
  0
VERTEX
  8
LAYER_1
 10
110.1533
 20
183.3763
  0
SEQEND
  0
POLYLINE
  8
LAYER_1
 40
0.1693
 41
0.1693
 66
1
 10
0
 20
0
 30
0
  0
VERTEX
  8
LAYER_1
 10
99.5487
 20
181.6829
  0
VERTEX
  8
LAYER_1
 10
111.5291
 20
181.6829
  0
SEQEND
  0
POLYLINE
  8
LAYER_1
 40
0.1693
 41
0.1693
 66
1
 10
0
 20
0
 30
0
  0
VERTEX
  8
LAYER_1
 10
101.3902
 20
182.7836
  0
VERTEX
  8
LAYER_1
 10
101.4114
 20
182.7836
  0
SEQEND
  0
POLYLINE
  8
LAYER_1
 40
0.1693
 41
0.1693
 66
1
 10
0
 20
0
 30
0
  0
VERTEX
  8
LAYER_1
 10
99.9933
 20
182.7624
 42
0.3549701446
  0
VERTEX
  8
LAYER_1
 10
99.8874
 20
182.7201
  0
SEQEND
  0
POLYLINE
  8
LAYER_1
 40
0.1693
 41
0.1693
 66
1
 10
0
 20
0
 30
0
  0
VERTEX
  8
LAYER_1
 10
100.0144
 20
182.7836
  0
VERTEX
  8
LAYER_1
 10
111.0634
 20
182.7836
  0
SEQEND
  0
POLYLINE
  8
LAYER_1
 40
0.1693
 41
0.1693
 66
1
 10
0
 20
0
 30
0
  0
VERTEX
  8
LAYER_1
 10
99.4218
 20
182.3391
  0
VERTEX
  8
LAYER_1
 10
99.8874
 20
182.7201
  0
SEQEND
  0
POLYLINE
  8
LAYER_1
 40
0.1693
 41
0.1693
 66
1
 10
0
 20
0
 30
0
  0
VERTEX
  8
LAYER_1
 10
111.7196
 20
182.1909
 42
0.133516775
  0
VERTEX
  8
LAYER_1
 10
111.6349
 20
182.3391
  0
SEQEND
  0
POLYLINE
  8
LAYER_1
 40
0.1693
 41
0.1693
 66
1
 10
0
 20
0
 30
0
  0
VERTEX
  8
LAYER_1
 10
111.6561
 20
182.3391
  0
VERTEX
  8
LAYER_1
 10
111.1904
 20
182.7201
  0
SEQEND
  0
POLYLINE
  8
LAYER_1
 40
0.1693
 41
0.1693
 66
1
 10
0
 20
0
 30
0
  0
VERTEX
  8
LAYER_1
 10
111.1692
 20
182.7413
  0
VERTEX
  8
LAYER_1
 10
111.0634
 20
182.7624
  0
VERTEX
  8
LAYER_1
 10
111.0422
 20
182.7624
  0
SEQEND
  0
POLYLINE
  8
LAYER_1
 40
0.1693
 41
0.1693
 66
1
 10
0
 20
0
 30
0
  0
VERTEX
  8
LAYER_1
 10
99.3582
 20
181.6829
  0
VERTEX
  8
LAYER_1
 10
111.7196
 20
181.6829
  0
VERTEX
  8
LAYER_1
 10
111.7196
 20
182.1698
  0
SEQEND
  0
POLYLINE
  8
LAYER_1
 40
0.1693
 41
0.1693
 66
1
 10
0
 20
0
 30
0
  0
VERTEX
  8
LAYER_1
 10
99.4217
 20
182.3179
 42
0.233112743
  0
VERTEX
  8
LAYER_1
 10
99.3582
 20
182.1909
  0
SEQEND
  0
POLYLINE
  8
LAYER_1
 40
0.1693
 41
0.1693
 66
1
 10
0
 20
0
 30
0
  0
VERTEX
  8
LAYER_1
 10
99.3582
 20
181.6829
  0
VERTEX
  8
LAYER_1
 10
99.3582
 20
182.1698
  0
SEQEND
  0
POLYLINE
  8
LAYER_1
 40
0.1693
 41
0.1693
 66
1
 10
0
 20
0
 30
0
  0
VERTEX
  8
LAYER_1
 10
101.0092
 20
179.8838
  0
VERTEX
  8
LAYER_1
 10
110.0686
 20
179.8838
  0
SEQEND
  0
POLYLINE
  8
LAYER_1
 40
0.1693
 41
0.1693
 66
1
 10
0
 20
0
 30
0
  0
VERTEX
  8
LAYER_1
 10
99.5487
 20
181.6829
  0
VERTEX
  8
LAYER_1
 10
111.5291
 20
181.6829
  0
SEQEND
  0
POLYLINE
  8
LAYER_1
 40
0.0847
 41
0.0847
 66
1
 10
0
 20
0
 30
0
  0
VERTEX
  8
LAYER_1
 10
109.5182
 20
179.8838
  0
VERTEX
  8
LAYER_1
 10
109.5182
 20
180.3283
  0
SEQEND
  0
POLYLINE
  8
LAYER_1
 40
0.0847
 41
0.0847
 66
1
 10
0
 20
0
 30
0
  0
VERTEX
  8
LAYER_1
 10
109.5182
 20
181.2173
  0
VERTEX
  8
LAYER_1
 10
109.5182
 20
181.6829
  0
SEQEND
  0
POLYLINE
  8
LAYER_1
 40
0.0847
 41
0.0847
 66
1
 10
0
 20
0
 30
0
  0
VERTEX
  8
LAYER_1
 10
101.5596
 20
179.8838
  0
VERTEX
  8
LAYER_1
 10
101.5596
 20
180.3283
  0
SEQEND
  0
POLYLINE
  8
LAYER_1
 40
0.0847
 41
0.0847
 66
1
 10
0
 20
0
 30
0
  0
VERTEX
  8
LAYER_1
 10
101.5596
 20
181.2173
  0
VERTEX
  8
LAYER_1
 10
101.5596
 20
181.6829
  0
SEQEND
  0
POLYLINE
  8
LAYER_1
 40
0.0847
 41
0.0847
 66
1
 10
0
 20
0
 30
0
  0
VERTEX
  8
LAYER_1
 10
99.5487
 20
181.4713
  0
VERTEX
  8
LAYER_1
 10
111.5291
 20
181.4713
  0
SEQEND
  0
POLYLINE
  8
LAYER_1
 40
0.1693
 41
0.1693
 66
1
 10
0
 20
0
 30
0
  0
VERTEX
  8
LAYER_1
 10
99.5487
 20
181.4713
  0
VERTEX
  8
LAYER_1
 10
99.5487
 20
181.6829
  0
SEQEND
  0
POLYLINE
  8
LAYER_1
 40
0.1693
 41
0.1693
 66
1
 10
0
 20
0
 30
0
  0
VERTEX
  8
LAYER_1
 10
111.5291
 20
181.4713
  0
VERTEX
  8
LAYER_1
 10
111.5291
 20
181.6829
  0
SEQEND
  0
POLYLINE
  8
LAYER_1
 40
0.1693
 41
0.1693
 66
1
 10
0
 20
0
 30
0
  0
VERTEX
  8
LAYER_1
 10
101.0092
 20
179.8838
  0
VERTEX
  8
LAYER_1
 10
101.0092
 20
181.1749
  0
SEQEND
  0
POLYLINE
  8
LAYER_1
 40
0.1693
 41
0.1693
 66
1
 10
0
 20
0
 30
0
  0
VERTEX
  8
LAYER_1
 10
99.5487
 20
181.4713
  0
VERTEX
  8
LAYER_1
 10
99.8451
 20
181.1749
  0
SEQEND
  0
POLYLINE
  8
LAYER_1
 40
0.1693
 41
0.1693
 66
1
 10
0
 20
0
 30
0
  0
VERTEX
  8
LAYER_1
 10
110.0686
 20
179.8838
  0
VERTEX
  8
LAYER_1
 10
110.0686
 20
181.1749
  0
SEQEND
  0
POLYLINE
  8
LAYER_1
 40
0.1693
 41
0.1693
 66
1
 10
0
 20
0
 30
0
  0
VERTEX
  8
LAYER_1
 10
99.8451
 20
181.1749
  0
VERTEX
  8
LAYER_1
 10
111.2327
 20
181.1749
  0
SEQEND
  0
POLYLINE
  8
LAYER_1
 40
0.1693
 41
0.1693
 66
1
 10
0
 20
0
 30
0
  0
VERTEX
  8
LAYER_1
 10
111.5291
 20
181.4713
  0
VERTEX
  8
LAYER_1
 10
111.2327
 20
181.1749
  0
SEQEND
  0
POLYLINE
  8
LAYER_1
 40
0.0847
 41
0.0847
 66
1
 10
0
 20
0
 30
0
  0
VERTEX
  8
LAYER_1
 10
105.5389
 20
189.4723
  0
VERTEX
  8
LAYER_1
 10
105.5389
 20
190.7634
  0
SEQEND
  0
POLYLINE
  8
LAYER_1
 40
0.0847
 41
0.0847
 66
1
 10
0
 20
0
 30
0
  0
VERTEX
  8
LAYER_1
 10
105.5389
 20
179.8838
  0
VERTEX
  8
LAYER_1
 10
105.5389
 20
181.1749
  0
SEQEND
  0
POLYLINE
  8
LAYER_1
 40
0.1693
 41
0.1693
 66
1
 10
0
 20
0
 30
0
  0
VERTEX
  8
LAYER_1
 10
101.7077
 20
182.8471
  0
VERTEX
  8
LAYER_1
 10
101.6019
 20
182.7836
  0
SEQEND
  0
POLYLINE
  8
LAYER_1
 40
0.1693
 41
0.1693
 66
1
 10
0
 20
0
 30
0
  0
VERTEX
  8
LAYER_1
 10
109.6876
 20
182.8683
  0
VERTEX
  8
LAYER_1
 10
109.5606
 20
182.7836
  0
SEQEND
  0
POLYLINE
  8
LAYER_1
 40
0.1693
 41
0.1693
 66
1
 10
0
 20
0
 30
0
  0
VERTEX
  8
LAYER_1
 10
101.6654
 20
179.8838
  0
VERTEX
  8
LAYER_1
 10
101.7077
 20
179.8414
  0
SEQEND
  0
POLYLINE
  8
LAYER_1
 40
0.1693
 41
0.1693
 66
1
 10
0
 20
0
 30
0
  0
VERTEX
  8
LAYER_1
 10
109.6664
 20
179.8838
  0
VERTEX
  8
LAYER_1
 10
109.6876
 20
179.8626
  0
SEQEND
  0
POLYLINE
  8
LAYER_1
 40
0.0847
 41
0.0847
 66
1
 10
0
 20
0
 30
0
  0
VERTEX
  8
LAYER_1
 10
111.5079
 20
197.9601
  0
VERTEX
  8
LAYER_1
 10
150.2429
 20
198.1506
  0
SEQEND
  0
POLYLINE
  8
LAYER_1
 40
0.0847
 41
0.0847
 66
1
 10
0
 20
0
 30
0
  0
VERTEX
  8
LAYER_1
 10
115.6777
 20
192.6473
  0
VERTEX
  8
LAYER_1
 10
150.4757
 20
169.8719
  0
SEQEND
  0
TEXT
  8
LAYER_1
 10
151.0471
 20
168.1151
 11
151.0471
 21
168.1151
 40
2.5779
 41
0.5
  1
äOâèâôâOüiìòüj
  0
POLYLINE
  8
LAYER_1
 40
0.0847
 41
0.0847
 66
1
 10
0
 20
0
 30
0
  0
VERTEX
  8
LAYER_1
 10
108.7351
 20
165.1941
  0
VERTEX
  8
LAYER_1
 10
108.7351
 20
166.2524
  0
SEQEND
  0
POLYLINE
  8
LAYER_1
 40
0.0847
 41
0.0847
 66
1
 10
0
 20
0
 30
0
  0
VERTEX
  8
LAYER_1
 10
108.7351
 20
168.4114
  0
VERTEX
  8
LAYER_1
 10
108.7351
 20
170.5493
  0
SEQEND
  0
POLYLINE
  8
LAYER_1
 40
0.0847
 41
0.0847
 66
1
 10
0
 20
0
 30
0
  0
VERTEX
  8
LAYER_1
 10
108.7351
 20
172.7082
  0
VERTEX
  8
LAYER_1
 10
108.7351
 20
174.8461
  0
SEQEND
  0
POLYLINE
  8
LAYER_1
 40
0.0847
 41
0.0847
 66
1
 10
0
 20
0
 30
0
  0
VERTEX
  8
LAYER_1
 10
108.7351
 20
177.0051
  0
VERTEX
  8
LAYER_1
 10
108.7351
 20
178.0846
  0
SEQEND
  0
POLYLINE
  8
LAYER_1
 40
0.0847
 41
0.0847
 66
1
 10
0
 20
0
 30
0
  0
VERTEX
  8
LAYER_1
 10
102.3428
 20
165.1941
  0
VERTEX
  8
LAYER_1
 10
102.3428
 20
166.2524
  0
SEQEND
  0
POLYLINE
  8
LAYER_1
 40
0.0847
 41
0.0847
 66
1
 10
0
 20
0
 30
0
  0
VERTEX
  8
LAYER_1
 10
102.3428
 20
168.4114
  0
VERTEX
  8
LAYER_1
 10
102.3428
 20
170.5492
  0
SEQEND
  0
POLYLINE
  8
LAYER_1
 40
0.0847
 41
0.0847
 66
1
 10
0
 20
0
 30
0
  0
VERTEX
  8
LAYER_1
 10
102.3428
 20
172.7082
  0
VERTEX
  8
LAYER_1
 10
102.3428
 20
174.8461
  0
SEQEND
  0
POLYLINE
  8
LAYER_1
 40
0.0847
 41
0.0847
 66
1
 10
0
 20
0
 30
0
  0
VERTEX
  8
LAYER_1
 10
102.3428
 20
177.0051
  0
VERTEX
  8
LAYER_1
 10
102.3428
 20
178.0846
  0
SEQEND
  0
POLYLINE
  8
LAYER_1
 40
0.0847
 41
0.0847
 66
1
 10
0
 20
0
 30
0
  0
VERTEX
  8
LAYER_1
 10
100.4589
 20
181.2172
  0
VERTEX
  8
LAYER_1
 10
51.3523
 20
164.4321
  0
SEQEND
  0
POLYLINE
  8
LAYER_1
 40
0.0847
 41
0.0847
 66
1
 10
0
 20
0
 30
0
  0
VERTEX
  8
LAYER_1
 10
107.1053
 20
170.5704
  0
VERTEX
  8
LAYER_1
 10
155.9791
 20
151.3934
  0
SEQEND
  0
POLYLINE
  8
LAYER_1
 40
0.0847
 41
0.0847
 66
1
 10
0
 20
0
 30
0
  0
VERTEX
  8
LAYER_1
 10
114.9157
 20
182.7836
  0
VERTEX
  8
LAYER_1
 10
115.5296
 20
183.3762
  0
SEQEND
  0
POLYLINE
  8
LAYER_1
 40
0.0847
 41
0.0847
 66
1
 10
0
 20
0
 30
0
  0
VERTEX
  8
LAYER_1
 10
115.1909
 20
182.9529
  0
VERTEX
  8
LAYER_1
 10
150.5181
 20
161.2147
  0
SEQEND
  0
POLYLINE
  8
LAYER_1
 40
0.0847
 41
0.0847
 66
1
 10
0
 20
0
 30
0
  0
VERTEX
  8
LAYER_1
 10
96.9029
 20
198.7644
  0
VERTEX
  8
LAYER_1
 10
114.1749
 20
198.7644
  0
SEQEND
  0
POLYLINE
  8
LAYER_1
 40
0.0847
 41
0.0847
 66
1
 10
0
 20
0
 30
0
  0
VERTEX
  8
LAYER_1
 10
35.5619
 20
216.5656
  0
VERTEX
  8
LAYER_1
 10
96.9029
 20
198.7644
  0
SEQEND
  0
POLYLINE
  8
LAYER_1
 40
0.0847
 41
0.0847
 66
1
 10
0
 20
0
 30
0
  0
VERTEX
  8
LAYER_1
 10
35.5619
 20
216.5656
  0
VERTEX
  8
LAYER_1
 10
36.4086
 20
216.5656
  0
SEQEND
  0
POLYLINE
  8
LAYER_1
 40
0.0847
 41
0.0847
 66
1
 10
0
 20
0
 30
0
  0
VERTEX
  8
LAYER_1
 10
38.1019
 20
216.5656
  0
VERTEX
  8
LAYER_1
 10
39.8164
 20
216.5656
  0
SEQEND
  0
POLYLINE
  8
LAYER_1
 40
0.0847
 41
0.0847
 66
1
 10
0
 20
0
 30
0
  0
VERTEX
  8
LAYER_1
 10
41.5309
 20
216.5656
  0
VERTEX
  8
LAYER_1
 10
43.2242
 20
216.5656
  0
SEQEND
  0
POLYLINE
  8
LAYER_1
 40
0.0847
 41
0.0847
 66
1
 10
0
 20
0
 30
0
  0
VERTEX
  8
LAYER_1
 10
44.9387
 20
216.5656
  0
VERTEX
  8
LAYER_1
 10
46.6532
 20
216.5656
  0
SEQEND
  0
POLYLINE
  8
LAYER_1
 40
0.0847
 41
0.0847
 66
1
 10
0
 20
0
 30
0
  0
VERTEX
  8
LAYER_1
 10
48.3466
 20
216.5656
  0
VERTEX
  8
LAYER_1
 10
50.0611
 20
216.5656
  0
SEQEND
  0
POLYLINE
  8
LAYER_1
 40
0.0847
 41
0.0847
 66
1
 10
0
 20
0
 30
0
  0
VERTEX
  8
LAYER_1
 10
51.7756
 20
216.5656
  0
VERTEX
  8
LAYER_1
 10
53.4689
 20
216.5656
  0
SEQEND
  0
POLYLINE
  8
LAYER_1
 40
0.0847
 41
0.0847
 66
1
 10
0
 20
0
 30
0
  0
VERTEX
  8
LAYER_1
 10
55.1834
 20
216.5656
  0
VERTEX
  8
LAYER_1
 10
56.8767
 20
216.5656
  0
SEQEND
  0
POLYLINE
  8
LAYER_1
 40
0.0847
 41
0.0847
 66
1
 10
0
 20
0
 30
0
  0
VERTEX
  8
LAYER_1
 10
58.5912
 20
216.5656
  0
VERTEX
  8
LAYER_1
 10
60.3057
 20
216.5656
  0
SEQEND
  0
POLYLINE
  8
LAYER_1
 40
0.0847
 41
0.0847
 66
1
 10
0
 20
0
 30
0
  0
VERTEX
  8
LAYER_1
 10
61.9991
 20
216.5656
  0
VERTEX
  8
LAYER_1
 10
63.7136
 20
216.5656
  0
SEQEND
  0
POLYLINE
  8
LAYER_1
 40
0.0847
 41
0.0847
 66
1
 10
0
 20
0
 30
0
  0
VERTEX
  8
LAYER_1
 10
65.4281
 20
216.5656
  0
VERTEX
  8
LAYER_1
 10
67.1214
 20
216.5656
  0
SEQEND
  0
POLYLINE
  8
LAYER_1
 40
0.0847
 41
0.0847
 66
1
 10
0
 20
0
 30
0
  0
VERTEX
  8
LAYER_1
 10
68.8359
 20
216.5656
  0
VERTEX
  8
LAYER_1
 10
70.5504
 20
216.5656
  0
SEQEND
  0
POLYLINE
  8
LAYER_1
 40
0.0847
 41
0.0847
 66
1
 10
0
 20
0
 30
0
  0
VERTEX
  8
LAYER_1
 10
72.2438
 20
216.5656
  0
VERTEX
  8
LAYER_1
 10
73.9582
 20
216.5656
  0
SEQEND
  0
POLYLINE
  8
LAYER_1
 40
0.0847
 41
0.0847
 66
1
 10
0
 20
0
 30
0
  0
VERTEX
  8
LAYER_1
 10
75.6516
 20
216.5656
  0
VERTEX
  8
LAYER_1
 10
77.3661
 20
216.5656
  0
SEQEND
  0
POLYLINE
  8
LAYER_1
 40
0.0847
 41
0.0847
 66
1
 10
0
 20
0
 30
0
  0
VERTEX
  8
LAYER_1
 10
79.0806
 20
216.5656
  0
VERTEX
  8
LAYER_1
 10
80.7739
 20
216.5656
  0
SEQEND
  0
POLYLINE
  8
LAYER_1
 40
0.0847
 41
0.0847
 66
1
 10
0
 20
0
 30
0
  0
VERTEX
  8
LAYER_1
 10
82.4884
 20
216.5656
  0
VERTEX
  8
LAYER_1
 10
84.2029
 20
216.5656
  0
SEQEND
  0
POLYLINE
  8
LAYER_1
 40
0.0847
 41
0.0847
 66
1
 10
0
 20
0
 30
0
  0
VERTEX
  8
LAYER_1
 10
85.8963
 20
216.5656
  0
VERTEX
  8
LAYER_1
 10
87.6108
 20
216.5656
  0
SEQEND
  0
POLYLINE
  8
LAYER_1
 40
0.0847
 41
0.0847
 66
1
 10
0
 20
0
 30
0
  0
VERTEX
  8
LAYER_1
 10
89.3041
 20
216.5656
  0
VERTEX
  8
LAYER_1
 10
91.0186
 20
216.5656
  0
SEQEND
  0
POLYLINE
  8
LAYER_1
 40
0.0847
 41
0.0847
 66
1
 10
0
 20
0
 30
0
  0
VERTEX
  8
LAYER_1
 10
92.7331
 20
216.5656
  0
VERTEX
  8
LAYER_1
 10
94.4264
 20
216.5656
  0
SEQEND
  0
POLYLINE
  8
LAYER_1
 40
0.0847
 41
0.0847
 66
1
 10
0
 20
0
 30
0
  0
VERTEX
  8
LAYER_1
 10
96.1409
 20
216.5656
  0
VERTEX
  8
LAYER_1
 10
97.8554
 20
216.5656
  0
SEQEND
  0
POLYLINE
  8
LAYER_1
 40
0.0847
 41
0.0847
 66
1
 10
0
 20
0
 30
0
  0
VERTEX
  8
LAYER_1
 10
99.5488
 20
216.5656
  0
VERTEX
  8
LAYER_1
 10
101.2633
 20
216.5656
  0
SEQEND
  0
POLYLINE
  8
LAYER_1
 40
0.0847
 41
0.0847
 66
1
 10
0
 20
0
 30
0
  0
VERTEX
  8
LAYER_1
 10
102.9778
 20
216.5656
  0
VERTEX
  8
LAYER_1
 10
104.6711
 20
216.5656
  0
SEQEND
  0
POLYLINE
  8
LAYER_1
 40
0.0847
 41
0.0847
 66
1
 10
0
 20
0
 30
0
  0
VERTEX
  8
LAYER_1
 10
106.3856
 20
216.5656
  0
VERTEX
  8
LAYER_1
 10
108.0789
 20
216.5656
  0
SEQEND
  0
POLYLINE
  8
LAYER_1
 40
0.0847
 41
0.0847
 66
1
 10
0
 20
0
 30
0
  0
VERTEX
  8
LAYER_1
 10
109.7934
 20
216.5656
  0
VERTEX
  8
LAYER_1
 10
111.5079
 20
216.5656
  0
SEQEND
  0
POLYLINE
  8
LAYER_1
 40
0.0847
 41
0.0847
 66
1
 10
0
 20
0
 30
0
  0
VERTEX
  8
LAYER_1
 10
113.2013
 20
216.5656
  0
VERTEX
  8
LAYER_1
 10
114.9158
 20
216.5656
  0
SEQEND
  0
POLYLINE
  8
LAYER_1
 40
0.0847
 41
0.0847
 66
1
 10
0
 20
0
 30
0
  0
VERTEX
  8
LAYER_1
 10
116.6303
 20
216.5656
  0
VERTEX
  8
LAYER_1
 10
118.3236
 20
216.5656
  0
SEQEND
  0
POLYLINE
  8
LAYER_1
 40
0.0847
 41
0.0847
 66
1
 10
0
 20
0
 30
0
  0
VERTEX
  8
LAYER_1
 10
120.0381
 20
216.5656
  0
VERTEX
  8
LAYER_1
 10
121.7526
 20
216.5656
  0
SEQEND
  0
POLYLINE
  8
LAYER_1
 40
0.0847
 41
0.0847
 66
1
 10
0
 20
0
 30
0
  0
VERTEX
  8
LAYER_1
 10
123.4459
 20
216.5656
  0
VERTEX
  8
LAYER_1
 10
125.1604
 20
216.5656
  0
SEQEND
  0
POLYLINE
  8
LAYER_1
 40
0.0847
 41
0.0847
 66
1
 10
0
 20
0
 30
0
  0
VERTEX
  8
LAYER_1
 10
126.8538
 20
216.5656
  0
VERTEX
  8
LAYER_1
 10
128.5683
 20
216.5656
  0
SEQEND
  0
POLYLINE
  8
LAYER_1
 40
0.0847
 41
0.0847
 66
1
 10
0
 20
0
 30
0
  0
VERTEX
  8
LAYER_1
 10
130.2828
 20
216.5656
  0
VERTEX
  8
LAYER_1
 10
131.9761
 20
216.5656
  0
SEQEND
  0
POLYLINE
  8
LAYER_1
 40
0.0847
 41
0.0847
 66
1
 10
0
 20
0
 30
0
  0
VERTEX
  8
LAYER_1
 10
133.6906
 20
216.5656
  0
VERTEX
  8
LAYER_1
 10
135.4051
 20
216.5656
  0
SEQEND
  0
POLYLINE
  8
LAYER_1
 40
0.0847
 41
0.0847
 66
1
 10
0
 20
0
 30
0
  0
VERTEX
  8
LAYER_1
 10
137.0984
 20
216.5656
  0
VERTEX
  8
LAYER_1
 10
138.8129
 20
216.5656
  0
SEQEND
  0
POLYLINE
  8
LAYER_1
 40
0.0847
 41
0.0847
 66
1
 10
0
 20
0
 30
0
  0
VERTEX
  8
LAYER_1
 10
140.5274
 20
216.5656
  0
VERTEX
  8
LAYER_1
 10
142.2208
 20
216.5656
  0
SEQEND
  0
POLYLINE
  8
LAYER_1
 40
0.0847
 41
0.0847
 66
1
 10
0
 20
0
 30
0
  0
VERTEX
  8
LAYER_1
 10
143.9353
 20
216.5656
  0
VERTEX
  8
LAYER_1
 10
145.6286
 20
216.5656
  0
SEQEND
  0
POLYLINE
  8
LAYER_1
 40
0.0847
 41
0.0847
 66
1
 10
0
 20
0
 30
0
  0
VERTEX
  8
LAYER_1
 10
147.3431
 20
216.5656
  0
VERTEX
  8
LAYER_1
 10
149.0576
 20
216.5656
  0
SEQEND
  0
POLYLINE
  8
LAYER_1
 40
0.0847
 41
0.0847
 66
1
 10
0
 20
0
 30
0
  0
VERTEX
  8
LAYER_1
 10
150.7509
 20
216.5656
  0
VERTEX
  8
LAYER_1
 10
152.4654
 20
216.5656
  0
SEQEND
  0
POLYLINE
  8
LAYER_1
 40
0.0847
 41
0.0847
 66
1
 10
0
 20
0
 30
0
  0
VERTEX
  8
LAYER_1
 10
154.1799
 20
216.5656
  0
VERTEX
  8
LAYER_1
 10
155.8732
 20
216.5656
  0
SEQEND
  0
POLYLINE
  8
LAYER_1
 40
0.0847
 41
0.0847
 66
1
 10
0
 20
0
 30
0
  0
VERTEX
  8
LAYER_1
 10
157.5877
 20
216.5656
  0
VERTEX
  8
LAYER_1
 10
159.281
 20
216.5656
  0
SEQEND
  0
POLYLINE
  8
LAYER_1
 40
0.0847
 41
0.0847
 66
1
 10
0
 20
0
 30
0
  0
VERTEX
  8
LAYER_1
 10
160.9955
 20
216.5656
  0
VERTEX
  8
LAYER_1
 10
162.71
 20
216.5656
  0
SEQEND
  0
POLYLINE
  8
LAYER_1
 40
0.0847
 41
0.0847
 66
1
 10
0
 20
0
 30
0
  0
VERTEX
  8
LAYER_1
 10
164.4034
 20
216.5656
  0
VERTEX
  8
LAYER_1
 10
166.1179
 20
216.5656
  0
SEQEND
  0
POLYLINE
  8
LAYER_1
 40
0.0847
 41
0.0847
 66
1
 10
0
 20
0
 30
0
  0
VERTEX
  8
LAYER_1
 10
167.8324
 20
216.5656
  0
VERTEX
  8
LAYER_1
 10
169.5257
 20
216.5656
  0
SEQEND
  0
POLYLINE
  8
LAYER_1
 40
0.0847
 41
0.0847
 66
1
 10
0
 20
0
 30
0
  0
VERTEX
  8
LAYER_1
 10
171.2402
 20
216.5656
  0
VERTEX
  8
LAYER_1
 10
172.9547
 20
216.5656
  0
SEQEND
  0
POLYLINE
  8
LAYER_1
 40
0.0847
 41
0.0847
 66
1
 10
0
 20
0
 30
0
  0
VERTEX
  8
LAYER_1
 10
174.648
 20
216.5656
  0
VERTEX
  8
LAYER_1
 10
175.5158
 20
216.5656
  0
VERTEX
  8
LAYER_1
 10
114.1748
 20
198.7644
  0
SEQEND
  0
POLYLINE
  8
LAYER_1
 40
0.1693
 41
0.1693
 66
1
 10
0
 20
0
 30
0
  0
VERTEX
  8
LAYER_1
 10
175.5156
 20
216.5656
  0
VERTEX
  8
LAYER_1
 10
185.5274
 20
216.5656
  0
SEQEND
  0
POLYLINE
  8
LAYER_1
 40
0.1693
 41
0.1693
 66
1
 10
0
 20
0
 30
0
  0
VERTEX
  8
LAYER_1
 10
25.5497
 20
216.5656
  0
VERTEX
  8
LAYER_1
 10
35.5616
 20
216.5656
  0
SEQEND
  0
POLYLINE
  8
LAYER_1
 40
0.0847
 41
0.0847
 66
1
 10
0
 20
0
 30
0
  0
VERTEX
  8
LAYER_1
 10
187.2634
 20
178.3809
  0
VERTEX
  8
LAYER_1
 10
187.2634
 20
183.3763
  0
SEQEND
  0
POLYLINE
  8
LAYER_1
 40
0.0847
 41
0.0847
 66
1
 10
0
 20
0
 30
0
  0
VERTEX
  8
LAYER_1
 10
187.2634
 20
192.3721
  0
VERTEX
  8
LAYER_1
 10
187.2634
 20
197.3674
  0
SEQEND
  0
POLYLINE
  8
LAYER_1
 40
0.0847
 41
0.0847
 66
1
 10
0
 20
0
 30
0
  0
VERTEX
  8
LAYER_1
 10
187.2634
 20
183.3763
  0
VERTEX
  8
LAYER_1
 10
187.2634
 20
192.3721
  0
SEQEND
  0
POLYLINE
  8
LAYER_1
 40
0.1693
 41
0.1693
 66
1
 10
0
 20
0
 30
0
  0
VERTEX
  8
LAYER_1
 10
187.2634
 20
183.3763
  0
VERTEX
  8
LAYER_1
 10
188.0254
 20
180.4764
  0
SEQEND
  0
POLYLINE
  8
LAYER_1
 40
0.1693
 41
0.1693
 66
1
 10
0
 20
0
 30
0
  0
VERTEX
  8
LAYER_1
 10
187.2634
 20
183.3763
  0
VERTEX
  8
LAYER_1
 10
186.4802
 20
180.4764
  0
SEQEND
  0
POLYLINE
  8
LAYER_1
 40
0.1693
 41
0.1693
 66
1
 10
0
 20
0
 30
0
  0
VERTEX
  8
LAYER_1
 10
187.2634
 20
192.3721
  0
VERTEX
  8
LAYER_1
 10
186.4802
 20
195.2719
  0
SEQEND
  0
POLYLINE
  8
LAYER_1
 40
0.1693
 41
0.1693
 66
1
 10
0
 20
0
 30
0
  0
VERTEX
  8
LAYER_1
 10
187.2634
 20
192.3721
  0
VERTEX
  8
LAYER_1
 10
188.0254
 20
195.2719
  0
SEQEND
  0
POLYLINE
  8
LAYER_1
 40
0.0847
 41
0.0847
 66
1
 10
0
 20
0
 30
0
  0
VERTEX
  8
LAYER_1
 10
179.3683
 20
183.3763
  0
VERTEX
  8
LAYER_1
 10
187.2634
 20
183.3763
  0
SEQEND
  0
POLYLINE
  8
LAYER_1
 40
0.0847
 41
0.0847
 66
1
 10
0
 20
0
 30
0
  0
VERTEX
  8
LAYER_1
 10
179.3683
 20
192.3721
  0
VERTEX
  8
LAYER_1
 10
187.2634
 20
192.3721
  0
SEQEND
  0
TEXT
  8
LAYER_1
 10
186.5157
 20
186.2551
 11
186.5157
 21
186.2551
 40
3.6606
 41
0.5
 50
89.99999999
  1
45
  0
TEXT
  8
LAYER_1
 10
156.9528
 20
150.208
 11
156.9528
 21
150.208
 40
3.0419
 41
0.5
  1
örÉàâgâëâbâv%%c32
  0
TEXT
  8
LAYER_1
 10
151.1318
 20
159.9659
 11
151.1318
 21
159.9659
 40
2.5779
 41
0.5
  1
â{âEâïî┼ÆÞö┬üiâoâbâNâvâîü[âgüj
  0
ENDBLK
  0
BLOCK
  8
LAYER_1
  2
AIGNBL0101000E
 70
64
 10
0
 20
0
 30
0
  3
AIGNBL0101000E
  0
POLYLINE
  8
LAYER_1
 40
0.1693
 41
0.1693
 66
1
 10
0
 20
0
 30
0
  0
VERTEX
  8
LAYER_1
 10
46.5132
 20
101.9064
  0
VERTEX
  8
LAYER_1
 10
163.5649
 20
101.9064
  0
SEQEND
  0
TEXT
  8
LAYER_1
 10
129.6977
 20
103.3458
 11
129.6977
 21
103.3458
 40
3.6606
 41
0.5
  1
üªôVö┬î·ü@10045å@æ╬ë×
  0
TEXT
  8
LAYER_1
 10
51.0004
 20
95.3869
 11
51.0004
 21
95.3869
 40
3.1022
 41
0.5
  1
üyâZâbâgôÓùeüz
  0
TEXT
  8
LAYER_1
 10
50.8519
 20
90.0742
 11
50.8519
 21
90.0742
 40
3.6606
 41
0.5
  1
üEJORGERÉ╗ örÉàïÓï´ âNâìü[âÇâüâbâLüi100å@üj
  0
TEXT
  8
LAYER_1
 10
50.8519
 20
85.0788
 11
50.8519
 21
85.0788
 40
3.1022
 41
0.5
  1
üEâXâ`âìü[âïâpâbâLâô
  0
TEXT
  8
LAYER_1
 10
50.8522
 20
80.0835
 11
50.8522
 21
80.0835
 40
3.6606
 41
0.5
  1
üEôVö┬î┼ÆÞùp Ä¸ÄëâpâbâLâôòtì└òté½âiâbâgü~2
  0
TEXT
  8
LAYER_1
 10
50.8522
 20
75.0877
 11
50.8522
 21
75.0877
 40
3.1022
 41
0.5
  1
üEäOâèâôâOüiìòüj
  0
TEXT
  8
LAYER_1
 10
50.8522
 20
70.0717
 11
50.8522
 21
70.0717
 40
3.1022
 41
0.5
  1
üEâ{âEâïî┼ÆÞö┬üiâoâbâNâvâîü[âgüj
  0
ENDBLK
  0
ENDSEC
  0
SECTION
  2
ENTITIES
  0
TEXT
  8
LAYER_1
 10
47.4813
 20
237.1057
 11
47.4813
 21
237.1057
 40
5.1558
 41
0.5
  1
Rhapsodyüiâëâvâ\âfâBüjVESSELüiÆué½î^üjÉ¶û╩â{âEâï ÄµéÞòté»É}
  0
TEXT
  8
LAYER_1
 10
41.8641
 20
139.4081
 11
41.8641
 21
139.4081
 40
3.6606
 41
0.5
  1
üªÅÒïLÄµéÞòté»É}é═üASLAVIA CRYSTAL RhapsodyÉÛùpörÉàïÓï´âZâbâgé­ùpéóé¢éÓé╠éãé╚éÞé▄éÀüB
  0
INSERT
  8
LAYER_1
  2
AIGNBL01010002
 10
0
 20
0
 30
0
  0
INSERT
  8
LAYER_1
  2
AIGNBL0101000D
 10
0
 20
0
 30
0
  0
INSERT
  8
LAYER_1
  2
AIGNBL0101000E
 10
0
 20
0
 30
0
  0
ENDSEC
  0
EOF
