  0
SECTION
  2
HEADER
  9
$ACADVER
  1
AC1009
  9
$INSBASE
 10
0
 20
0
 30
0
  9
$EXTMIN
 10
0
 20
0
  9
$EXTMAX
 10
12600
 20
8910
  9
$LIMMIN
 10
0
 20
0
  9
$LIMMAX
 10
12600
 20
8910
  9
$LTSCALE
 40
30
  0
ENDSEC
  0
SECTION
  2
TABLES
  0
TABLE
  2
LTYPE
 70
     9
  0
LTYPE
  2
CONTINUOUS
 70
    64
  3
実線
 72
    65
 73
     0
 40
0.0
  0
LTYPE
  2
DASHED1
 70
    64
  3
--  --  --  --  --  --  --  --  
 72
    65
 73
     2
 40
2.5
 49
1.25
 49
-1.25
  0
LTYPE
  2
DASHED2
 70
    64
  3
----    ----    ----    ----    
 72
    65
 73
     2
 40
5.0
 49
2.5
 49
-2.5
  0
LTYPE
  2
DASHED3
 70
    64
  3
------  ------  ------  ------  
 72
    65
 73
     2
 40
5.0
 49
3.75
 49
-1.25
  0
LTYPE
  2
CENTER1
 70
    64
  3
----- - ----- - ----- - ----- - 
 72
    65
 73
     4
 40
10.0
 49
6.25
 49
-1.25
 49
1.25
 49
-1.25
  0
LTYPE
  2
CENTER2
 70
    64
  3
----------  --  ----------  --  
 72
    65
 73
     4
 40
20.0
 49
12.5
 49
-2.5
 49
2.5
 49
-2.5
  0
LTYPE
  2
PHANTOM1
 70
    64
  3
--- - - --- - - --- - - --- - - 
 72
    65
 73
     6
 40
10.0
 49
3.25
 49
-1.25
 49
1.25
 49
-1.25
 49
1.25
 49
-1.25
  0
LTYPE
  2
PHANTOM2
 70
    64
  3
--------  -  -  --------  -  -  
 72
    65
 73
     6
 40
20.0
 49
10.0
 49
-2.5
 49
1.25
 49
-2.5
 49
1.25
 49
-2.5
  0
LTYPE
  2
DOT
 70
    64
  3
-   -   -   -   -   -   -   -   
 72
    65
 73
     2
 40
2.5
 49
0.625
 49
-1.875
  0
LTYPE
  2
DUMMY
 70
    64
  3
ダミー
 72
    65
 73
     0
 40
0.0
  0
LTYPE
  2
RAND1
 70
    64
  3
ランダム線1
 72
    65
 73
     4
 40
10.0
 49
1.0
 49
-2.0
 49
3.0
 49
-4.0
  0
LTYPE
  2
RAND2
 70
    64
  3
ランダム線2
 72
    65
 73
     4
 40
14.0
 49
2.0
 49
-3.0
 49
4.0
 49
-5.0
  0
LTYPE
  2
RAND3
 70
    64
  3
ランダム線3
 72
    65
 73
     4
 40
18.0
 49
3.0
 49
-4.0
 49
5.0
 49
-6.0
  0
LTYPE
  2
RAND4
 70
    64
  3
ランダム線4
 72
    65
 73
     4
 40
22.0
 49
4.0
 49
-5.0
 49
6.0
 49
-7.0
  0
LTYPE
  2
RAND5
 70
    64
  3
ランダム線5
 72
    65
 73
     4
 40
26.0
 49
5.0
 49
-6.0
 49
7.0
 49
-8.0
  0
LTYPE
  2
LONG1
 70
    64
  3
----------  --  ----------  --  
 72
    65
 73
     4
 40
40.0
 49
32.5
 49
-2.5
 49
2.5
 49
-2.5
  0
LTYPE
  2
LONG2
 70
    64
  3
--------  -  -  --------  -  -  
 72
    65
 73
     6
 40
40.0
 49
30.0
 49
-2.5
 49
1.25
 49
-2.5
 49
1.25
 49
-2.5
  0
LTYPE
  2
LONG3
 70
    64
  3
+++++++++++++++..+++++++++++++++
 72
    65
 73
     2
 40
40.0
 49
37.5
 49
-2.5
  0
LTYPE
  2
LONG4
 70
    64
  3
+++++++++++++++..+++++++++++++++
 72
    65
 73
     2
 40
80.0
 49
75.0
 49
-5.0
  0
LTYPE
  2
LONG5
 70
    64
  3
----------  --  ----------  --  
 72
    65
 73
     4
 40
60.0
 49
37.5
 49
-7.5
 49
7.5
 49
-7.5
  0
LTYPE
  2
dashed
 70
   64
  3
-------   -------------   ------
 72
   65
 73
    2
 40
7.5
 49
6
 49
-1.5
  0
LTYPE
  2
dashed_spaced
 70
   64
  3
----        --------        ----
 72
   65
 73
    2
 40
12
 49
6
 49
-6
  0
LTYPE
  2
long_dashed_dotted
 70
   64
  3
------------- --- --------------
 72
   65
 73
    4
 40
15.25
 49
12
 49
-1.5
 49
0.25
 49
-1.5
  0
LTYPE
  2
long_dashed_double-dotted
 70
   64
  3
----------- --- --- ------------
 72
   65
 73
    6
 40
17
 49
12
 49
-1.5
 49
0.25
 49
-1.5
 49
0.25
 49
-1.5
  0
LTYPE
  2
long_dashed_triplicate-dotted
 70
   64
  3
--------- --- --- --- ----------
 72
   65
 73
    8
 40
18.75
 49
12
 49
-1.5
 49
0.25
 49
-1.5
 49
0.25
 49
-1.5
 49
0.25
 49
-1.5
  0
LTYPE
  2
dotted
 70
   64
  3
   -       -       -       -    
 72
   65
 73
    2
 40
1.75
 49
0.25
 49
-1.5
  0
LTYPE
  2
chain
 70
   64
  3
-------------- -- --------------
 72
   65
 73
    4
 40
18.5
 49
12
 49
-1.5
 49
3.5
 49
-1.5
  0
LTYPE
  2
chain_double_dash
 70
   64
  3
------------ -- -- -------------
 72
   65
 73
    6
 40
23.5
 49
12
 49
-1.5
 49
3.5
 49
-1.5
 49
3.5
 49
-1.5
  0
LTYPE
  2
dashed_dotted
 70
   64
  3
-----------     -     ----------
 72
   65
 73
    4
 40
9.25
 49
6
 49
-1.5
 49
0.25
 49
-1.5
  0
LTYPE
  2
double-dashed_dotted
 70
   64
  3
------   -----------   -   -----
 72
   65
 73
    6
 40
16.75
 49
6
 49
-1.5
 49
6
 49
-1.5
 49
0.25
 49
-1.5
  0
LTYPE
  2
dashed_double-dotted
 70
   64
  3
---------    -    -    ---------
 72
   65
 73
    6
 40
11
 49
6
 49
-1.5
 49
0.25
 49
-1.5
 49
0.25
 49
-1.5
  0
LTYPE
  2
double-dashed_double-dotted
 70
   64
  3
-----   ---------   -   -   ----
 72
   65
 73
    8
 40
18.5
 49
6
 49
-1.5
 49
6
 49
-1.5
 49
0.25
 49
-1.5
 49
0.25
 49
-1.5
  0
LTYPE
  2
dashed_triplicate-dotted
 70
   64
  3
-------    -    -    -    ------
 72
   65
 73
    8
 40
12.75
 49
6
 49
-1.5
 49
0.25
 49
-1.5
 49
0.25
 49
-1.5
 49
0.25
 49
-1.5
  0
LTYPE
  2
double-dashed_triplicate-dotted
 70
   64
  3
-----  ---------  -  -  -  -----
 72
   65
 73
   10
 40
20.25
 49
6
 49
-1.5
 49
6
 49
-1.5
 49
0.25
 49
-1.5
 49
0.25
 49
-1.5
 49
0.25
 49
-1.5
  0
LTYPE
  2
undefined
 70
   64
  3
--------------------------------
 72
   65
 73
    0
 40
0
  0
ENDTAB
  0
TABLE
  2
STYLE
  5
3
100
AcDbSymbolTable
 70
     1
  0
STYLE
  5
10
100
AcDbSymbolTableRecord
100
AcDbTextStyleTableRecord
  2
STANDARD
 70
     0
 40
0.0
 41
1.0
 50
0.0
 71
     0
 42
0.2
  3
txt
  4
bigfont.shx
  0
STYLE
  5
26
100
AcDbSymbolTableRecord
100
AcDbTextStyleTableRecord
  2
TATEGAKI
 70
    68
 40
0.0
 41
1.0
 50
0.0
 71
     0
 42
1.0
  3
txt
  4
bigfont.shx
  0
ENDTAB
  0
TABLE
  2
LAYER
 70
    2
  0
LAYER
  2
_0-0_通り芯
 70
   64
 62
    7
  6
CONTINUOUS
  0
LAYER
  2
ADD_LINE
 70
   64
 62
    7
  6
CONTINUOUS
  0
ENDTAB
  0
ENDSEC
  0
SECTION
  2
BLOCKS
  0
ENDSEC
  0
SECTION
  2
ENTITIES
  0
LINE
  8
_0-0_通り芯
  6
CONTINUOUS
 62
    2
 10
6014.4686724688563
 20
2747.9128244760877
 11
6014.4686724688563
 21
2781.1446112555432
  0
LINE
  8
_0-0_通り芯
  6
CONTINUOUS
 62
    2
 10
5952.6657516891901
 20
2707.1561452504752
 11
5952.6657516891901
 21
3842.2559583509287
  0
LINE
  8
_0-0_通り芯
  6
CONTINUOUS
 62
    2
 10
6014.4686724688563
 20
2781.1446112555432
 11
5952.6657516891901
 21
2764.5287178658155
  0
LINE
  8
_0-0_通り芯
  6
CONTINUOUS
 62
    2
 10
6590.8622947899075
 20
2747.9128244760877
 11
6590.8622947899075
 21
2781.1446112555432
  0
LINE
  8
_0-0_通り芯
  6
CONTINUOUS
 62
    2
 10
5952.6657516891901
 20
2764.5287178658155
 11
6590.8622947899075
 21
2764.5287178658155
  0
LINE
  8
_0-0_通り芯
  6
CONTINUOUS
 62
    2
 10
8995.8556304106842
 20
5103.4430014120571
 11
8979.239551441091
 21
5041.6400806323909
  0
LINE
  8
_0-0_通り芯
  6
CONTINUOUS
 62
    2
 10
8297.4948367557008
 20
5549.816399651605
 11
8158.3047402871625
 21
5549.816399651605
  0
LINE
  8
_0-0_通り芯
  6
CONTINUOUS
 62
    2
 10
4726.5046815614442
 20
3880.4520065720017
 11
4743.1203893713055
 21
3942.2556696711358
  0
LINE
  8
_0-0_通り芯
  6
CONTINUOUS
 62
    2
 10
4726.5046815614442
 20
4102.3479977169554
 11
4759.7364683408996
 21
4102.3479977169554
  0
LINE
  8
_0-0_通り芯
  6
CONTINUOUS
 62
    2
 10
4726.5046815614442
 20
3880.4520065720017
 11
4759.7364683408996
 21
3880.4520065720017
  0
LINE
  8
_0-0_通り芯
  6
CONTINUOUS
 62
    2
 10
4743.1203893713055
 20
3742.2555047112542
 11
4743.1203893713055
 21
3880.4520065720017
  0
LINE
  8
_0-0_通り芯
  6
CONTINUOUS
 62
    2
 10
4743.1203893713055
 20
3841.1610371357688
 11
4743.1203893713055
 21
4040.5454480970225
  0
LINE
  8
_0-0_通り芯
  6
CONTINUOUS
 62
    2
 10
6590.8622947899075
 20
2747.9128244760877
 11
6652.6663290487759
 21
2764.5287178658155
  0
LINE
  8
_0-0_通り芯
  6
CONTINUOUS
 62
    2
 10
4113.7819444811021
 20
6119.8591077649926
 11
4051.9782813819679
 21
6136.4751867345867
  0
LINE
  8
_0-0_通り芯
  6
CONTINUOUS
 62
    2
 10
4052.6656692092483
 20
5231.5985189901821
 11
4052.6656692092483
 21
6236.4752692145275
  0
LINE
  8
ADD_LINE
  6
DOT
 62
    2
 10
13080.299996040963
 20
-616.35949933851089
 11
-416.68029475856486
 21
-616.35949933851089
  0
LINE
  8
_0-0_通り芯
  6
CONTINUOUS
 62
    2
 10
4113.7819444811021
 20
6153.0908945444471
 11
4051.9782813819679
 21
6136.4751867345867
  0
LINE
  8
_0-0_通り芯
  6
CONTINUOUS
 62
    2
 10
8490.8631195893158
 20
6119.8591077649926
 11
8552.6656692092492
 21
6136.4751867345867
  0
LINE
  8
_0-0_通り芯
  6
CONTINUOUS
 62
    2
 10
8552.6656692092492
 20
6136.4751867345867
 11
4052.6649268897804
 21
6136.4751867345867
  0
LINE
  8
_0-0_通り芯
  6
CONTINUOUS
 62
    2
 10
6014.4686724688563
 20
2747.9128244760877
 11
5952.6657516891901
 21
2764.5287178658155
  0
LINE
  8
_0-0_通り芯
  6
CONTINUOUS
 62
    2
 10
6652.6663290487759
 20
3842.2559583509287
 11
6652.6663290487759
 21
2713.2249780603361
  0
LINE
  8
_0-0_通り芯
  6
CONTINUOUS
 62
    2
 10
6590.8622947899075
 20
2781.1446112555432
 11
6652.6663290487759
 21
2764.5287178658155
  0
LINE
  8
ADD_LINE
  6
DOT
 62
    2
 10
-416.68029475856486
 20
-616.35949933851089
 11
-416.68020196863125
 21
9434.58350929054
  0
LINE
  8
ADD_LINE
  6
DOT
 62
    2
 10
13080.299996040963
 20
9434.58350929054
 11
13080.299996040963
 21
-616.35949933851089
  0
LINE
  8
_0-0_通り芯
  6
CONTINUOUS
 62
    2
 10
8297.4948367557008
 20
5533.2006918417446
 11
8359.2973863756342
 21
5549.816399651605
  0
LINE
  8
_0-0_通り芯
  6
CONTINUOUS
 62
    2
 10
6077.666040368983
 20
3342.255545951225
 11
6077.666040368983
 21
3842.2559583509287
  0
LINE
  8
_0-0_通り芯
  6
CONTINUOUS
 62
    2
 10
6077.666040368983
 20
3399.6283041464317
 11
6527.6656692092483
 21
3399.6283041464317
  0
LINE
  8
_0-0_通り芯
  6
CONTINUOUS
 62
    2
 10
6465.8623772698484
 20
3416.2440119562925
 11
6527.6656692092483
 21
3399.6283041464317
  0
LINE
  8
_0-0_通り芯
  6
CONTINUOUS
 62
    2
 10
5745.586457123628
 20
4042.2553809913429
 11
4716.4006001240505
 21
4042.2553809913429
  0
LINE
  8
ADD_LINE
  6
DOT
 62
    2
 10
-416.68020196863125
 20
9434.58350929054
 11
13080.299996040963
 21
9434.58350929054
  0
LINE
  8
_0-0_通り芯
  6
CONTINUOUS
 62
    2
 10
8359.2973863756342
 20
5231.5985189901821
 11
8359.2973863756342
 21
5611.9303522883238
  0
LINE
  8
_0-0_通り芯
  6
CONTINUOUS
 62
    2
 10
6139.4685899889146
 20
3416.2440119562925
 11
6077.666040368983
 21
3399.6283041464317
  0
LINE
  8
_0-0_通り芯
  6
CONTINUOUS
 62
    2
 10
6465.8623772698484
 20
3383.0122251768371
 11
6465.8623772698484
 21
3416.2440119562925
  0
LINE
  8
_0-0_通り芯
  6
CONTINUOUS
 62
    2
 10
6465.8623772698484
 20
3383.0122251768371
 11
6527.6656692092483
 21
3399.6283041464317
  0
LINE
  8
_0-0_通り芯
  6
CONTINUOUS
 62
    2
 10
6139.4685899889146
 20
3383.0122251768371
 11
6077.666040368983
 21
3399.6283041464317
  0
LINE
  8
_0-0_通り芯
  6
CONTINUOUS
 62
    2
 10
5745.586457123628
 20
3942.2556696711358
 11
4716.4006001240505
 21
3942.2556696711358
  0
LINE
  8
_0-0_通り芯
  6
CONTINUOUS
 62
    2
 10
8740.7360180004234
 20
4842.2556696711363
 11
9042.0219627586575
 21
4842.2556696711363
  0
LINE
  8
_0-0_通り芯
  6
CONTINUOUS
 62
    2
 10
6139.4685899889146
 20
3383.0122251768371
 11
6139.4685899889146
 21
3416.2440119562925
  0
LINE
  8
_0-0_通り芯
  6
CONTINUOUS
 62
    2
 10
4726.5046815614442
 20
4102.3479977169554
 11
4743.1203893713055
 21
4040.5454480970225
  0
LINE
  8
_0-0_通り芯
  6
CONTINUOUS
 62
    2
 10
4113.7819444811021
 20
6153.0908945444471
 11
4113.7819444811021
 21
6119.8591077649926
  0
LINE
  8
_0-0_通り芯
  6
CONTINUOUS
 62
    2
 10
9760.9249630489867
 20
5042.2558346310179
 11
8740.7360180004234
 21
5042.2558346310179
  0
LINE
  8
_0-0_通り芯
  6
CONTINUOUS
 62
    2
 10
4759.7364683408996
 20
4102.3479977169554
 11
4743.1203893713055
 21
4040.5454480970225
  0
LINE
  8
_0-0_通り芯
  6
CONTINUOUS
 62
    2
 10
4743.1203893713055
 20
4102.3479977169554
 11
4743.1203893713055
 21
4241.5384653452284
  0
LINE
  8
_0-0_通り芯
  6
CONTINUOUS
 62
    2
 10
4759.7364683408996
 20
3880.4520065720017
 11
4743.1203893713055
 21
3942.2556696711358
  0
LINE
  8
_0-0_通り芯
  6
CONTINUOUS
 62
    2
 10
9760.9249630489867
 20
3997.7685464395063
 11
9760.9249630489867
 21
4983.1375122070312
  0
LINE
  8
_0-0_通り芯
  6
CONTINUOUS
 62
    2
 10
8490.8631195893158
 20
6153.0908945444471
 11
8552.6656692092492
 21
6136.4751867345867
  0
LINE
  8
_0-0_通り芯
  6
CONTINUOUS
 62
    2
 10
8490.8631195893158
 20
6153.0908945444471
 11
8490.8631195893158
 21
6119.8591077649926
  0
LINE
  8
_0-0_通り芯
  6
CONTINUOUS
 62
    2
 10
9777.5410420185817
 20
4980.4521715318833
 11
9744.3088840793916
 21
4980.4521715318833
  0
LINE
  8
_0-0_通り芯
  6
CONTINUOUS
 62
    2
 10
9744.3088840793916
 20
4980.4521715318833
 11
9760.9249630489867
 21
5042.2558346310179
  0
LINE
  8
_0-0_通り芯
  6
CONTINUOUS
 62
    2
 10
9777.5410420185817
 20
4980.4521715318833
 11
9760.9249630489867
 21
5042.2558346310179
  0
LINE
  8
_0-0_通り芯
  6
CONTINUOUS
 62
    2
 10
5962.4231699350721
 20
2761.9051752863702
 11
5969.6017703494517
 21
2769.0821054819471
  0
LINE
  8
_0-0_通り芯
  6
CONTINUOUS
 62
    2
 10
6590.8622947899075
 20
2749.6398307181694
 11
6615.6965925886825
 21
2774.4676332216009
  0
LINE
  8
_0-0_通り芯
  6
CONTINUOUS
 62
    2
 10
4737.5336930558497
 20
4061.3255681218329
 11
4752.8147104624159
 21
4076.60287393106
  0
LINE
  8
_0-0_通り芯
  6
CONTINUOUS
 62
    2
 10
6652.3419354413008
 20
2764.4414953283363
 11
6652.4792645428633
 21
2764.5788244298988
  0
LINE
  8
_0-0_通り芯
  6
CONTINUOUS
 62
    2
 10
5959.0790207321588
 20
2762.8043097418713
 11
5963.7975744298992
 21
2767.5215643805432
  0
LINE
  8
_0-0_通り芯
  6
CONTINUOUS
 62
    2
 10
5965.7669479782526
 20
2761.0064119906037
 11
5975.4052239495359
 21
2770.64208984375
  0
LINE
  8
_0-0_通り芯
  6
CONTINUOUS
 62
    2
 10
4739.3312196473817
 20
4054.639125514675
 11
4749.6954840582775
 21
4065.0004206476983
  0
LINE
  8
_0-0_通り芯
  6
CONTINUOUS
 62
    2
 10
4733.0393198374159
 20
4078.0426025390625
 11
4757.3510247307859
 21
4102.3479977169554
  0
LINE
  8
_0-0_通り芯
  6
CONTINUOUS
 62
    2
 10
4732.1403709617816
 20
4081.385638262775
 11
4753.1079266522383
 21
4102.3479977169554
  0
LINE
  8
_0-0_通り芯
  6
CONTINUOUS
 62
    2
 10
4736.6351153399492
 20
4064.6693461650125
 11
4754.3746948242187
 21
4082.404471732475
  0
LINE
  8
_0-0_通り芯
  6
CONTINUOUS
 62
    2
 10
4738.432641931483
 20
4057.9825323981213
 11
4751.2550972603467
 21
4070.8016472893796
  0
LINE
  8
_0-0_通り芯
  6
CONTINUOUS
 62
    2
 10
4740.2301685230159
 20
4051.2953474714955
 11
4748.1358708562075
 21
4059.1991940060179
  0
LINE
  8
_0-0_通り芯
  6
CONTINUOUS
 62
    2
 10
5955.7356138487121
 20
2763.7034441973715
 11
5957.9937496700804
 21
2765.9610232791388
  0
LINE
  8
_0-0_通り芯
  6
CONTINUOUS
 62
    2
 10
6594.3029455236492
 20
2748.8375689532309
 11
6619.0407417915967
 21
2773.568869925834
  0
LINE
  8
_0-0_通り芯
  6
CONTINUOUS
 62
    2
 10
6605.9113373627542
 20
2751.9586511560392
 11
6625.7282978779567
 21
2771.7709721745673
  0
LINE
  8
_0-0_通り芯
  6
CONTINUOUS
 62
    2
 10
6617.5182445629225
 20
2755.0789910393792
 11
6632.4158539643167
 21
2769.9728888434338
  0
LINE
  8
_0-0_通り芯
  6
CONTINUOUS
 62
    2
 10
6646.5377395217483
 20
2762.8811398067992
 11
6649.1351153399501
 21
2765.4777733055325
  0
LINE
  8
_0-0_通り芯
  6
CONTINUOUS
 62
    2
 10
6640.7342859216642
 20
2761.3205987053948
 11
6645.7917084565042
 21
2766.3767221811659
  0
LINE
  8
_0-0_通り芯
  6
CONTINUOUS
 62
    2
 10
6600.1071414432017
 20
2750.3981100546348
 11
6622.38489099451
 21
2772.6699210502006
  0
LINE
  8
_0-0_通り芯
  6
CONTINUOUS
 62
    2
 10
5975.7986532675259
 20
2758.30919420397
 11
5992.817069388725
 21
2775.3237131479627
  0
LINE
  8
_0-0_通り芯
  6
CONTINUOUS
 62
    2
 10
5982.4865805136196
 20
2756.5112964527029
 11
6004.4250900680963
 21
2778.4444241910369
  0
LINE
  8
_0-0_通り芯
  6
CONTINUOUS
 62
    2
 10
5979.1424313107054
 20
2757.4102453283363
 11
5998.6212653082775
 21
2776.8838830896329
  0
LINE
  8
_0-0_通り芯
  6
CONTINUOUS
 62
    2
 10
6611.7147909628384
 20
2753.5190066775763
 11
6629.07244708087
 21
2770.8716521391998
  0
LINE
  8
_0-0_通り芯
  6
CONTINUOUS
 62
    2
 10
5972.4548752243463
 20
2759.2085142393371
 11
5987.0132446289062
 21
2773.7631720465588
  0
LINE
  8
_0-0_通り芯
  6
CONTINUOUS
 62
    2
 10
5969.1110971811659
 20
2760.1072775351035
 11
5981.2094198690884
 21
2772.2026309451544
  0
LINE
  8
_0-0_通り芯
  6
CONTINUOUS
 62
    2
 10
8297.4948367557008
 20
5566.4324786211992
 11
8359.2973863756342
 21
5549.816399651605
  0
LINE
  8
_0-0_通り芯
  6
CONTINUOUS
 62
    2
 10
6527.6656692092483
 20
3342.255545951225
 11
6527.6656692092483
 21
3842.2559583509287
  0
LINE
  8
_0-0_通り芯
  6
CONTINUOUS
 62
    2
 10
8614.4689611486483
 20
5549.816399651605
 11
8753.6590576171875
 21
5549.816399651605
  0
LINE
  8
_0-0_通り芯
  6
CONTINUOUS
 62
    2
 10
9776.9449594858525
 20
4980.4521715318833
 11
9777.4148477090384
 21
4980.9213174356
  0
LINE
  8
_0-0_通り芯
  6
CONTINUOUS
 62
    2
 10
8614.4689611486483
 20
5533.2006918417446
 11
8552.6656692092492
 21
5549.816399651605
  0
LINE
  8
_0-0_通り芯
  6
CONTINUOUS
 62
    2
 10
8614.4689611486483
 20
5566.4324786211992
 11
8552.6656692092492
 21
5549.816399651605
  0
LINE
  8
_0-0_通り芯
  6
CONTINUOUS
 62
    2
 10
8614.4689611486483
 20
5566.4324786211992
 11
8614.4689611486483
 21
5533.2006918417446
  0
LINE
  8
_0-0_通り芯
  6
CONTINUOUS
 62
    2
 10
8297.4948367557008
 20
5566.4324786211992
 11
8297.4948367557008
 21
5533.2006918417446
  0
LINE
  8
_0-0_通り芯
  6
CONTINUOUS
 62
    2
 10
8552.6656692092492
 20
6236.4752692145275
 11
8552.6656692092492
 21
5231.5985189901821
  0
LINE
  8
_0-0_通り芯
  6
CONTINUOUS
 62
    2
 10
8962.6234724714959
 20
4780.4520065720017
 11
8979.239551441091
 21
4842.2556696711363
  0
LINE
  8
_0-0_通り芯
  6
CONTINUOUS
 62
    2
 10
8359.2973863756342
 20
5549.816399651605
 11
8552.6656692092492
 21
5549.816399651605
  0
LINE
  8
_0-0_通り芯
  6
CONTINUOUS
 62
    2
 10
8979.239551441091
 20
4642.2555047112546
 11
8979.239551441091
 21
4780.4520065720017
  0
LINE
  8
_0-0_通り芯
  6
CONTINUOUS
 62
    2
 10
6590.8622947899075
 20
2779.3340940733215
 11
6592.2897751266901
 21
2780.761017670503
  0
LINE
  8
_0-0_通り芯
  6
CONTINUOUS
 62
    2
 10
6590.8622947899075
 20
2766.6079546954184
 11
6602.3214804159634
 21
2778.0637998838683
  0
LINE
  8
_0-0_通り芯
  6
CONTINUOUS
 62
    2
 10
6590.8622947899075
 20
2770.8499392947638
 11
6598.9773312130492
 21
2778.9625631796348
  0
LINE
  8
_0-0_通り芯
  6
CONTINUOUS
 62
    2
 10
6590.8622947899075
 20
2762.3659700960725
 11
6605.6656296188776
 21
2777.1650365881019
  0
LINE
  8
_0-0_通り芯
  6
CONTINUOUS
 62
    2
 10
4733.9382687130492
 20
4074.6995668153509
 11
4759.0535344304262
 21
4099.8077804977829
  0
LINE
  8
_0-0_通り芯
  6
CONTINUOUS
 62
    2
 10
4735.7357953045821
 20
4068.012381888725
 11
4755.9343080262879
 21
4088.2056983741554
  0
LINE
  8
_0-0_通り芯
  6
CONTINUOUS
 62
    2
 10
4734.8368464289488
 20
4071.3554176124367
 11
4757.493921228358
 21
4094.0069250158367
  0
LINE
  8
_0-0_通り芯
  6
CONTINUOUS
 62
    2
 10
4741.1291173986492
 20
4047.9523117477829
 11
4746.5758864944046
 21
4053.3975962046034
  0
LINE
  8
_0-0_通り芯
  6
CONTINUOUS
 62
    2
 10
4742.9270151499159
 20
4041.2654979808913
 11
4743.4566600902663
 21
4041.7951429212412
  0
LINE
  8
_0-0_通り芯
  6
CONTINUOUS
 62
    2
 10
6590.8622947899075
 20
2775.0919238941092
 11
6595.6339243296034
 21
2779.8620687948692
  0
LINE
  8
_0-0_通り芯
  6
CONTINUOUS
 62
    2
 10
6590.8622947899075
 20
2753.8820008973821
 11
6612.3531857052367
 21
2775.3671388368352
  0
LINE
  8
_0-0_通り芯
  6
CONTINUOUS
 62
    2
 10
6590.8622947899075
 20
2758.1241710765939
 11
6609.0090365023225
 21
2776.2659021326017
  0
LINE
  8
_0-0_通り芯
  6
CONTINUOUS
 62
    2
 10
4742.0280662742816
 20
4044.6089048643375
 11
4745.0162732923354
 21
4047.5963695629225
  0
LINE
  8
_0-0_通り芯
  6
CONTINUOUS
 62
    2
 10
8578.5963728621209
 20
5542.8452775285059
 11
8597.6732408678217
 21
5561.9169492979308
  0
LINE
  8
_0-0_通り芯
  6
CONTINUOUS
 62
    2
 10
8585.2846712679493
 20
5541.0470086175046
 11
8609.2816327069268
 21
5565.0380315007387
  0
LINE
  8
_0-0_通り芯
  6
CONTINUOUS
 62
    2
 10
8581.9397797455658
 20
5541.9455863334042
 11
8603.4766944679068
 21
5563.4769336597346
  0
LINE
  8
_0-0_通り芯
  6
CONTINUOUS
 62
    2
 10
8598.6590411212001
 20
5537.4508419552367
 11
8614.4689611486483
 21
5553.2559369061446
  0
LINE
  8
_0-0_通り芯
  6
CONTINUOUS
 62
    2
 10
8575.2529659786742
 20
5543.7442264041392
 11
8591.8690449482692
 21
5560.3558514569258
  0
LINE
  8
_0-0_通り芯
  6
CONTINUOUS
 62
    2
 10
8571.9088167757618
 20
5544.6428041200379
 11
8586.0655913481842
 21
5558.795867095123
  0
LINE
  8
_0-0_通り芯
  6
CONTINUOUS
 62
    2
 10
8968.8352017789275
 20
5080.3397926124371
 11
8991.94434913429
 21
5103.4430014120571
  0
LINE
  8
_0-0_通り芯
  6
CONTINUOUS
 62
    2
 10
8967.9362529032933
 20
5083.6828283361492
 11
8987.7005087362759
 21
5103.4430014120571
  0
LINE
  8
_0-0_通り芯
  6
CONTINUOUS
 62
    2
 10
8608.6907464104734
 20
5534.7536241686021
 11
8614.4689611486483
 21
5540.5296119483746
  0
LINE
  8
_0-0_通り芯
  6
CONTINUOUS
 62
    2
 10
8966.1383551520285
 20
5090.3696421030409
 11
8979.2150548986483
 21
5103.4430014120571
  0
LINE
  8
_0-0_通り芯
  6
CONTINUOUS
 62
    2
 10
8965.2394062763942
 20
5093.712677826753
 11
8974.9719568201017
 21
5103.4430014120571
  0
LINE
  8
_0-0_通り芯
  6
CONTINUOUS
 62
    2
 10
8967.0373040276609
 20
5087.0266063793288
 11
8983.4581529771967
 21
5103.4430014120571
  0
LINE
  8
_0-0_通り芯
  6
CONTINUOUS
 62
    2
 10
8602.0039326435817
 20
5536.5522642393371
 11
8614.4689611486483
 21
5549.0139523067992
  0
LINE
  8
_0-0_通り芯
  6
CONTINUOUS
 62
    2
 10
8962.6234724714959
 20
5103.4430014120571
 11
8979.239551441091
 21
5041.6400806323909
  0
LINE
  8
_0-0_通り芯
  6
CONTINUOUS
 62
    2
 10
8995.8556304106842
 20
4780.4520065720017
 11
8962.6234724714959
 21
4780.4520065720017
  0
LINE
  8
_0-0_通り芯
  6
CONTINUOUS
 62
    2
 10
8995.8556304106842
 20
5103.4430014120571
 11
8962.6234724714959
 21
5103.4430014120571
  0
LINE
  8
_0-0_通り芯
  6
CONTINUOUS
 62
    2
 10
8974.2281527132618
 20
5060.2789801520275
 11
8987.9350816881342
 21
5073.9825686892955
  0
LINE
  8
_0-0_通り芯
  6
CONTINUOUS
 62
    2
 10
8973.329946157095
 20
5063.6227581952071
 11
8989.4939525707359
 21
5079.7834241712426
  0
LINE
  8
_0-0_通り芯
  6
CONTINUOUS
 62
    2
 10
8995.8556304106842
 20
4780.4520065720017
 11
8979.239551441091
 21
4842.2556696711363
  0
LINE
  8
_0-0_通り芯
  6
CONTINUOUS
 62
    2
 10
8591.971485034841
 20
5539.2483685467696
 11
8614.4689611486483
 21
5561.7399061048363
  0
LINE
  8
_0-0_通り芯
  6
CONTINUOUS
 62
    2
 10
8588.6280781513942
 20
5540.1480597418713
 11
8614.4689611486483
 21
5565.9818907041808
  0
LINE
  8
_0-0_通り芯
  6
CONTINUOUS
 62
    2
 10
8595.3156342377533
 20
5538.34979083087
 11
8614.4689611486483
 21
5557.4982926652247
  0
LINE
  8
_0-0_通り芯
  6
CONTINUOUS
 62
    2
 10
8979.239551441091
 20
4842.2556696711363
 11
8979.239551441091
 21
5041.6400806323909
  0
LINE
  8
_0-0_通り芯
  6
CONTINUOUS
 62
    2
 10
8979.239551441091
 20
5103.4430014120571
 11
8979.239551441091
 21
5242.6330978805963
  0
LINE
  8
_0-0_通り芯
  6
CONTINUOUS
 62
    2
 10
8969.7334083350943
 20
5076.9960145692567
 11
8995.7338900179493
 21
5102.9890730574325
  0
LINE
  8
_0-0_通り芯
  6
CONTINUOUS
 62
    3
 10
5935.8737430057017
 20
4201.7107989336992
 11
4317.3274272196995
 21
4894.0892399968325
  0
LINE
  8
_0-0_通り芯
  6
CONTINUOUS
 62
    3
 10
8400.0061859955658
 20
5042.2558346310179
 11
8371.8069540487741
 21
4977.3975269214534
  0
LINE
  8
_0-0_通り芯
  6
CONTINUOUS
 62
    3
 10
6669.4583377322642
 20
4201.7107989336992
 11
8288.0042823585318
 21
4894.0892399968325
  0
LINE
  8
_0-0_通り芯
  6
CONTINUOUS
 62
    3
 10
4064.8282025311446
 20
5014.2811543232692
 11
4105.1350361592067
 21
4921.5762164141679
  0
LINE
  8
_0-0_通り芯
  6
CONTINUOUS
 62
    3
 10
4262.2651383683497
 20
4765.372157741238
 11
5934.4651918153504
 21
4050.0411987304687
  0
LINE
  8
_0-0_通り芯
  6
CONTINUOUS
 62
    3
 10
4205.3255235826646
 20
5042.2558346310179
 11
4233.5247555294554
 21
4977.3975269214534
  0
LINE
  8
_0-0_通り芯
  6
CONTINUOUS
 62
    3
 10
5952.6657516891901
 20
4022.4592054212412
 11
5952.6657516891901
 21
3942.2556696711358
  0
LINE
  8
_0-0_通り芯
  6
CONTINUOUS
 62
    3
 10
6652.6663290487759
 20
3942.2556696711358
 11
5952.6657516891901
 21
3942.2556696711358
  0
LINE
  8
_0-0_通り芯
  6
CONTINUOUS
 62
    3
 10
6652.6663290487759
 20
4022.4592054212412
 11
6652.6663290487759
 21
3942.2556696711358
  0
LINE
  8
_0-0_通り芯
  6
CONTINUOUS
 62
    3
 10
8540.5042493665551
 20
5014.2811543232692
 11
8500.1970445787592
 21
4921.5762164141679
  0
LINE
  8
_0-0_通り芯
  6
CONTINUOUS
 62
    3
 10
8343.0673135293509
 20
4765.372157741238
 11
6670.8665177628809
 21
4050.0411987304687
  0
LINE
  8
_0-0_通り芯
  6
CONTINUOUS
 62
    3
 10
6657.6591697899075
 20
4199.292693266998
 11
5947.6729109480575
 21
4199.292693266998
  0
LINE
  8
_0-0_通り芯
  6
CONTINUOUS
 62
    3
 10
4083.1694319441517
 20
5042.2558346310179
 11
8524.6564710462426
 21
5042.2558346310179
  0
LINE
  8
_0-0_通り芯
  6
CONTINUOUS
 62
    2
 10
8963.442250844595
 20
5100.400233913113
 11
8966.4850183435392
 21
5103.4430014120571
  0
LINE
  8
ADD_LINE
  6
DOT
 62
    6
 10
4052.6656692092483
 20
5231.5985189901821
 11
4052.6656692092483
 21
4787.9293905722134
  0
LINE
  8
ADD_LINE
  6
DOT
 62
    2
 10
8552.6656692092492
 20
5231.5985189901821
 11
8552.6656692092492
 21
3406.8666612779775
  0
LINE
  8
_0-0_通り芯
  6
CONTINUOUS
 62
    2
 10
8605.3473395270285
 20
5535.6529442039691
 11
8614.4689611486483
 21
5544.7719677074538
  0
LINE
  8
_0-0_通り芯
  6
CONTINUOUS
 62
    2
 10
8612.0348956133876
 20
5533.8550464527034
 11
8614.4689611486483
 21
5536.2879985087629
  0
LINE
  8
_0-0_通り芯
  6
CONTINUOUS
 62
    2
 10
8964.3404574007618
 20
5097.0560847101988
 11
8970.7288587415551
 21
5103.4430014120571
  0
LINE
  8
_0-0_通り芯
  6
DASHED1
 62
    2
 10
6529.5162716427367
 20
4040.4062631967909
 11
6529.5162716427367
 21
3942.2556696711358
  0
LINE
  8
_0-0_通り芯
  6
DASHED1
 62
    2
 10
5952.6657516891901
 20
4169.2925942910688
 11
6077.666040368983
 21
4040.4062631967909
  0
LINE
  8
_0-0_通り芯
  6
DASHED1
 62
    2
 10
6652.6663290487759
 20
4169.2925942910688
 11
6529.5162716427367
 21
4040.4062631967909
  0
LINE
  8
_0-0_通り芯
  6
DASHED1
 62
    2
 10
5952.6657516891901
 20
4698.3188113650767
 11
5952.6657516891901
 21
4169.2925942910688
  0
LINE
  8
_0-0_通り芯
  6
DASHED1
 62
    2
 10
6652.6663290487759
 20
4698.3188113650767
 11
6652.6663290487759
 21
4169.2925942910688
  0
LINE
  8
_0-0_通り芯
  6
DASHED1
 62
    2
 10
6077.666040368983
 20
3942.2556696711358
 11
6077.666040368983
 21
4040.4062631967909
  0
LINE
  8
_0-0_通り芯
  6
CONTINUOUS
 62
    2
 10
8326.3725486961575
 20
5540.9642399968325
 11
8340.3274123733117
 21
5554.9157632363813
  0
LINE
  8
_0-0_通り芯
  6
CONTINUOUS
 62
    2
 10
8337.9801982157933
 20
5544.0853221996413
 11
8347.0157107791383
 21
5553.1182366448484
  0
LINE
  8
_0-0_通り芯
  6
CONTINUOUS
 62
    2
 10
8349.5885900548983
 20
5547.2064044024492
 11
8353.7032668654992
 21
5551.3203388935817
  0
LINE
  8
_0-0_通り芯
  6
CONTINUOUS
 62
    2
 10
8565.2205183699334
 20
5546.4403307115708
 11
8574.4571995090791
 21
5555.6747848923151
  0
LINE
  8
_0-0_通り芯
  6
CONTINUOUS
 62
    2
 10
8561.8771114864867
 20
5547.3400219066725
 11
8568.6537459089959
 21
5554.1148005305113
  0
LINE
  8
_0-0_通り芯
  6
CONTINUOUS
 62
    2
 10
8332.17674461571
 20
5542.5253378378384
 11
8343.6723038956934
 21
5554.0179278399492
  0
LINE
  8
_0-0_通り芯
  6
CONTINUOUS
 62
    2
 10
8970.7815634237759
 20
4810.7972841005067
 11
8984.1136210673558
 21
4824.126001306483
  0
LINE
  8
_0-0_通り芯
  6
CONTINUOUS
 62
    2
 10
8967.6623370196376
 20
4799.194830817145
 11
8985.9115188186242
 21
4817.4395586993242
  0
LINE
  8
_0-0_通り芯
  6
CONTINUOUS
 62
    2
 10
8964.5431106154992
 20
4787.5923775337842
 11
8987.7086742504234
 21
4810.752002612965
  0
LINE
  8
_0-0_通り芯
  6
CONTINUOUS
 62
    2
 10
8343.7836518158783
 20
5545.6453065614442
 11
8350.3598599820525
 21
5552.2196589289488
  0
LINE
  8
_0-0_通り芯
  6
CONTINUOUS
 62
    2
 10
8297.4948367557008
 20
5558.75615300359
 11
8303.5454827385984
 21
5564.8053143475508
  0
LINE
  8
_0-0_通り芯
  6
CONTINUOUS
 62
    2
 10
8969.2219502217067
 20
4804.9956862990921
 11
8985.01256994299
 21
4820.7825944230372
  0
LINE
  8
_0-0_通り芯
  6
CONTINUOUS
 62
    2
 10
8558.53370460304
 20
5548.2393419420396
 11
8562.8495499894434
 21
5552.5537026895063
  0
LINE
  8
_0-0_通り芯
  6
CONTINUOUS
 62
    2
 10
8320.5690950960743
 20
5539.4042556350296
 11
8336.984005489865
 21
5555.815454431483
  0
LINE
  8
_0-0_通り芯
  6
CONTINUOUS
 62
    2
 10
8314.7641568570525
 20
5537.8431577940246
 11
8333.6405986064183
 21
5556.71477446685
  0
LINE
  8
_0-0_通り芯
  6
CONTINUOUS
 62
    2
 10
8297.4948367557008
 20
5550.2721838048992
 11
8310.2337811444268
 21
5563.0074165962842
  0
LINE
  8
_0-0_通り芯
  6
CONTINUOUS
 62
    2
 10
8303.1572496568842
 20
5534.7231890704179
 11
8326.9530425200592
 21
5558.5126722181176
  0
LINE
  8
_0-0_通り芯
  6
CONTINUOUS
 62
    2
 10
8297.4948367557008
 20
5533.3038742477838
 11
8323.6096356366143
 21
5559.4119922534846
  0
LINE
  8
_0-0_通り芯
  6
CONTINUOUS
 62
    2
 10
8308.9607032569693
 20
5536.2831734322217
 11
8330.2964494035059
 21
5557.6129810230159
  0
LINE
  8
_0-0_通り芯
  6
CONTINUOUS
 62
    2
 10
8297.4948367557008
 20
5541.7882146062075
 11
8316.9213372307859
 21
5561.2098900047504
  0
LINE
  8
_0-0_通り芯
  6
CONTINUOUS
 62
    2
 10
8555.1895554001258
 20
5549.1379196579401
 11
8557.0460963893584
 21
5550.9940894874371
  0
LINE
  8
_0-0_通り芯
  6
CONTINUOUS
 62
    2
 10
8355.3920436549834
 20
5548.766388764253
 11
8357.0474160684134
 21
5550.4210188582138
  0
LINE
  8
_0-0_通り芯
  6
CONTINUOUS
 62
    2
 10
8297.4948367557008
 20
5554.5141684042446
 11
8306.8896319415126
 21
5563.9067366316513
  0
LINE
  8
_0-0_通り芯
  6
CONTINUOUS
 62
    2
 10
8297.4948367557008
 20
5546.0301992055529
 11
8313.5771880278717
 21
5562.1084677206509
  0
LINE
  8
_0-0_通り芯
  6
CONTINUOUS
 62
    2
 10
8297.4948367557008
 20
5537.546230006863
 11
8320.2647441142308
 21
5560.3101988096496
  0
LINE
  8
_0-0_通り芯
  6
CONTINUOUS
 62
    2
 10
8568.5654098923133
 20
5545.5421241554059
 11
8580.2621377481009
 21
5557.2358827333192
  0
LINE
  8
_0-0_通り芯
  6
CONTINUOUS
 62
    2
 10
8976.0260504645285
 20
5053.5925375448696
 11
8984.8151129645285
 21
5062.3797442461992
  0
LINE
  8
_0-0_通り芯
  6
CONTINUOUS
 62
    2
 10
8975.1271015888942
 20
5056.9359444283155
 11
8986.3754684860633
 21
5068.1809708878809
  0
LINE
  8
_0-0_通り芯
  6
CONTINUOUS
 62
    2
 10
8970.1305492504234
 20
4780.4520065720017
 11
8990.40626319679
 21
4800.7225242820941
  0
LINE
  8
_0-0_通り芯
  6
CONTINUOUS
 62
    2
 10
8978.6167454075166
 20
4780.4520065720017
 11
8992.203418628591
 21
4794.0353393554687
  0
LINE
  8
_0-0_通り芯
  6
CONTINUOUS
 62
    2
 10
8974.37364732897
 20
4780.4520065720017
 11
8991.3044697529567
 21
4797.3783750791808
  0
LINE
  8
_0-0_通り芯
  6
CONTINUOUS
 62
    2
 10
8971.5313060863609
 20
5070.3095719620997
 11
8992.6131789748742
 21
5091.3858774546034
  0
LINE
  8
_0-0_通り芯
  6
CONTINUOUS
 62
    2
 10
8970.6323572107267
 20
5073.6526076858108
 11
8994.1735344964109
 21
5097.1874752560179
  0
LINE
  8
_0-0_通り芯
  6
CONTINUOUS
 62
    2
 10
8972.4309972814608
 20
5066.9665362383867
 11
8991.0543080922725
 21
5085.5850219726562
  0
LINE
  8
_0-0_通り芯
  6
CONTINUOUS
 62
    2
 10
8976.9249993401609
 20
5050.2495018211566
 11
8983.2562420819268
 21
5056.578888764253
  0
LINE
  8
_0-0_通り芯
  6
CONTINUOUS
 62
    2
 10
8978.72215477196
 20
5043.5623168945312
 11
8980.1370156777884
 21
5044.9764354808913
  0
LINE
  8
_0-0_通り芯
  6
CONTINUOUS
 62
    2
 10
8977.8239482157933
 20
5046.9060949377117
 11
8981.6958865603883
 21
5050.7772909628384
  0
LINE
  8
_0-0_通り芯
  6
CONTINUOUS
 62
    2
 10
8962.9834974134301
 20
4781.7907797323696
 11
8988.6083654455233
 21
4807.408966889253
  0
LINE
  8
_0-0_通り芯
  6
CONTINUOUS
 62
    2
 10
8975.4611453494508
 20
4828.2013351852829
 11
8981.4175167599242
 21
4834.1558507970867
  0
LINE
  8
_0-0_通り芯
  6
CONTINUOUS
 62
    2
 10
8972.3419189453125
 20
4816.5988819019221
 11
8983.2146721917234
 21
4827.4690370301942
  0
LINE
  8
_0-0_通り芯
  6
CONTINUOUS
 62
    2
 10
8973.9007898279142
 20
4822.3997373838683
 11
8982.315723316091
 21
4830.8120727539062
  0
LINE
  8
_0-0_通り芯
  6
CONTINUOUS
 62
    2
 10
8966.1027238175684
 20
4793.3932330157304
 11
8986.8097253747892
 21
4814.0954094964109
  0
LINE
  8
_0-0_通り芯
  6
CONTINUOUS
 62
    2
 10
8977.0200162320525
 20
4834.00219066723
 11
8980.51856788429
 21
4837.4996288402663
  0
LINE
  8
_0-0_通り芯
  6
CONTINUOUS
 62
    2
 10
8978.580371753591
 20
4839.8037884686446
 11
8979.6196190086575
 21
4840.8426645639784
  0
LINE
  8
_0-0_通り芯
  6
CONTINUOUS
 62
    2
 10
8297.4948367557008
 20
5562.9981376029355
 11
8300.2020758551535
 21
5565.7046343829179
  0
LINE
  8
_0-0_通り芯
  6
CONTINUOUS
 62
    2
 10
8995.5891377217067
 20
4780.4520065720017
 11
8995.7984718116568
 21
4780.6613406619517
  0
LINE
  8
_0-0_通り芯
  6
CONTINUOUS
 62
    2
 10
8965.887451171875
 20
4780.4520065720017
 11
8989.5073143211575
 21
4804.0659311655409
  0
LINE
  8
_0-0_通り芯
  6
CONTINUOUS
 62
    2
 10
8987.1029415646117
 20
4780.4520065720017
 11
8994.0013163798558
 21
4787.3488967483108
  0
LINE
  8
_0-0_通り芯
  6
CONTINUOUS
 62
    2
 10
8982.8598434860633
 20
4780.4520065720017
 11
8993.1023675042234
 21
4790.6919324720238
  0
LINE
  8
_0-0_通り芯
  6
CONTINUOUS
 62
    2
 10
8991.3467819626258
 20
4780.4520065720017
 11
8994.90026525549
 21
4784.0058610245997
  0
LINE
  8
_0-0_通り芯
  6
CONTINUOUS
 62
    2
 10
9757.2022309174408
 20
3956.0999277475721
 11
9767.3831424197633
 21
3966.2778699720225
  0
LINE
  8
_0-0_通り芯
  6
CONTINUOUS
 62
    2
 10
9750.9110734269434
 20
3979.5026624524912
 11
9775.4729399809967
 21
4004.0582192910688
  0
LINE
  8
_0-0_通り芯
  6
CONTINUOUS
 62
    2
 10
9750.0121245513092
 20
3982.8456981762038
 11
9771.2298419024501
 21
4004.0582192910688
  0
LINE
  8
_0-0_通り芯
  6
CONTINUOUS
 62
    2
 10
9754.5061266100092
 20
3966.1297772381758
 11
9772.0627243454383
 21
3983.6815498970655
  0
LINE
  8
_0-0_通り芯
  6
CONTINUOUS
 62
    2
 10
9756.3040243612759
 20
3959.4437057907517
 11
9768.9434979413018
 21
3972.0794677734375
  0
LINE
  8
_0-0_通り芯
  6
CONTINUOUS
 62
    2
 10
9758.1011797930751
 20
3952.75689202386
 11
9765.8242715371634
 21
3960.47738564981
  0
LINE
  8
_0-0_通り芯
  6
CONTINUOUS
 62
    2
 10
9760.9249630489867
 20
3942.2556696711358
 11
7771.2749584301109
 21
3942.2556696711358
  0
LINE
  8
_0-0_通り芯
  6
CONTINUOUS
 62
    2
 10
9777.5410420185817
 20
4004.0582192910688
 11
9760.9249630489867
 21
3942.2556696711358
  0
LINE
  8
_0-0_通り芯
  6
CONTINUOUS
 62
    2
 10
9744.3088840793916
 20
4004.0582192910688
 11
9760.9249630489867
 21
3942.2556696711358
  0
LINE
  8
_0-0_通り芯
  6
CONTINUOUS
 62
    2
 10
9751.8100223025758
 20
3976.1596267287796
 11
9776.7415639516475
 21
4001.0848586623733
  0
LINE
  8
_0-0_通り芯
  6
CONTINUOUS
 62
    2
 10
9753.607177734375
 20
3969.4724418021538
 11
9773.6223375475092
 21
3989.4827765387463
  0
LINE
  8
_0-0_通り芯
  6
CONTINUOUS
 62
    2
 10
9752.70897117821
 20
3972.8165910050679
 11
9775.1812084301109
 21
3995.2836320206929
  0
LINE
  8
_0-0_通り芯
  6
CONTINUOUS
 62
    2
 10
9755.4050754856416
 20
3962.7867415144642
 11
9770.5031111433709
 21
3977.8806944151188
  0
LINE
  8
_0-0_通り芯
  6
CONTINUOUS
 62
    2
 10
9760.7980264199759
 20
3942.7266713735216
 11
9761.1446896114867
 21
3943.0737057247679
  0
LINE
  8
_0-0_通り芯
  6
CONTINUOUS
 62
    2
 10
9759.8998198638092
 20
3946.0708205764358
 11
9762.7050451330233
 21
3948.875303526183
  0
LINE
  8
_0-0_通り芯
  6
CONTINUOUS
 62
    2
 10
9759.0008709881768
 20
3949.4138563001475
 11
9764.263916015625
 21
3954.6757878483954
  0
LINE
  8
_0-0_通り芯
  6
CONTINUOUS
 62
    2
 10
10004.091005067568
 20
4355.6979205157304
 11
10054.090675147805
 21
4355.6979205157304
  0
LINE
  8
_0-0_通り芯
  6
CONTINUOUS
 62
    2
 10
10004.091005067568
 20
4398.3857438370997
 11
10054.090675147805
 21
4398.3857438370997
  0
LINE
  8
_0-0_通り芯
  6
CONTINUOUS
 62
    2
 10
10029.090840107687
 20
4373.3851664775129
 11
10029.090840107687
 21
4423.3855788772171
  0
LINE
  8
_0-0_通り芯
  6
CONTINUOUS
 62
    2
 10
9749.1139179951442
 20
3986.1894762193838
 11
9766.9874861433709
 21
4004.0582192910688
  0
LINE
  8
_0-0_通り芯
  6
CONTINUOUS
 62
    2
 10
9748.2149691195118
 20
3989.5325119430954
 11
9762.7443880648243
 21
4004.0582192910688
  0
LINE
  8
_0-0_通り芯
  6
CONTINUOUS
 62
    2
 10
9744.6191736169767
 20
4002.9053971574117
 11
9745.7727380701017
 21
4004.0582192910688
  0
LINE
  8
_0-0_通り芯
  6
CONTINUOUS
 62
    2
 10
9746.4163290487759
 20
3996.2182122307859
 11
9754.2589342271967
 21
4004.0582192910688
  0
LINE
  8
_0-0_通り芯
  6
CONTINUOUS
 62
    2
 10
9745.5173801731416
 20
3999.5612479544975
 11
9750.0158361486483
 21
4004.0582192910688
  0
LINE
  8
_0-0_通り芯
  6
CONTINUOUS
 62
    2
 10
9747.3160202438758
 20
3992.8751765070733
 11
9758.5012899862759
 21
4004.0582192910688
  0
LINE
  8
_0-0_通り芯
  6
CONTINUOUS
 62
    2
 10
6078.2513592694258
 20
3399.4709324192359
 11
6078.6819045608108
 21
3399.9011065508871
  0
LINE
  8
_0-0_通り芯
  6
CONTINUOUS
 62
    2
 10
6522.5614805479308
 20
3398.2561266100088
 11
6524.7245994774075
 21
3400.4188743797513
  0
LINE
  8
_0-0_通り芯
  6
CONTINUOUS
 62
    2
 10
6081.5951373126063
 20
3398.5716123838683
 11
6084.4857293206296
 21
3401.4618332321584
  0
LINE
  8
_0-0_通り芯
  6
CONTINUOUS
 62
    2
 10
6560.0961221231
 20
6189.9281269795192
 11
6610.0957922033367
 21
6189.9281269795192
  0
LINE
  8
_0-0_通り芯
  6
CONTINUOUS
 62
    2
 10
6560.0961221231
 20
6232.6159503008876
 11
6610.0957922033367
 21
6232.6159503008876
  0
LINE
  8
_0-0_通り芯
  6
CONTINUOUS
 62
    2
 10
6585.0959571632184
 20
6207.6153729413008
 11
6585.0959571632184
 21
6257.6157853410059
  0
LINE
  8
_0-0_通り芯
  6
CONTINUOUS
 62
    2
 10
6493.541985589105
 20
3390.4539778425888
 11
6508.0053381017742
 21
3404.9136187579184
  0
LINE
  8
_0-0_通り芯
  6
CONTINUOUS
 62
    2
 10
6505.1496351087426
 20
3393.5743177259292
 11
6514.6936365076017
 21
3403.1157210066513
  0
LINE
  8
_0-0_通り芯
  6
CONTINUOUS
 62
    2
 10
6516.7572846283792
 20
3396.6953999287375
 11
6521.3811925939617
 21
3401.3178232553846
  0
LINE
  8
_0-0_通り芯
  6
CONTINUOUS
 62
    2
 10
6088.2830645587001
 20
3396.7737146326017
 11
6096.09375
 21
3404.5829154349663
  0
LINE
  8
_0-0_通り芯
  6
CONTINUOUS
 62
    2
 10
6084.9389153557859
 20
3397.672663508235
 11
6090.2899252401821
 21
3403.0221887536954
  0
LINE
  8
_0-0_通り芯
  6
CONTINUOUS
 62
    2
 10
6499.3461815086575
 20
3392.0143333641263
 11
6511.3494873046875
 21
3404.0150410420188
  0
LINE
  8
_0-0_通り芯
  6
CONTINUOUS
 62
    2
 10
8118.7198123416392
 20
5680.9883323875629
 11
8118.7198123416392
 21
5730.9883736275342
  0
LINE
  8
_0-0_通り芯
  6
CONTINUOUS
 62
    2
 10
6245.8752606366133
 20
3079.1983114706504
 11
6245.8752606366133
 21
3129.1983527106213
  0
LINE
  8
_0-0_通り芯
  6
CONTINUOUS
 62
    2
 10
4323.2522500527875
 20
3804.606257258235
 11
4373.2530336122254
 21
3804.606257258235
  0
LINE
  8
_0-0_通り芯
  6
CONTINUOUS
 62
    2
 10
4323.2522500527875
 20
3847.2940805796034
 11
4373.2530336122254
 21
3847.2940805796034
  0
LINE
  8
_0-0_通り芯
  6
CONTINUOUS
 62
    2
 10
9777.5410420185817
 20
4004.0582192910688
 11
9744.3088840793916
 21
4004.0582192910688
  0
LINE
  8
_0-0_通り芯
  6
CONTINUOUS
 62
    2
 10
6220.8746832770275
 20
3061.5108799290015
 11
6270.8750956767317
 21
3061.5108799290015
  0
LINE
  8
_0-0_通り芯
  6
CONTINUOUS
 62
    2
 10
6220.8746832770275
 20
3104.1987032503694
 11
6270.8750956767317
 21
3104.1987032503694
  0
LINE
  8
_0-0_通り芯
  6
CONTINUOUS
 62
    2
 10
9267.6254684860633
 20
4788.1004952095655
 11
9267.6254684860633
 21
4838.1005364495359
  0
LINE
  8
_0-0_通り芯
  6
CONTINUOUS
 62
    2
 10
8093.7192349820534
 20
5663.3007152660475
 11
8143.720389701225
 21
5663.3007152660475
  0
LINE
  8
_0-0_通り芯
  6
CONTINUOUS
 62
    2
 10
8093.7192349820534
 20
5705.9885385874159
 11
8143.720389701225
 21
5705.9885385874159
  0
LINE
  8
_0-0_通り芯
  6
CONTINUOUS
 62
    2
 10
4348.2528274123733
 20
3822.2938743797513
 11
4348.2528274123733
 21
3872.2942867794554
  0
LINE
  8
_0-0_通り芯
  6
CONTINUOUS
 62
    2
 10
9242.6248911264775
 20
4770.4128780880492
 11
9292.6253035261834
 21
4770.4128780880492
  0
LINE
  8
_0-0_通り芯
  6
CONTINUOUS
 62
    2
 10
9242.6248911264775
 20
4813.1007014094175
 11
9292.6253035261834
 21
4813.1007014094175
  0
LINE
  8
_0-0_通り芯
  6
CONTINUOUS
 62
    2
 10
6640.7342859216642
 20
4583.8828421927792
 11
6645.7917084565042
 21
4588.9384089289488
  0
LINE
  8
_0-0_通り芯
  6
CONTINUOUS
 62
    2
 10
6600.1071414432017
 20
4572.9603535420192
 11
6622.38489099451
 21
4595.2317933778504
  0
LINE
  8
_0-0_通り芯
  6
CONTINUOUS
 62
    2
 10
6594.3029455236492
 20
4571.399626860748
 11
6619.0407417915967
 21
4596.1307422534846
  0
LINE
  8
_0-0_通り芯
  6
CONTINUOUS
 62
    2
 10
6623.322440482475
 20
4579.2017756281675
 11
6635.76000316723
 21
4591.6356267155825
  0
LINE
  8
_0-0_通り芯
  6
CONTINUOUS
 62
    2
 10
6634.9308323215801
 20
4582.3228578309754
 11
6642.4483015730575
 21
4589.8381001240505
  0
LINE
  8
_0-0_通り芯
  6
CONTINUOUS
 62
    2
 10
6646.5377395217483
 20
4585.4428265545821
 11
6649.1351153399501
 21
4588.0398312130492
  0
LINE
  8
_0-0_通り芯
  6
CONTINUOUS
 62
    2
 10
5972.4548752243463
 20
4581.7709433065884
 11
5987.0132446289062
 21
4596.3248587943417
  0
LINE
  8
_0-0_通り芯
  6
CONTINUOUS
 62
    2
 10
5969.1110971811659
 20
4582.669521022488
 11
5981.2094198690884
 21
4594.7648744325379
  0
LINE
  8
_0-0_通り芯
  6
CONTINUOUS
 62
    2
 10
5975.7986532675259
 20
4580.8712521114867
 11
5992.817069388725
 21
4597.8859566353467
  0
LINE
  8
_0-0_通り芯
  6
CONTINUOUS
 62
    2
 10
6605.9113373627542
 20
4574.5207090635558
 11
6625.7282978779567
 21
4594.3328445022171
  0
LINE
  8
_0-0_通り芯
  6
CONTINUOUS
 62
    2
 10
6617.5182445629225
 20
4577.6406777871625
 11
6632.4158539643167
 21
4592.5345755912167
  0
LINE
  8
_0-0_通り芯
  6
CONTINUOUS
 62
    2
 10
6611.7147909628384
 20
4576.0806934253596
 11
6629.07244708087
 21
4593.43352446685
  0
LINE
  8
_0-0_通り芯
  6
CONTINUOUS
 62
    2
 10
6629.1266364020275
 20
4580.7617599899704
 11
6639.1041523701442
 21
4590.7370489996838
  0
LINE
  8
_0-0_通り芯
  6
CONTINUOUS
 62
    2
 10
6005.893397975613
 20
4572.7803410710512
 11
6014.4686724688563
 21
4581.3533886058913
  0
LINE
  8
_0-0_通り芯
  6
CONTINUOUS
 62
    2
 10
6002.5492487726988
 20
4573.6792899466855
 11
6014.4686724688563
 21
4585.595002045503
  0
LINE
  8
_0-0_通り芯
  6
CONTINUOUS
 62
    2
 10
6009.2371760187925
 20
4571.8813921954179
 11
6014.4686724688563
 21
4577.1110328468121
  0
LINE
  8
_0-0_通り芯
  6
CONTINUOUS
 62
    2
 10
6220.8746832770275
 20
4479.0729007205455
 11
6270.8750956767317
 21
4479.0729007205455
  0
LINE
  8
_0-0_通り芯
  6
CONTINUOUS
 62
    2
 10
6220.8746832770275
 20
4521.7603528821792
 11
6270.8750956767317
 21
4521.7603528821792
  0
LINE
  8
_0-0_通り芯
  6
CONTINUOUS
 62
    2
 10
6245.8752606366133
 20
4496.7597755225934
 11
6245.8752606366133
 21
4546.7605590820312
  0
LINE
  8
_0-0_通り芯
  6
CONTINUOUS
 62
    2
 10
5992.5179146431592
 20
4576.3765077333192
 11
6014.4686724688563
 21
4598.3213270032729
  0
LINE
  8
_0-0_通り芯
  6
CONTINUOUS
 62
    2
 10
5999.205841889253
 20
4574.5782388223188
 11
6014.4686724688563
 21
4589.8373578045821
  0
LINE
  8
_0-0_通り芯
  6
CONTINUOUS
 62
    2
 10
5995.8616926863388
 20
4575.4775588576858
 11
6014.4686724688563
 21
4594.0789712441938
  0
LINE
  8
_0-0_通り芯
  6
CONTINUOUS
 62
    2
 10
6012.5813252217067
 20
4570.9820721600508
 11
6014.4686724688563
 21
4572.8690482474667
  0
LINE
  8
_0-0_通り芯
  6
CONTINUOUS
 62
    2
 10
5989.173765440245
 20
4577.2750854492187
 11
6014.4686724688563
 21
4602.5633116026183
  0
LINE
  8
_0-0_通り芯
  6
CONTINUOUS
 62
    2
 10
5985.8303585567992
 20
4578.1744054845867
 11
6010.2285436681805
 21
4602.5666520402247
  0
LINE
  8
_0-0_通り芯
  6
CONTINUOUS
 62
    2
 10
6590.8622947899075
 20
4603.7068547429262
 11
6652.6663290487759
 21
4587.0907757733321
  0
LINE
  8
_0-0_通り芯
  6
CONTINUOUS
 62
    2
 10
6590.8622947899075
 20
4570.4750679634717
 11
6652.6663290487759
 21
4587.0907757733321
  0
LINE
  8
_0-0_通り芯
  6
CONTINUOUS
 62
    2
 10
6590.8622947899075
 20
4570.4750679634717
 11
6590.8622947899075
 21
4603.7068547429262
  0
LINE
  8
_0-0_通り芯
  6
CONTINUOUS
 62
    2
 10
6590.8622947899075
 20
4597.65435296136
 11
6595.6339243296034
 21
4602.4241267023863
  0
LINE
  8
_0-0_通り芯
  6
CONTINUOUS
 62
    2
 10
6590.8622947899075
 20
4601.8959664009717
 11
6592.2897751266901
 21
4603.3230755780196
  0
LINE
  8
_0-0_通り芯
  6
CONTINUOUS
 62
    2
 10
6014.4686724688563
 20
4570.4750679634717
 11
5952.6657516891901
 21
4587.0907757733321
  0
LINE
  8
_0-0_通り芯
  6
CONTINUOUS
 62
    2
 10
6220.8746832770275
 20
2472.7103156012463
 11
6270.8750956767317
 21
2472.7103156012463
  0
LINE
  8
_0-0_通り芯
  6
CONTINUOUS
 62
    2
 10
6220.8746832770275
 20
2515.3981389226142
 11
6270.8750956767317
 21
2515.3981389226142
  0
LINE
  8
_0-0_通り芯
  6
CONTINUOUS
 62
    2
 10
6245.8752606366133
 20
2490.3977471428948
 11
6245.8752606366133
 21
2540.3979739627325
  0
LINE
  8
_0-0_通り芯
  6
CONTINUOUS
 62
    2
 10
5952.6657516891901
 20
4587.0907757733321
 11
6590.8622947899075
 21
4587.0907757733321
  0
LINE
  8
_0-0_通り芯
  6
CONTINUOUS
 62
    2
 10
6014.4686724688563
 20
4570.4750679634717
 11
6014.4686724688563
 21
4603.7068547429262
  0
LINE
  8
_0-0_通り芯
  6
CONTINUOUS
 62
    2
 10
6014.4686724688563
 20
4603.7068547429262
 11
5952.6657516891901
 21
4587.0907757733321
  0
LINE
  8
_0-0_通り芯
  6
CONTINUOUS
 62
    2
 10
6590.8622947899075
 20
4580.6860434042446
 11
6609.0090365023225
 21
4598.8279600401183
  0
LINE
  8
_0-0_通り芯
  6
CONTINUOUS
 62
    2
 10
6652.3419354413008
 20
4587.0035532358534
 11
6652.4792645428633
 21
4587.1408823374159
  0
LINE
  8
_0-0_通り芯
  6
CONTINUOUS
 62
    2
 10
5959.0790207321588
 20
4585.3659964896542
 11
5963.7975744298992
 21
4590.0838078679262
  0
LINE
  8
_0-0_通り芯
  6
CONTINUOUS
 62
    2
 10
5965.7669479782526
 20
4583.5684698981213
 11
5975.4052239495359
 21
4593.2037765915329
  0
LINE
  8
_0-0_通り芯
  6
CONTINUOUS
 62
    2
 10
5982.4865805136196
 20
4579.0737255199538
 11
6004.4250900680963
 21
4601.0062965186871
  0
LINE
  8
_0-0_通り芯
  6
CONTINUOUS
 62
    2
 10
5979.1424313107054
 20
4579.9723032358534
 11
5998.6212653082775
 21
4599.4459409971496
  0
LINE
  8
_0-0_通り芯
  6
CONTINUOUS
 62
    2
 10
5955.7356138487121
 20
4586.2656876847559
 11
5957.9937496700804
 21
4588.5227100269221
  0
LINE
  8
_0-0_通り芯
  6
CONTINUOUS
 62
    2
 10
6590.8622947899075
 20
4593.4116260425471
 11
6598.9773312130492
 21
4601.5248066670192
  0
LINE
  8
_0-0_通り芯
  6
CONTINUOUS
 62
    2
 10
6590.8622947899075
 20
4584.92802800359
 11
6605.6656296188776
 21
4599.7269089157517
  0
LINE
  8
_0-0_通り芯
  6
CONTINUOUS
 62
    2
 10
6590.8622947899075
 20
4576.4440588048992
 11
6612.3531857052367
 21
4597.929011164485
  0
LINE
  8
_0-0_通り芯
  6
CONTINUOUS
 62
    2
 10
5962.4231699350721
 20
4584.46704761402
 11
5969.6017703494517
 21
4591.64379222973
  0
LINE
  8
_0-0_通り芯
  6
CONTINUOUS
 62
    2
 10
6590.8622947899075
 20
4572.2017030458192
 11
6615.6965925886825
 21
4597.029691129118
  0
LINE
  8
_0-0_通り芯
  6
CONTINUOUS
 62
    2
 10
6590.8622947899075
 20
4589.1700126029355
 11
6602.3214804159634
 21
4600.6262289511196
  0
LINE
  8
_0-0_通り芯
  6
CONTINUOUS
 62
    2
 10
4726.7474200274492
 20
4101.4460795634495
 11
4727.6489670212204
 21
4102.3479977169554
  0
LINE
  8
_0-0_通り芯
  6
CONTINUOUS
 62
    2
 10
4728.544946618983
 20
4094.7592657965588
 11
4736.1355343380492
 21
4102.3479977169554
  0
LINE
  8
_0-0_通り芯
  6
CONTINUOUS
 62
    2
 10
4730.3424732105159
 20
4088.0728231894009
 11
4744.6217304951442
 21
4102.3479977169554
  0
LINE
  8
_0-0_通り芯
  6
CONTINUOUS
 62
    2
 10
4731.2451336834883
 20
3898.0846920528929
 11
4749.9645748653929
 21
3916.7989369985216
  0
LINE
  8
_0-0_通り芯
  6
CONTINUOUS
 62
    2
 10
4732.8047468855575
 20
3903.8859186945733
 11
4749.0656259897596
 21
3920.1423438819679
  0
LINE
  8
_0-0_通り芯
  6
CONTINUOUS
 62
    2
 10
4727.6459977433497
 20
4098.1026726800046
 11
4731.8924362595017
 21
4102.3479977169554
  0
LINE
  8
_0-0_通り芯
  6
CONTINUOUS
 62
    2
 10
4747.5531500739025
 20
3880.4520065720017
 11
4757.155423550993
 21
3890.0524242504225
  0
LINE
  8
_0-0_通り芯
  6
CONTINUOUS
 62
    2
 10
4756.0389750712629
 20
3880.4520065720017
 11
4758.9533213022596
 21
3883.3652393237971
  0
LINE
  8
_0-0_通り芯
  6
CONTINUOUS
 62
    2
 10
4751.7962481524492
 20
3880.4520065720017
 11
4758.0543724266254
 21
3886.708646207243
  0
LINE
  8
_0-0_通り芯
  6
CONTINUOUS
 62
    2
 10
4729.4438954946154
 20
4091.4162300728467
 11
4740.3786324165967
 21
4102.3479977169554
  0
LINE
  8
_0-0_通り芯
  6
CONTINUOUS
 62
    2
 10
4743.310051995355
 20
3880.4520065720017
 11
4756.2564746753596
 21
3893.3954599741346
  0
LINE
  8
_0-0_通り芯
  6
CONTINUOUS
 62
    2
 10
4739.0665827570738
 20
3880.4520065720017
 11
4755.3578969594591
 21
3896.7388668575804
  0
LINE
  8
_0-0_通り芯
  6
CONTINUOUS
 62
    2
 10
4734.3643600876267
 20
3909.6871453362546
 11
4748.16704827386
 21
3923.4861219251475
  0
LINE
  8
_0-0_通り芯
  6
CONTINUOUS
 62
    2
 10
6135.0970706424205
 20
3384.1876880542654
 11
6139.4685899889146
 21
3388.5580939215588
  0
LINE
  8
_0-0_通り芯
  6
CONTINUOUS
 62
    2
 10
6138.4404775258663
 20
3383.2883680188979
 11
6139.4685899889146
 21
3384.3164804819471
  0
LINE
  8
_0-0_通り芯
  6
CONTINUOUS
 62
    2
 10
4728.1255361196154
 20
3886.4818676097975
 11
4751.7621014569258
 21
3910.1124943913642
  0
LINE
  8
_0-0_通り芯
  6
CONTINUOUS
 62
    2
 10
9747.2432729360225
 20
4980.4521715318833
 11
9771.1229478990717
 21
5004.3255367794554
  0
LINE
  8
_0-0_通り芯
  6
CONTINUOUS
 62
    2
 10
6131.7529214395063
 20
3385.0866369298988
 11
6139.4685899889146
 21
3392.8004496806379
  0
LINE
  8
_0-0_通り芯
  6
CONTINUOUS
 62
    2
 10
6128.4091433963267
 20
3385.9855858055325
 11
6139.4685899889146
 21
3397.0420631202492
  0
LINE
  8
_0-0_通り芯
  6
CONTINUOUS
 62
    2
 10
4730.5807577597134
 20
3880.4520065720017
 11
4753.5599992081934
 21
3903.4253094647383
  0
LINE
  8
_0-0_通り芯
  6
CONTINUOUS
 62
    2
 10
4735.9239732896958
 20
3915.488371977935
 11
4747.267728238493
 21
3926.82915764886
  0
LINE
  8
_0-0_通り芯
  6
CONTINUOUS
 62
    2
 10
4737.4835864917659
 20
3921.2895986196154
 11
4746.3691505225934
 21
3930.17293569204
  0
LINE
  8
_0-0_通り芯
  6
CONTINUOUS
 62
    2
 10
4729.6855204814192
 20
3892.2834654112125
 11
4750.8635237410263
 21
3913.45590127481
  0
LINE
  8
_0-0_通り芯
  6
CONTINUOUS
 62
    2
 10
4726.5659229175471
 20
3880.6806409681162
 11
4752.6614214922929
 21
3906.7690875079179
  0
LINE
  8
_0-0_通り芯
  6
CONTINUOUS
 62
    2
 10
4734.8234846785263
 20
3880.4520065720017
 11
4754.4589480838267
 21
3900.0822737410267
  0
LINE
  8
_0-0_通り芯
  6
CONTINUOUS
 62
    2
 10
4091.2247116501267
 20
6125.9234866580455
 11
4113.7819444811021
 21
6148.4747809332775
  0
LINE
  8
_0-0_通り芯
  6
CONTINUOUS
 62
    2
 10
4087.8809336069471
 20
6126.8228066934125
 11
4113.7819444811021
 21
6152.7171366923567
  0
LINE
  8
_0-0_通り芯
  6
CONTINUOUS
 62
    2
 10
4094.5688608530409
 20
6125.0245377824122
 11
4113.7819444811021
 21
6144.2327963339321
  0
LINE
  8
_0-0_通り芯
  6
CONTINUOUS
 62
    2
 10
4111.2892357078754
 20
6120.5290510847763
 11
4113.7819444811021
 21
6123.021759858003
  0
LINE
  8
_0-0_通り芯
  6
CONTINUOUS
 62
    2
 10
4740.6031840556379
 20
3932.8920519029775
 11
4744.5712527713267
 21
3936.8590071394642
  0
LINE
  8
_0-0_通り芯
  6
CONTINUOUS
 62
    2
 10
4742.1627972577071
 20
3938.6932785446579
 11
4743.6726750554262
 21
3940.2031563423775
  0
LINE
  8
_0-0_通り芯
  6
CONTINUOUS
 62
    2
 10
6629.1266364020275
 20
2758.2000732421875
 11
6639.1041523701442
 21
2768.1749910921662
  0
LINE
  8
_0-0_通り芯
  6
CONTINUOUS
 62
    2
 10
6623.322440482475
 20
2756.6395321407836
 11
6635.76000316723
 21
2769.0737543879327
  0
LINE
  8
_0-0_通り芯
  6
CONTINUOUS
 62
    2
 10
6634.9308323215801
 20
2759.7606143435919
 11
6642.4483015730575
 21
2767.275856636666
  0
LINE
  8
_0-0_通り芯
  6
CONTINUOUS
 62
    2
 10
4101.2571592588683
 20
6123.2266400311446
 11
4113.7819444811021
 21
6135.7480848157738
  0
LINE
  8
_0-0_通り芯
  6
CONTINUOUS
 62
    2
 10
4097.9126388962204
 20
6124.1252177470442
 11
4113.7819444811021
 21
6139.9904405748521
  0
LINE
  8
_0-0_通り芯
  6
CONTINUOUS
 62
    2
 10
4731.2414220861492
 20
4084.7290451462204
 11
4748.8644574139571
 21
4102.3479977169554
  0
LINE
  8
_0-0_通り芯
  6
CONTINUOUS
 62
    2
 10
4104.6013084617816
 20
6122.3273199957775
 11
4113.7819444811021
 21
6131.5057290566938
  0
LINE
  8
_0-0_通り芯
  6
CONTINUOUS
 62
    2
 10
4077.8484859982054
 20
6129.5196533203125
 11
4096.8808148358321
 21
6148.5471570813988
  0
LINE
  8
_0-0_通り芯
  6
CONTINUOUS
 62
    2
 10
4084.5367844040329
 20
6127.7221267287796
 11
4108.4892066749371
 21
6151.6682392842067
  0
LINE
  8
_0-0_通り芯
  6
CONTINUOUS
 62
    2
 10
4081.1930063608534
 20
6128.6210756044129
 11
4102.6850107553846
 21
6150.1075126029355
  0
LINE
  8
_0-0_通り芯
  6
CONTINUOUS
 62
    2
 10
4739.0435708535688
 20
3927.0911964210304
 11
4745.4702016469591
 21
3933.5159714157517
  0
LINE
  8
_0-0_通り芯
  6
CONTINUOUS
 62
    2
 10
4074.5047079550259
 20
6130.4186021959458
 11
4091.0766189162796
 21
6146.9864304001276
  0
LINE
  8
_0-0_通り芯
  6
CONTINUOUS
 62
    2
 10
4071.1605587521117
 20
6131.3182933910475
 11
4085.2724229967275
 21
6145.42607487859
  0
LINE
  8
_0-0_通り芯
  6
CONTINUOUS
 62
    2
 10
4067.8167807089321
 20
6132.2172422666808
 11
4079.4685982369092
 21
6143.8660905167872
  0
LINE
  8
_0-0_通り芯
  6
CONTINUOUS
 62
    2
 10
4064.4726315060179
 20
6133.1161911423151
 11
4073.6640311576225
 21
6142.3053638355159
  0
LINE
  8
_0-0_通り芯
  6
CONTINUOUS
 62
    2
 10
4107.9450865049621
 20
6121.4283711201442
 11
4113.7819444811021
 21
6127.2637444573484
  0
LINE
  8
_0-0_通り芯
  6
CONTINUOUS
 62
    2
 10
4057.7843331001905
 20
6134.9140888935817
 11
4062.0556393185179
 21
6139.1842816327071
  0
LINE
  8
_0-0_通り芯
  6
CONTINUOUS
 62
    2
 10
4054.4401838972767
 20
6135.8134089289488
 11
4056.2518145586992
 21
6137.6242972709042
  0
LINE
  8
_0-0_通り芯
  6
CONTINUOUS
 62
    2
 10
4061.1288534628384
 20
6134.0155111776821
 11
4067.8602063978037
 21
6140.7450083139784
  0
LINE
  8
_0-0_通り芯
  6
CONTINUOUS
 62
    2
 10
6012.5813252217067
 20
2748.4203854122679
 11
6014.4686724688563
 21
2750.3069903399496
  0
LINE
  8
_0-0_通り芯
  6
CONTINUOUS
 62
    2
 10
5989.173765440245
 20
2754.7130275417021
 11
6014.4686724688563
 21
2780.0012536951017
  0
LINE
  8
_0-0_通り芯
  6
CONTINUOUS
 62
    2
 10
5985.8303585567992
 20
2755.6125331569365
 11
6010.2285436681805
 21
2780.0044085528402
  0
LINE
  8
_0-0_通り芯
  6
CONTINUOUS
 62
    2
 10
6002.5492487726988
 20
2751.117046459301
 11
6014.4686724688563
 21
2763.0331297178527
  0
LINE
  8
_0-0_通り芯
  6
CONTINUOUS
 62
    2
 10
6009.2371760187925
 20
2749.3191487080344
 11
6014.4686724688563
 21
2754.5491605191619
  0
LINE
  8
_0-0_通り芯
  6
CONTINUOUS
 62
    2
 10
6465.8623772698484
 20
3413.6856079101562
 11
6467.8792592641475
 21
3415.7021187447217
  0
LINE
  8
_0-0_通り芯
  6
CONTINUOUS
 62
    2
 10
6465.8623772698484
 20
3383.9917157147383
 11
6491.2860767261409
 21
3409.4087342958196
  0
LINE
  8
_0-0_通り芯
  6
CONTINUOUS
 62
    2
 10
6465.8623772698484
 20
3388.23332915435
 11
6487.9419275232267
 21
3410.3076831714529
  0
LINE
  8
_0-0_通り芯
  6
CONTINUOUS
 62
    2
 10
6470.3266865498317
 20
3384.2125557564405
 11
6494.6302259290551
 21
3408.5097854201858
  0
LINE
  8
_0-0_通り芯
  6
CONTINUOUS
 62
    2
 10
5992.5179146431592
 20
2753.8142642459356
 11
6014.4686724688563
 21
2775.7592690957558
  0
LINE
  8
_0-0_通り芯
  6
CONTINUOUS
 62
    2
 10
5999.205841889253
 20
2752.0163664946685
 11
6014.4686724688563
 21
2767.2752998970655
  0
LINE
  8
_0-0_通り芯
  6
CONTINUOUS
 62
    2
 10
5995.8616926863388
 20
2752.915129790435
 11
6014.4686724688563
 21
2771.5172844964104
  0
LINE
  8
_0-0_通り芯
  6
CONTINUOUS
 62
    2
 10
6005.893397975613
 20
2750.2180975836682
 11
6014.4686724688563
 21
2758.7913306983742
  0
LINE
  8
_0-0_通り芯
  6
CONTINUOUS
 62
    2
 10
6115.033660063873
 20
3389.5817524678
 11
6139.4685899889146
 21
3414.010372677365
  0
LINE
  8
_0-0_通り芯
  6
CONTINUOUS
 62
    2
 10
6121.7215873099667
 20
3387.7838547165334
 11
6139.4685899889146
 21
3405.5264034786742
  0
LINE
  8
_0-0_通り芯
  6
CONTINUOUS
 62
    2
 10
6118.3778092667872
 20
3388.6828035921662
 11
6139.4685899889146
 21
3409.7683880780196
  0
LINE
  8
_0-0_通り芯
  6
CONTINUOUS
 62
    2
 10
6510.9538310282942
 20
3395.1350444072004
 11
6518.0370433910475
 21
3402.2171432907521
  0
LINE
  8
_0-0_通り芯
  6
CONTINUOUS
 62
    2
 10
6111.6898820206934
 20
3390.4807013434338
 11
6136.7208944784634
 21
3415.5050329259925
  0
LINE
  8
_0-0_通り芯
  6
CONTINUOUS
 62
    2
 10
6108.3457328177792
 20
3391.3796502190667
 11
6130.9170697186446
 21
3413.9450485641896
  0
LINE
  8
_0-0_通り芯
  6
CONTINUOUS
 62
    2
 10
6105.0023259343325
 20
3392.2785990947004
 11
6125.1132449588267
 21
3412.3846930426525
  0
LINE
  8
_0-0_通り芯
  6
CONTINUOUS
 62
    2
 10
6101.6581767314192
 20
3393.1779191300675
 11
6119.3090490392742
 21
3410.8239663613813
  0
LINE
  8
_0-0_通り芯
  6
CONTINUOUS
 62
    2
 10
6487.7377896695525
 20
3388.8936223210517
 11
6504.66118889886
 21
3405.8129387932854
  0
LINE
  8
_0-0_通り芯
  6
CONTINUOUS
 62
    2
 10
6094.9702494853254
 20
3394.9758168813346
 11
6107.7013995196376
 21
3407.7032553183067
  0
LINE
  8
_0-0_通り芯
  6
CONTINUOUS
 62
    2
 10
6091.6268426018796
 20
3395.8747657569679
 11
6101.897203600085
 21
3406.1425286370354
  0
LINE
  8
_0-0_通り芯
  6
CONTINUOUS
 62
    2
 10
6098.3143986882387
 20
3394.0764968459671
 11
6113.5052242794554
 21
3409.2636108398437
  0
LINE
  8
_0-0_通り芯
  6
CONTINUOUS
 62
    2
 10
9759.9725671716642
 20
4980.4521715318833
 11
9773.8190522065033
 21
4994.2949449693833
  0
LINE
  8
_0-0_通り芯
  6
CONTINUOUS
 62
    2
 10
9755.7294690931176
 20
4980.4521715318833
 11
9772.9201033308709
 21
4997.6387230125629
  0
LINE
  8
_0-0_通り芯
  6
CONTINUOUS
 62
    2
 10
9764.2164075696801
 20
4980.4521715318833
 11
9774.7180010821376
 21
4990.9519092456721
  0
LINE
  8
_0-0_通り芯
  6
CONTINUOUS
 62
    2
 10
9760.3867814347559
 20
5040.2541701858108
 11
9761.2352525865717
 21
5041.1026413376267
  0
LINE
  8
_0-0_通り芯
  6
CONTINUOUS
 62
    2
 10
9757.2675550306176
 20
5028.6517169024492
 11
9763.0324080183709
 21
5034.4154564110004
  0
LINE
  8
_0-0_通り芯
  6
CONTINUOUS
 62
    2
 10
9758.8271682326867
 20
5034.4533147038637
 11
9762.1342014622041
 21
5037.7592344541808
  0
LINE
  8
_0-0_通り芯
  6
CONTINUOUS
 62
    2
 10
9747.9098758182008
 20
4993.8447282120997
 11
9768.4261012721727
 21
5014.3550151103254
  0
LINE
  8
_0-0_通り芯
  6
CONTINUOUS
 62
    2
 10
9744.789907094595
 20
4982.2411614495359
 11
9770.2239990234375
 21
5007.6685725031675
  0
LINE
  8
_0-0_通り芯
  6
CONTINUOUS
 62
    2
 10
9751.4871133340384
 20
4980.4521715318833
 11
9772.0211544552367
 21
5000.9817587362759
  0
LINE
  8
_0-0_通り芯
  6
CONTINUOUS
 62
    2
 10
9772.7026037267733
 20
4980.4521715318833
 11
9776.5151565139367
 21
4984.2643531593121
  0
LINE
  8
_0-0_通り芯
  6
CONTINUOUS
 62
    2
 10
9768.4587633287592
 20
4980.4521715318833
 11
9775.6176922772393
 21
4987.6088735219591
  0
LINE
  8
_0-0_通り芯
  6
CONTINUOUS
 62
    2
 10
9746.3495202966642
 20
4988.0427592509504
 11
9769.3250501478051
 21
5011.0119793866133
  0
LINE
  8
_0-0_通り芯
  6
CONTINUOUS
 62
    2
 10
9751.029102222341
 20
5005.446439175993
 11
9766.6289458403717
 21
5021.0425711966855
  0
LINE
  8
_0-0_通り芯
  6
CONTINUOUS
 62
    2
 10
6465.8623772698484
 20
3409.4436233108108
 11
6471.2234084670608
 21
3414.8031698690879
  0
LINE
  8
_0-0_通り芯
  6
CONTINUOUS
 62
    2
 10
6465.8623772698484
 20
3400.95965411212
 11
6477.9109645534209
 21
3413.0049009580871
  0
LINE
  8
_0-0_通り芯
  6
CONTINUOUS
 62
    2
 10
6465.8623772698484
 20
3392.4756849134292
 11
6484.5985206397809
 21
3411.2070032068204
  0
LINE
  8
_0-0_通り芯
  6
CONTINUOUS
 62
    2
 10
6481.9343360694684
 20
3387.3328956397804
 11
6501.3177820154142
 21
3406.7118876689192
  0
LINE
  8
_0-0_通り芯
  6
CONTINUOUS
 62
    2
 10
6476.1308824693833
 20
3385.7729112779775
 11
6497.9743751319684
 21
3407.6108365445525
  0
LINE
  8
_0-0_通り芯
  6
CONTINUOUS
 62
    2
 10
6465.8623772698484
 20
3405.2016387114654
 11
6474.5668153505067
 21
3413.9038498337209
  0
LINE
  8
_0-0_通り芯
  6
CONTINUOUS
 62
    2
 10
9755.7071995090791
 20
5022.8497479413008
 11
9763.9313568940033
 21
5031.0720495275555
  0
LINE
  8
_0-0_通り芯
  6
CONTINUOUS
 62
    2
 10
9752.5879731049408
 20
5011.2472946579392
 11
9765.7299969647393
 21
5024.3856069203966
  0
LINE
  8
_0-0_通り芯
  6
CONTINUOUS
 62
    2
 10
9749.4687467008025
 20
4999.6452125343121
 11
9767.5271523965384
 21
5017.6980508340375
  0
LINE
  8
_0-0_通り芯
  6
CONTINUOUS
 62
    2
 10
6465.8623772698484
 20
3396.7172983530409
 11
6481.2543714368676
 21
3412.1059520824538
  0
LINE
  8
_0-0_通り芯
  6
CONTINUOUS
 62
    2
 10
6125.0649941934125
 20
3386.8845346811659
 11
6139.4685899889146
 21
3401.2844188793288
  0
LINE
  8
_0-0_通り芯
  6
CONTINUOUS
 62
    2
 10
9754.1483286264775
 20
5017.0492636190884
 11
9764.8303057696376
 21
5027.7286426441096
  0
ARC
  8
_0-0_通り芯
  6
CONTINUOUS
 62
    3
 10
5947.6729109480575
 20
4229.2927922429262
 40
30.000003286310143
 50
246.83929443359375
 51
270
  0
ARC
  8
_0-0_通り芯
  6
CONTINUOUS
 62
    3
 10
8225.0756341057859
 20
5041.1943177919129
 40
299.99999226750555
 50
293.16021728515625
 51
336.50137329101562
  0
ARC
  8
_0-0_通り芯
  6
CONTINUOUS
 62
    3
 10
6657.6591697899075
 20
4229.2927922429262
 40
30.000003286310143
 50
270
 51
293.16070556640625
  0
ARC
  8
_0-0_通り芯
  6
CONTINUOUS
 62
    3
 10
6682.6664280247051
 20
4022.4592054212412
 40
30.000003286310143
 50
113.16070556640624
 51
180
  0
ARC
  8
_0-0_通り芯
  6
CONTINUOUS
 62
    3
 10
5922.6660238729946
 20
4022.4592054212412
 40
30.000003286310143
 50
0
 51
66.839294433593764
  0
ARC
  8
_0-0_通り芯
  6
CONTINUOUS
 62
    3
 10
4380.2557043127117
 20
5041.1943177919129
 40
299.99999226750555
 50
203.49862670898437
 51
246.83978271484375
  0
ARC
  8
_0-0_通り芯
  6
CONTINUOUS
 62
    3
 10
4083.1694319441517
 20
5022.255521207243
 40
20.000000257749818
 50
90
 51
203.4992370605469
  0
ARC
  8
_0-0_通り芯
  6
CONTINUOUS
 62
    3
 10
4380.2557043127117
 20
5041.1943177919129
 40
160.00000206199854
 50
203.49862670898437
 51
246.83978271484375
  0
ARC
  8
_0-0_通り芯
  6
CONTINUOUS
 62
    3
 10
8522.1622776340791
 20
5022.255521207243
 40
20.000000257749818
 50
336.50077819824213
 51
90.000015258789034
  0
ARC
  8
_0-0_通り芯
  6
CONTINUOUS
 62
    3
 10
8225.0756341057859
 20
5041.1943177919129
 40
160.00000206199854
 50
293.16021728515625
 51
336.50137329101562
  0
TEXT
  8
_0-0_通り芯
 62
    6
 10
5840.5998947555963
 20
6143.520169644743
 40
150
 41
1
 50
0
  1
A 450mm
  0
TEXT
  8
_0-0_通り芯
 62
    6
 10
6068.5890074033996
 20
3162.8439825934338
 40
150
 41
1
 50
0
  1
E φ45
  0
TEXT
  8
_0-0_通り芯
 62
    3
 10
7950.6678153373095
 20
5637.19853581609
 40
105
 41
1
 50
0
  1
 (  3mm )
  0
TEXT
  8
_0-0_通り芯
 62
    3
 10
6417.794346165012
 20
6163.8259475295608
 40
105
 41
1
 50
0
  1
 (  10mm )
  0
TEXT
  8
_0-0_通り芯
 62
    6
 10
6105.0745659905506
 20
2579.0720759211358
 40
150
 41
1
 50
0
  1
F 70mm
  0
TEXT
  8
_0-0_通り芯
 62
    6
 10
9027.5059550517308
 20
4868.2505839579817
 40
150
 41
1
 50
0
  1
C 20mm
  0
TEXT
  8
_0-0_通り芯
 62
    6
 10
4166.0410989297407
 20
3916.83159905511
 40
150
 41
1
 50
0
  1
G 10mm
  0
TEXT
  8
_0-0_通り芯
 62
    6
 10
7741.80352948163
 20
5751.0473302892742
 40
150
 41
1
 50
0
  1
B 13～14mm
  0
TEXT
  8
_0-0_通り芯
 62
    3
 10
6077.8230780524182
 20
2446.6081361512884
 40
105
 41
1
 50
0
  1
 (  5mm )
  0
TEXT
  8
_0-0_通り芯
 62
    3
 10
9861.7888579497467
 20
4329.5957410657729
 40
105
 41
1
 50
0
  1
 (  10mm )
  0
TEXT
  8
_0-0_通り芯
 62
    3
 10
6077.8230780524182
 20
4452.9703501108534
 40
105
 41
1
 50
0
  1
 (  2mm )
  0
TEXT
  8
_0-0_通り芯
 62
    6
 10
6143.2557232830977
 20
4629.9467344541808
 40
150
 41
1
 50
0
  1
φ70
  0
TEXT
  8
_0-0_通り芯
 62
    3
 10
4180.2008304080455
 20
3778.5040778082775
 40
105
 41
1
 50
0
  1
 (  3mm )
  0
TEXT
  8
_0-0_通り芯
 62
    3
 10
9099.5731003220008
 20
4744.3106986380917
 40
105
 41
1
 50
0
  1
 (  3mm )
  0
TEXT
  8
_0-0_通り芯
 62
    6
 10
9825.197095716323
 20
4465.916772790858
 40
150
 41
1
 50
0
  1
D 110mm
  0
TEXT
  8
_0-0_通り芯
 62
    3
 10
6077.8230780524182
 20
3035.4087004790435
 40
105
 41
1
 50
0
  1
 (  2mm )
  0
ENDSEC
  0
EOF
